  0
SECTION
  2
HEADER
  9
$ACADVER
  1
AC1015
  9
$ACADMAINTVER
 70
    20
  9
$DWGCODEPAGE
  3
ANSI_932
  9
$INSBASE
 10
0.0
 20
0.0
 30
0.0
  9
$EXTMIN
 10
51.12920426396249
 20
24.56278155893187
 30
-0.0015258207003583
  9
$EXTMAX
 10
825.1517129664531
 20
518.6646416538342
 30
0.0000000349246037
  9
$LIMMIN
 10
-204.2113761901855
 20
-268.493673324585
  9
$LIMMAX
 10
596.6313972473145
 20
345.3363742828368
  9
$ORTHOMODE
 70
     1
  9
$REGENMODE
 70
     1
  9
$FILLMODE
 70
     1
  9
$QTEXTMODE
 70
     0
  9
$MIRRTEXT
 70
     1
  9
$LTSCALE
 40
0.3544425471748893
  9
$ATTMODE
 70
     1
  9
$TEXTSIZE
 40
2.5
  9
$TRACEWID
 40
1.0
  9
$TEXTSTYLE
  7
Standard
  9
$CLAYER
  8
0
  9
$CELTYPE
  6
ByLayer
  9
$CECOLOR
 62
   256
  9
$CELTSCALE
 40
1.0
  9
$DISPSILH
 70
     0
  9
$DIMSCALE
 40
1.0
  9
$DIMASZ
 40
2.5
  9
$DIMEXO
 40
0.625
  9
$DIMDLI
 40
3.75
  9
$DIMRND
 40
0.0
  9
$DIMDLE
 40
0.0
  9
$DIMEXE
 40
1.25
  9
$DIMTP
 40
0.0
  9
$DIMTM
 40
0.0
  9
$DIMTXT
 40
2.5
  9
$DIMCEN
 40
2.5
  9
$DIMTSZ
 40
0.0
  9
$DIMTOL
 70
     0
  9
$DIMLIM
 70
     0
  9
$DIMTIH
 70
     0
  9
$DIMTOH
 70
     0
  9
$DIMSE1
 70
     0
  9
$DIMSE2
 70
     0
  9
$DIMTAD
 70
     1
  9
$DIMZIN
 70
     0
  9
$DIMBLK
  1

  9
$DIMASO
 70
     1
  9
$DIMSHO
 70
     1
  9
$DIMPOST
  1

  9
$DIMAPOST
  1

  9
$DIMALT
 70
     0
  9
$DIMALTD
 70
     3
  9
$DIMALTF
 40
0.03937007874016
  9
$DIMLFAC
 40
1.0
  9
$DIMTOFL
 70
     1
  9
$DIMTVP
 40
0.0
  9
$DIMTIX
 70
     0
  9
$DIMSOXD
 70
     0
  9
$DIMSAH
 70
     0
  9
$DIMBLK1
  1

  9
$DIMBLK2
  1

  9
$DIMSTYLE
  2
Standard
  9
$DIMCLRD
 70
     0
  9
$DIMCLRE
 70
     0
  9
$DIMCLRT
 70
     0
  9
$DIMTFAC
 40
0.75
  9
$DIMGAP
 40
0.625
  9
$DIMJUST
 70
     0
  9
$DIMSD1
 70
     0
  9
$DIMSD2
 70
     0
  9
$DIMTOLJ
 70
     0
  9
$DIMTZIN
 70
     8
  9
$DIMALTZ
 70
     0
  9
$DIMALTTZ
 70
     0
  9
$DIMUPT
 70
     0
  9
$DIMDEC
 70
     2
  9
$DIMTDEC
 70
     2
  9
$DIMALTU
 70
     2
  9
$DIMALTTD
 70
     3
  9
$DIMTXSTY
  7
Standard
  9
$DIMAUNIT
 70
     0
  9
$DIMADEC
 70
     0
  9
$DIMALTRND
 40
0.0
  9
$DIMAZIN
 70
     0
  9
$DIMDSEP
 70
    46
  9
$DIMATFIT
 70
     3
  9
$DIMFRAC
 70
     0
  9
$DIMLDRBLK
  1

  9
$DIMLUNIT
 70
     2
  9
$DIMLWD
 70
    -2
  9
$DIMLWE
 70
    -2
  9
$DIMTMOVE
 70
     0
  9
$LUNITS
 70
     2
  9
$LUPREC
 70
     4
  9
$SKETCHINC
 40
1.0
  9
$FILLETRAD
 40
0.0
  9
$AUNITS
 70
     0
  9
$AUPREC
 70
     0
  9
$MENU
  1
.
  9
$ELEVATION
 40
0.0
  9
$PELEVATION
 40
0.0
  9
$THICKNESS
 40
0.0
  9
$LIMCHECK
 70
     0
  9
$CHAMFERA
 40
10.0
  9
$CHAMFERB
 40
10.0
  9
$CHAMFERC
 40
20.0
  9
$CHAMFERD
 40
0.0
  9
$SKPOLY
 70
     0
  9
$TDCREATE
 40
2455188.750000000
  9
$TDUCREATE
 40
2455188.375000000
  9
$TDUPDATE
 40
2459753.398934954
  9
$TDUUPDATE
 40
2459753.023934954
  9
$TDINDWG
 40
0.0078495718
  9
$TDUSRTIMER
 40
0.0078493519
  9
$USRTIMER
 70
     1
  9
$ANGBASE
 50
0.0
  9
$ANGDIR
 70
     0
  9
$PDMODE
 70
     0
  9
$PDSIZE
 40
0.0
  9
$PLINEWID
 40
0.0
  9
$SPLFRAME
 70
     0
  9
$SPLINETYPE
 70
     6
  9
$SPLINESEGS
 70
     8
  9
$HANDSEED
  5
62E
  9
$SURFTAB1
 70
     6
  9
$SURFTAB2
 70
     6
  9
$SURFTYPE
 70
     6
  9
$SURFU
 70
     6
  9
$SURFV
 70
     6
  9
$UCSBASE
  2

  9
$UCSNAME
  2

  9
$UCSORG
 10
0.0
 20
0.0
 30
0.0
  9
$UCSXDIR
 10
1.0
 20
0.0
 30
0.0
  9
$UCSYDIR
 10
0.0
 20
1.0
 30
0.0
  9
$UCSORTHOREF
  2

  9
$UCSORTHOVIEW
 70
     0
  9
$UCSORGTOP
 10
0.0
 20
0.0
 30
0.0
  9
$UCSORGBOTTOM
 10
0.0
 20
0.0
 30
0.0
  9
$UCSORGLEFT
 10
0.0
 20
0.0
 30
0.0
  9
$UCSORGRIGHT
 10
0.0
 20
0.0
 30
0.0
  9
$UCSORGFRONT
 10
0.0
 20
0.0
 30
0.0
  9
$UCSORGBACK
 10
0.0
 20
0.0
 30
0.0
  9
$PUCSBASE
  2

  9
$PUCSNAME
  2

  9
$PUCSORG
 10
0.0
 20
0.0
 30
0.0
  9
$PUCSXDIR
 10
1.0
 20
0.0
 30
0.0
  9
$PUCSYDIR
 10
0.0
 20
1.0
 30
0.0
  9
$PUCSORTHOREF
  2

  9
$PUCSORTHOVIEW
 70
     0
  9
$PUCSORGTOP
 10
0.0
 20
0.0
 30
0.0
  9
$PUCSORGBOTTOM
 10
0.0
 20
0.0
 30
0.0
  9
$PUCSORGLEFT
 10
0.0
 20
0.0
 30
0.0
  9
$PUCSORGRIGHT
 10
0.0
 20
0.0
 30
0.0
  9
$PUCSORGFRONT
 10
0.0
 20
0.0
 30
0.0
  9
$PUCSORGBACK
 10
0.0
 20
0.0
 30
0.0
  9
$USERI1
 70
     0
  9
$USERI2
 70
     0
  9
$USERI3
 70
     0
  9
$USERI4
 70
     0
  9
$USERI5
 70
     0
  9
$USERR1
 40
0.0
  9
$USERR2
 40
0.0
  9
$USERR3
 40
0.0
  9
$USERR4
 40
0.0
  9
$USERR5
 40
0.0
  9
$WORLDVIEW
 70
     1
  9
$SHADEDGE
 70
     3
  9
$SHADEDIF
 70
    70
  9
$TILEMODE
 70
     1
  9
$MAXACTVP
 70
    64
  9
$PINSBASE
 10
0.0
 20
0.0
 30
0.0
  9
$PLIMCHECK
 70
     0
  9
$PEXTMIN
 10
1.000000000000000E+20
 20
1.000000000000000E+20
 30
1.000000000000000E+20
  9
$PEXTMAX
 10
-1.000000000000000E+20
 20
-1.000000000000000E+20
 30
-1.000000000000000E+20
  9
$PLIMMIN
 10
0.0
 20
0.0
  9
$PLIMMAX
 10
420.0
 20
297.0
  9
$UNITMODE
 70
     0
  9
$VISRETAIN
 70
     1
  9
$PLINEGEN
 70
     0
  9
$PSLTSCALE
 70
     1
  9
$TREEDEPTH
 70
  3020
  9
$CMLSTYLE
  2
Standard
  9
$CMLJUST
 70
     0
  9
$CMLSCALE
 40
20.0
  9
$PROXYGRAPHICS
 70
     1
  9
$MEASUREMENT
 70
     1
  9
$CELWEIGHT
370
    -1
  9
$ENDCAPS
280
     0
  9
$JOINSTYLE
280
     0
  9
$LWDISPLAY
290
     0
  9
$INSUNITS
 70
     4
  9
$HYPERLINKBASE
  1

  9
$STYLESHEET
  1

  9
$XEDIT
290
     1
  9
$CEPSNTYPE
380
     0
  9
$PSTYLEMODE
290
     1
  9
$FINGERPRINTGUID
  2
{A910115B-56A5-4225-8AE5-F20D9894397C}
  9
$VERSIONGUID
  2
{2E53F20F-3652-419A-AA9D-5BDC283FFB77}
  9
$EXTNAMES
290
     1
  9
$PSVPSCALE
 40
0.0
  9
$OLESTARTUP
290
     0
  0
ENDSEC
  0
SECTION
  2
CLASSES
  0
CLASS
  1
ACDBDICTIONARYWDFLT
  2
AcDbDictionaryWithDefault
  3
ObjectDBX Classes
 90
        0
280
     0
281
     0
  0
CLASS
  1
VISUALSTYLE
  2
AcDbVisualStyle
  3
ObjectDBX Classes
 90
     4095
280
     0
281
     0
  0
CLASS
  1
MATERIAL
  2
AcDbMaterial
  3
ObjectDBX Classes
 90
     1153
280
     0
281
     0
  0
CLASS
  1
SCALE
  2
AcDbScale
  3
ObjectDBX Classes
 90
     1153
280
     0
281
     0
  0
CLASS
  1
TABLESTYLE
  2
AcDbTableStyle
  3
ObjectDBX Classes
 90
     4095
280
     0
281
     0
  0
CLASS
  1
MLEADERSTYLE
  2
AcDbMLeaderStyle
  3
ACDB_MLEADERSTYLE_CLASS
 90
     4095
280
     0
281
     0
  0
CLASS
  1
SUN
  2
AcDbSun
  3
SCENEOE
 90
    33921
280
     0
281
     0
  0
CLASS
  1
DICTIONARYVAR
  2
AcDbDictionaryVar
  3
ObjectDBX Classes
 90
        0
280
     0
281
     0
  0
CLASS
  1
ACDBSECTIONVIEWSTYLE
  2
AcDbSectionViewStyle
  3
ObjectDBX Classes
 90
     1025
280
     0
281
     0
  0
CLASS
  1
ACDBDETAILVIEWSTYLE
  2
AcDbDetailViewStyle
  3
ObjectDBX Classes
 90
     1025
280
     0
281
     0
  0
CLASS
  1
SORTENTSTABLE
  2
AcDbSortentsTable
  3
ObjectDBX Classes
 90
        0
280
     0
281
     0
  0
CLASS
  1
CELLSTYLEMAP
  2
AcDbCellStyleMap
  3
ObjectDBX Classes
 90
     1152
280
     0
281
     0
  0
CLASS
  1
ACDBPLACEHOLDER
  2
AcDbPlaceHolder
  3
ObjectDBX Classes
 90
        0
280
     0
281
     0
  0
CLASS
  1
LAYOUT
  2
AcDbLayout
  3
ObjectDBX Classes
 90
        0
280
     0
281
     0
  0
ENDSEC
  0
SECTION
  2
TABLES
  0
TABLE
  2
VPORT
  5
8
330
0
100
AcDbSymbolTable
 70
     1
  0
VPORT
  5
29
330
8
100
AcDbSymbolTableRecord
100
AcDbViewportTableRecord
  2
*Active
 70
     0
 10
0.0
 20
0.0
 11
1.0
 21
1.0
 12
438.1404586152076
 22
271.613711606383
 13
0.0
 23
0.0
 14
10.0
 24
10.0
 15
10.0
 25
10.0
 16
0.0
 26
0.0
 36
1.0
 17
0.0
 27
0.0
 37
0.0
 40
497.6395822435531
 41
1.918757467144564
 42
50.0
 43
0.0
 44
0.0
 50
0.0
 51
0.0
 71
     0
 72
 20000
 73
     1
 74
     3
 75
     0
 76
     0
 77
     0
 78
     0
281
     0
 65
     1
110
0.0
120
0.0
130
0.0
111
1.0
121
0.0
131
0.0
112
0.0
122
1.0
132
0.0
 79
     0
146
0.0
1001
ACAD_NAV_VCDISPLAY
1070
     3
  0
ENDTAB
  0
TABLE
  2
LTYPE
  5
5
330
0
100
AcDbSymbolTable
 70
     2
  0
LTYPE
  5
14
330
5
100
AcDbSymbolTableRecord
100
AcDbLinetypeTableRecord
  2
ByBlock
 70
     0
  3

 72
    65
 73
     0
 40
0.0
  0
LTYPE
  5
15
330
5
100
AcDbSymbolTableRecord
100
AcDbLinetypeTableRecord
  2
ByLayer
 70
     0
  3

 72
    65
 73
     0
 40
0.0
  0
LTYPE
  5
16
330
5
100
AcDbSymbolTableRecord
100
AcDbLinetypeTableRecord
  2
Continuous
 70
     0
  3
Solid line
 72
    65
 73
     0
 40
0.0
  0
LTYPE
  5
271
330
5
100
AcDbSymbolTableRecord
100
AcDbLinetypeTableRecord
  2
CENTER2
 70
     0
  3
Center (.5x) ___ _ ___ _ ___ _ ___ _ ___ _ ___
 72
    65
 73
     4
 40
28.575
 49
19.05
 74
     0
 49
-3.174999999999998
 74
     0
 49
3.174999999999998
 74
     0
 49
-3.174999999999998
 74
     0
  0
ENDTAB
  0
TABLE
  2
LAYER
  5
2
102
{ACAD_XDICTIONARY
360
277
102
}
330
0
100
AcDbSymbolTable
 70
     4
  0
LAYER
  5
10
102
{ACAD_XDICTIONARY
360
512
102
}
330
2
100
AcDbSymbolTableRecord
100
AcDbLayerTableRecord
  2
0
 70
     0
 62
     7
  6
Continuous
370
    -3
390
F
  0
LAYER
  5
66
330
2
100
AcDbSymbolTableRecord
100
AcDbLayerTableRecord
  2
Defpoints
 70
     0
 62
     7
  6
Continuous
290
     0
370
    -3
390
F
  0
LAYER
  5
272
102
{ACAD_XDICTIONARY
360
273
102
}
330
2
100
AcDbSymbolTableRecord
100
AcDbLayerTableRecord
  2
中心線
 70
     0
 62
     3
  6
CENTER2
370
    -3
390
F
  0
LAYER
  5
274
102
{ACAD_XDICTIONARY
360
275
102
}
330
2
100
AcDbSymbolTableRecord
100
AcDbLayerTableRecord
  2
実線
 70
     0
 62
     7
  6
Continuous
370
    -3
390
F
  0
ENDTAB
  0
TABLE
  2
STYLE
  5
3
330
0
100
AcDbSymbolTable
 70
     1
  0
STYLE
  5
11
330
3
100
AcDbSymbolTableRecord
100
AcDbTextStyleTableRecord
  2
Standard
 70
     0
 40
0.0
 41
1.0
 50
0.0
 71
     0
 42
2.5
  3
txt
  4
extfont2
  0
ENDTAB
  0
TABLE
  2
VIEW
  5
6
330
0
100
AcDbSymbolTable
 70
     0
  0
ENDTAB
  0
TABLE
  2
UCS
  5
7
330
0
100
AcDbSymbolTable
 70
     0
  0
ENDTAB
  0
TABLE
  2
APPID
  5
9
330
0
100
AcDbSymbolTable
 70
     4
  0
APPID
  5
12
330
9
100
AcDbSymbolTableRecord
100
AcDbRegAppTableRecord
  2
ACAD
 70
     0
  0
APPID
  5
261
330
9
100
AcDbSymbolTableRecord
100
AcDbRegAppTableRecord
  2
ACAD_MLEADERVER
 70
     0
  0
APPID
  5
276
330
9
100
AcDbSymbolTableRecord
100
AcDbRegAppTableRecord
  2
ACAD_NAV_VCDISPLAY
 70
     0
  0
APPID
  5
4FC
330
9
100
AcDbSymbolTableRecord
100
AcDbRegAppTableRecord
  2
ACAD_EXEMPT_FROM_CAD_STANDARDS
 70
     0
  0
ENDTAB
  0
TABLE
  2
DIMSTYLE
  5
A
330
0
100
AcDbSymbolTable
 70
     1
100
AcDbDimStyleTable
 71
     1
340
27
  0
DIMSTYLE
105
27
330
A
100
AcDbSymbolTableRecord
100
AcDbDimStyleTableRecord
  2
Standard
 70
     0
 41
2.5
 42
0.625
 43
3.75
 44
1.25
 73
     0
 74
     0
 77
     1
140
2.5
141
2.5
143
0.03937007874016
146
0.75
147
0.625
171
     3
172
     1
271
     2
272
     2
274
     3
283
     0
284
     8
340
11
  0
ENDTAB
  0
TABLE
  2
BLOCK_RECORD
  5
1
330
0
100
AcDbSymbolTable
 70
     1
  0
BLOCK_RECORD
  5
1F
102
{ACAD_XDICTIONARY
360
394
102
}
330
1
100
AcDbSymbolTableRecord
100
AcDbBlockTableRecord
  2
*Model_Space
340
22
  0
BLOCK_RECORD
  5
1B
330
1
100
AcDbSymbolTableRecord
100
AcDbBlockTableRecord
  2
*Paper_Space
340
1E
  0
BLOCK_RECORD
  5
23
330
1
100
AcDbSymbolTableRecord
100
AcDbBlockTableRecord
  2
*Paper_Space0
340
26B
  0
ENDTAB
  0
ENDSEC
  0
SECTION
  2
BLOCKS
  0
BLOCK
  5
20
330
1F
100
AcDbEntity
  8
0
100
AcDbBlockBegin
  2
*Model_Space
 70
     0
 10
0.0
 20
0.0
 30
0.0
  3
*Model_Space
  1

  0
ENDBLK
  5
21
330
1F
100
AcDbEntity
  8
0
100
AcDbBlockEnd
  0
BLOCK
  5
1C
330
1B
100
AcDbEntity
 67
     1
  8
0
100
AcDbBlockBegin
  2
*Paper_Space
 70
     0
 10
0.0
 20
0.0
 30
0.0
  3
*Paper_Space
  1

  0
ENDBLK
  5
1D
330
1B
100
AcDbEntity
 67
     1
  8
0
100
AcDbBlockEnd
  0
BLOCK
  5
24
330
23
100
AcDbEntity
 67
     1
  8
0
100
AcDbBlockBegin
  2
*Paper_Space0
 70
     0
 10
0.0
 20
0.0
 30
0.0
  3
*Paper_Space0
  1

  0
ENDBLK
  5
25
330
23
100
AcDbEntity
 67
     1
  8
0
100
AcDbBlockEnd
  0
ENDSEC
  0
SECTION
  2
ENTITIES
  0
CIRCLE
  5
357
102
{ACAD_REACTORS
330
55E
102
}
330
1F
100
AcDbEntity
  8
実線
100
AcDbCircle
 10
328.1309101099277
 20
461.6240822370868
 30
0.0
 40
8.0
  0
LINE
  5
358
102
{ACAD_REACTORS
330
55E
102
}
330
1F
100
AcDbEntity
  8
実線
100
AcDbLine
 10
351.342511937892
 20
442.699218255065
 30
0.0
 11
321.38171824353
 21
444.232463572646
 31
0.0
  0
LINE
  5
359
102
{ACAD_REACTORS
330
55E
102
}
330
1F
100
AcDbEntity
  8
実線
100
AcDbLine
 10
351.4038417505952
 20
443.8976500028395
 30
0.0
 11
351.342511937892
 21
442.699218255065
 31
0.0
  0
LINE
  5
35A
102
{ACAD_REACTORS
330
55E
102
}
330
1F
100
AcDbEntity
  8
実線
100
AcDbLine
 10
321.4430480562334
 20
445.4308953204206
 30
0.0
 11
351.4038417505952
 21
443.8976500028395
 31
0.0
  0
LINE
  5
35B
102
{ACAD_REACTORS
330
55E
102
}
330
1F
100
AcDbEntity
  8
実線
100
AcDbLine
 10
321.3817182435302
 20
444.232463572646
 30
0.0
 11
321.4430480562334
 21
445.4308953204206
 31
0.0
  0
LINE
  5
35C
102
{ACAD_REACTORS
330
55E
102
}
330
1F
100
AcDbEntity
  8
実線
100
AcDbLine
 10
321.8468026565296
 20
453.320570993269
 30
0.0
 11
321.4430480562334
 21
445.4308953204206
 31
0.0
  0
LINE
  5
35D
102
{ACAD_REACTORS
330
55E
102
}
330
1F
100
AcDbEntity
  8
実線
100
AcDbLine
 10
346.4103761348682
 20
444.153190889103
 30
0.0
 11
346.8141307351643
 21
452.0428665619517
 31
0.0
  0
LINE
  5
35E
102
{ACAD_REACTORS
330
55E
102
}
330
1F
100
AcDbEntity
  8
実線
100
AcDbLine
 10
321.8468026565296
 20
453.320570993269
 30
0.0
 11
346.8141307351643
 21
452.0428665619517
 31
0.0
  0
LINE
  5
35F
102
{ACAD_REACTORS
330
55E
102
}
330
1F
100
AcDbEntity
  8
実線
100
AcDbLine
 10
353.0270964695824
 20
446.2677858886666
 30
0.0
 11
353.1804210013405
 21
449.2638652581028
 31
0.0
  0
LINE
  5
360
102
{ACAD_REACTORS
330
55E
102
}
330
1F
100
AcDbEntity
  8
実線
100
AcDbLine
 10
346.5355911691375
 20
446.5999890408091
 30
0.0
 11
353.0270964695824
 21
446.2677858886666
 31
0.0
  0
LINE
  5
361
102
{ACAD_REACTORS
330
55E
102
}
330
1F
100
AcDbEntity
  8
実線
100
AcDbLine
 10
353.1804210013405
 20
449.2638652581028
 30
0.0
 11
346.6889157008954
 21
449.5960684102453
 31
0.0
  0
LINE
  5
362
102
{ACAD_REACTORS
330
55E
102
}
330
1F
100
AcDbEntity
  8
実線
100
AcDbLine
 10
317.2809101099279
 20
512.1240822370867
 30
0.0
 11
317.2809101099279
 21
489.5933063950787
 31
0.0
  0
LINE
  5
363
102
{ACAD_REACTORS
330
55E
102
}
330
1F
100
AcDbEntity
  8
実線
100
AcDbLine
 10
338.9809101099278
 20
489.5933063950787
 30
0.0
 11
338.9809101099278
 21
512.1240822370867
 31
0.0
  0
LINE
  5
364
102
{ACAD_REACTORS
330
55E
102
}
330
1F
100
AcDbEntity
  8
実線
100
AcDbLine
 10
338.9809101099278
 20
512.1240822370867
 30
0.0
 11
345.1309101099277
 21
514.4740822370867
 31
0.0
  0
LINE
  5
365
102
{ACAD_REACTORS
330
55E
102
}
330
1F
100
AcDbEntity
  8
実線
100
AcDbLine
 10
311.1309101099277
 20
514.4740822370867
 30
0.0
 11
317.2809101099279
 21
512.1240822370867
 31
0.0
  0
LINE
  5
366
102
{ACAD_REACTORS
330
55E
102
}
330
1F
100
AcDbEntity
  8
実線
100
AcDbLine
 10
338.9809101099278
 20
512.1240822370867
 30
0.0
 11
317.2809101099279
 21
512.1240822370867
 31
0.0
  0
LINE
  5
367
102
{ACAD_REACTORS
330
55E
102
}
330
1F
100
AcDbEntity
  8
実線
100
AcDbLine
 10
311.1309101099277
 20
516.6240822370867
 30
0.0
 11
311.1309101099277
 21
514.4740822370867
 31
0.0
  0
LINE
  5
368
102
{ACAD_REACTORS
330
55E
102
}
330
1F
100
AcDbEntity
  8
実線
100
AcDbLine
 10
345.1309101099277
 20
514.4740822370867
 30
0.0
 11
345.1309101099277
 21
516.6240822370867
 31
0.0
  0
LINE
  5
369
102
{ACAD_REACTORS
330
55E
102
}
330
1F
100
AcDbEntity
  8
実線
100
AcDbLine
 10
345.1309101099277
 20
516.6240822370867
 30
0.0
 11
311.1309101099277
 21
516.6240822370867
 31
0.0
  0
LINE
  5
36A
102
{ACAD_REACTORS
330
55E
102
}
330
1F
100
AcDbEntity
  8
実線
100
AcDbLine
 10
345.1309101099277
 20
514.4740822370867
 30
0.0
 11
311.1309101099277
 21
514.4740822370867
 31
0.0
  0
LINE
  5
36B
102
{ACAD_REACTORS
330
55E
102
}
330
1F
100
AcDbEntity
  8
実線
100
AcDbLine
 10
378.6309101099277
 20
472.4740822370868
 30
0.0
 11
356.1001342679195
 21
472.4740822370868
 31
0.0
  0
LINE
  5
36C
102
{ACAD_REACTORS
330
55E
102
}
330
1F
100
AcDbEntity
  8
実線
100
AcDbLine
 10
356.1001342679195
 20
450.7740822370868
 30
0.0
 11
378.6309101099277
 21
450.7740822370868
 31
0.0
  0
LINE
  5
36D
102
{ACAD_REACTORS
330
55E
102
}
330
1F
100
AcDbEntity
  8
実線
100
AcDbLine
 10
383.1309101099277
 20
478.6240822370868
 30
0.0
 11
380.9809101099278
 21
478.6240822370868
 31
0.0
  0
LINE
  5
36E
102
{ACAD_REACTORS
330
55E
102
}
330
1F
100
AcDbEntity
  8
実線
100
AcDbLine
 10
380.9809101099278
 20
444.6240822370868
 30
0.0
 11
383.1309101099277
 21
444.6240822370868
 31
0.0
  0
LINE
  5
36F
102
{ACAD_REACTORS
330
55E
102
}
330
1F
100
AcDbEntity
  8
実線
100
AcDbLine
 10
383.1309101099277
 20
478.6240822370868
 30
0.0
 11
383.1309101099277
 21
444.6240822370868
 31
0.0
  0
LINE
  5
370
102
{ACAD_REACTORS
330
55E
102
}
330
1F
100
AcDbEntity
  8
実線
100
AcDbLine
 10
378.6309101099277
 20
450.7740822370868
 30
0.0
 11
380.9809101099278
 21
444.6240822370868
 31
0.0
  0
LINE
  5
371
102
{ACAD_REACTORS
330
55E
102
}
330
1F
100
AcDbEntity
  8
実線
100
AcDbLine
 10
380.9809101099278
 20
478.6240822370868
 30
0.0
 11
378.6309101099277
 21
472.4740822370868
 31
0.0
  0
LINE
  5
372
102
{ACAD_REACTORS
330
55E
102
}
330
1F
100
AcDbEntity
  8
実線
100
AcDbLine
 10
380.9809101099278
 20
444.6240822370868
 30
0.0
 11
380.9809101099278
 21
478.6240822370868
 31
0.0
  0
LINE
  5
373
102
{ACAD_REACTORS
330
55E
102
}
330
1F
100
AcDbEntity
  8
実線
100
AcDbLine
 10
378.6309101099277
 20
450.7740822370868
 30
0.0
 11
378.6309101099277
 21
472.4740822370868
 31
0.0
  0
LINE
  5
374
102
{ACAD_REACTORS
330
55E
102
}
330
1F
100
AcDbEntity
  8
実線
100
AcDbLine
 10
277.6309101099278
 20
450.7740822370868
 30
0.0
 11
300.1616859519357
 21
450.7740822370868
 31
0.0
  0
LINE
  5
375
102
{ACAD_REACTORS
330
55E
102
}
330
1F
100
AcDbEntity
  8
実線
100
AcDbLine
 10
300.1616859519357
 20
472.4740822370868
 30
0.0
 11
277.6309101099278
 21
472.4740822370868
 31
0.0
  0
LINE
  5
376
102
{ACAD_REACTORS
330
55E
102
}
330
1F
100
AcDbEntity
  8
実線
100
AcDbLine
 10
273.1309101099277
 20
444.6240822370868
 30
0.0
 11
275.2809101099277
 21
444.6240822370868
 31
0.0
  0
LINE
  5
377
102
{ACAD_REACTORS
330
55E
102
}
330
1F
100
AcDbEntity
  8
実線
100
AcDbLine
 10
275.2809101099277
 20
478.6240822370868
 30
0.0
 11
273.1309101099277
 21
478.6240822370868
 31
0.0
  0
LINE
  5
378
102
{ACAD_REACTORS
330
55E
102
}
330
1F
100
AcDbEntity
  8
実線
100
AcDbLine
 10
273.1309101099277
 20
444.6240822370868
 30
0.0
 11
273.1309101099277
 21
478.6240822370868
 31
0.0
  0
LINE
  5
379
102
{ACAD_REACTORS
330
55E
102
}
330
1F
100
AcDbEntity
  8
実線
100
AcDbLine
 10
277.6309101099278
 20
472.4740822370868
 30
0.0
 11
275.2809101099277
 21
478.6240822370868
 31
0.0
  0
LINE
  5
37A
102
{ACAD_REACTORS
330
55E
102
}
330
1F
100
AcDbEntity
  8
実線
100
AcDbLine
 10
275.2809101099277
 20
444.6240822370868
 30
0.0
 11
277.6309101099278
 21
450.7740822370868
 31
0.0
  0
LINE
  5
37B
102
{ACAD_REACTORS
330
55E
102
}
330
1F
100
AcDbEntity
  8
実線
100
AcDbLine
 10
275.2809101099277
 20
478.6240822370868
 30
0.0
 11
275.2809101099277
 21
444.6240822370868
 31
0.0
  0
LINE
  5
37C
102
{ACAD_REACTORS
330
55E
102
}
330
1F
100
AcDbEntity
  8
実線
100
AcDbLine
 10
277.6309101099278
 20
472.4740822370868
 30
0.0
 11
277.6309101099278
 21
450.7740822370868
 31
0.0
  0
LINE
  5
37D
102
{ACAD_REACTORS
330
55E
102
}
330
1F
100
AcDbEntity
  8
実線
100
AcDbLine
 10
338.9809101099278
 20
411.1240822370868
 30
0.0
 11
338.9809101099278
 21
433.6548580790949
 31
0.0
  0
LINE
  5
37E
102
{ACAD_REACTORS
330
55E
102
}
330
1F
100
AcDbEntity
  8
実線
100
AcDbLine
 10
317.2809101099277
 20
433.6548580790949
 30
0.0
 11
317.2809101099277
 21
411.1240822370868
 31
0.0
  0
LINE
  5
37F
102
{ACAD_REACTORS
330
55E
102
}
330
1F
100
AcDbEntity
  8
実線
100
AcDbLine
 10
317.2809101099277
 20
411.1240822370868
 30
0.0
 11
311.1309101099277
 21
408.7740822370868
 31
0.0
  0
LINE
  5
380
102
{ACAD_REACTORS
330
55E
102
}
330
1F
100
AcDbEntity
  8
実線
100
AcDbLine
 10
345.1309101099277
 20
408.7740822370868
 30
0.0
 11
338.9809101099278
 21
411.1240822370868
 31
0.0
  0
LINE
  5
381
102
{ACAD_REACTORS
330
55E
102
}
330
1F
100
AcDbEntity
  8
実線
100
AcDbLine
 10
317.2809101099277
 20
411.1240822370868
 30
0.0
 11
338.9809101099278
 21
411.1240822370868
 31
0.0
  0
LINE
  5
382
102
{ACAD_REACTORS
330
55E
102
}
330
1F
100
AcDbEntity
  8
実線
100
AcDbLine
 10
345.1309101099277
 20
406.6240822370868
 30
0.0
 11
345.1309101099277
 21
408.7740822370868
 31
0.0
  0
LINE
  5
383
102
{ACAD_REACTORS
330
55E
102
}
330
1F
100
AcDbEntity
  8
実線
100
AcDbLine
 10
311.1309101099277
 20
408.7740822370868
 30
0.0
 11
311.1309101099277
 21
406.6240822370868
 31
0.0
  0
LINE
  5
384
102
{ACAD_REACTORS
330
55E
102
}
330
1F
100
AcDbEntity
  8
実線
100
AcDbLine
 10
311.1309101099277
 20
406.6240822370868
 30
0.0
 11
345.1309101099277
 21
406.6240822370868
 31
0.0
  0
LINE
  5
385
102
{ACAD_REACTORS
330
55E
102
}
330
1F
100
AcDbEntity
  8
実線
100
AcDbLine
 10
311.1309101099277
 20
408.7740822370868
 30
0.0
 11
345.1309101099277
 21
408.7740822370868
 31
0.0
  0
CIRCLE
  5
386
102
{ACAD_REACTORS
330
55E
102
}
330
1F
100
AcDbEntity
  8
実線
100
AcDbCircle
 10
328.1309101099277
 20
461.6240822370868
 30
0.0
 40
30.0
  0
CIRCLE
  5
389
102
{ACAD_REACTORS
330
55E
102
}
330
1F
100
AcDbEntity
  8
実線
100
AcDbCircle
 10
325.3309101099277
 20
439.2240822370867
 30
0.0
 40
2.0
  0
LINE
  5
38A
102
{ACAD_REACTORS
330
55E
102
}
330
1F
100
AcDbEntity
  8
実線
100
AcDbLine
 10
330.8933434265339
 20
434.4335357548668
 30
0.0
 11
320.90641219508
 21
434.9446175273938
 31
0.0
  0
LINE
  5
38B
102
{ACAD_REACTORS
330
55E
102
}
330
1F
100
AcDbEntity
  8
実線
100
AcDbLine
 10
331.368649474984
 20
443.7213818001189
 30
0.0
 11
330.8933434265339
 21
434.4335357548668
 31
0.0
  0
LINE
  5
38C
102
{ACAD_REACTORS
330
55E
102
}
330
1F
100
AcDbEntity
  8
実線
100
AcDbLine
 10
320.90641219508
 20
434.9446175273938
 30
0.0
 11
321.3817182435302
 21
444.232463572646
 31
0.0
  0
LINE
  5
38D
102
{ACAD_REACTORS
330
55E
102
}
330
1F
100
AcDbEntity
  8
実線
100
AcDbLine
 10
341.8206651194375
 20
452.2984074482151
 30
0.0
 11
341.9024382030418
 21
453.8963164452477
 31
0.0
  0
LINE
  5
38E
102
{ACAD_REACTORS
330
55E
102
}
330
1F
100
AcDbEntity
  8
実線
100
AcDbLine
 10
341.9024382030419
 20
453.8963164452477
 30
0.0
 11
351.8893694344959
 21
453.3852346727208
 31
0.0
  0
LINE
  5
38F
102
{ACAD_REACTORS
330
55E
102
}
330
1F
100
AcDbEntity
  8
実線
100
AcDbLine
 10
351.5290567848643
 20
446.3444481545458
 30
0.0
 11
351.4038417505952
 21
443.8976500028395
 31
0.0
  0
LINE
  5
390
102
{ACAD_REACTORS
330
55E
102
}
330
1F
100
AcDbEntity
  8
実線
100
AcDbLine
 10
351.8893694344959
 20
453.3852346727208
 30
0.0
 11
351.6823813166222
 21
449.3405275239818
 31
0.0
  0
ARC
  5
393
102
{ACAD_REACTORS
330
55E
102
}
330
1F
100
AcDbEntity
  8
実線
100
AcDbCircle
 10
347.4904256082743
 20
449.6051165246005
 30
0.0
 40
2.0
100
AcDbArc
 50
355.6378971050075
 51
110.6486193207716
  0
LINE
  5
396
102
{ACAD_REACTORS
330
50E
102
}
330
1F
100
AcDbEntity
  8
実線
100
AcDbLine
 10
338.9809101099278
 20
31.12408223708696
 30
0.0
 11
338.9809101099278
 21
60.62408223708693
 31
0.0
  0
LINE
  5
397
102
{ACAD_REACTORS
330
50E
102
}
330
1F
100
AcDbEntity
  8
実線
100
AcDbLine
 10
317.2809101099279
 20
60.62408223708693
 30
0.0
 11
317.2809101099279
 21
31.12408223708696
 31
0.0
  0
LINE
  5
398
102
{ACAD_REACTORS
330
50E
102
}
330
1F
100
AcDbEntity
  8
実線
100
AcDbLine
 10
338.9809101099278
 20
31.12408223708696
 30
0.0
 11
317.2809101099279
 21
31.12408223708696
 31
0.0
  0
LINE
  5
399
102
{ACAD_REACTORS
330
50E
102
}
330
1F
100
AcDbEntity
  8
実線
100
AcDbLine
 10
317.2809101099279
 20
31.12408223708696
 30
0.0
 11
311.1309101099277
 21
28.77408223708696
 31
0.0
  0
LINE
  5
39A
102
{ACAD_REACTORS
330
50E
102
}
330
1F
100
AcDbEntity
  8
実線
100
AcDbLine
 10
345.1309101099277
 20
28.77408223708696
 30
0.0
 11
338.9809101099278
 21
31.12408223708696
 31
0.0
  0
LINE
  5
39B
102
{ACAD_REACTORS
330
50E
102
}
330
1F
100
AcDbEntity
  8
実線
100
AcDbLine
 10
345.1309101099277
 20
26.62408223708696
 30
0.0
 11
311.1309101099277
 21
26.62408223708696
 31
0.0
  0
LINE
  5
39C
102
{ACAD_REACTORS
330
50E
102
}
330
1F
100
AcDbEntity
  8
実線
100
AcDbLine
 10
345.1309101099277
 20
28.77408223708696
 30
0.0
 11
311.1309101099277
 21
28.77408223708696
 31
0.0
  0
LINE
  5
39D
102
{ACAD_REACTORS
330
50E
102
}
330
1F
100
AcDbEntity
  8
実線
100
AcDbLine
 10
345.1309101099277
 20
26.62408223708696
 30
0.0
 11
345.1309101099277
 21
28.77408223708696
 31
0.0
  0
LINE
  5
39E
102
{ACAD_REACTORS
330
50E
102
}
330
1F
100
AcDbEntity
  8
実線
100
AcDbLine
 10
311.1309101099277
 20
28.77408223708696
 30
0.0
 11
311.1309101099277
 21
26.62408223708696
 31
0.0
  0
LINE
  5
39F
102
{ACAD_REACTORS
330
50E
102
}
330
1F
100
AcDbEntity
  8
実線
100
AcDbLine
 10
378.6309101099277
 20
92.47408223708697
 30
0.0
 11
349.1309101099277
 21
92.47408223708697
 31
0.0
  0
LINE
  5
3A0
102
{ACAD_REACTORS
330
50E
102
}
330
1F
100
AcDbEntity
  8
実線
100
AcDbLine
 10
349.1309101099277
 20
70.77408223708696
 30
0.0
 11
378.6309101099277
 21
70.77408223708696
 31
0.0
  0
LINE
  5
3A1
102
{ACAD_REACTORS
330
50E
102
}
330
1F
100
AcDbEntity
  8
実線
100
AcDbLine
 10
383.1309101099277
 20
98.62408223708698
 30
0.0
 11
383.1309101099277
 21
64.62408223708694
 31
0.0
  0
LINE
  5
3A2
102
{ACAD_REACTORS
330
50E
102
}
330
1F
100
AcDbEntity
  8
実線
100
AcDbLine
 10
383.1309101099277
 20
98.62408223708698
 30
0.0
 11
380.9809101099278
 21
98.62408223708698
 31
0.0
  0
LINE
  5
3A3
102
{ACAD_REACTORS
330
50E
102
}
330
1F
100
AcDbEntity
  8
実線
100
AcDbLine
 10
380.9809101099278
 20
64.62408223708694
 30
0.0
 11
383.1309101099277
 21
64.62408223708694
 31
0.0
  0
LINE
  5
3A4
102
{ACAD_REACTORS
330
50E
102
}
330
1F
100
AcDbEntity
  8
実線
100
AcDbLine
 10
380.9809101099278
 20
98.62408223708698
 30
0.0
 11
380.9809101099278
 21
64.62408223708694
 31
0.0
  0
LINE
  5
3A5
102
{ACAD_REACTORS
330
50E
102
}
330
1F
100
AcDbEntity
  8
実線
100
AcDbLine
 10
378.6309101099277
 20
92.47408223708697
 30
0.0
 11
378.6309101099277
 21
70.77408223708693
 31
0.0
  0
LINE
  5
3A6
102
{ACAD_REACTORS
330
50E
102
}
330
1F
100
AcDbEntity
  8
実線
100
AcDbLine
 10
378.6309101099277
 20
70.77408223708696
 30
0.0
 11
380.9809101099278
 21
64.62408223708694
 31
0.0
  0
LINE
  5
3A7
102
{ACAD_REACTORS
330
50E
102
}
330
1F
100
AcDbEntity
  8
実線
100
AcDbLine
 10
380.9809101099278
 20
98.62408223708698
 30
0.0
 11
378.6309101099277
 21
92.47408223708697
 31
0.0
  0
LINE
  5
3A8
102
{ACAD_REACTORS
330
50E
102
}
330
1F
100
AcDbEntity
  8
実線
100
AcDbLine
 10
277.6309101099278
 20
70.77408223708696
 30
0.0
 11
307.1309101099277
 21
70.77408223708696
 31
0.0
  0
LINE
  5
3A9
102
{ACAD_REACTORS
330
50E
102
}
330
1F
100
AcDbEntity
  8
実線
100
AcDbLine
 10
307.1309101099277
 20
92.47408223708697
 30
0.0
 11
277.6309101099278
 21
92.47408223708697
 31
0.0
  0
LINE
  5
3AA
102
{ACAD_REACTORS
330
50E
102
}
330
1F
100
AcDbEntity
  8
実線
100
AcDbLine
 10
277.6309101099278
 20
70.77408223708696
 30
0.0
 11
277.6309101099278
 21
92.47408223708697
 31
0.0
  0
LINE
  5
3AB
102
{ACAD_REACTORS
330
50E
102
}
330
1F
100
AcDbEntity
  8
実線
100
AcDbLine
 10
277.6309101099278
 20
92.47408223708697
 30
0.0
 11
275.2809101099277
 21
98.62408223708698
 31
0.0
  0
LINE
  5
3AC
102
{ACAD_REACTORS
330
50E
102
}
330
1F
100
AcDbEntity
  8
実線
100
AcDbLine
 10
275.2809101099277
 20
64.62408223708694
 30
0.0
 11
277.6309101099278
 21
70.77408223708696
 31
0.0
  0
LINE
  5
3AD
102
{ACAD_REACTORS
330
50E
102
}
330
1F
100
AcDbEntity
  8
実線
100
AcDbLine
 10
273.1309101099277
 20
64.62408223708694
 30
0.0
 11
273.1309101099277
 21
98.62408223708698
 31
0.0
  0
LINE
  5
3AE
102
{ACAD_REACTORS
330
50E
102
}
330
1F
100
AcDbEntity
  8
実線
100
AcDbLine
 10
275.2809101099277
 20
64.62408223708694
 30
0.0
 11
275.2809101099277
 21
98.62408223708698
 31
0.0
  0
LINE
  5
3AF
102
{ACAD_REACTORS
330
50E
102
}
330
1F
100
AcDbEntity
  8
実線
100
AcDbLine
 10
273.1309101099277
 20
64.62408223708694
 30
0.0
 11
275.2809101099277
 21
64.62408223708694
 31
0.0
  0
LINE
  5
3B0
102
{ACAD_REACTORS
330
50E
102
}
330
1F
100
AcDbEntity
  8
実線
100
AcDbLine
 10
275.2809101099277
 20
98.62408223708698
 30
0.0
 11
273.1309101099277
 21
98.62408223708698
 31
0.0
  0
LINE
  5
3B1
102
{ACAD_REACTORS
330
50E
102
}
330
1F
100
AcDbEntity
  8
実線
100
AcDbLine
 10
317.2809101099277
 20
132.1240822370869
 30
0.0
 11
317.2809101099277
 21
102.6240822370868
 31
0.0
  0
LINE
  5
3B2
102
{ACAD_REACTORS
330
50E
102
}
330
1F
100
AcDbEntity
  8
実線
100
AcDbLine
 10
338.9809101099278
 20
102.6240822370868
 30
0.0
 11
338.9809101099278
 21
132.1240822370869
 31
0.0
  0
LINE
  5
3B3
102
{ACAD_REACTORS
330
50E
102
}
330
1F
100
AcDbEntity
  8
実線
100
AcDbLine
 10
311.1309101099277
 20
136.6240822370869
 30
0.0
 11
345.1309101099277
 21
136.6240822370869
 31
0.0
  0
LINE
  5
3B4
102
{ACAD_REACTORS
330
50E
102
}
330
1F
100
AcDbEntity
  8
実線
100
AcDbLine
 10
311.1309101099277
 20
136.6240822370869
 30
0.0
 11
311.1309101099277
 21
134.4740822370868
 31
0.0
  0
LINE
  5
3B5
102
{ACAD_REACTORS
330
50E
102
}
330
1F
100
AcDbEntity
  8
実線
100
AcDbLine
 10
345.1309101099277
 20
134.4740822370868
 30
0.0
 11
345.1309101099277
 21
136.6240822370869
 31
0.0
  0
LINE
  5
3B6
102
{ACAD_REACTORS
330
50E
102
}
330
1F
100
AcDbEntity
  8
実線
100
AcDbLine
 10
311.1309101099277
 20
134.4740822370868
 30
0.0
 11
345.1309101099277
 21
134.4740822370868
 31
0.0
  0
LINE
  5
3B7
102
{ACAD_REACTORS
330
50E
102
}
330
1F
100
AcDbEntity
  8
実線
100
AcDbLine
 10
317.2809101099277
 20
132.1240822370869
 30
0.0
 11
338.9809101099278
 21
132.1240822370869
 31
0.0
  0
LINE
  5
3B8
102
{ACAD_REACTORS
330
50E
102
}
330
1F
100
AcDbEntity
  8
実線
100
AcDbLine
 10
338.9809101099278
 20
132.1240822370869
 30
0.0
 11
345.1309101099277
 21
134.4740822370868
 31
0.0
  0
LINE
  5
3B9
102
{ACAD_REACTORS
330
50E
102
}
330
1F
100
AcDbEntity
  8
実線
100
AcDbLine
 10
311.1309101099277
 20
134.4740822370868
 30
0.0
 11
317.2809101099277
 21
132.1240822370869
 31
0.0
  0
ARC
  5
3BA
102
{ACAD_REACTORS
330
50E
102
}
330
1F
100
AcDbEntity
  8
実線
100
AcDbCircle
 10
328.1309101099277
 20
81.62408223708695
 30
0.0
 40
30.0
100
AcDbArc
 50
111.2025870601476
 51
158.7974129398533
  0
ARC
  5
3BB
102
{ACAD_REACTORS
330
50E
102
}
330
1F
100
AcDbEntity
  8
実線
100
AcDbCircle
 10
328.1309101099277
 20
81.62408223708695
 30
0.0
 40
30.0
100
AcDbArc
 50
21.2025870601463
 51
68.79741293985239
  0
ARC
  5
3BC
102
{ACAD_REACTORS
330
50E
102
}
330
1F
100
AcDbEntity
  8
実線
100
AcDbCircle
 10
328.1309101099277
 20
81.62408223708695
 30
0.0
 40
30.0
100
AcDbArc
 50
201.2025870601466
 51
248.7974129398524
  0
LINE
  5
3BD
102
{ACAD_REACTORS
330
50E
102
}
330
1F
100
AcDbEntity
  8
実線
100
AcDbLine
 10
306.9177066743313
 20
102.8372856726833
 30
0.0
 11
307.1309101099277
 21
102.6240822370868
 31
0.0
  0
ARC
  5
3BE
102
{ACAD_REACTORS
330
50E
102
}
330
1F
100
AcDbEntity
  8
実線
100
AcDbCircle
 10
328.1309101099277
 20
81.62408223708695
 30
0.0
 40
30.0
100
AcDbArc
 50
291.2025870601476
 51
338.7974129398533
  0
LINE
  5
3BF
102
{ACAD_REACTORS
330
50E
102
}
330
1F
100
AcDbEntity
  8
実線
100
AcDbLine
 10
306.9177066743313
 20
60.41087880149053
 30
0.0
 11
307.1309101099277
 21
60.62408223708693
 31
0.0
  0
LINE
  5
3C0
102
{ACAD_REACTORS
330
50E
102
}
330
1F
100
AcDbEntity
  8
実線
100
AcDbLine
 10
349.1309101099277
 20
102.6240822370868
 30
0.0
 11
349.3441135455241
 21
102.8372856726833
 31
0.0
  0
LINE
  5
3C1
102
{ACAD_REACTORS
330
50E
102
}
330
1F
100
AcDbEntity
  8
実線
100
AcDbLine
 10
349.3441135455241
 20
60.4108788014905
 30
0.0
 11
349.1309101099277
 21
60.62408223708693
 31
0.0
  0
LINE
  5
3C2
102
{ACAD_REACTORS
330
50E
102
}
330
1F
100
AcDbEntity
  8
実線
100
AcDbLine
 10
307.1309101099277
 20
60.62408223708693
 30
0.0
 11
307.1309101099277
 21
102.6240822370868
 31
0.0
  0
LINE
  5
3C3
102
{ACAD_REACTORS
330
50E
102
}
330
1F
100
AcDbEntity
  8
実線
100
AcDbLine
 10
307.1309101099277
 20
60.62408223708693
 30
0.0
 11
349.1309101099277
 21
60.62408223708693
 31
0.0
  0
LINE
  5
3C4
102
{ACAD_REACTORS
330
50E
102
}
330
1F
100
AcDbEntity
  8
実線
100
AcDbLine
 10
349.1309101099277
 20
60.62408223708693
 30
0.0
 11
349.1309101099277
 21
102.6240822370868
 31
0.0
  0
LINE
  5
3C5
102
{ACAD_REACTORS
330
50E
102
}
330
1F
100
AcDbEntity
  8
実線
100
AcDbLine
 10
307.1309101099277
 20
102.6240822370868
 30
0.0
 11
349.1309101099277
 21
102.6240822370868
 31
0.0
  0
LINE
  5
3C6
102
{ACAD_REACTORS
330
50E
102
}
330
1F
100
AcDbEntity
  8
実線
100
AcDbLine
 10
338.6309101099277
 20
97.12408223708692
 30
0.0
 11
338.6309101099277
 21
102.6240822370868
 31
0.0
  0
ARC
  5
3C7
102
{ACAD_REACTORS
330
50E
102
}
330
1F
100
AcDbEntity
  8
実線
100
AcDbCircle
 10
343.6309101099277
 20
66.12408223708694
 30
0.0
 40
5.0
100
AcDbArc
 50
90.0
 51
180.0
  0
LINE
  5
3C8
102
{ACAD_REACTORS
330
50E
102
}
330
1F
100
AcDbEntity
  8
実線
100
AcDbLine
 10
343.6309101099277
 20
71.12408223708695
 30
0.0
 11
349.1309101099277
 21
71.12408223708695
 31
0.0
  0
LINE
  5
3C9
102
{ACAD_REACTORS
330
50E
102
}
330
1F
100
AcDbEntity
  8
実線
100
AcDbLine
 10
349.1309101099277
 20
92.12408223708697
 30
0.0
 11
343.6309101099277
 21
92.12408223708697
 31
0.0
  0
ARC
  5
3CA
102
{ACAD_REACTORS
330
50E
102
}
330
1F
100
AcDbEntity
  8
実線
100
AcDbCircle
 10
343.6309101099277
 20
97.12408223708692
 30
0.0
 40
5.0
100
AcDbArc
 50
180.0
 51
270.0
  0
LINE
  5
3CB
102
{ACAD_REACTORS
330
50E
102
}
330
1F
100
AcDbEntity
  8
実線
100
AcDbLine
 10
317.6309101099277
 20
102.6240822370868
 30
0.0
 11
317.6309101099277
 21
97.12408223708692
 31
0.0
  0
ARC
  5
3CC
102
{ACAD_REACTORS
330
50E
102
}
330
1F
100
AcDbEntity
  8
実線
100
AcDbCircle
 10
312.6309101099277
 20
97.12408223708692
 30
0.0
 40
5.0
100
AcDbArc
 50
270.0
 51
0.0
  0
LINE
  5
3CD
102
{ACAD_REACTORS
330
50E
102
}
330
1F
100
AcDbEntity
  8
実線
100
AcDbLine
 10
312.6309101099277
 20
92.12408223708697
 30
0.0
 11
307.1309101099277
 21
92.12408223708697
 31
0.0
  0
LINE
  5
3CE
102
{ACAD_REACTORS
330
50E
102
}
330
1F
100
AcDbEntity
  8
実線
100
AcDbLine
 10
307.1309101099277
 20
71.12408223708695
 30
0.0
 11
312.6309101099277
 21
71.12408223708695
 31
0.0
  0
ARC
  5
3CF
102
{ACAD_REACTORS
330
50E
102
}
330
1F
100
AcDbEntity
  8
実線
100
AcDbCircle
 10
312.6309101099277
 20
66.12408223708694
 30
0.0
 40
5.0
100
AcDbArc
 50
0.0
 51
90.0
  0
LINE
  5
3D0
102
{ACAD_REACTORS
330
50E
102
}
330
1F
100
AcDbEntity
  8
実線
100
AcDbLine
 10
317.6309101099277
 20
66.12408223708694
 30
0.0
 11
317.6309101099277
 21
60.62408223708693
 31
0.0
  0
LINE
  5
3D1
102
{ACAD_REACTORS
330
50E
102
}
330
1F
100
AcDbEntity
  8
実線
100
AcDbLine
 10
338.6309101099277
 20
60.62408223708693
 30
0.0
 11
338.6309101099277
 21
66.12408223708694
 31
0.0
  0
LINE
  5
3D2
102
{ACAD_REACTORS
330
50C
102
}
330
1F
100
AcDbEntity
  8
実線
100
AcDbLine
 10
774.1309101099276
 20
349.524082237087
 30
0.0
 11
774.1309101099276
 21
361.924082237087
 31
0.0
  0
LINE
  5
3D3
102
{ACAD_REACTORS
330
50C
102
}
330
1F
100
AcDbEntity
  8
実線
100
AcDbLine
 10
762.1309101099275
 20
361.924082237087
 30
0.0
 11
762.1309101099275
 21
349.524082237087
 31
0.0
  0
LINE
  5
3D4
102
{ACAD_REACTORS
330
50C
102
}
330
1F
100
AcDbEntity
  8
実線
100
AcDbLine
 10
760.1309101099276
 20
368.424082237087
 30
0.0
 11
776.1309101099276
 21
368.424082237087
 31
0.0
  0
LINE
  5
3D5
102
{ACAD_REACTORS
330
50C
102
}
330
1F
100
AcDbEntity
  8
実線
100
AcDbLine
 10
776.1309101099276
 20
361.924082237087
 30
0.0
 11
776.1309101099276
 21
368.424082237087
 31
0.0
  0
LINE
  5
3D6
102
{ACAD_REACTORS
330
50C
102
}
330
1F
100
AcDbEntity
  8
実線
100
AcDbLine
 10
760.1309101099276
 20
368.424082237087
 30
0.0
 11
760.1309101099276
 21
361.924082237087
 31
0.0
  0
LINE
  5
3D7
102
{ACAD_REACTORS
330
50C
102
}
330
1F
100
AcDbEntity
  8
実線
100
AcDbLine
 10
760.1309101099276
 20
361.924082237087
 30
0.0
 11
776.1309101099276
 21
361.924082237087
 31
0.0
  0
LINE
  5
3D8
102
{ACAD_REACTORS
330
50C
102
}
330
1F
100
AcDbEntity
  8
実線
100
AcDbLine
 10
762.1309101099275
 20
360.974082237087
 30
0.0
 11
749.4476894846907
 21
360.974082237087
 31
0.0
  0
LINE
  5
3D9
102
{ACAD_REACTORS
330
50C
102
}
330
1F
100
AcDbEntity
  8
実線
100
AcDbLine
 10
774.1309101099276
 20
360.974082237087
 30
0.0
 11
774.8187721636218
 21
360.974082237087
 31
0.0
  0
LINE
  5
3DA
102
{ACAD_REACTORS
330
50C
102
}
330
1F
100
AcDbEntity
  8
実線
100
AcDbLine
 10
749.4476894846907
 20
360.974082237087
 30
0.0
 11
749.4476894846907
 21
353.0740822370871
 31
0.0
  0
LINE
  5
3DB
102
{ACAD_REACTORS
330
50C
102
}
330
1F
100
AcDbEntity
  8
実線
100
AcDbLine
 10
762.1309101099275
 20
353.0740822370871
 30
0.0
 11
749.4476894846907
 21
353.0740822370871
 31
0.0
  0
LINE
  5
3DC
102
{ACAD_REACTORS
330
50C
102
}
330
1F
100
AcDbEntity
  8
実線
100
AcDbLine
 10
774.1309101099276
 20
353.0740822370871
 30
0.0
 11
774.8187721636218
 21
353.0740822370871
 31
0.0
  0
LINE
  5
3DD
102
{ACAD_REACTORS
330
50C
102
}
330
1F
100
AcDbEntity
  8
実線
100
AcDbLine
 10
774.4150175633254
 20
353.0740822370871
 30
0.0
 11
774.4150175633254
 21
360.974082237087
 31
0.0
  0
LINE
  5
3DE
102
{ACAD_REACTORS
330
50C
102
}
330
1F
100
AcDbEntity
  8
実線
100
AcDbLine
 10
744.8579784692599
 20
374.524082237087
 30
0.0
 11
774.8801019763252
 21
374.524082237087
 31
0.0
  0
LINE
  5
3DF
102
{ACAD_REACTORS
330
50C
102
}
330
1F
100
AcDbEntity
  8
実線
100
AcDbLine
 10
744.8579784692599
 20
369.0240822370871
 30
0.0
 11
744.8579784692599
 21
374.524082237087
 31
0.0
  0
LINE
  5
3E0
102
{ACAD_REACTORS
330
50C
102
}
330
1F
100
AcDbEntity
  8
実線
100
AcDbLine
 10
744.8579784692599
 20
358.5240822370871
 30
0.0
 11
744.8579784692599
 21
366.024082237087
 31
0.0
  0
LINE
  5
3E1
102
{ACAD_REACTORS
330
50C
102
}
330
1F
100
AcDbEntity
  8
実線
100
AcDbLine
 10
744.8579784692599
 20
350.724082237087
 30
0.0
 11
744.8579784692599
 21
355.524082237087
 31
0.0
  0
LINE
  5
3E2
102
{ACAD_REACTORS
330
50C
102
}
330
1F
100
AcDbEntity
  8
実線
100
AcDbLine
 10
774.8801019763252
 20
368.424082237087
 30
0.0
 11
774.8801019763252
 21
374.524082237087
 31
0.0
  0
LINE
  5
3E3
102
{ACAD_REACTORS
330
50C
102
}
330
1F
100
AcDbEntity
  8
実線
100
AcDbLine
 10
774.8801019763252
 20
361.924082237087
 30
0.0
 11
774.8801019763252
 21
349.524082237087
 31
0.0
  0
LINE
  5
3E4
102
{ACAD_REACTORS
330
50C
102
}
330
1F
100
AcDbEntity
  8
実線
100
AcDbLine
 10
774.8187721636218
 20
374.524082237087
 30
0.0
 11
774.8187721636218
 21
368.424082237087
 31
0.0
  0
LINE
  5
3E5
102
{ACAD_REACTORS
330
50C
102
}
330
1F
100
AcDbEntity
  8
実線
100
AcDbLine
 10
774.8187721636218
 20
361.924082237087
 30
0.0
 11
774.8187721636218
 21
349.524082237087
 31
0.0
  0
LINE
  5
3E6
102
{ACAD_REACTORS
330
50C
102
}
330
1F
100
AcDbEntity
  8
実線
100
AcDbLine
 10
749.4476894846907
 20
371.474082237087
 30
0.0
 11
774.8187721636218
 21
371.474082237087
 31
0.0
  0
LINE
  5
3E7
102
{ACAD_REACTORS
330
50C
102
}
330
1F
100
AcDbEntity
  8
実線
100
AcDbLine
 10
760.1309101099276
 20
363.5740822370871
 30
0.0
 11
749.4476894846907
 21
363.5740822370871
 31
0.0
  0
LINE
  5
3E8
102
{ACAD_REACTORS
330
50C
102
}
330
1F
100
AcDbEntity
  8
実線
100
AcDbLine
 10
749.4476894846907
 20
371.474082237087
 30
0.0
 11
749.4476894846907
 21
363.5740822370871
 31
0.0
  0
LINE
  5
3E9
102
{ACAD_REACTORS
330
50C
102
}
330
1F
100
AcDbEntity
  8
実線
100
AcDbLine
 10
774.4150175633254
 20
368.424082237087
 30
0.0
 11
774.4150175633254
 21
371.474082237087
 31
0.0
  0
LINE
  5
3EA
102
{ACAD_REACTORS
330
50C
102
}
330
1F
100
AcDbEntity
  8
実線
100
AcDbLine
 10
749.4476894846907
 20
369.0240822370871
 30
0.0
 11
743.1580614843937
 21
369.0240822370871
 31
0.0
  0
LINE
  5
3EB
102
{ACAD_REACTORS
330
50C
102
}
330
1F
100
AcDbEntity
  8
実線
100
AcDbLine
 10
743.1580614843937
 20
366.024082237087
 30
0.0
 11
749.4476894846907
 21
366.024082237087
 31
0.0
  0
ELLIPSE
  5
3EC
102
{ACAD_REACTORS
330
50C
102
}
330
1F
100
AcDbEntity
  8
実線
100
AcDbEllipse
 10
743.1580614843937
 20
367.5240822370871
 30
0.0
 11
0.0
 21
1.5
 31
0.0
210
0.0
220
0.0
230
1.0
 40
0.0511081772527001
 41
0.0
 42
3.14159265358979
  0
LINE
  5
3ED
102
{ACAD_REACTORS
330
50C
102
}
330
1F
100
AcDbEntity
  8
実線
100
AcDbLine
 10
749.4476894846907
 20
358.5240822370871
 30
0.0
 11
743.1580614843937
 21
358.5240822370871
 31
0.0
  0
LINE
  5
3EE
102
{ACAD_REACTORS
330
50C
102
}
330
1F
100
AcDbEntity
  8
実線
100
AcDbLine
 10
743.1580614843937
 20
355.524082237087
 30
0.0
 11
749.4476894846907
 21
355.524082237087
 31
0.0
  0
ELLIPSE
  5
3EF
102
{ACAD_REACTORS
330
50C
102
}
330
1F
100
AcDbEntity
  8
実線
100
AcDbEllipse
 10
743.1580614843937
 20
357.0240822370871
 30
0.0
 11
0.0
 21
1.5
 31
0.0
210
0.0
220
0.0
230
1.0
 40
0.0511081772527001
 41
0.0
 42
3.14159265358979
  0
CIRCLE
  5
3F0
102
{ACAD_REACTORS
330
50C
102
}
330
1F
100
AcDbEntity
  8
実線
100
AcDbCircle
 10
768.1309101099276
 20
223.124082237087
 30
0.0
 40
17.0
  0
LINE
  5
3F1
102
{ACAD_REACTORS
330
50C
102
}
330
1F
100
AcDbEntity
  8
実線
100
AcDbLine
 10
717.6309101099275
 20
230.7740822370869
 30
0.0
 11
747.1309101099275
 21
230.7740822370869
 31
0.0
  0
LINE
  5
3F2
102
{ACAD_REACTORS
330
50C
102
}
330
1F
100
AcDbEntity
  8
実線
100
AcDbLine
 10
747.1309101099275
 20
252.474082237087
 30
0.0
 11
717.6309101099275
 21
252.474082237087
 31
0.0
  0
LINE
  5
3F3
102
{ACAD_REACTORS
330
50C
102
}
330
1F
100
AcDbEntity
  8
実線
100
AcDbLine
 10
717.6309101099275
 20
252.474082237087
 30
0.0
 11
715.2809101099275
 21
258.6240822370871
 31
0.0
  0
LINE
  5
3F4
102
{ACAD_REACTORS
330
50C
102
}
330
1F
100
AcDbEntity
  8
実線
100
AcDbLine
 10
715.2809101099275
 20
224.6240822370871
 30
0.0
 11
717.6309101099275
 21
230.7740822370869
 31
0.0
  0
LINE
  5
3F5
102
{ACAD_REACTORS
330
50C
102
}
330
1F
100
AcDbEntity
  8
実線
100
AcDbLine
 10
717.6309101099275
 20
252.474082237087
 30
0.0
 11
717.6309101099275
 21
230.7740822370869
 31
0.0
  0
LINE
  5
3F6
102
{ACAD_REACTORS
330
50C
102
}
330
1F
100
AcDbEntity
  8
実線
100
AcDbLine
 10
713.1309101099275
 20
224.6240822370871
 30
0.0
 11
715.2809101099275
 21
224.6240822370871
 31
0.0
  0
LINE
  5
3F7
102
{ACAD_REACTORS
330
50C
102
}
330
1F
100
AcDbEntity
  8
実線
100
AcDbLine
 10
715.2809101099275
 20
258.6240822370871
 30
0.0
 11
713.1309101099275
 21
258.6240822370871
 31
0.0
  0
LINE
  5
3F8
102
{ACAD_REACTORS
330
50C
102
}
330
1F
100
AcDbEntity
  8
実線
100
AcDbLine
 10
713.1309101099275
 20
224.6240822370871
 30
0.0
 11
713.1309101099275
 21
258.6240822370871
 31
0.0
  0
LINE
  5
3F9
102
{ACAD_REACTORS
330
50C
102
}
330
1F
100
AcDbEntity
  8
実線
100
AcDbLine
 10
715.2809101099275
 20
224.6240822370871
 30
0.0
 11
715.2809101099275
 21
258.6240822370871
 31
0.0
  0
LINE
  5
3FA
102
{ACAD_REACTORS
330
50C
102
}
330
1F
100
AcDbEntity
  8
実線
100
AcDbLine
 10
818.6309101099274
 20
252.474082237087
 30
0.0
 11
789.1309101099275
 21
252.474082237087
 31
0.0
  0
LINE
  5
3FB
102
{ACAD_REACTORS
330
50C
102
}
330
1F
100
AcDbEntity
  8
実線
100
AcDbLine
 10
789.1309101099275
 20
230.7740822370869
 30
0.0
 11
818.6309101099274
 21
230.7740822370869
 31
0.0
  0
LINE
  5
3FC
102
{ACAD_REACTORS
330
50C
102
}
330
1F
100
AcDbEntity
  8
実線
100
AcDbLine
 10
823.1309101099274
 20
224.6240822370871
 30
0.0
 11
823.1309101099274
 21
258.6240822370871
 31
0.0
  0
LINE
  5
3FD
102
{ACAD_REACTORS
330
50C
102
}
330
1F
100
AcDbEntity
  8
実線
100
AcDbLine
 10
823.1309101099274
 20
258.6240822370871
 30
0.0
 11
820.9809101099272
 21
258.6240822370871
 31
0.0
  0
LINE
  5
3FE
102
{ACAD_REACTORS
330
50C
102
}
330
1F
100
AcDbEntity
  8
実線
100
AcDbLine
 10
820.9809101099272
 20
224.6240822370871
 30
0.0
 11
823.1309101099274
 21
224.6240822370871
 31
0.0
  0
LINE
  5
3FF
102
{ACAD_REACTORS
330
50C
102
}
330
1F
100
AcDbEntity
  8
実線
100
AcDbLine
 10
820.9809101099272
 20
224.6240822370871
 30
0.0
 11
820.9809101099272
 21
258.6240822370871
 31
0.0
  0
LINE
  5
400
102
{ACAD_REACTORS
330
50C
102
}
330
1F
100
AcDbEntity
  8
実線
100
AcDbLine
 10
818.6309101099274
 20
230.7740822370869
 30
0.0
 11
818.6309101099274
 21
252.474082237087
 31
0.0
  0
LINE
  5
401
102
{ACAD_REACTORS
330
50C
102
}
330
1F
100
AcDbEntity
  8
実線
100
AcDbLine
 10
818.6309101099274
 20
230.7740822370869
 30
0.0
 11
820.9809101099272
 21
224.6240822370871
 31
0.0
  0
LINE
  5
402
102
{ACAD_REACTORS
330
50C
102
}
330
1F
100
AcDbEntity
  8
実線
100
AcDbLine
 10
820.9809101099272
 20
258.6240822370871
 30
0.0
 11
818.6309101099274
 21
252.474082237087
 31
0.0
  0
LINE
  5
403
102
{ACAD_REACTORS
330
50C
102
}
330
1F
100
AcDbEntity
  8
実線
100
AcDbLine
 10
738.1309101099275
 20
345.524082237087
 30
0.0
 11
798.1309101099275
 21
345.524082237087
 31
0.0
  0
LINE
  5
404
102
{ACAD_REACTORS
330
50C
102
}
330
1F
100
AcDbEntity
  8
実線
100
AcDbLine
 10
798.1309101099275
 20
271.9240822370871
 30
0.0
 11
798.1309101099275
 21
345.524082237087
 31
0.0
  0
LINE
  5
405
102
{ACAD_REACTORS
330
50C
102
}
330
1F
100
AcDbEntity
  8
実線
100
AcDbLine
 10
738.1309101099275
 20
345.524082237087
 30
0.0
 11
738.1309101099275
 21
271.9240822370871
 31
0.0
  0
LINE
  5
406
102
{ACAD_REACTORS
330
50C
102
}
330
1F
100
AcDbEntity
  8
実線
100
AcDbLine
 10
747.1309101099275
 20
258.4240822370869
 30
0.0
 11
738.1309101099279
 21
267.4240822370872
 31
0.0
  0
LINE
  5
407
102
{ACAD_REACTORS
330
50C
102
}
330
1F
100
AcDbEntity
  8
実線
100
AcDbLine
 10
789.1309101099275
 20
258.4240822370869
 30
0.0
 11
798.1309101099275
 21
267.424082237087
 31
0.0
  0
ARC
  5
408
102
{ACAD_REACTORS
330
50C
102
}
330
1F
100
AcDbEntity
  8
実線
100
AcDbCircle
 10
768.1309101099276
 20
237.424082237087
 30
0.0
 40
30.0
100
AcDbArc
 50
45.0
 51
135.0
  0
LINE
  5
409
102
{ACAD_REACTORS
330
50C
102
}
330
1F
100
AcDbEntity
  8
実線
100
AcDbLine
 10
798.1309101099275
 20
271.9240822370871
 30
0.0
 11
738.1309101099275
 21
271.9240822370871
 31
0.0
  0
LINE
  5
40A
102
{ACAD_REACTORS
330
50C
102
}
330
1F
100
AcDbEntity
  8
実線
100
AcDbLine
 10
798.1309101099275
 20
267.424082237087
 30
0.0
 11
798.1309101099275
 21
271.9240822370871
 31
0.0
  0
LINE
  5
40B
102
{ACAD_REACTORS
330
50C
102
}
330
1F
100
AcDbEntity
  8
実線
100
AcDbLine
 10
738.1309101099275
 20
271.9240822370871
 30
0.0
 11
738.1309101099275
 21
267.424082237087
 31
0.0
  0
LINE
  5
40C
102
{ACAD_REACTORS
330
50C
102
}
330
1F
100
AcDbEntity
  8
実線
100
AcDbLine
 10
742.1309101099276
 20
349.524082237087
 30
0.0
 11
794.1309101099276
 21
349.524082237087
 31
0.0
  0
ARC
  5
40D
102
{ACAD_REACTORS
330
50C
102
}
330
1F
100
AcDbEntity
  8
実線
100
AcDbCircle
 10
794.1309101099276
 20
345.524082237087
 30
0.0
 40
4.0
100
AcDbArc
 50
0.0
 51
90.0
  0
ARC
  5
40E
102
{ACAD_REACTORS
330
50C
102
}
330
1F
100
AcDbEntity
  8
実線
100
AcDbCircle
 10
742.1309101099276
 20
345.524082237087
 30
0.0
 40
4.0
100
AcDbArc
 50
90.0
 51
180.0
  0
LINE
  5
40F
102
{ACAD_REACTORS
330
50C
102
}
330
1F
100
AcDbEntity
  8
実線
100
AcDbLine
 10
775.3554080247752
 20
350.724082237087
 30
0.0
 11
774.8801019763252
 21
350.724082237087
 31
0.0
  0
LINE
  5
410
102
{ACAD_REACTORS
330
50C
102
}
330
1F
100
AcDbEntity
  8
実線
100
AcDbLine
 10
775.3554080247752
 20
349.524082237087
 30
0.0
 11
775.3554080247752
 21
350.724082237087
 31
0.0
  0
LINE
  5
411
102
{ACAD_REACTORS
330
50C
102
}
330
1F
100
AcDbEntity
  8
実線
100
AcDbLine
 10
747.1309101099275
 20
208.424082237087
 30
0.0
 11
759.59217484058
 21
208.424082237087
 31
0.0
  0
LINE
  5
412
102
{ACAD_REACTORS
330
50C
102
}
330
1F
100
AcDbEntity
  8
実線
100
AcDbLine
 10
747.1309101099275
 20
208.424082237087
 30
0.0
 11
747.1309101099275
 21
258.4240822370869
 31
0.0
  0
LINE
  5
413
102
{ACAD_REACTORS
330
50C
102
}
330
1F
100
AcDbEntity
  8
実線
100
AcDbLine
 10
789.1309101099275
 20
208.424082237087
 30
0.0
 11
789.1309101099275
 21
258.4240822370869
 31
0.0
  0
LINE
  5
414
102
{ACAD_REACTORS
330
50C
102
}
330
1F
100
AcDbEntity
  8
実線
100
AcDbLine
 10
789.1309101099275
 20
208.424082237087
 30
0.0
 11
776.669645379275
 21
208.424082237087
 31
0.0
  0
LINE
  5
415
102
{ACAD_REACTORS
330
50C
102
}
330
1F
100
AcDbEntity
  8
実線
100
AcDbLine
 10
757.6309101099276
 20
208.424082237087
 30
0.0
 11
757.6309101099276
 21
209.7543402799661
 31
0.0
  0
LINE
  5
416
102
{ACAD_REACTORS
330
50C
102
}
330
1F
100
AcDbEntity
  8
実線
100
AcDbLine
 10
778.6309101099276
 20
208.424082237087
 30
0.0
 11
778.6309101099276
 21
209.7543402799661
 31
0.0
  0
LINE
  5
417
102
{ACAD_REACTORS
330
50C
102
}
330
1F
100
AcDbEntity
  8
実線
100
AcDbLine
 10
789.1309101099275
 20
215.924082237087
 30
0.0
 11
783.5309101099276
 21
215.924082237087
 31
0.0
  0
LINE
  5
418
102
{ACAD_REACTORS
330
50C
102
}
330
1F
100
AcDbEntity
  8
実線
100
AcDbLine
 10
789.1309101099275
 20
258.4240822370869
 30
0.0
 11
747.1309101099275
 21
258.4240822370869
 31
0.0
  0
LINE
  5
419
102
{ACAD_REACTORS
330
50C
102
}
330
1F
100
AcDbEntity
  8
実線
100
AcDbLine
 10
752.7309101099278
 20
215.924082237087
 30
0.0
 11
747.1309101099275
 21
215.924082237087
 31
0.0
  0
LINE
  5
41A
102
{ACAD_REACTORS
330
50C
102
}
330
1F
100
AcDbEntity
  8
実線
100
AcDbLine
 10
754.8449097007139
 20
350.724082237087
 30
0.0
 11
744.3724507853592
 21
350.724082237087
 31
0.0
  0
LINE
  5
41B
102
{ACAD_REACTORS
330
50C
102
}
330
1F
100
AcDbEntity
  8
実線
100
AcDbLine
 10
754.8449097007139
 20
349.524082237087
 30
0.0
 11
754.8449097007139
 21
350.724082237087
 31
0.0
  0
LINE
  5
41C
102
{ACAD_REACTORS
330
50C
102
}
330
1F
100
AcDbEntity
  8
実線
100
AcDbLine
 10
754.3593820168132
 20
349.524082237087
 30
0.0
 11
754.3593820168132
 21
350.724082237087
 31
0.0
  0
LINE
  5
41D
102
{ACAD_REACTORS
330
50C
102
}
330
1F
100
AcDbEntity
  8
実線
100
AcDbLine
 10
744.3724507853592
 20
349.524082237087
 30
0.0
 11
744.3724507853592
 21
350.724082237087
 31
0.0
  0
LINE
  5
41E
102
{ACAD_REACTORS
330
50D
102
}
330
1F
100
AcDbEntity
  8
実線
100
AcDbLine
 10
554.1309101099275
 20
349.524082237087
 30
0.0
 11
554.1309101099275
 21
361.924082237087
 31
0.0
  0
LINE
  5
41F
102
{ACAD_REACTORS
330
50D
102
}
330
1F
100
AcDbEntity
  8
実線
100
AcDbLine
 10
542.1309101099275
 20
361.924082237087
 30
0.0
 11
542.1309101099275
 21
349.524082237087
 31
0.0
  0
LINE
  5
420
102
{ACAD_REACTORS
330
50D
102
}
330
1F
100
AcDbEntity
  8
実線
100
AcDbLine
 10
556.1309101099276
 20
368.424082237087
 30
0.0
 11
540.1309101099275
 21
368.424082237087
 31
0.0
  0
LINE
  5
421
102
{ACAD_REACTORS
330
50D
102
}
330
1F
100
AcDbEntity
  8
実線
100
AcDbLine
 10
540.1309101099275
 20
361.924082237087
 30
0.0
 11
556.1309101099276
 21
361.924082237087
 31
0.0
  0
LINE
  5
422
102
{ACAD_REACTORS
330
50D
102
}
330
1F
100
AcDbEntity
  8
実線
100
AcDbLine
 10
556.1309101099276
 20
361.924082237087
 30
0.0
 11
556.1309101099276
 21
368.424082237087
 31
0.0
  0
LINE
  5
423
102
{ACAD_REACTORS
330
50D
102
}
330
1F
100
AcDbEntity
  8
実線
100
AcDbLine
 10
540.1309101099275
 20
368.424082237087
 30
0.0
 11
540.1309101099275
 21
361.924082237087
 31
0.0
  0
LINE
  5
424
102
{ACAD_REACTORS
330
50D
102
}
330
1F
100
AcDbEntity
  8
実線
100
AcDbLine
 10
530.6600187619437
 20
353.0740822370871
 30
0.0
 11
539.8273988661099
 21
353.0740822370871
 31
0.0
  0
LINE
  5
425
102
{ACAD_REACTORS
330
50D
102
}
330
1F
100
AcDbEntity
  8
実線
100
AcDbLine
 10
530.6600187619437
 20
360.974082237087
 30
0.0
 11
539.8273988661099
 21
360.974082237087
 31
0.0
  0
LINE
  5
426
102
{ACAD_REACTORS
330
50D
102
}
330
1F
100
AcDbEntity
  8
実線
100
AcDbLine
 10
530.6600187619437
 20
353.0740822370871
 30
0.0
 11
530.6600187619437
 21
360.974082237087
 31
0.0
  0
LINE
  5
427
102
{ACAD_REACTORS
330
50D
102
}
330
1F
100
AcDbEntity
  8
実線
100
AcDbLine
 10
538.5496944347924
 20
360.974082237087
 30
0.0
 11
538.5496944347924
 21
353.0740822370871
 31
0.0
  0
LINE
  5
428
102
{ACAD_REACTORS
330
50D
102
}
330
1F
100
AcDbEntity
  8
実線
100
AcDbLine
 10
539.8273988661099
 20
353.0740822370871
 30
0.0
 11
539.8273988661099
 21
360.974082237087
 31
0.0
  0
LINE
  5
429
102
{ACAD_REACTORS
330
50D
102
}
330
1F
100
AcDbEntity
  8
実線
100
AcDbLine
 10
531.9377231932612
 20
374.524082237087
 30
0.0
 11
529.2060461279057
 21
374.524082237087
 31
0.0
  0
LINE
  5
42A
102
{ACAD_REACTORS
330
50D
102
}
330
1F
100
AcDbEntity
  8
実線
100
AcDbLine
 10
531.9377231932612
 20
371.474082237087
 30
0.0
 11
531.9377231932612
 21
374.524082237087
 31
0.0
  0
LINE
  5
42B
102
{ACAD_REACTORS
330
50D
102
}
330
1F
100
AcDbEntity
  8
実線
100
AcDbLine
 10
531.9377231932612
 20
360.974082237087
 30
0.0
 11
531.9377231932612
 21
363.5740822370871
 31
0.0
  0
LINE
  5
42C
102
{ACAD_REACTORS
330
50D
102
}
330
1F
100
AcDbEntity
  8
実線
100
AcDbLine
 10
531.9377231932612
 20
350.724082237087
 30
0.0
 11
531.9377231932612
 21
353.0740822370871
 31
0.0
  0
LINE
  5
42D
102
{ACAD_REACTORS
330
50D
102
}
330
1F
100
AcDbEntity
  8
実線
100
AcDbLine
 10
529.2060461279057
 20
349.524082237087
 30
0.0
 11
530.4044778756803
 21
349.524082237087
 31
0.0
  0
LINE
  5
42E
102
{ACAD_REACTORS
330
50D
102
}
330
1F
100
AcDbEntity
  8
実線
100
AcDbLine
 10
530.4044778756803
 20
374.524082237087
 30
0.0
 11
530.4044778756803
 21
349.524082237087
 31
0.0
  0
LINE
  5
42F
102
{ACAD_REACTORS
330
50D
102
}
330
1F
100
AcDbEntity
  8
実線
100
AcDbLine
 10
529.2060461279057
 20
349.524082237087
 30
0.0
 11
529.2060461279057
 21
374.524082237087
 31
0.0
  0
LINE
  5
430
102
{ACAD_REACTORS
330
50D
102
}
330
1F
100
AcDbEntity
  8
実線
100
AcDbLine
 10
530.6600187619437
 20
371.474082237087
 30
0.0
 11
539.8273988661099
 21
371.474082237087
 31
0.0
  0
LINE
  5
431
102
{ACAD_REACTORS
330
50D
102
}
330
1F
100
AcDbEntity
  8
実線
100
AcDbLine
 10
530.6600187619437
 20
363.5740822370871
 30
0.0
 11
539.8273988661099
 21
363.5740822370871
 31
0.0
  0
LINE
  5
432
102
{ACAD_REACTORS
330
50D
102
}
330
1F
100
AcDbEntity
  8
実線
100
AcDbLine
 10
530.6600187619437
 20
363.5740822370871
 30
0.0
 11
530.6600187619437
 21
371.474082237087
 31
0.0
  0
LINE
  5
433
102
{ACAD_REACTORS
330
50D
102
}
330
1F
100
AcDbEntity
  8
実線
100
AcDbLine
 10
538.5496944347924
 20
371.474082237087
 30
0.0
 11
538.5496944347924
 21
363.5740822370871
 31
0.0
  0
LINE
  5
434
102
{ACAD_REACTORS
330
50D
102
}
330
1F
100
AcDbEntity
  8
実線
100
AcDbLine
 10
539.8273988661099
 20
363.5740822370871
 30
0.0
 11
539.8273988661099
 21
371.474082237087
 31
0.0
  0
ELLIPSE
  5
435
102
{ACAD_REACTORS
330
50D
102
}
330
1F
100
AcDbEntity
  8
実線
100
AcDbEllipse
 10
534.604856598368
 20
367.5240822370871
 30
0.0
 11
0.0
 21
1.5
 31
0.0
210
0.0
220
0.0
230
1.0
 40
0.9986931231453969
 41
4.71238898038469
 42
6.283185307179584
  0
LINE
  5
436
102
{ACAD_REACTORS
330
50D
102
}
330
1F
100
AcDbEntity
  8
実線
100
AcDbLine
 10
534.604856598368
 20
369.0240822370871
 30
0.0
 11
534.2726534462253
 21
369.0240822370871
 31
0.0
  0
LINE
  5
437
102
{ACAD_REACTORS
330
50D
102
}
330
1F
100
AcDbEntity
  8
実線
100
AcDbLine
 10
534.2726534462253
 20
366.024082237087
 30
0.0
 11
534.604856598368
 21
366.024082237087
 31
0.0
  0
ELLIPSE
  5
438
102
{ACAD_REACTORS
330
50D
102
}
330
1F
100
AcDbEntity
  8
実線
100
AcDbEllipse
 10
534.2726534462253
 20
367.5240822370871
 30
0.0
 11
0.0
 21
1.5
 31
0.0
210
0.0
220
0.0
230
1.0
 40
0.9986931231453969
 41
3.141592653589792
 42
6.283185307179584
  0
ELLIPSE
  5
439
102
{ACAD_REACTORS
330
50D
102
}
330
1F
100
AcDbEntity
  8
実線
100
AcDbEllipse
 10
534.2726534462253
 20
367.5240822370871
 30
0.0
 11
0.0
 21
1.5
 31
0.0
210
0.0
220
0.0
230
1.0
 40
0.9986931231453969
 41
1.570796326794897
 42
3.141592653589792
  0
ELLIPSE
  5
43A
102
{ACAD_REACTORS
330
50D
102
}
330
1F
100
AcDbEntity
  8
実線
100
AcDbEllipse
 10
534.604856598368
 20
367.5240822370871
 30
0.0
 11
0.0
 21
1.5
 31
0.0
210
0.0
220
0.0
230
1.0
 40
0.9986931231453969
 41
3.141592653589792
 42
4.71238898038469
  0
ELLIPSE
  5
43B
102
{ACAD_REACTORS
330
50D
102
}
330
1F
100
AcDbEntity
  8
実線
100
AcDbEllipse
 10
534.2726534462253
 20
367.5240822370871
 30
0.0
 11
0.0
 21
1.5
 31
0.0
210
0.0
220
0.0
230
1.0
 40
0.9986931231453969
 41
0.0
 42
1.570796326794897
  0
ELLIPSE
  5
43C
102
{ACAD_REACTORS
330
50D
102
}
330
1F
100
AcDbEntity
  8
実線
100
AcDbEllipse
 10
534.604856598368
 20
357.0240822370871
 30
0.0
 11
0.0
 21
1.5
 31
0.0
210
0.0
220
0.0
230
1.0
 40
0.9986931231453969
 41
4.71238898038469
 42
6.283185307179584
  0
LINE
  5
43D
102
{ACAD_REACTORS
330
50D
102
}
330
1F
100
AcDbEntity
  8
実線
100
AcDbLine
 10
534.604856598368
 20
358.5240822370871
 30
0.0
 11
534.2726534462253
 21
358.5240822370871
 31
0.0
  0
LINE
  5
43E
102
{ACAD_REACTORS
330
50D
102
}
330
1F
100
AcDbEntity
  8
実線
100
AcDbLine
 10
534.2726534462253
 20
355.524082237087
 30
0.0
 11
534.604856598368
 21
355.524082237087
 31
0.0
  0
ELLIPSE
  5
43F
102
{ACAD_REACTORS
330
50D
102
}
330
1F
100
AcDbEntity
  8
実線
100
AcDbEllipse
 10
534.2726534462253
 20
357.0240822370871
 30
0.0
 11
0.0
 21
1.5
 31
0.0
210
0.0
220
0.0
230
1.0
 40
0.9986931231453969
 41
3.141592653589792
 42
6.283185307179584
  0
ELLIPSE
  5
440
102
{ACAD_REACTORS
330
50D
102
}
330
1F
100
AcDbEntity
  8
実線
100
AcDbEllipse
 10
534.2726534462253
 20
357.0240822370871
 30
0.0
 11
0.0
 21
1.5
 31
0.0
210
0.0
220
0.0
230
1.0
 40
0.9986931231453969
 41
1.570796326794897
 42
3.141592653589792
  0
ELLIPSE
  5
441
102
{ACAD_REACTORS
330
50D
102
}
330
1F
100
AcDbEntity
  8
実線
100
AcDbEllipse
 10
534.604856598368
 20
357.0240822370871
 30
0.0
 11
0.0
 21
1.5
 31
0.0
210
0.0
220
0.0
230
1.0
 40
0.9986931231453969
 41
3.141592653589792
 42
4.71238898038469
  0
ELLIPSE
  5
442
102
{ACAD_REACTORS
330
50D
102
}
330
1F
100
AcDbEntity
  8
実線
100
AcDbEllipse
 10
534.2726534462253
 20
357.0240822370871
 30
0.0
 11
0.0
 21
1.5
 31
0.0
210
0.0
220
0.0
230
1.0
 40
0.9986931231453969
 41
0.0
 42
1.570796326794897
  0
LINE
  5
443
102
{ACAD_REACTORS
330
50D
102
}
330
1F
100
AcDbEntity
  8
実線
100
AcDbLine
 10
598.6309101099275
 20
233.974082237087
 30
0.0
 11
569.1309101099275
 21
233.974082237087
 31
0.0
  0
LINE
  5
444
102
{ACAD_REACTORS
330
50D
102
}
330
1F
100
AcDbEntity
  8
実線
100
AcDbLine
 10
569.1309101099275
 20
212.2740822370869
 30
0.0
 11
598.6309101099275
 21
212.2740822370869
 31
0.0
  0
LINE
  5
445
102
{ACAD_REACTORS
330
50D
102
}
330
1F
100
AcDbEntity
  8
実線
100
AcDbLine
 10
603.1309101099274
 20
206.124082237087
 30
0.0
 11
603.1309101099274
 21
240.124082237087
 31
0.0
  0
LINE
  5
446
102
{ACAD_REACTORS
330
50D
102
}
330
1F
100
AcDbEntity
  8
実線
100
AcDbLine
 10
603.1309101099274
 20
240.124082237087
 30
0.0
 11
600.9809101099278
 21
240.124082237087
 31
0.0
  0
LINE
  5
447
102
{ACAD_REACTORS
330
50D
102
}
330
1F
100
AcDbEntity
  8
実線
100
AcDbLine
 10
600.9809101099278
 20
206.124082237087
 30
0.0
 11
603.1309101099274
 21
206.124082237087
 31
0.0
  0
LINE
  5
448
102
{ACAD_REACTORS
330
50D
102
}
330
1F
100
AcDbEntity
  8
実線
100
AcDbLine
 10
600.9809101099278
 20
206.124082237087
 30
0.0
 11
600.9809101099278
 21
240.124082237087
 31
0.0
  0
LINE
  5
449
102
{ACAD_REACTORS
330
50D
102
}
330
1F
100
AcDbEntity
  8
実線
100
AcDbLine
 10
598.6309101099275
 20
212.2740822370869
 30
0.0
 11
598.6309101099275
 21
233.974082237087
 31
0.0
  0
LINE
  5
44A
102
{ACAD_REACTORS
330
50D
102
}
330
1F
100
AcDbEntity
  8
実線
100
AcDbLine
 10
598.6309101099275
 20
212.2740822370869
 30
0.0
 11
600.9809101099278
 21
206.124082237087
 31
0.0
  0
LINE
  5
44B
102
{ACAD_REACTORS
330
50D
102
}
330
1F
100
AcDbEntity
  8
実線
100
AcDbLine
 10
600.9809101099278
 20
240.124082237087
 30
0.0
 11
598.6309101099275
 21
233.974082237087
 31
0.0
  0
CIRCLE
  5
44C
102
{ACAD_REACTORS
330
50D
102
}
330
1F
100
AcDbEntity
  8
実線
100
AcDbCircle
 10
548.1309101099275
 20
241.6240822370871
 30
0.0
 40
17.0
  0
LINE
  5
44D
102
{ACAD_REACTORS
330
50D
102
}
330
1F
100
AcDbEntity
  8
実線
100
AcDbLine
 10
497.6309101099276
 20
212.2740822370869
 30
0.0
 11
527.1309101099275
 21
212.2740822370869
 31
0.0
  0
LINE
  5
44E
102
{ACAD_REACTORS
330
50D
102
}
330
1F
100
AcDbEntity
  8
実線
100
AcDbLine
 10
527.1309101099275
 20
233.974082237087
 30
0.0
 11
497.6309101099276
 21
233.974082237087
 31
0.0
  0
LINE
  5
44F
102
{ACAD_REACTORS
330
50D
102
}
330
1F
100
AcDbEntity
  8
実線
100
AcDbLine
 10
497.6309101099276
 20
233.974082237087
 30
0.0
 11
495.2809101099274
 21
240.124082237087
 31
0.0
  0
LINE
  5
450
102
{ACAD_REACTORS
330
50D
102
}
330
1F
100
AcDbEntity
  8
実線
100
AcDbLine
 10
495.2809101099274
 20
206.124082237087
 30
0.0
 11
497.6309101099276
 21
212.2740822370869
 31
0.0
  0
LINE
  5
451
102
{ACAD_REACTORS
330
50D
102
}
330
1F
100
AcDbEntity
  8
実線
100
AcDbLine
 10
497.6309101099276
 20
233.974082237087
 30
0.0
 11
497.6309101099276
 21
212.2740822370869
 31
0.0
  0
LINE
  5
452
102
{ACAD_REACTORS
330
50D
102
}
330
1F
100
AcDbEntity
  8
実線
100
AcDbLine
 10
493.1309101099276
 20
206.124082237087
 30
0.0
 11
495.2809101099274
 21
206.124082237087
 31
0.0
  0
LINE
  5
453
102
{ACAD_REACTORS
330
50D
102
}
330
1F
100
AcDbEntity
  8
実線
100
AcDbLine
 10
495.2809101099274
 20
240.124082237087
 30
0.0
 11
493.1309101099276
 21
240.124082237087
 31
0.0
  0
LINE
  5
454
102
{ACAD_REACTORS
330
50D
102
}
330
1F
100
AcDbEntity
  8
実線
100
AcDbLine
 10
493.1309101099276
 20
240.124082237087
 30
0.0
 11
493.1309101099276
 21
206.124082237087
 31
0.0
  0
LINE
  5
455
102
{ACAD_REACTORS
330
50D
102
}
330
1F
100
AcDbEntity
  8
実線
100
AcDbLine
 10
495.2809101099274
 20
240.124082237087
 30
0.0
 11
495.2809101099274
 21
206.124082237087
 31
0.0
  0
LINE
  5
456
102
{ACAD_REACTORS
330
50D
102
}
330
1F
100
AcDbEntity
  8
実線
100
AcDbLine
 10
578.1309101099274
 20
345.524082237087
 30
0.0
 11
518.1309101099276
 21
345.524082237087
 31
0.0
  0
LINE
  5
457
102
{ACAD_REACTORS
330
50D
102
}
330
1F
100
AcDbEntity
  8
実線
100
AcDbLine
 10
578.1309101099274
 20
271.9240822370871
 30
0.0
 11
578.1309101099274
 21
345.524082237087
 31
0.0
  0
LINE
  5
458
102
{ACAD_REACTORS
330
50D
102
}
330
1F
100
AcDbEntity
  8
実線
100
AcDbLine
 10
518.1309101099276
 20
345.524082237087
 30
0.0
 11
518.1309101099276
 21
271.9240822370871
 31
0.0
  0
LINE
  5
459
102
{ACAD_REACTORS
330
50D
102
}
330
1F
100
AcDbEntity
  8
実線
100
AcDbLine
 10
527.1309101099275
 20
258.4240822370869
 30
0.0
 11
518.1309101099276
 21
267.424082237087
 31
0.0
  0
LINE
  5
45A
102
{ACAD_REACTORS
330
50D
102
}
330
1F
100
AcDbEntity
  8
実線
100
AcDbLine
 10
569.1309101099275
 20
258.4240822370869
 30
0.0
 11
578.1309101099274
 21
267.424082237087
 31
0.0
  0
ARC
  5
45B
102
{ACAD_REACTORS
330
50D
102
}
330
1F
100
AcDbEntity
  8
実線
100
AcDbCircle
 10
548.1309101099275
 20
237.424082237087
 30
0.0
 40
30.0
100
AcDbArc
 50
45.0
 51
135.0
  0
LINE
  5
45C
102
{ACAD_REACTORS
330
50D
102
}
330
1F
100
AcDbEntity
  8
実線
100
AcDbLine
 10
578.1309101099274
 20
267.424082237087
 30
0.0
 11
578.1309101099274
 21
271.9240822370871
 31
0.0
  0
LINE
  5
45D
102
{ACAD_REACTORS
330
50D
102
}
330
1F
100
AcDbEntity
  8
実線
100
AcDbLine
 10
518.1309101099276
 20
271.9240822370871
 30
0.0
 11
518.1309101099276
 21
267.4240822370872
 31
0.0
  0
LINE
  5
45E
102
{ACAD_REACTORS
330
50D
102
}
330
1F
100
AcDbEntity
  8
実線
100
AcDbLine
 10
578.1309101099274
 20
271.9240822370871
 30
0.0
 11
518.1309101099276
 21
271.9240822370871
 31
0.0
  0
LINE
  5
45F
102
{ACAD_REACTORS
330
50D
102
}
330
1F
100
AcDbEntity
  8
実線
100
AcDbLine
 10
574.1309101099274
 20
349.524082237087
 30
0.0
 11
537.2734063232273
 21
349.524082237087
 31
0.0
  0
LINE
  5
460
102
{ACAD_REACTORS
330
50D
102
}
330
1F
100
AcDbEntity
  8
実線
100
AcDbLine
 10
522.2855256374709
 20
349.524082237087
 30
0.0
 11
529.2060461279057
 21
349.524082237087
 31
0.0
  0
ARC
  5
461
102
{ACAD_REACTORS
330
50D
102
}
330
1F
100
AcDbEntity
  8
実線
100
AcDbCircle
 10
574.1309101099274
 20
345.524082237087
 30
0.0
 40
4.0
100
AcDbArc
 50
0.0
 51
90.0
  0
ARC
  5
462
102
{ACAD_REACTORS
330
50D
102
}
330
1F
100
AcDbEntity
  8
実線
100
AcDbCircle
 10
522.1309101099276
 20
345.524082237087
 30
0.0
 40
4.0
100
AcDbArc
 50
90.0
 51
180.0
  0
LINE
  5
463
102
{ACAD_REACTORS
330
50D
102
}
330
1F
100
AcDbEntity
  8
実線
100
AcDbLine
 10
529.2060461279057
 20
350.724082237087
 30
0.0
 11
520.9403636277077
 21
350.724082237087
 31
0.0
  0
LINE
  5
464
102
{ACAD_REACTORS
330
50D
102
}
330
1F
100
AcDbEntity
  8
実線
100
AcDbLine
 10
520.9403636277077
 20
349.524082237087
 30
0.0
 11
522.2855256374709
 21
349.524082237087
 31
0.0
  0
LINE
  5
465
102
{ACAD_REACTORS
330
50D
102
}
330
1F
100
AcDbEntity
  8
実線
100
AcDbLine
 10
520.9403636277077
 20
349.524082237087
 30
0.0
 11
520.9403636277077
 21
350.724082237087
 31
0.0
  0
LINE
  5
466
102
{ACAD_REACTORS
330
50D
102
}
330
1F
100
AcDbEntity
  8
実線
100
AcDbLine
 10
527.1309101099275
 20
208.424082237087
 30
0.0
 11
569.1309101099275
 21
208.424082237087
 31
0.0
  0
LINE
  5
467
102
{ACAD_REACTORS
330
50D
102
}
330
1F
100
AcDbEntity
  8
実線
100
AcDbLine
 10
527.1309101099275
 20
208.424082237087
 30
0.0
 11
527.1309101099275
 21
258.4240822370869
 31
0.0
  0
LINE
  5
468
102
{ACAD_REACTORS
330
50D
102
}
330
1F
100
AcDbEntity
  8
実線
100
AcDbLine
 10
569.1309101099275
 20
208.424082237087
 30
0.0
 11
569.1309101099275
 21
258.4240822370869
 31
0.0
  0
LINE
  5
469
102
{ACAD_REACTORS
330
50D
102
}
330
1F
100
AcDbEntity
  8
実線
100
AcDbLine
 10
558.6309101099275
 20
208.424082237087
 30
0.0
 11
558.6309101099275
 21
215.924082237087
 31
0.0
  0
LINE
  5
46A
102
{ACAD_REACTORS
330
50D
102
}
330
1F
100
AcDbEntity
  8
実線
100
AcDbLine
 10
569.1309101099275
 20
215.924082237087
 30
0.0
 11
558.6309101099275
 21
215.924082237087
 31
0.0
  0
LINE
  5
46B
102
{ACAD_REACTORS
330
50D
102
}
330
1F
100
AcDbEntity
  8
実線
100
AcDbLine
 10
545.5309101099278
 20
258.4240822370869
 30
0.0
 11
527.1309101099275
 21
258.4240822370869
 31
0.0
  0
LINE
  5
46C
102
{ACAD_REACTORS
330
50D
102
}
330
1F
100
AcDbEntity
  8
実線
100
AcDbLine
 10
569.1309101099275
 20
258.4240822370869
 30
0.0
 11
550.7309101099273
 21
258.4240822370869
 31
0.0
  0
LINE
  5
46D
102
{ACAD_REACTORS
330
50D
102
}
330
1F
100
AcDbEntity
  8
実線
100
AcDbLine
 10
537.6309101099275
 20
215.924082237087
 30
0.0
 11
527.1309101099275
 21
215.924082237087
 31
0.0
  0
LINE
  5
46E
102
{ACAD_REACTORS
330
50D
102
}
330
1F
100
AcDbEntity
  8
実線
100
AcDbLine
 10
537.6309101099275
 20
208.424082237087
 30
0.0
 11
537.6309101099275
 21
215.924082237087
 31
0.0
  0
LINE
  5
46F
102
{ACAD_REACTORS
330
50D
102
}
330
1F
100
AcDbEntity
  8
実線
100
AcDbLine
 10
530.4044778756803
 20
350.724082237087
 30
0.0
 11
540.4031443180883
 21
350.724082237087
 31
0.0
  0
LINE
  5
470
102
{ACAD_REACTORS
330
50D
102
}
330
1F
100
AcDbEntity
  8
実線
100
AcDbLine
 10
530.4044778756803
 20
349.524082237087
 30
0.0
 11
537.2734063232273
 21
349.524082237087
 31
0.0
  0
LINE
  5
471
102
{ACAD_REACTORS
330
50D
102
}
330
1F
100
AcDbEntity
  8
実線
100
AcDbLine
 10
540.4031443180883
 20
349.524082237087
 30
0.0
 11
540.4031443180883
 21
350.724082237087
 31
0.0
  0
LINE
  5
472
102
{ACAD_REACTORS
330
50D
102
}
330
1F
100
AcDbEntity
  8
実線
100
AcDbLine
 10
539.8920625455615
 20
349.524082237087
 30
0.0
 11
539.8920625455615
 21
350.724082237087
 31
0.0
  0
LINE
  5
473
102
{ACAD_REACTORS
330
510
102
}
330
1F
100
AcDbEntity
  8
実線
100
AcDbLine
 10
114.1309101099276
 20
349.524082237087
 30
0.0
 11
114.1309101099276
 21
361.924082237087
 31
0.0
  0
LINE
  5
474
102
{ACAD_REACTORS
330
510
102
}
330
1F
100
AcDbEntity
  8
実線
100
AcDbLine
 10
102.1309101099276
 20
361.924082237087
 30
0.0
 11
102.1309101099276
 21
349.524082237087
 31
0.0
  0
LINE
  5
475
102
{ACAD_REACTORS
330
510
102
}
330
1F
100
AcDbEntity
  8
実線
100
AcDbLine
 10
116.1309101099276
 20
361.924082237087
 30
0.0
 11
116.1309101099276
 21
368.424082237087
 31
0.0
  0
LINE
  5
476
102
{ACAD_REACTORS
330
510
102
}
330
1F
100
AcDbEntity
  8
実線
100
AcDbLine
 10
100.1309101099276
 20
368.424082237087
 30
0.0
 11
100.1309101099276
 21
361.924082237087
 31
0.0
  0
LINE
  5
477
102
{ACAD_REACTORS
330
510
102
}
330
1F
100
AcDbEntity
  8
実線
100
AcDbLine
 10
116.1309101099276
 20
368.424082237087
 30
0.0
 11
100.1309101099276
 21
368.424082237087
 31
0.0
  0
LINE
  5
478
102
{ACAD_REACTORS
330
510
102
}
330
1F
100
AcDbEntity
  8
実線
100
AcDbLine
 10
100.1309101099276
 20
361.924082237087
 30
0.0
 11
116.1309101099276
 21
361.924082237087
 31
0.0
  0
LINE
  5
479
102
{ACAD_REACTORS
330
510
102
}
330
1F
100
AcDbEntity
  8
実線
100
AcDbLine
 10
116.4344213537452
 20
360.974082237087
 30
0.0
 11
124.3240970265939
 21
360.974082237087
 31
0.0
  0
LINE
  5
47A
102
{ACAD_REACTORS
330
510
102
}
330
1F
100
AcDbEntity
  8
実線
100
AcDbLine
 10
116.4344213537452
 20
353.0740822370871
 30
0.0
 11
116.4344213537452
 21
360.974082237087
 31
0.0
  0
LINE
  5
47B
102
{ACAD_REACTORS
330
510
102
}
330
1F
100
AcDbEntity
  8
実線
100
AcDbLine
 10
124.3240970265939
 20
353.0740822370871
 30
0.0
 11
116.4344213537453
 21
353.0740822370871
 31
0.0
  0
LINE
  5
47C
102
{ACAD_REACTORS
330
510
102
}
330
1F
100
AcDbEntity
  8
実線
100
AcDbLine
 10
124.3240970265939
 20
374.524082237087
 30
0.0
 11
127.0557740919494
 21
374.524082237087
 31
0.0
  0
LINE
  5
47D
102
{ACAD_REACTORS
330
510
102
}
330
1F
100
AcDbEntity
  8
実線
100
AcDbLine
 10
124.3240970265939
 20
374.524082237087
 30
0.0
 11
124.3240970265939
 21
349.524082237087
 31
0.0
  0
LINE
  5
47E
102
{ACAD_REACTORS
330
510
102
}
330
1F
100
AcDbEntity
  8
実線
100
AcDbLine
 10
127.0557740919494
 20
350.724082237087
 30
0.0
 11
127.0557740919494
 21
374.524082237087
 31
0.0
  0
LINE
  5
47F
102
{ACAD_REACTORS
330
510
102
}
330
1F
100
AcDbEntity
  8
実線
100
AcDbLine
 10
125.5225287743684
 20
374.524082237087
 30
0.0
 11
125.5225287743684
 21
349.524082237087
 31
0.0
  0
LINE
  5
480
102
{ACAD_REACTORS
330
510
102
}
330
1F
100
AcDbEntity
  8
実線
100
AcDbLine
 10
116.4344213537452
 20
371.474082237087
 30
0.0
 11
124.3240970265939
 21
371.474082237087
 31
0.0
  0
LINE
  5
481
102
{ACAD_REACTORS
330
510
102
}
330
1F
100
AcDbEntity
  8
実線
100
AcDbLine
 10
116.4344213537452
 20
363.5740822370871
 30
0.0
 11
116.4344213537452
 21
371.474082237087
 31
0.0
  0
LINE
  5
482
102
{ACAD_REACTORS
330
510
102
}
330
1F
100
AcDbEntity
  8
実線
100
AcDbLine
 10
124.3240970265939
 20
363.5740822370871
 30
0.0
 11
116.4344213537453
 21
363.5740822370871
 31
0.0
  0
LINE
  5
483
102
{ACAD_REACTORS
330
510
102
}
330
1F
100
AcDbEntity
  8
実線
100
AcDbLine
 10
57.63091010992763
 20
212.2740822370869
 30
0.0
 11
87.13091010992764
 21
212.2740822370869
 31
0.0
  0
LINE
  5
484
102
{ACAD_REACTORS
330
510
102
}
330
1F
100
AcDbEntity
  8
実線
100
AcDbLine
 10
87.13091010992764
 20
233.974082237087
 30
0.0
 11
57.63091010992763
 21
233.974082237087
 31
0.0
  0
LINE
  5
485
102
{ACAD_REACTORS
330
510
102
}
330
1F
100
AcDbEntity
  8
実線
100
AcDbLine
 10
53.13091010992764
 20
206.124082237087
 30
0.0
 11
55.28091010992763
 21
206.124082237087
 31
0.0
  0
LINE
  5
486
102
{ACAD_REACTORS
330
510
102
}
330
1F
100
AcDbEntity
  8
実線
100
AcDbLine
 10
55.28091010992763
 20
240.124082237087
 30
0.0
 11
53.13091010992764
 21
240.124082237087
 31
0.0
  0
LINE
  5
487
102
{ACAD_REACTORS
330
510
102
}
330
1F
100
AcDbEntity
  8
実線
100
AcDbLine
 10
53.13091010992764
 20
240.124082237087
 30
0.0
 11
53.13091010992764
 21
206.124082237087
 31
0.0
  0
LINE
  5
488
102
{ACAD_REACTORS
330
510
102
}
330
1F
100
AcDbEntity
  8
実線
100
AcDbLine
 10
57.63091010992763
 20
233.974082237087
 30
0.0
 11
55.28091010992763
 21
240.124082237087
 31
0.0
  0
LINE
  5
489
102
{ACAD_REACTORS
330
510
102
}
330
1F
100
AcDbEntity
  8
実線
100
AcDbLine
 10
55.28091010992763
 20
206.124082237087
 30
0.0
 11
57.63091010992763
 21
212.2740822370869
 31
0.0
  0
LINE
  5
48A
102
{ACAD_REACTORS
330
510
102
}
330
1F
100
AcDbEntity
  8
実線
100
AcDbLine
 10
55.28091010992763
 20
240.124082237087
 30
0.0
 11
55.28091010992763
 21
206.124082237087
 31
0.0
  0
LINE
  5
48B
102
{ACAD_REACTORS
330
510
102
}
330
1F
100
AcDbEntity
  8
実線
100
AcDbLine
 10
57.63091010992763
 20
233.974082237087
 30
0.0
 11
57.63091010992763
 21
212.2740822370869
 31
0.0
  0
CIRCLE
  5
48C
102
{ACAD_REACTORS
330
510
102
}
330
1F
100
AcDbEntity
  8
実線
100
AcDbCircle
 10
108.1309101099276
 20
241.6240822370871
 30
0.0
 40
17.0
  0
LINE
  5
48D
102
{ACAD_REACTORS
330
510
102
}
330
1F
100
AcDbEntity
  8
実線
100
AcDbLine
 10
158.6309101099276
 20
233.974082237087
 30
0.0
 11
129.1309101099276
 21
233.974082237087
 31
0.0
  0
LINE
  5
48E
102
{ACAD_REACTORS
330
510
102
}
330
1F
100
AcDbEntity
  8
実線
100
AcDbLine
 10
129.1309101099276
 20
212.2740822370869
 30
0.0
 11
158.6309101099276
 21
212.2740822370869
 31
0.0
  0
LINE
  5
48F
102
{ACAD_REACTORS
330
510
102
}
330
1F
100
AcDbEntity
  8
実線
100
AcDbLine
 10
158.6309101099276
 20
212.2740822370869
 30
0.0
 11
158.6309101099276
 21
233.974082237087
 31
0.0
  0
LINE
  5
490
102
{ACAD_REACTORS
330
510
102
}
330
1F
100
AcDbEntity
  8
実線
100
AcDbLine
 10
158.6309101099276
 20
212.2740822370869
 30
0.0
 11
160.9809101099276
 21
206.124082237087
 31
0.0
  0
LINE
  5
491
102
{ACAD_REACTORS
330
510
102
}
330
1F
100
AcDbEntity
  8
実線
100
AcDbLine
 10
160.9809101099276
 20
240.124082237087
 30
0.0
 11
158.6309101099276
 21
233.974082237087
 31
0.0
  0
LINE
  5
492
102
{ACAD_REACTORS
330
510
102
}
330
1F
100
AcDbEntity
  8
実線
100
AcDbLine
 10
163.1309101099276
 20
206.124082237087
 30
0.0
 11
163.1309101099276
 21
240.124082237087
 31
0.0
  0
LINE
  5
493
102
{ACAD_REACTORS
330
510
102
}
330
1F
100
AcDbEntity
  8
実線
100
AcDbLine
 10
160.9809101099276
 20
206.124082237087
 30
0.0
 11
160.9809101099276
 21
240.124082237087
 31
0.0
  0
LINE
  5
494
102
{ACAD_REACTORS
330
510
102
}
330
1F
100
AcDbEntity
  8
実線
100
AcDbLine
 10
163.1309101099276
 20
240.124082237087
 30
0.0
 11
160.9809101099276
 21
240.124082237087
 31
0.0
  0
LINE
  5
495
102
{ACAD_REACTORS
330
510
102
}
330
1F
100
AcDbEntity
  8
実線
100
AcDbLine
 10
160.9809101099276
 20
206.124082237087
 30
0.0
 11
163.1309101099276
 21
206.124082237087
 31
0.0
  0
LINE
  5
496
102
{ACAD_REACTORS
330
510
102
}
330
1F
100
AcDbEntity
  8
実線
100
AcDbLine
 10
138.1309101099276
 20
271.9240822370871
 30
0.0
 11
138.1309101099276
 21
345.524082237087
 31
0.0
  0
LINE
  5
497
102
{ACAD_REACTORS
330
510
102
}
330
1F
100
AcDbEntity
  8
実線
100
AcDbLine
 10
78.13091010992764
 20
345.524082237087
 30
0.0
 11
78.13091010992764
 21
271.9240822370871
 31
0.0
  0
LINE
  5
498
102
{ACAD_REACTORS
330
510
102
}
330
1F
100
AcDbEntity
  8
実線
100
AcDbLine
 10
138.1309101099276
 20
345.524082237087
 30
0.0
 11
78.13091010992764
 21
345.524082237087
 31
0.0
  0
LINE
  5
499
102
{ACAD_REACTORS
330
510
102
}
330
1F
100
AcDbEntity
  8
実線
100
AcDbLine
 10
87.13091010992764
 20
258.4240822370869
 30
0.0
 11
78.13091010992764
 21
267.424082237087
 31
0.0
  0
LINE
  5
49A
102
{ACAD_REACTORS
330
510
102
}
330
1F
100
AcDbEntity
  8
実線
100
AcDbLine
 10
129.1309101099276
 20
258.4240822370869
 30
0.0
 11
138.1309101099276
 21
267.424082237087
 31
0.0
  0
LINE
  5
49B
102
{ACAD_REACTORS
330
510
102
}
330
1F
100
AcDbEntity
  8
実線
100
AcDbLine
 10
78.13091010992764
 20
271.9240822370871
 30
0.0
 11
138.1309101099276
 21
271.9240822370871
 31
0.0
  0
ARC
  5
49C
102
{ACAD_REACTORS
330
510
102
}
330
1F
100
AcDbEntity
  8
実線
100
AcDbCircle
 10
108.1309101099276
 20
237.424082237087
 30
0.0
 40
30.0
100
AcDbArc
 50
45.0
 51
135.0
  0
LINE
  5
49D
102
{ACAD_REACTORS
330
510
102
}
330
1F
100
AcDbEntity
  8
実線
100
AcDbLine
 10
138.1309101099276
 20
267.424082237087
 30
0.0
 11
138.1309101099276
 21
271.924082237087
 31
0.0
  0
LINE
  5
49E
102
{ACAD_REACTORS
330
510
102
}
330
1F
100
AcDbEntity
  8
実線
100
AcDbLine
 10
78.13091010992764
 20
271.9240822370871
 30
0.0
 11
78.13091010992764
 21
267.424082237087
 31
0.0
  0
LINE
  5
49F
102
{ACAD_REACTORS
330
510
102
}
330
1F
100
AcDbEntity
  8
実線
100
AcDbLine
 10
82.13091010992764
 20
349.524082237087
 30
0.0
 11
133.1317199938227
 21
349.524082237087
 31
0.0
  0
ARC
  5
4A0
102
{ACAD_REACTORS
330
510
102
}
330
1F
100
AcDbEntity
  8
実線
100
AcDbCircle
 10
134.1309101099276
 20
345.524082237087
 30
0.0
 40
4.0
100
AcDbArc
 50
0.0
 51
90.0
  0
ARC
  5
4A1
102
{ACAD_REACTORS
330
510
102
}
330
1F
100
AcDbEntity
  8
実線
100
AcDbCircle
 10
82.13091010992764
 20
345.524082237087
 30
0.0
 40
4.0
100
AcDbArc
 50
90.0
 51
180.0
  0
LINE
  5
4A2
102
{ACAD_REACTORS
330
510
102
}
330
1F
100
AcDbEntity
  8
実線
100
AcDbLine
 10
133.1317199938227
 20
349.524082237087
 30
0.0
 11
135.3214565921476
 21
349.524082237087
 31
0.0
  0
LINE
  5
4A3
102
{ACAD_REACTORS
330
510
102
}
330
1F
100
AcDbEntity
  8
実線
100
AcDbLine
 10
125.5225287743684
 20
350.724082237087
 30
0.0
 11
135.3214565921476
 21
350.724082237087
 31
0.0
  0
LINE
  5
4A4
102
{ACAD_REACTORS
330
510
102
}
330
1F
100
AcDbEntity
  8
実線
100
AcDbLine
 10
135.3214565921476
 20
349.524082237087
 30
0.0
 11
135.3214565921476
 21
350.724082237087
 31
0.0
  0
LINE
  5
4A5
102
{ACAD_REACTORS
330
510
102
}
330
1F
100
AcDbEntity
  8
実線
100
AcDbLine
 10
134.8103748196206
 20
349.524082237087
 30
0.0
 11
134.8103748196206
 21
350.724082237087
 31
0.0
  0
LINE
  5
4A6
102
{ACAD_REACTORS
330
510
102
}
330
1F
100
AcDbEntity
  8
実線
100
AcDbLine
 10
129.1309101099276
 20
208.424082237087
 30
0.0
 11
129.1309101099276
 21
258.4240822370869
 31
0.0
  0
LINE
  5
4A7
102
{ACAD_REACTORS
330
510
102
}
330
1F
100
AcDbEntity
  8
実線
100
AcDbLine
 10
129.1309101099276
 20
208.424082237087
 30
0.0
 11
87.13091010992764
 21
208.424082237087
 31
0.0
  0
LINE
  5
4A8
102
{ACAD_REACTORS
330
510
102
}
330
1F
100
AcDbEntity
  8
実線
100
AcDbLine
 10
87.13091010992764
 20
208.424082237087
 30
0.0
 11
87.13091010992764
 21
258.4240822370869
 31
0.0
  0
LINE
  5
4A9
102
{ACAD_REACTORS
330
510
102
}
330
1F
100
AcDbEntity
  8
実線
100
AcDbLine
 10
97.63091010992765
 20
208.424082237087
 30
0.0
 11
97.63091010992765
 21
215.924082237087
 31
0.0
  0
LINE
  5
4AA
102
{ACAD_REACTORS
330
510
102
}
330
1F
100
AcDbEntity
  8
実線
100
AcDbLine
 10
118.6309101099276
 20
208.424082237087
 30
0.0
 11
118.6309101099276
 21
215.924082237087
 31
0.0
  0
LINE
  5
4AB
102
{ACAD_REACTORS
330
510
102
}
330
1F
100
AcDbEntity
  8
実線
100
AcDbLine
 10
129.1309101099276
 20
215.924082237087
 30
0.0
 11
118.6309101099276
 21
215.924082237087
 31
0.0
  0
LINE
  5
4AC
102
{ACAD_REACTORS
330
510
102
}
330
1F
100
AcDbEntity
  8
実線
100
AcDbLine
 10
105.5309101099277
 20
258.4240822370869
 30
0.0
 11
87.13091010992764
 21
258.4240822370869
 31
0.0
  0
LINE
  5
4AD
102
{ACAD_REACTORS
330
510
102
}
330
1F
100
AcDbEntity
  8
実線
100
AcDbLine
 10
129.1309101099276
 20
258.4240822370869
 30
0.0
 11
110.7309101099275
 21
258.4240822370869
 31
0.0
  0
LINE
  5
4AE
102
{ACAD_REACTORS
330
510
102
}
330
1F
100
AcDbEntity
  8
実線
100
AcDbLine
 10
97.63091010992765
 20
215.924082237087
 30
0.0
 11
87.13091010992764
 21
215.924082237087
 31
0.0
  0
LINE
  5
4AF
102
{ACAD_REACTORS
330
510
102
}
330
1F
100
AcDbEntity
  8
実線
100
AcDbLine
 10
124.3240970265939
 20
350.724082237087
 30
0.0
 11
115.8586759017667
 21
350.724082237087
 31
0.0
  0
LINE
  5
4B0
102
{ACAD_REACTORS
330
510
102
}
330
1F
100
AcDbEntity
  8
実線
100
AcDbLine
 10
115.8586759017667
 20
349.524082237087
 30
0.0
 11
115.8586759017667
 21
350.724082237087
 31
0.0
  0
LINE
  5
4B1
102
{ACAD_REACTORS
330
50F
102
}
330
1F
100
AcDbEntity
  8
実線
100
AcDbLine
 10
320.1309101099277
 20
368.424082237087
 30
0.0
 11
320.1309101099277
 21
361.924082237087
 31
0.0
  0
LINE
  5
4B2
102
{ACAD_REACTORS
330
50F
102
}
330
1F
100
AcDbEntity
  8
実線
100
AcDbLine
 10
321.3817182435302
 20
368.424082237087
 30
0.0
 11
320.1309101099277
 21
368.424082237087
 31
0.0
  0
LINE
  5
4B3
102
{ACAD_REACTORS
330
50F
102
}
330
1F
100
AcDbEntity
  8
実線
100
AcDbLine
 10
321.3817182435302
 20
361.924082237087
 30
0.0
 11
320.1309101099277
 21
361.924082237087
 31
0.0
  0
LINE
  5
4B4
102
{ACAD_REACTORS
330
50F
102
}
330
1F
100
AcDbEntity
  8
実線
100
AcDbLine
 10
321.38171824353
 20
374.524082237087
 30
0.0
 11
351.4038417505952
 21
374.524082237087
 31
0.0
  0
LINE
  5
4B5
102
{ACAD_REACTORS
330
50F
102
}
330
1F
100
AcDbEntity
  8
実線
100
AcDbLine
 10
346.2328012197551
 20
349.524082237087
 30
0.0
 11
351.4038417505952
 21
349.524082237087
 31
0.0
  0
LINE
  5
4B6
102
{ACAD_REACTORS
330
50F
102
}
330
1F
100
AcDbEntity
  8
実線
100
AcDbLine
 10
321.3817182435302
 20
350.724082237087
 30
0.0
 11
321.3817182435302
 21
374.524082237087
 31
0.0
  0
LINE
  5
4B7
102
{ACAD_REACTORS
330
50F
102
}
330
1F
100
AcDbEntity
  8
実線
100
AcDbLine
 10
351.4038417505952
 20
374.524082237087
 30
0.0
 11
351.4038417505952
 21
349.524082237087
 31
0.0
  0
LINE
  5
4B8
102
{ACAD_REACTORS
330
50F
102
}
330
1F
100
AcDbEntity
  8
実線
100
AcDbLine
 10
351.342511937892
 20
349.524082237087
 30
0.0
 11
351.342511937892
 21
374.524082237087
 31
0.0
  0
ELLIPSE
  5
4B9
102
{ACAD_REACTORS
330
50F
102
}
330
1F
100
AcDbEntity
  8
実線
100
AcDbEllipse
 10
353.1037587354613
 20
367.5240822370871
 30
0.0
 11
0.0
 21
1.5
 31
0.0
210
0.0
220
0.0
230
1.0
 40
0.0511081772527001
 41
0.0
 42
1.570796326794897
  0
LINE
  5
4BA
102
{ACAD_REACTORS
330
50F
102
}
330
1F
100
AcDbEntity
  8
実線
100
AcDbLine
 10
351.4038417505952
 20
366.024082237087
 30
0.0
 11
353.1037587354613
 21
366.024082237087
 31
0.0
  0
LINE
  5
4BB
102
{ACAD_REACTORS
330
50F
102
}
330
1F
100
AcDbEntity
  8
実線
100
AcDbLine
 10
353.1037587354613
 20
369.0240822370871
 30
0.0
 11
351.4038417505952
 21
369.0240822370871
 31
0.0
  0
ELLIPSE
  5
4BC
102
{ACAD_REACTORS
330
50F
102
}
330
1F
100
AcDbEntity
  8
実線
100
AcDbEllipse
 10
353.1037587354613
 20
367.5240822370871
 30
0.0
 11
0.0
 21
1.5
 31
0.0
210
0.0
220
0.0
230
1.0
 40
0.0511081772527001
 41
3.14159265358979
 42
6.283185307179584
  0
ELLIPSE
  5
4BD
102
{ACAD_REACTORS
330
50F
102
}
330
1F
100
AcDbEntity
  8
実線
100
AcDbEllipse
 10
353.1037587354613
 20
367.5240822370871
 30
0.0
 11
0.0
 21
1.5
 31
0.0
210
0.0
220
0.0
230
1.0
 40
0.0511081772527001
 41
1.570796326794897
 42
3.14159265358979
  0
LINE
  5
4BE
102
{ACAD_REACTORS
330
50F
102
}
330
1F
100
AcDbEntity
  8
実線
100
AcDbLine
 10
351.4038417505952
 20
355.524082237087
 30
0.0
 11
353.1037587354613
 21
355.524082237087
 31
0.0
  0
LINE
  5
4BF
102
{ACAD_REACTORS
330
50F
102
}
330
1F
100
AcDbEntity
  8
実線
100
AcDbLine
 10
353.1037587354613
 20
358.5240822370871
 30
0.0
 11
351.4038417505952
 21
358.5240822370871
 31
0.0
  0
ELLIPSE
  5
4C0
102
{ACAD_REACTORS
330
50F
102
}
330
1F
100
AcDbEntity
  8
実線
100
AcDbEllipse
 10
353.1037587354613
 20
357.0240822370871
 30
0.0
 11
0.0
 21
1.5
 31
0.0
210
0.0
220
0.0
230
1.0
 40
0.0511081772527001
 41
3.14159265358979
 42
6.283185307179584
  0
ELLIPSE
  5
4C1
102
{ACAD_REACTORS
330
50F
102
}
330
1F
100
AcDbEntity
  8
実線
100
AcDbEllipse
 10
353.1037587354613
 20
357.0240822370871
 30
0.0
 11
0.0
 21
1.5
 31
0.0
210
0.0
220
0.0
230
1.0
 40
0.0511081772527001
 41
1.570796326794897
 42
3.14159265358979
  0
ELLIPSE
  5
4C2
102
{ACAD_REACTORS
330
50F
102
}
330
1F
100
AcDbEntity
  8
実線
100
AcDbEllipse
 10
353.1037587354613
 20
357.0240822370871
 30
0.0
 11
0.0
 21
1.5
 31
0.0
210
0.0
220
0.0
230
1.0
 40
0.0511081772527001
 41
0.0
 42
1.570796326794897
  0
LINE
  5
4C3
102
{ACAD_REACTORS
330
50F
102
}
330
1F
100
AcDbEntity
  8
実線
100
AcDbLine
 10
378.6309101099277
 20
252.474082237087
 30
0.0
 11
349.1309101099277
 21
252.474082237087
 31
0.0
  0
LINE
  5
4C4
102
{ACAD_REACTORS
330
50F
102
}
330
1F
100
AcDbEntity
  8
実線
100
AcDbLine
 10
349.1309101099277
 20
230.7740822370869
 30
0.0
 11
378.6309101099277
 21
230.7740822370869
 31
0.0
  0
LINE
  5
4C5
102
{ACAD_REACTORS
330
50F
102
}
330
1F
100
AcDbEntity
  8
実線
100
AcDbLine
 10
378.6309101099277
 20
230.7740822370869
 30
0.0
 11
378.6309101099277
 21
252.474082237087
 31
0.0
  0
LINE
  5
4C6
102
{ACAD_REACTORS
330
50F
102
}
330
1F
100
AcDbEntity
  8
実線
100
AcDbLine
 10
378.6309101099277
 20
230.7740822370869
 30
0.0
 11
380.9809101099278
 21
224.6240822370871
 31
0.0
  0
LINE
  5
4C7
102
{ACAD_REACTORS
330
50F
102
}
330
1F
100
AcDbEntity
  8
実線
100
AcDbLine
 10
380.9809101099278
 20
258.6240822370871
 30
0.0
 11
378.6309101099277
 21
252.474082237087
 31
0.0
  0
LINE
  5
4C8
102
{ACAD_REACTORS
330
50F
102
}
330
1F
100
AcDbEntity
  8
実線
100
AcDbLine
 10
383.1309101099277
 20
224.6240822370871
 30
0.0
 11
383.1309101099277
 21
258.6240822370871
 31
0.0
  0
LINE
  5
4C9
102
{ACAD_REACTORS
330
50F
102
}
330
1F
100
AcDbEntity
  8
実線
100
AcDbLine
 10
380.9809101099278
 20
224.6240822370871
 30
0.0
 11
380.9809101099278
 21
258.6240822370871
 31
0.0
  0
LINE
  5
4CA
102
{ACAD_REACTORS
330
50F
102
}
330
1F
100
AcDbEntity
  8
実線
100
AcDbLine
 10
383.1309101099277
 20
258.6240822370871
 30
0.0
 11
380.9809101099278
 21
258.6240822370871
 31
0.0
  0
LINE
  5
4CB
102
{ACAD_REACTORS
330
50F
102
}
330
1F
100
AcDbEntity
  8
実線
100
AcDbLine
 10
380.9809101099278
 20
224.6240822370871
 30
0.0
 11
383.1309101099277
 21
224.6240822370871
 31
0.0
  0
LINE
  5
4CC
102
{ACAD_REACTORS
330
50F
102
}
330
1F
100
AcDbEntity
  8
実線
100
AcDbLine
 10
277.6309101099278
 20
230.7740822370869
 30
0.0
 11
307.1309101099277
 21
230.7740822370869
 31
0.0
  0
LINE
  5
4CD
102
{ACAD_REACTORS
330
50F
102
}
330
1F
100
AcDbEntity
  8
実線
100
AcDbLine
 10
307.1309101099277
 20
252.474082237087
 30
0.0
 11
277.6309101099278
 21
252.474082237087
 31
0.0
  0
LINE
  5
4CE
102
{ACAD_REACTORS
330
50F
102
}
330
1F
100
AcDbEntity
  8
実線
100
AcDbLine
 10
273.1309101099277
 20
224.6240822370871
 30
0.0
 11
275.2809101099277
 21
224.6240822370871
 31
0.0
  0
LINE
  5
4CF
102
{ACAD_REACTORS
330
50F
102
}
330
1F
100
AcDbEntity
  8
実線
100
AcDbLine
 10
275.2809101099277
 20
258.6240822370871
 30
0.0
 11
273.1309101099277
 21
258.6240822370871
 31
0.0
  0
LINE
  5
4D0
102
{ACAD_REACTORS
330
50F
102
}
330
1F
100
AcDbEntity
  8
実線
100
AcDbLine
 10
273.1309101099277
 20
224.6240822370871
 30
0.0
 11
273.1309101099277
 21
258.6240822370871
 31
0.0
  0
LINE
  5
4D1
102
{ACAD_REACTORS
330
50F
102
}
330
1F
100
AcDbEntity
  8
実線
100
AcDbLine
 10
277.6309101099278
 20
252.474082237087
 30
0.0
 11
275.2809101099277
 21
258.6240822370871
 31
0.0
  0
LINE
  5
4D2
102
{ACAD_REACTORS
330
50F
102
}
330
1F
100
AcDbEntity
  8
実線
100
AcDbLine
 10
275.2809101099277
 20
224.6240822370871
 30
0.0
 11
277.6309101099278
 21
230.7740822370869
 31
0.0
  0
LINE
  5
4D3
102
{ACAD_REACTORS
330
50F
102
}
330
1F
100
AcDbEntity
  8
実線
100
AcDbLine
 10
275.2809101099277
 20
258.6240822370871
 30
0.0
 11
275.2809101099277
 21
224.6240822370871
 31
0.0
  0
LINE
  5
4D4
102
{ACAD_REACTORS
330
50F
102
}
330
1F
100
AcDbEntity
  8
実線
100
AcDbLine
 10
277.6309101099278
 20
252.474082237087
 30
0.0
 11
277.6309101099278
 21
230.7740822370869
 31
0.0
  0
CIRCLE
  5
4D5
102
{ACAD_REACTORS
330
50F
102
}
330
1F
100
AcDbEntity
  8
実線
100
AcDbCircle
 10
328.1309101099277
 20
223.124082237087
 30
0.0
 40
17.0
  0
LINE
  5
4D6
102
{ACAD_REACTORS
330
50F
102
}
330
1F
100
AcDbEntity
  8
実線
100
AcDbLine
 10
358.1309101099277
 20
271.9240822370871
 30
0.0
 11
358.1309101099277
 21
345.524082237087
 31
0.0
  0
LINE
  5
4D7
102
{ACAD_REACTORS
330
50F
102
}
330
1F
100
AcDbEntity
  8
実線
100
AcDbLine
 10
298.1309101099277
 20
345.524082237087
 30
0.0
 11
298.1309101099277
 21
271.9240822370871
 31
0.0
  0
LINE
  5
4D8
102
{ACAD_REACTORS
330
50F
102
}
330
1F
100
AcDbEntity
  8
実線
100
AcDbLine
 10
358.1309101099277
 20
345.524082237087
 30
0.0
 11
298.1309101099277
 21
345.524082237087
 31
0.0
  0
LINE
  5
4D9
102
{ACAD_REACTORS
330
50F
102
}
330
1F
100
AcDbEntity
  8
実線
100
AcDbLine
 10
307.1309101099277
 20
258.4240822370869
 30
0.0
 11
298.1309101099277
 21
267.424082237087
 31
0.0
  0
LINE
  5
4DA
102
{ACAD_REACTORS
330
50F
102
}
330
1F
100
AcDbEntity
  8
実線
100
AcDbLine
 10
349.1309101099277
 20
258.4240822370869
 30
0.0
 11
358.1309101099277
 21
267.4240822370872
 31
0.0
  0
ARC
  5
4DB
102
{ACAD_REACTORS
330
50F
102
}
330
1F
100
AcDbEntity
  8
実線
100
AcDbCircle
 10
328.1309101099277
 20
237.424082237087
 30
0.0
 40
30.0
100
AcDbArc
 50
45.0
 51
135.0
  0
LINE
  5
4DC
102
{ACAD_REACTORS
330
50F
102
}
330
1F
100
AcDbEntity
  8
実線
100
AcDbLine
 10
358.1309101099277
 20
267.424082237087
 30
0.0
 11
358.1309101099277
 21
271.924082237087
 31
0.0
  0
LINE
  5
4DD
102
{ACAD_REACTORS
330
50F
102
}
330
1F
100
AcDbEntity
  8
実線
100
AcDbLine
 10
298.1309101099277
 20
271.9240822370871
 30
0.0
 11
298.1309101099277
 21
267.424082237087
 31
0.0
  0
LINE
  5
4DE
102
{ACAD_REACTORS
330
50F
102
}
330
1F
100
AcDbEntity
  8
実線
100
AcDbLine
 10
358.1309101099277
 20
271.9240822370871
 30
0.0
 11
298.1309101099277
 21
271.9240822370871
 31
0.0
  0
LINE
  5
4DF
102
{ACAD_REACTORS
330
50F
102
}
330
1F
100
AcDbEntity
  8
実線
100
AcDbLine
 10
351.7553595537095
 20
349.524082237087
 30
0.0
 11
354.1309101099277
 21
349.524082237087
 31
0.0
  0
LINE
  5
4E0
102
{ACAD_REACTORS
330
50F
102
}
330
1F
100
AcDbEntity
  8
実線
100
AcDbLine
 10
330.9621821687214
 20
349.524082237087
 30
0.0
 11
346.2328012197551
 21
349.524082237087
 31
0.0
  0
LINE
  5
4E1
102
{ACAD_REACTORS
330
50F
102
}
330
1F
100
AcDbEntity
  8
実線
100
AcDbLine
 10
302.1309125473243
 20
349.524082237087
 30
0.0
 11
320.90641219508
 21
349.524082237087
 31
0.0
  0
ARC
  5
4E2
102
{ACAD_REACTORS
330
50F
102
}
330
1F
100
AcDbEntity
  8
実線
100
AcDbCircle
 10
354.1309101099277
 20
345.524082237087
 30
0.0
 40
4.0
100
AcDbArc
 50
0.0
 51
90.0
  0
ARC
  5
4E3
102
{ACAD_REACTORS
330
50F
102
}
330
1F
100
AcDbEntity
  8
実線
100
AcDbCircle
 10
302.1309101099277
 20
345.524082237087
 30
0.0
 40
4.0
100
AcDbArc
 50
90.0
 51
180.0
  0
LINE
  5
4E4
102
{ACAD_REACTORS
330
50F
102
}
330
1F
100
AcDbEntity
  8
実線
100
AcDbLine
 10
330.9621821687214
 20
349.524082237087
 30
0.0
 11
320.90641219508
 21
349.524082237087
 31
0.0
  0
LINE
  5
4E5
102
{ACAD_REACTORS
330
50F
102
}
330
1F
100
AcDbEntity
  8
実線
100
AcDbLine
 10
331.368649474984
 20
349.524082237087
 30
0.0
 11
331.368649474984
 21
350.724082237087
 31
0.0
  0
LINE
  5
4E6
102
{ACAD_REACTORS
330
50F
102
}
330
1F
100
AcDbEntity
  8
実線
100
AcDbLine
 10
331.368649474984
 20
350.724082237087
 30
0.0
 11
320.90641219508
 21
350.724082237087
 31
0.0
  0
LINE
  5
4E7
102
{ACAD_REACTORS
330
50F
102
}
330
1F
100
AcDbEntity
  8
実線
100
AcDbLine
 10
330.8933434265339
 20
349.524082237087
 30
0.0
 11
330.8933434265339
 21
350.724082237087
 31
0.0
  0
LINE
  5
4E8
102
{ACAD_REACTORS
330
50F
102
}
330
1F
100
AcDbEntity
  8
実線
100
AcDbLine
 10
320.90641219508
 20
349.524082237087
 30
0.0
 11
320.90641219508
 21
350.724082237087
 31
0.0
  0
LINE
  5
4E9
102
{ACAD_REACTORS
330
50F
102
}
330
1F
100
AcDbEntity
  8
実線
100
AcDbLine
 10
307.1309101099277
 20
208.424082237087
 30
0.0
 11
307.1309101099277
 21
258.4240822370869
 31
0.0
  0
LINE
  5
4EA
102
{ACAD_REACTORS
330
50F
102
}
330
1F
100
AcDbEntity
  8
実線
100
AcDbLine
 10
307.1309101099277
 20
208.424082237087
 30
0.0
 11
319.5921748405802
 21
208.424082237087
 31
0.0
  0
LINE
  5
4EB
102
{ACAD_REACTORS
330
50F
102
}
330
1F
100
AcDbEntity
  8
実線
100
AcDbLine
 10
349.1309101099277
 20
208.424082237087
 30
0.0
 11
349.1309101099277
 21
258.4240822370869
 31
0.0
  0
LINE
  5
4EC
102
{ACAD_REACTORS
330
50F
102
}
330
1F
100
AcDbEntity
  8
実線
100
AcDbLine
 10
349.1309101099277
 20
208.424082237087
 30
0.0
 11
336.6696453792754
 21
208.424082237087
 31
0.0
  0
LINE
  5
4ED
102
{ACAD_REACTORS
330
50F
102
}
330
1F
100
AcDbEntity
  8
実線
100
AcDbLine
 10
317.6309101099277
 20
208.424082237087
 30
0.0
 11
317.6309101099277
 21
209.7543402799661
 31
0.0
  0
LINE
  5
4EE
102
{ACAD_REACTORS
330
50F
102
}
330
1F
100
AcDbEntity
  8
実線
100
AcDbLine
 10
338.6309101099277
 20
208.424082237087
 30
0.0
 11
338.6309101099277
 21
209.7543402799661
 31
0.0
  0
LINE
  5
4EF
102
{ACAD_REACTORS
330
50F
102
}
330
1F
100
AcDbEntity
  8
実線
100
AcDbLine
 10
349.1309101099277
 20
215.924082237087
 30
0.0
 11
343.5309101099277
 21
215.924082237087
 31
0.0
  0
LINE
  5
4F0
102
{ACAD_REACTORS
330
50F
102
}
330
1F
100
AcDbEntity
  8
実線
100
AcDbLine
 10
349.1309101099277
 20
258.4240822370869
 30
0.0
 11
307.1309101099277
 21
258.4240822370869
 31
0.0
  0
LINE
  5
4F1
102
{ACAD_REACTORS
330
50F
102
}
330
1F
100
AcDbEntity
  8
実線
100
AcDbLine
 10
312.7309101099277
 20
215.924082237087
 30
0.0
 11
307.1309101099277
 21
215.924082237087
 31
0.0
  0
LINE
  5
4F2
102
{ACAD_REACTORS
330
50F
102
}
330
1F
100
AcDbEntity
  8
実線
100
AcDbLine
 10
351.4038417505952
 20
349.524082237087
 30
0.0
 11
351.7553595537095
 21
349.524082237087
 31
0.0
  0
LINE
  5
4F3
102
{ACAD_REACTORS
330
50F
102
}
330
1F
100
AcDbEntity
  8
実線
100
AcDbLine
 10
351.8893694344959
 20
350.724082237087
 30
0.0
 11
351.4038417505952
 21
350.724082237087
 31
0.0
  0
LINE
  5
4F4
102
{ACAD_REACTORS
330
50F
102
}
330
1F
100
AcDbEntity
  8
実線
100
AcDbLine
 10
351.8893694344959
 20
349.524082237087
 30
0.0
 11
351.8893694344959
 21
350.724082237087
 31
0.0
  0
LINE
  5
4F5
102
{ACAD_REACTORS
330
50E
102
}
330
1F
100
AcDbEntity
  8
中心線
100
AcDbLine
 10
271.1309101099278
 20
81.62408223708695
 30
0.0
 11
385.1309101099277
 21
81.62408223708695
 31
0.0
  0
LINE
  5
4F6
102
{ACAD_REACTORS
330
50E
102
}
330
1F
100
AcDbEntity
  8
中心線
100
AcDbLine
 10
328.1309101099277
 20
24.62408223708696
 30
0.0
 11
328.1309101099277
 21
138.6240822370869
 31
0.0
  0
LINE
  5
4F7
102
{ACAD_REACTORS
330
55E
102
}
330
1F
100
AcDbEntity
  8
中心線
100
AcDbLine
 10
271.1309101099278
 20
461.6240822370868
 30
0.0
 11
385.1309101099277
 21
461.6240822370868
 31
0.0
  0
LINE
  5
4F8
102
{ACAD_REACTORS
330
55E
102
}
330
1F
100
AcDbEntity
  8
中心線
100
AcDbLine
 10
328.1309101099277
 20
404.6240822370868
 30
0.0
 11
328.1309101099277
 21
518.6240822370868
 31
0.0
  0
LINE
  5
4F9
102
{ACAD_REACTORS
330
50C
102
}
330
1F
100
AcDbEntity
  8
中心線
100
AcDbLine
 10
711.1309101099278
 20
241.6240822370869
 30
0.0
 11
825.1309101099279
 21
241.6240822370869
 31
0.0
  0
LINE
  5
4FA
102
{ACAD_REACTORS
330
50C
102
}
330
1F
100
AcDbEntity
  8
中心線
100
AcDbLine
 10
768.1309101099276
 20
199.0244853883559
 30
0.0
 11
768.1309101099276
 21
383.9385774200541
 31
0.0
  0
LINE
  5
4FB
102
{ACAD_REACTORS
330
50C
102
}
330
1F
100
AcDbEntity
  8
中心線
100
AcDbLine
 10
735.6309101099276
 20
223.1240822370871
 30
0.0
 11
800.6309101099276
 21
223.1240822370871
 31
0.0
  0
LINE
  5
503
102
{ACAD_REACTORS
330
50D
102
}
330
1F
100
AcDbEntity
  8
中心線
100
AcDbLine
 10
515.6309101099276
 20
241.6240822370869
 30
0.0
 11
580.6309101099276
 21
241.6240822370869
 31
0.0
  0
LINE
  5
504
102
{ACAD_REACTORS
330
50D
102
}
330
1F
100
AcDbEntity
  8
中心線
100
AcDbLine
 10
548.1309101099275
 20
199.0244853883559
 30
0.0
 11
548.1309101099275
 21
383.9385774200541
 31
0.0
  0
LINE
  5
505
102
{ACAD_REACTORS
330
50D
102
}
330
1F
100
AcDbEntity
  8
中心線
100
AcDbLine
 10
491.1309101099275
 20
223.1240822370871
 30
0.0
 11
605.1309101099276
 21
223.1240822370871
 31
0.0
  0
LINE
  5
506
102
{ACAD_REACTORS
330
50F
102
}
330
1F
100
AcDbEntity
  8
中心線
100
AcDbLine
 10
271.1309101099277
 20
241.6240822370869
 30
0.0
 11
385.1309101099277
 21
241.6240822370869
 31
0.0
  0
LINE
  5
507
102
{ACAD_REACTORS
330
50F
102
}
330
1F
100
AcDbEntity
  8
中心線
100
AcDbLine
 10
328.1309101099277
 20
199.0244853883559
 30
0.0
 11
328.1309101099277
 21
383.9385774200541
 31
0.0
  0
LINE
  5
508
102
{ACAD_REACTORS
330
50F
102
}
330
1F
100
AcDbEntity
  8
中心線
100
AcDbLine
 10
295.6309101099277
 20
223.1240822370871
 30
0.0
 11
360.6309101099278
 21
223.1240822370871
 31
0.0
  0
LINE
  5
509
102
{ACAD_REACTORS
330
510
102
}
330
1F
100
AcDbEntity
  8
中心線
100
AcDbLine
 10
75.63091010992764
 20
241.6240822370869
 30
0.0
 11
140.6309101099276
 21
241.6240822370869
 31
0.0
  0
LINE
  5
50A
102
{ACAD_REACTORS
330
510
102
}
330
1F
100
AcDbEntity
  8
中心線
100
AcDbLine
 10
108.1309101099276
 20
199.0244853883559
 30
0.0
 11
108.1309101099276
 21
383.9385774200541
 31
0.0
  0
LINE
  5
50B
102
{ACAD_REACTORS
330
510
102
}
330
1F
100
AcDbEntity
  8
中心線
100
AcDbLine
 10
51.1309101099277
 20
223.1240822370871
 30
0.0
 11
165.1309101099277
 21
223.1240822370871
 31
0.0
  0
ENDSEC
  0
SECTION
  2
OBJECTS
  0
DICTIONARY
  5
C
330
0
100
AcDbDictionary
281
     1
  3
ACAD_CIP_PREVIOUS_PRODUCT_INFO
350
270
  3
ACAD_COLOR
350
266
  3
ACAD_DETAILVIEWSTYLE
350
269
  3
ACAD_GROUP
350
D
  3
ACAD_LAYOUT
350
1A
  3
ACAD_MATERIAL
350
43
  3
ACAD_MLEADERSTYLE
350
5B
  3
ACAD_MLINESTYLE
350
17
  3
ACAD_PLOTSETTINGS
350
19
  3
ACAD_PLOTSTYLENAME
350
E
  3
ACAD_SCALELIST
350
47
  3
ACAD_SECTIONVIEWSTYLE
350
267
  3
ACAD_TABLESTYLE
350
59
  3
ACAD_VISUALSTYLE
350
2A
  3
ACDB_RECOMPOSE_DATA
350
5F1
  3
AcDbVariableDictionary
350
21B
  3
DWGPROPS
350
5F2
  0
DICTIONARY
  5
277
330
2
100
AcDbDictionary
280
     1
281
     1
  3
ACAD_LAYERSTATES
360
278
  0
DICTIONARY
  5
512
330
10
100
AcDbDictionary
280
     1
281
     1
  3
ADSK_XREC_LAYER_RECONCILED
360
513
  0
DICTIONARY
  5
273
330
272
100
AcDbDictionary
280
     1
281
     1
  3
ADSK_XREC_LAYER_RECONCILED
360
514
  0
DICTIONARY
  5
275
330
274
100
AcDbDictionary
280
     1
281
     1
  3
ADSK_XREC_LAYER_RECONCILED
360
515
  0
DICTIONARY
  5
394
330
1F
100
AcDbDictionary
280
     1
281
     1
  3
ACAD_SORTENTS
360
395
  0
XRECORD
  5
270
102
{ACAD_REACTORS
330
C
102
}
330
C
100
AcDbXrecord
280
     1
300
ACDLT
300
2016
300
ACDLT_F_S
  0
DICTIONARY
  5
266
102
{ACAD_REACTORS
330
C
102
}
330
C
100
AcDbDictionary
281
     1
  0
DICTIONARY
  5
269
102
{ACAD_REACTORS
330
C
102
}
330
C
100
AcDbDictionary
281
     1
  3
Metric50
350
26A
  0
DICTIONARY
  5
D
102
{ACAD_REACTORS
330
C
102
}
330
C
100
AcDbDictionary
281
     1
  3
*A1
350
50C
  3
*A2
350
50D
  3
*A3
350
50E
  3
*A4
350
50F
  3
*A5
350
510
  3
*A6
350
55E
  0
DICTIONARY
  5
1A
102
{ACAD_REACTORS
330
C
102
}
330
C
100
AcDbDictionary
281
     1
  3
Layout1
350
1E
  3
Model
350
22
  3
レイアウト1
350
26B
  0
DICTIONARY
  5
43
102
{ACAD_REACTORS
330
C
102
}
330
C
100
AcDbDictionary
281
     1
  3
ByBlock
350
45
  3
ByLayer
350
44
  3
Global
350
46
  0
DICTIONARY
  5
5B
102
{ACAD_REACTORS
330
C
102
}
330
C
100
AcDbDictionary
281
     1
  3
Standard
350
5C
  0
DICTIONARY
  5
17
102
{ACAD_REACTORS
330
C
102
}
330
C
100
AcDbDictionary
281
     1
  3
Standard
350
18
  0
DICTIONARY
  5
19
102
{ACAD_REACTORS
330
C
102
}
330
C
100
AcDbDictionary
281
     1
  0
ACDBDICTIONARYWDFLT
  5
E
102
{ACAD_REACTORS
330
C
102
}
330
C
100
AcDbDictionary
281
     1
  3
Normal
350
F
100
AcDbDictionaryWithDefault
340
F
  0
DICTIONARY
  5
47
102
{ACAD_REACTORS
330
C
102
}
330
C
100
AcDbDictionary
281
     1
  3
A0
350
48
  3
A1
350
49
  3
A2
350
4A
  3
A3
350
4B
  3
A4
350
4C
  3
A5
350
4D
  3
A6
350
4E
  3
A7
350
4F
  3
A8
350
50
  3
A9
350
51
  3
B0
350
52
  3
B1
350
53
  3
B2
350
54
  3
B3
350
55
  3
B4
350
56
  3
B5
350
57
  3
B6
350
58
  0
DICTIONARY
  5
267
102
{ACAD_REACTORS
330
C
102
}
330
C
100
AcDbDictionary
281
     1
  3
Metric50
350
268
  0
DICTIONARY
  5
59
102
{ACAD_REACTORS
330
C
102
}
330
C
100
AcDbDictionary
281
     1
  3
Standard
350
5A
  0
DICTIONARY
  5
2A
102
{ACAD_REACTORS
330
C
102
}
330
C
100
AcDbDictionary
281
     1
  3
2dWireframe
350
2F
  3
Basic
350
32
  3
Brighten
350
36
  3
ColorChange
350
3A
  3
Conceptual
350
34
  3
Dim
350
35
  3
EdgeColorOff
350
3D
  3
Facepattern
350
39
  3
Flat
350
2B
  3
FlatWithEdges
350
2C
  3
Gouraud
350
2D
  3
GouraudWithEdges
350
2E
  3
Hidden
350
31
  3
JitterOff
350
3B
  3
Linepattern
350
38
  3
OverhangOff
350
3C
  3
Realistic
350
33
  3
Shaded
350
42
  3
Shaded with edges
350
41
  3
Shades of Gray
350
3E
  3
Sketchy
350
3F
  3
Thicken
350
37
  3
Wireframe
350
30
  3
X-Ray
350
40
  0
XRECORD
  5
5F1
102
{ACAD_REACTORS
330
C
102
}
330
C
100
AcDbXrecord
280
     1
 90
        1
330
5A
  0
DICTIONARY
  5
21B
102
{ACAD_REACTORS
330
C
102
}
330
C
100
AcDbDictionary
281
     1
  3
CANNOSCALE
350
229
  3
CENTEREXE
350
222
  3
CENTERLTYPEFILE
350
223
  3
CMLEADERSTYLE
350
21D
  3
CTABLESTYLE
350
21C
  3
CVIEWDETAILSTYLE
350
516
  3
CVIEWSECTIONSTYLE
350
517
  3
DIMASSOC
350
224
  3
HIDETEXT
350
225
  3
INDEXCTL
350
563
  3
LAYEREVAL
350
519
  3
LAYERNOTIFY
350
51A
  3
LIGHTINGUNITS
350
518
  3
LOFTANG1
350
5ED
  3
LOFTANG2
350
5EE
  3
MSLTSCALE
350
22A
  3
PSOLHEIGHT
350
5EC
  3
PSOLWIDTH
350
5EB
  3
SORTENTS
350
562
  3
XCLIPFRAME
350
5EF
  0
XRECORD
  5
5F2
102
{ACAD_REACTORS
330
C
102
}
330
C
100
AcDbXrecord
280
     1
  1
DWGPROPS COOKIE
  2

  3

  4

  6
File was created by TR2_DExp
  7

  8
t.yanai
  9

300
=
301
=
302
=
303
=
304
=
305
=
306
=
307
=
308
=
309
=
 40
0.007847037037037
 41
2455188.75
 42
2459753.398934954
  1

 90
        0
  0
DICTIONARY
  5
278
102
{ACAD_REACTORS
330
277
102
}
330
277
100
AcDbDictionary
281
     1
  0
XRECORD
  5
513
102
{ACAD_REACTORS
330
512
102
}
330
512
100
AcDbXrecord
280
     1
290
     1
  0
XRECORD
  5
514
102
{ACAD_REACTORS
330
273
102
}
330
273
100
AcDbXrecord
280
     1
290
     1
  0
XRECORD
  5
515
102
{ACAD_REACTORS
330
275
102
}
330
275
100
AcDbXrecord
280
     1
290
     1
  0
SORTENTSTABLE
  5
395
102
{ACAD_REACTORS
330
394
102
}
330
394
100
AcDbSortentsTable
330
1F
331
4A4
  5
360
331
3EF
  5
3E1
331
42E
  5
37D
331
465
  5
3B6
331
461
  5
3B2
331
4A0
  5
35C
331
4DF
  5
319
331
3EB
  5
3DD
331
42A
  5
379
331
45D
  5
3AE
331
49C
  5
358
331
4DB
  5
315
331
3E7
  5
3D9
331
426
  5
375
331
422
  5
371
331
459
  5
3AA
331
498
  5
354
331
4D7
  5
311
331
3E3
  5
3D5
331
4D3
  5
30D
331
377
  5
46C
331
3B6
  5
430
331
3B2
  5
42C
331
373
  5
468
331
36F
  5
464
331
3AE
  5
428
331
36B
  5
460
331
3AA
  5
424
331
494
  5
350
331
3DF
  5
3D1
331
41E
  5
36D
331
455
  5
3A6
331
490
  5
34C
331
4CF
  5
309
331
3DB
  5
3CD
331
41A
  5
40C
331
451
  5
3A2
331
44D
  5
39E
331
48C
  5
348
331
4CB
  5
305
331
3D7
  5
3C9
331
416
  5
408
331
412
  5
404
331
449
  5
39A
331
488
  5
344
331
4C7
  5
301
331
3D3
  5
3C5
331
4C3
  5
2FD
331
367
  5
45C
331
3A6
  5
420
331
3A2
  5
41C
331
390
  5
485
331
363
  5
458
331
39E
  5
418
331
39A
  5
414
331
40E
  5
400
331
484
  5
340
331
480
  5
33C
331
4BF
  5
2F9
331
506
  5
506
331
40A
  5
3FC
331
445
  5
396
331
47C
  5
338
331
4BB
  5
2F5
331
406
  5
3F8
331
402
  5
3F4
331
441
  5
390
331
478
  5
334
331
4F6
  5
4F6
331
4F2
  5
32C
331
35F
  5
454
331
50A
  5
50A
331
35B
  5
450
331
38E
  5
483
331
3CD
  5
447
331
38A
  5
47F
331
3C9
  5
443
331
4B7
  5
2F1
331
4B3
  5
2ED
331
3FE
  5
3F0
331
43D
  5
38C
331
474
  5
330
331
470
  5
3C1
331
4AF
  5
36B
331
4EE
  5
328
331
3FA
  5
3EC
331
439
  5
388
331
435
  5
384
331
46C
  5
3BD
331
4AB
  5
367
331
4EA
  5
324
331
3F6
  5
3E8
331
3F2
  5
3E4
331
431
  5
380
331
468
  5
3B9
331
4E6
  5
320
331
4E2
  5
31C
331
357
  5
44C
331
386
  5
47B
331
3C5
  5
43F
331
3C1
  5
43B
331
4F8
  5
4F8
331
382
  5
477
331
37E
  5
473
331
3BD
  5
437
331
37A
  5
46F
331
3B9
  5
433
331
4A7
  5
363
331
4A3
  5
35F
331
3EE
  5
3E0
331
42D
  5
37C
331
464
  5
3B5
331
460
  5
3B1
331
49F
  5
35B
331
4DE
  5
318
331
3EA
  5
3DC
331
429
  5
378
331
425
  5
374
331
45C
  5
3AD
331
49B
  5
357
331
4DA
  5
314
331
3E6
  5
3D8
331
421
  5
370
331
458
  5
3A9
331
4D6
  5
310
331
3E2
  5
3D4
331
4D2
  5
30C
331
376
  5
46B
331
3B5
  5
42F
331
3B1
  5
42B
331
372
  5
467
331
36E
  5
463
331
3AD
  5
427
331
36A
  5
45F
331
3A9
  5
423
331
497
  5
353
331
493
  5
34F
331
3DE
  5
3D0
331
41D
  5
40F
331
454
  5
3A5
331
450
  5
3A1
331
48F
  5
34B
331
4CE
  5
308
331
3DA
  5
3CC
331
419
  5
40B
331
44C
  5
39D
331
48B
  5
347
331
4CA
  5
304
331
3D6
  5
3C8
331
415
  5
407
331
411
  5
403
331
448
  5
399
331
4C6
  5
300
331
3D2
  5
3C4
331
4C2
  5
2FC
331
397
  5
411
331
393
  5
488
331
366
  5
45B
331
3A5
  5
41F
331
3A1
  5
41B
331
362
  5
457
331
39D
  5
417
331
399
  5
413
331
487
  5
343
331
483
  5
33F
331
40D
  5
3FF
331
47F
  5
33B
331
4BE
  5
2F8
331
505
  5
505
331
409
  5
3FB
331
444
  5
393
331
47B
  5
337
331
4BA
  5
2F4
331
405
  5
3F7
331
401
  5
3F3
331
440
  5
38F
331
4F5
  5
4F5
331
4F1
  5
32B
331
509
  5
509
331
35E
  5
453
331
35A
  5
44F
331
38D
  5
482
331
3CC
  5
446
331
389
  5
47E
331
3C8
  5
442
331
4B6
  5
2F0
331
477
  5
333
331
4B2
  5
2EC
331
3FD
  5
3EF
331
43C
  5
38B
331
473
  5
32F
331
46F
  5
3C0
331
4AE
  5
36A
331
4ED
  5
327
331
3F9
  5
3EB
331
438
  5
387
331
434
  5
383
331
46B
  5
3BC
331
4AA
  5
366
331
4E9
  5
323
331
3F5
  5
3E7
331
3F1
  5
3E3
331
430
  5
37F
331
4E5
  5
31F
331
4E1
  5
31B
331
3C4
  5
43E
331
4FB
  5
4FB
331
385
  5
47A
331
3C0
  5
43A
331
381
  5
476
331
37D
  5
472
331
3BC
  5
436
331
379
  5
46E
331
3B8
  5
432
331
467
  5
3B8
331
4A6
  5
362
331
4A2
  5
35E
331
3ED
  5
3DF
331
42C
  5
37B
331
463
  5
3B4
331
45F
  5
3B0
331
49E
  5
35A
331
4DD
  5
317
331
3E9
  5
3DB
331
428
  5
377
331
424
  5
373
331
45B
  5
3AC
331
49A
  5
356
331
4D9
  5
313
331
3E5
  5
3D7
331
3E1
  5
3D3
331
420
  5
36F
331
4D5
  5
30F
331
4D1
  5
30B
331
375
  5
46A
331
3B4
  5
42E
331
3B0
  5
42A
331
371
  5
466
331
36D
  5
462
331
3AC
  5
426
331
369
  5
45E
331
3A8
  5
422
331
457
  5
3A8
331
496
  5
352
331
492
  5
34E
331
3DD
  5
3CF
331
41C
  5
40E
331
453
  5
3A4
331
44F
  5
3A0
331
48E
  5
34A
331
4CD
  5
307
331
3D9
  5
3CB
331
418
  5
40A
331
414
  5
406
331
44B
  5
39C
331
48A
  5
346
331
4C9
  5
303
331
3D5
  5
3C7
331
410
  5
402
331
4C5
  5
2FF
331
3D1
  5
44B
331
4C1
  5
2FB
331
396
  5
410
331
365
  5
45A
331
3A4
  5
41E
331
3A0
  5
41A
331
361
  5
456
331
39C
  5
416
331
398
  5
412
331
486
  5
342
331
482
  5
33E
331
40C
  5
3FE
331
447
  5
398
331
47E
  5
33A
331
4BD
  5
2F7
331
504
  5
504
331
408
  5
3FA
331
443
  5
392
331
47A
  5
336
331
4B9
  5
2F3
331
404
  5
3F6
331
4F4
  5
32E
331
400
  5
3F2
331
4F0
  5
32A
331
508
  5
508
331
3CF
  5
449
331
35D
  5
452
331
359
  5
44E
331
38C
  5
481
331
3CB
  5
445
331
4B5
  5
2EF
331
43F
  5
38E
331
476
  5
332
331
472
  5
3C3
331
4B1
  5
2EB
331
3FC
  5
3EE
331
43B
  5
38A
331
46E
  5
3BF
331
4AD
  5
369
331
4EC
  5
326
331
3F8
  5
3EA
331
437
  5
386
331
433
  5
382
331
46A
  5
3BB
331
4A9
  5
365
331
4E8
  5
322
331
3F4
  5
3E6
331
3F0
  5
3E2
331
4E4
  5
31E
331
4E0
  5
31A
331
3C7
  5
441
331
3C3
  5
43D
331
4FA
  5
4FA
331
384
  5
479
331
380
  5
475
331
3BF
  5
439
331
37C
  5
471
331
3BB
  5
435
331
378
  5
46D
331
4A5
  5
361
331
42F
  5
37E
331
466
  5
3B7
331
4A1
  5
35D
331
3EC
  5
3DE
331
42B
  5
37A
331
462
  5
3B3
331
45E
  5
3AF
331
49D
  5
359
331
4DC
  5
316
331
3E8
  5
3DA
331
427
  5
376
331
423
  5
372
331
45A
  5
3AB
331
499
  5
355
331
4D8
  5
312
331
3E4
  5
3D6
331
3E0
  5
3D2
331
4D4
  5
30E
331
4D0
  5
30A
331
3B7
  5
431
331
3B3
  5
42D
331
374
  5
469
331
3AF
  5
429
331
370
  5
465
331
36C
  5
461
331
3AB
  5
425
331
368
  5
45D
331
41F
  5
36E
331
456
  5
3A7
331
495
  5
351
331
491
  5
34D
331
3DC
  5
3CE
331
41B
  5
40D
331
452
  5
3A3
331
44E
  5
39F
331
48D
  5
349
331
4CC
  5
306
331
3D8
  5
3CA
331
417
  5
409
331
413
  5
405
331
44A
  5
39B
331
489
  5
345
331
4C8
  5
302
331
3D4
  5
3C6
331
3D0
  5
44A
331
4C4
  5
2FE
331
4C0
  5
2FA
331
3A7
  5
421
331
364
  5
459
331
3A3
  5
41D
331
39F
  5
419
331
360
  5
455
331
39B
  5
415
331
40F
  5
401
331
485
  5
341
331
481
  5
33D
331
507
  5
507
331
40B
  5
3FD
331
446
  5
397
331
47D
  5
339
331
4BC
  5
2F6
331
503
  5
503
331
407
  5
3F9
331
403
  5
3F5
331
442
  5
391
331
479
  5
335
331
4F7
  5
4F7
331
4B8
  5
2F2
331
4F3
  5
32D
331
50B
  5
50B
331
35C
  5
451
331
38F
  5
484
331
3CE
  5
448
331
358
  5
44D
331
38B
  5
480
331
3CA
  5
444
331
4B4
  5
2EE
331
3FF
  5
3F1
331
43E
  5
38D
331
475
  5
331
331
471
  5
3C2
331
4B0
  5
36C
331
4EF
  5
329
331
3FB
  5
3ED
331
43A
  5
389
331
436
  5
385
331
46D
  5
3BE
331
4AC
  5
368
331
4EB
  5
325
331
3F7
  5
3E9
331
432
  5
381
331
469
  5
3BA
331
4A8
  5
364
331
4E7
  5
321
331
3F3
  5
3E5
331
4E3
  5
31D
331
3C6
  5
440
331
3C2
  5
43C
331
4F9
  5
4F9
331
383
  5
478
331
37F
  5
474
331
3BE
  5
438
331
37B
  5
470
331
3BA
  5
434
  0
ACDBDETAILVIEWSTYLE
  5
26A
102
{ACAD_XDICTIONARY
360
62A
102
}
102
{ACAD_REACTORS
330
269
102
}
330
269
100
AcDbModelDocViewStyle
 70
     0
  3
Metric50
290
     0
100
AcDbDetailViewStyle
 70
     0
 71
     0
 90
        3
 71
     1
340
11
 40
5.0
340
0
 40
5.0
300

 40
0.0
280
     1
 71
     2
340
16
 90
       25
 71
     3
340
11
 40
5.0
 90
        0
 40
15.0
 90
        1
300
%<\AcVar ViewDetailId>% (%<\AcVar ViewScale \f "%sn">%)
 71
     4
340
16
 90
       25
340
16
 90
       25
280
     0
  0
GROUP
  5
50C
102
{ACAD_REACTORS
330
D
102
}
330
D
100
AcDbGroup
300

 70
     1
 71
     1
340
4FB
340
4FA
340
4F9
340
41D
340
41C
340
41B
340
41A
340
419
340
418
340
417
340
416
340
415
340
414
340
413
340
412
340
411
340
410
340
40F
340
40E
340
40D
340
40C
340
40B
340
40A
340
409
340
408
340
407
340
406
340
405
340
404
340
403
340
402
340
401
340
400
340
3FF
340
3FE
340
3FD
340
3FC
340
3FB
340
3FA
340
3F9
340
3F8
340
3F7
340
3F6
340
3F5
340
3F4
340
3F3
340
3F2
340
3F1
340
3F0
340
3EF
340
3EE
340
3ED
340
3EC
340
3EB
340
3EA
340
3E9
340
3E8
340
3E7
340
3E6
340
3E5
340
3E4
340
3E3
340
3E2
340
3E1
340
3E0
340
3DF
340
3DE
340
3DD
340
3DC
340
3DB
340
3DA
340
3D9
340
3D8
340
3D7
340
3D6
340
3D5
340
3D4
340
3D3
340
3D2
  0
GROUP
  5
50D
102
{ACAD_REACTORS
330
D
102
}
330
D
100
AcDbGroup
300

 70
     1
 71
     1
340
505
340
504
340
503
340
472
340
471
340
470
340
46F
340
46E
340
46D
340
46C
340
46B
340
46A
340
469
340
468
340
467
340
466
340
465
340
464
340
463
340
462
340
461
340
460
340
45F
340
45E
340
45D
340
45C
340
45B
340
45A
340
459
340
458
340
457
340
456
340
455
340
454
340
453
340
452
340
451
340
450
340
44F
340
44E
340
44D
340
44C
340
44B
340
44A
340
449
340
448
340
447
340
446
340
445
340
444
340
443
340
442
340
441
340
440
340
43F
340
43E
340
43D
340
43C
340
43B
340
43A
340
439
340
438
340
437
340
436
340
435
340
434
340
433
340
432
340
431
340
430
340
42F
340
42E
340
42D
340
42C
340
42B
340
42A
340
429
340
428
340
427
340
426
340
425
340
424
340
423
340
422
340
421
340
420
340
41F
340
41E
  0
GROUP
  5
50E
102
{ACAD_REACTORS
330
D
102
}
330
D
100
AcDbGroup
300

 70
     1
 71
     1
340
4F6
340
4F5
340
3D1
340
3D0
340
3CF
340
3CE
340
3CD
340
3CC
340
3CB
340
3CA
340
3C9
340
3C8
340
3C7
340
3C6
340
3C5
340
3C4
340
3C3
340
3C2
340
3C1
340
3C0
340
3BF
340
3BE
340
3BD
340
3BC
340
3BB
340
3BA
340
3B9
340
3B8
340
3B7
340
3B6
340
3B5
340
3B4
340
3B3
340
3B2
340
3B1
340
3B0
340
3AF
340
3AE
340
3AD
340
3AC
340
3AB
340
3AA
340
3A9
340
3A8
340
3A7
340
3A6
340
3A5
340
3A4
340
3A3
340
3A2
340
3A1
340
3A0
340
39F
340
39E
340
39D
340
39C
340
39B
340
39A
340
399
340
398
340
397
340
396
  0
GROUP
  5
50F
102
{ACAD_REACTORS
330
D
102
}
330
D
100
AcDbGroup
300

 70
     1
 71
     1
340
508
340
507
340
506
340
4F4
340
4F3
340
4F2
340
4F1
340
4F0
340
4EF
340
4EE
340
4ED
340
4EC
340
4EB
340
4EA
340
4E9
340
4E8
340
4E7
340
4E6
340
4E5
340
4E4
340
4E3
340
4E2
340
4E1
340
4E0
340
4DF
340
4DE
340
4DD
340
4DC
340
4DB
340
4DA
340
4D9
340
4D8
340
4D7
340
4D6
340
4D5
340
4D4
340
4D3
340
4D2
340
4D1
340
4D0
340
4CF
340
4CE
340
4CD
340
4CC
340
4CB
340
4CA
340
4C9
340
4C8
340
4C7
340
4C6
340
4C5
340
4C4
340
4C3
340
4C2
340
4C1
340
4C0
340
4BF
340
4BE
340
4BD
340
4BC
340
4BB
340
4BA
340
4B9
340
4B8
340
4B7
340
4B6
340
4B5
340
4B4
340
4B3
340
4B2
340
4B1
  0
GROUP
  5
510
102
{ACAD_REACTORS
330
D
102
}
330
D
100
AcDbGroup
300

 70
     1
 71
     1
340
50B
340
50A
340
509
340
4B0
340
4AF
340
4AE
340
4AD
340
4AC
340
4AB
340
4AA
340
4A9
340
4A8
340
4A7
340
4A6
340
4A5
340
4A4
340
4A3
340
4A2
340
4A1
340
4A0
340
49F
340
49E
340
49D
340
49C
340
49B
340
49A
340
499
340
498
340
497
340
496
340
495
340
494
340
493
340
492
340
491
340
490
340
48F
340
48E
340
48D
340
48C
340
48B
340
48A
340
489
340
488
340
487
340
486
340
485
340
484
340
483
340
482
340
481
340
480
340
47F
340
47E
340
47D
340
47C
340
47B
340
47A
340
479
340
478
340
477
340
476
340
475
340
474
340
473
  0
GROUP
  5
55E
102
{ACAD_REACTORS
330
D
102
}
330
D
100
AcDbGroup
300

 70
     1
 71
     1
340
4F8
340
4F7
340
393
340
390
340
38F
340
38E
340
38D
340
38C
340
38B
340
38A
340
389
340
386
340
385
340
384
340
383
340
382
340
381
340
380
340
37F
340
37E
340
37D
340
37C
340
37B
340
37A
340
379
340
378
340
377
340
376
340
375
340
374
340
373
340
372
340
371
340
370
340
36F
340
36E
340
36D
340
36C
340
36B
340
36A
340
369
340
368
340
367
340
366
340
365
340
364
340
363
340
362
340
361
340
360
340
35F
340
35E
340
35D
340
35C
340
35B
340
35A
340
359
340
358
340
357
  0
LAYOUT
  5
1E
102
{ACAD_XDICTIONARY
360
5F3
102
}
102
{ACAD_REACTORS
330
1A
102
}
330
1A
100
AcDbPlotSettings
  1

  2
none_device
  4

  6

 40
0.0
 41
0.0
 42
0.0
 43
0.0
 44
0.0
 45
0.0
 46
0.0
 47
0.0
 48
0.0
 49
0.0
140
0.0
141
0.0
142
1.0
143
1.0
 70
   688
 72
     1
 73
     0
 74
     5
  7

 75
    16
147
1.0
148
0.0
149
0.0
100
AcDbLayout
  1
Layout1
 70
     1
 71
     1
 10
0.0
 20
0.0
 11
420.0
 21
297.0
 12
0.0
 22
0.0
 32
0.0
 14
1.000000000000000E+20
 24
1.000000000000000E+20
 34
1.000000000000000E+20
 15
-1.000000000000000E+20
 25
-1.000000000000000E+20
 35
-1.000000000000000E+20
146
0.0
 13
0.0
 23
0.0
 33
0.0
 16
1.0
 26
0.0
 36
0.0
 17
0.0
 27
1.0
 37
0.0
 76
     0
330
1B
  0
LAYOUT
  5
22
102
{ACAD_XDICTIONARY
360
5F5
102
}
102
{ACAD_REACTORS
330
1A
102
}
330
1A
100
AcDbPlotSettings
  1

  2
none_device
  4
Letter_(8.50_x_11.00_Inches)
  6

 40
6.349999999999997
 41
6.349999999999997
 42
6.350005079999997
 43
6.350005079999997
 44
215.9
 45
279.4
 46
0.0
 47
0.0
 48
0.0
 49
0.0
140
0.0
141
0.0
142
1.0
143
1.0
 70
  1712
 72
     1
 73
     0
 74
     0
  7

 75
     0
147
1.0
148
0.0
149
0.0
100
AcDbLayout
  1
Model
 70
     1
 71
     0
 10
-204.2113761901855
 20
-268.493673324585
 11
596.6313972473145
 21
345.3363742828368
 12
0.0
 22
0.0
 32
0.0
 14
-204.2113761901855
 24
-268.493673324585
 34
0.0
 15
596.6313972473145
 25
345.3363742828368
 35
0.0
146
0.0
 13
0.0
 23
0.0
 33
0.0
 16
1.0
 26
0.0
 36
0.0
 17
0.0
 27
1.0
 37
0.0
 76
     0
330
1F
331
29
  0
LAYOUT
  5
26B
102
{ACAD_XDICTIONARY
360
62C
102
}
102
{ACAD_REACTORS
330
1A
102
}
330
1A
100
AcDbPlotSettings
  1

  2
青梅 FX DocuCentre-V C2275 T2
  4

  6

 40
0.0
 41
0.0
 42
0.0
 43
0.0
 44
0.0
 45
0.0
 46
0.0
 47
0.0
 48
0.0
 49
0.0
140
0.0
141
0.0
142
1.0
143
1.0
 70
   688
 72
     0
 73
     0
 74
     5
  7
AutoCAD_PEN.ctb
 75
    16
147
1.0
148
0.0
149
0.0
100
AcDbLayout
  1
レイアウト1
 70
     1
 71
     2
 10
0.0
 20
0.0
 11
12.0
 21
9.0
 12
0.0
 22
0.0
 32
0.0
 14
0.0
 24
0.0
 34
0.0
 15
0.0
 25
0.0
 35
0.0
146
0.0
 13
0.0
 23
0.0
 33
0.0
 16
1.0
 26
0.0
 36
0.0
 17
0.0
 27
1.0
 37
0.0
 76
     0
330
23
  0
MATERIAL
  5
45
102
{ACAD_XDICTIONARY
360
25D
102
}
102
{ACAD_REACTORS
330
43
102
}
330
43
100
AcDbMaterial
  1
ByBlock
  0
MATERIAL
  5
44
102
{ACAD_XDICTIONARY
360
25B
102
}
102
{ACAD_REACTORS
330
43
102
}
330
43
100
AcDbMaterial
  1
ByLayer
  0
MATERIAL
  5
46
102
{ACAD_XDICTIONARY
360
25F
102
}
102
{ACAD_REACTORS
330
43
102
}
330
43
100
AcDbMaterial
  1
Global
  0
MLEADERSTYLE
  5
5C
102
{ACAD_REACTORS
330
5B
102
}
330
5B
100
AcDbMLeaderStyle
170
     2
171
     1
172
     0
 90
        2
 40
0.0
 41
0.0
173
     1
 91
-1056964608
340
14
 92
       -2
290
     1
 42
2.0
291
     1
 43
8.0
  3
Standard
 44
4.0
300

342
11
174
     1
178
     6
175
     1
176
     0
 93
-1056964608
 45
4.0
292
     0
297
     0
 46
4.0
 94
-1056964608
 47
1.0
 49
1.0
140
1.0
293
     1
141
0.0
294
     1
177
     0
142
1.0
295
     0
296
     0
143
3.75
1001
ACAD_MLEADERVER
1070
     2
  0
MLINESTYLE
  5
18
102
{ACAD_REACTORS
330
17
102
}
330
17
100
AcDbMlineStyle
  2
STANDARD
 70
     0
  3

 62
   256
 51
90.0
 52
90.0
 71
     2
 49
0.5
 62
   256
  6
BYLAYER
 49
-0.5
 62
   256
  6
BYLAYER
  0
ACDBPLACEHOLDER
  5
F
102
{ACAD_REACTORS
330
E
102
}
330
E
  0
SCALE
  5
48
102
{ACAD_REACTORS
330
47
102
}
330
47
100
AcDbScale
 70
     0
300
1:1
140
1.0
141
1.0
290
     1
  0
SCALE
  5
49
102
{ACAD_REACTORS
330
47
102
}
330
47
100
AcDbScale
 70
     0
300
1:2
140
1.0
141
2.0
290
     0
  0
SCALE
  5
4A
102
{ACAD_REACTORS
330
47
102
}
330
47
100
AcDbScale
 70
     0
300
1:4
140
1.0
141
4.0
290
     0
  0
SCALE
  5
4B
102
{ACAD_REACTORS
330
47
102
}
330
47
100
AcDbScale
 70
     0
300
1:5
140
1.0
141
5.0
290
     0
  0
SCALE
  5
4C
102
{ACAD_REACTORS
330
47
102
}
330
47
100
AcDbScale
 70
     0
300
1:8
140
1.0
141
8.0
290
     0
  0
SCALE
  5
4D
102
{ACAD_REACTORS
330
47
102
}
330
47
100
AcDbScale
 70
     0
300
1:10
140
1.0
141
10.0
290
     0
  0
SCALE
  5
4E
102
{ACAD_REACTORS
330
47
102
}
330
47
100
AcDbScale
 70
     0
300
1:16
140
1.0
141
16.0
290
     0
  0
SCALE
  5
4F
102
{ACAD_REACTORS
330
47
102
}
330
47
100
AcDbScale
 70
     0
300
1:20
140
1.0
141
20.0
290
     0
  0
SCALE
  5
50
102
{ACAD_REACTORS
330
47
102
}
330
47
100
AcDbScale
 70
     0
300
1:30
140
1.0
141
30.0
290
     0
  0
SCALE
  5
51
102
{ACAD_REACTORS
330
47
102
}
330
47
100
AcDbScale
 70
     0
300
1:40
140
1.0
141
40.0
290
     0
  0
SCALE
  5
52
102
{ACAD_REACTORS
330
47
102
}
330
47
100
AcDbScale
 70
     0
300
1:50
140
1.0
141
50.0
290
     0
  0
SCALE
  5
53
102
{ACAD_REACTORS
330
47
102
}
330
47
100
AcDbScale
 70
     0
300
1:100
140
1.0
141
100.0
290
     0
  0
SCALE
  5
54
102
{ACAD_REACTORS
330
47
102
}
330
47
100
AcDbScale
 70
     0
300
2:1
140
2.0
141
1.0
290
     0
  0
SCALE
  5
55
102
{ACAD_REACTORS
330
47
102
}
330
47
100
AcDbScale
 70
     0
300
4:1
140
4.0
141
1.0
290
     0
  0
SCALE
  5
56
102
{ACAD_REACTORS
330
47
102
}
330
47
100
AcDbScale
 70
     0
300
8:1
140
8.0
141
1.0
290
     0
  0
SCALE
  5
57
102
{ACAD_REACTORS
330
47
102
}
330
47
100
AcDbScale
 70
     0
300
10:1
140
10.0
141
1.0
290
     0
  0
SCALE
  5
58
102
{ACAD_REACTORS
330
47
102
}
330
47
100
AcDbScale
 70
     0
300
100:1
140
100.0
141
1.0
290
     0
  0
ACDBSECTIONVIEWSTYLE
  5
268
102
{ACAD_XDICTIONARY
360
628
102
}
102
{ACAD_REACTORS
330
267
102
}
330
267
100
AcDbModelDocViewStyle
 70
     0
  3
Metric50
290
     0
100
AcDbSectionViewStyle
 70
     0
 71
     0
 90
      102
 71
     1
340
11
 40
5.0
340
0
340
0
 40
5.0
300
I, O, Q, S, X, Z
 40
10.0
 90
        0
 40
2.5
 90
        0
 71
     2
340
16
 90
       25
340
16
 90
       50
 40
5.0
 40
2.5
 40
5.0
 71
     3
340
11
 40
5.0
 90
        0
 40
15.0
 90
        1
300
%<\AcVar ViewSectionStartId>%-%<\AcVar ViewSectionEndId>% (%<\AcVar ViewScale \f "%sn">%)
 71
     4
300
ANSI31
 40
1.0
 90
        0
290
     0
290
     0
 90
        6
 40
0.0
 40
1.570796326794896
 40
0.2617993877991494
 40
1.308996938995747
 40
-0.2617993877991494
 40
1.832595714594044
  0
TABLESTYLE
  5
5A
102
{ACAD_XDICTIONARY
360
51B
102
}
102
{ACAD_REACTORS
330
59
102
}
330
59
100
AcDbTableStyle
  3
Standard
 70
     0
 71
     0
 40
1.5
 41
1.5
280
     0
281
     0
  7
Standard
140
4.5
170
     2
 62
     0
 63
     7
283
     0
274
    -2
284
     1
 64
     0
275
    -2
285
     1
 65
     0
276
    -2
286
     1
 66
     0
277
    -2
287
     1
 67
     0
278
    -2
288
     1
 68
     0
279
    -2
289
     1
 69
     0
  7
Standard
140
6.0
170
     5
 62
     0
 63
     7
283
     0
274
    -2
284
     1
 64
     0
275
    -2
285
     1
 65
     0
276
    -2
286
     1
 66
     0
277
    -2
287
     1
 67
     0
278
    -2
288
     1
 68
     0
279
    -2
289
     1
 69
     0
  7
Standard
140
4.5
170
     5
 62
     0
 63
     7
283
     0
274
    -2
284
     1
 64
     0
275
    -2
285
     1
 65
     0
276
    -2
286
     1
 66
     0
277
    -2
287
     1
 67
     0
278
    -2
288
     1
 68
     0
279
    -2
289
     1
 69
     0
  0
VISUALSTYLE
  5
2F
102
{ACAD_XDICTIONARY
360
5FF
102
}
102
{ACAD_REACTORS
330
2A
102
}
330
2A
100
AcDbVisualStyle
  2

 70
     4
 71
     0
 72
     2
 73
     0
 90
        0
 40
-0.6
 41
-30.0
 62
     5
 63
     7
 74
     1
 91
        4
 64
     7
 65
   257
 75
     1
175
     1
 42
1.0
 92
        0
 66
   257
 43
1.0
 76
     1
 77
     6
 78
     2
 67
     7
 79
     5
170
     0
171
     0
290
     0
174
     0
 93
        1
 44
0.0
173
     0
291
     0
 45
0.0
1001
ACAD
1000
AcDbSavedByObjectVersion
1070
     0
  0
VISUALSTYLE
  5
32
102
{ACAD_XDICTIONARY
360
605
102
}
102
{ACAD_REACTORS
330
2A
102
}
330
2A
100
AcDbVisualStyle
  2

 70
     7
 71
     1
 72
     0
 73
     1
 90
        0
 40
-0.6
 41
-30.0
 62
     5
 63
     7
 74
     0
 91
        4
 64
     7
 65
   257
 75
     1
175
     1
 42
1.0
 92
        8
 66
     7
 43
1.0
 76
     1
 77
     6
 78
     2
 67
     7
 79
     5
170
     0
171
     0
290
     0
174
     0
 93
        1
 44
0.0
173
     0
291
     1
 45
0.0
1001
ACAD
1000
AcDbSavedByObjectVersion
1070
     0
  0
VISUALSTYLE
  5
36
102
{ACAD_XDICTIONARY
360
60D
102
}
102
{ACAD_REACTORS
330
2A
102
}
330
2A
100
AcDbVisualStyle
  2

 70
    12
 71
     2
 72
     2
 73
     0
 90
        0
 40
-0.6
 41
-30.0
 62
     5
 63
     7
 74
     1
 91
        4
 64
     7
 65
   257
 75
     1
175
     1
 42
1.0
 92
        8
 66
     7
 43
1.0
 76
     1
 77
     6
 78
     2
 67
     7
 79
     5
170
     0
171
     0
290
     0
174
     0
 93
        1
 44
50.0
173
     0
291
     1
 45
0.0
1001
ACAD
1000
AcDbSavedByObjectVersion
1070
     0
  0
VISUALSTYLE
  5
3A
102
{ACAD_XDICTIONARY
360
615
102
}
102
{ACAD_REACTORS
330
2A
102
}
330
2A
100
AcDbVisualStyle
  2

 70
    16
 71
     2
 72
     2
 73
     3
 90
        0
 40
-0.6
 41
-30.0
 62
     5
 63
     8
 74
     1
 91
        4
 64
     7
 65
   257
 75
     1
175
     1
 42
1.0
 92
        8
 66
     8
 43
1.0
 76
     1
 77
     6
 78
     2
 67
     7
 79
     5
170
     0
171
     0
290
     0
174
     0
 93
        1
 44
0.0
173
     0
291
     1
 45
0.0
1001
ACAD
1000
AcDbSavedByObjectVersion
1070
     0
  0
VISUALSTYLE
  5
34
102
{ACAD_XDICTIONARY
360
609
102
}
102
{ACAD_REACTORS
330
2A
102
}
330
2A
100
AcDbVisualStyle
  2

 70
     9
 71
     3
 72
     2
 73
     0
 90
        0
 40
-0.6
 41
-30.0
 62
     5
 63
     7
 74
     2
 91
        2
 64
     7
 65
   257
 75
     1
175
     1
 42
179.0
 92
        8
 66
     7
 43
1.0
 76
     1
 77
     6
 78
     2
 67
     7
 79
     3
170
     0
171
     0
290
     0
174
     0
 93
        1
 44
0.0
173
     0
291
     0
 45
0.0
1001
ACAD
1000
AcDbSavedByObjectVersion
1070
     0
  0
VISUALSTYLE
  5
35
102
{ACAD_XDICTIONARY
360
60B
102
}
102
{ACAD_REACTORS
330
2A
102
}
330
2A
100
AcDbVisualStyle
  2

 70
    11
 71
     2
 72
     2
 73
     0
 90
        0
 40
-0.6
 41
-30.0
 62
     5
 63
     7
 74
     1
 91
        4
 64
     7
 65
   257
 75
     1
175
     1
 42
1.0
 92
        8
 66
     7
 43
1.0
 76
     1
 77
     6
 78
     2
 67
     7
 79
     5
170
     0
171
     0
290
     0
174
     0
 93
        1
 44
-50.0
173
     0
291
     1
 45
0.0
1001
ACAD
1000
AcDbSavedByObjectVersion
1070
     0
  0
VISUALSTYLE
  5
3D
102
{ACAD_XDICTIONARY
360
61B
102
}
102
{ACAD_REACTORS
330
2A
102
}
330
2A
100
AcDbVisualStyle
  2

 70
    22
 71
     2
 72
     2
 73
     0
 90
        0
 40
-0.6
 41
-30.0
 62
     5
 63
     7
 74
     1
 91
        4
 64
     7
 65
   257
 75
     1
175
     1
 42
1.0
 92
        8
 66
     7
 43
1.0
 76
     1
 77
     6
 78
     2
 67
     7
 79
     5
170
     0
171
     0
290
     0
174
     0
 93
        1
 44
0.0
173
     0
291
     1
 45
0.0
1001
ACAD
1000
AcDbSavedByObjectVersion
1070
     0
  0
VISUALSTYLE
  5
39
102
{ACAD_XDICTIONARY
360
613
102
}
102
{ACAD_REACTORS
330
2A
102
}
330
2A
100
AcDbVisualStyle
  2

 70
    15
 71
     2
 72
     2
 73
     0
 90
        0
 40
-0.6
 41
-30.0
 62
     5
 63
     7
 74
     1
 91
        4
 64
     7
 65
   257
 75
     1
175
     1
 42
1.0
 92
        8
 66
     7
 43
1.0
 76
     1
 77
     6
 78
     2
 67
     7
 79
     5
170
     0
171
     0
290
     0
174
     0
 93
        1
 44
0.0
173
     0
291
     1
 45
0.0
1001
ACAD
1000
AcDbSavedByObjectVersion
1070
     0
  0
VISUALSTYLE
  5
2B
102
{ACAD_XDICTIONARY
360
5F7
102
}
102
{ACAD_REACTORS
330
2A
102
}
330
2A
100
AcDbVisualStyle
  2

 70
     0
 71
     2
 72
     1
 73
     1
 90
        2
 40
-0.6
 41
30.0
 62
     5
 63
     7
 74
     0
 91
        0
 64
     7
 65
   257
 75
     1
175
     1
 42
1.0
 92
        8
 66
     7
 43
1.0
 76
     1
 77
     6
 78
     2
 67
     7
 79
     5
170
     0
171
     0
290
     0
174
     0
 93
       13
 44
0.0
173
     0
291
     1
 45
0.0
1001
ACAD
1000
AcDbSavedByObjectVersion
1070
     0
  0
VISUALSTYLE
  5
2C
102
{ACAD_XDICTIONARY
360
5F9
102
}
102
{ACAD_REACTORS
330
2A
102
}
330
2A
100
AcDbVisualStyle
  2

 70
     1
 71
     2
 72
     1
 73
     1
 90
        2
 40
-0.6
 41
30.0
 62
     5
 63
     7
 74
     1
 91
        0
 64
     7
 65
   257
 75
     1
175
     1
 42
1.0
 92
        0
 66
   257
 43
1.0
 76
     1
 77
     6
 78
     2
 67
     7
 79
     5
170
     0
171
     0
290
     0
174
     0
 93
       13
 44
0.0
173
     0
291
     1
 45
0.0
1001
ACAD
1000
AcDbSavedByObjectVersion
1070
     0
  0
VISUALSTYLE
  5
2D
102
{ACAD_XDICTIONARY
360
5FB
102
}
102
{ACAD_REACTORS
330
2A
102
}
330
2A
100
AcDbVisualStyle
  2

 70
     2
 71
     2
 72
     2
 73
     1
 90
        2
 40
-0.6
 41
30.0
 62
     5
 63
     7
 74
     0
 91
        0
 64
     7
 65
   257
 75
     1
175
     1
 42
1.0
 92
        0
 66
     7
 43
1.0
 76
     1
 77
     6
 78
     2
 67
     7
 79
     5
170
     0
171
     0
290
     0
174
     0
 93
       13
 44
0.0
173
     0
291
     1
 45
0.0
1001
ACAD
1000
AcDbSavedByObjectVersion
1070
     0
  0
VISUALSTYLE
  5
2E
102
{ACAD_XDICTIONARY
360
5FD
102
}
102
{ACAD_REACTORS
330
2A
102
}
330
2A
100
AcDbVisualStyle
  2

 70
     3
 71
     2
 72
     2
 73
     1
 90
        2
 40
-0.6
 41
30.0
 62
     5
 63
     7
 74
     1
 91
        0
 64
     7
 65
   257
 75
     1
175
     1
 42
1.0
 92
        0
 66
   257
 43
1.0
 76
     1
 77
     6
 78
     2
 67
     7
 79
     5
170
     0
171
     0
290
     0
174
     0
 93
       13
 44
0.0
173
     0
291
     1
 45
0.0
1001
ACAD
1000
AcDbSavedByObjectVersion
1070
     0
  0
VISUALSTYLE
  5
31
102
{ACAD_XDICTIONARY
360
603
102
}
102
{ACAD_REACTORS
330
2A
102
}
330
2A
100
AcDbVisualStyle
  2

 70
     6
 71
     1
 72
     2
 73
     2
 90
        0
 40
-0.6
 41
-30.0
 62
     5
 63
     7
 74
     2
 91
        2
 64
     7
 65
   257
 75
     2
175
     1
 42
40.0
 92
        0
 66
   257
 43
1.0
 76
     1
 77
     6
 78
     2
 67
     7
 79
     3
170
     0
171
     0
290
     0
174
     0
 93
        1
 44
0.0
173
     0
291
     0
 45
0.0
1001
ACAD
1000
AcDbSavedByObjectVersion
1070
     0
  0
VISUALSTYLE
  5
3B
102
{ACAD_XDICTIONARY
360
617
102
}
102
{ACAD_REACTORS
330
2A
102
}
330
2A
100
AcDbVisualStyle
  2

 70
    20
 71
     2
 72
     2
 73
     0
 90
        0
 40
-0.6
 41
-30.0
 62
     5
 63
     7
 74
     1
 91
        4
 64
     7
 65
   257
 75
     1
175
     1
 42
1.0
 92
       10
 66
     7
 43
1.0
 76
     1
 77
     6
 78
     2
 67
     7
 79
     5
170
     0
171
     0
290
     0
174
     0
 93
        1
 44
0.0
173
     0
291
     1
 45
0.0
1001
ACAD
1000
AcDbSavedByObjectVersion
1070
     0
  0
VISUALSTYLE
  5
38
102
{ACAD_XDICTIONARY
360
611
102
}
102
{ACAD_REACTORS
330
2A
102
}
330
2A
100
AcDbVisualStyle
  2

 70
    14
 71
     2
 72
     2
 73
     0
 90
        0
 40
-0.6
 41
-30.0
 62
     5
 63
     7
 74
     1
 91
        4
 64
     7
 65
   257
 75
     7
175
     7
 42
1.0
 92
        8
 66
     7
 43
1.0
 76
     1
 77
     6
 78
     2
 67
     7
 79
     5
170
     0
171
     0
290
     0
174
     0
 93
        1
 44
0.0
173
     0
291
     1
 45
0.0
1001
ACAD
1000
AcDbSavedByObjectVersion
1070
     0
  0
VISUALSTYLE
  5
3C
102
{ACAD_XDICTIONARY
360
619
102
}
102
{ACAD_REACTORS
330
2A
102
}
330
2A
100
AcDbVisualStyle
  2

 70
    21
 71
     2
 72
     2
 73
     0
 90
        0
 40
-0.6
 41
-30.0
 62
     5
 63
     7
 74
     1
 91
        4
 64
     7
 65
   257
 75
     1
175
     1
 42
1.0
 92
        9
 66
     7
 43
1.0
 76
     1
 77
     6
 78
     2
 67
     7
 79
     5
170
     0
171
     0
290
     0
174
     0
 93
        1
 44
0.0
173
     0
291
     1
 45
0.0
1001
ACAD
1000
AcDbSavedByObjectVersion
1070
     0
  0
VISUALSTYLE
  5
33
102
{ACAD_XDICTIONARY
360
607
102
}
102
{ACAD_REACTORS
330
2A
102
}
330
2A
100
AcDbVisualStyle
  2

 70
     8
 71
     2
 72
     3
 73
     0
 90
        2
 40
-0.6
 41
30.0
 62
     5
 63
     7
 74
     0
 91
        0
 64
     7
 65
   257
 75
     1
175
     1
 42
1.0
 92
        8
 66
   257
 43
1.0
 76
     1
 77
     6
 78
     2
 67
     7
 79
     3
170
     0
171
     0
290
     0
174
     0
 93
       13
 44
0.0
173
     0
291
     0
 45
0.0
1001
ACAD
1000
AcDbSavedByObjectVersion
1070
     0
  0
VISUALSTYLE
  5
42
102
{ACAD_XDICTIONARY
360
625
102
}
102
{ACAD_REACTORS
330
2A
102
}
330
2A
100
AcDbVisualStyle
  2

 70
    27
 71
     2
 72
     2
 73
     1
 90
        2
 40
-0.6
 41
30.0
 62
     5
 63
     7
 74
     0
 91
        4
 64
     7
 65
   257
 75
     1
175
     1
 42
1.0
 92
        8
 66
   257
 43
1.0
 76
     1
 77
     6
 78
     2
 67
     8
 79
     3
170
     0
171
     0
290
     0
174
     0
 93
        5
 44
0.0
173
     0
291
     0
 45
0.0
1001
ACAD
1000
AcDbSavedByObjectVersion
1070
     0
  0
VISUALSTYLE
  5
41
102
{ACAD_XDICTIONARY
360
623
102
}
102
{ACAD_REACTORS
330
2A
102
}
330
2A
100
AcDbVisualStyle
  2

 70
    26
 71
     2
 72
     2
 73
     1
 90
        2
 40
-0.6
 41
30.0
 62
     5
 63
     7
 74
     1
 91
       10
 64
     7
 65
   257
 75
     2
175
     1
 42
1.0
 92
        8
 66
   257
 43
1.0
 76
     1
 77
     6
 78
     2
 67
     7
 79
     3
170
     0
171
     0
290
     0
174
     0
 93
        5
 44
0.0
173
     0
291
     0
 45
0.0
1001
ACAD
1000
AcDbSavedByObjectVersion
1070
     0
  0
VISUALSTYLE
  5
3E
102
{ACAD_XDICTIONARY
360
61D
102
}
102
{ACAD_REACTORS
330
2A
102
}
330
2A
100
AcDbVisualStyle
  2

 70
    23
 71
     2
 72
     2
 73
     3
 90
        0
 40
-0.6
 41
-30.0
 62
     5
 63
     7
 74
     2
 91
        2
 64
     7
 65
     7
 75
     1
175
     1
 42
40.0
 92
        8
 66
     7
 43
1.0
 76
     1
 77
     6
 78
     2
 67
     7
 79
     3
170
     0
171
     0
290
     0
174
     0
 93
        1
 44
0.0
173
     0
291
     0
 45
0.0
1001
ACAD
1000
AcDbSavedByObjectVersion
1070
     0
  0
VISUALSTYLE
  5
3F
102
{ACAD_XDICTIONARY
360
61F
102
}
102
{ACAD_REACTORS
330
2A
102
}
330
2A
100
AcDbVisualStyle
  2

 70
    24
 71
     1
 72
     2
 73
     2
 90
        0
 40
-0.6
 41
-30.0
 62
     5
 63
     7
 74
     2
 91
        2
 64
     7
 65
     7
 75
     1
175
     1
 42
40.0
 92
       11
 66
     7
 43
1.0
 76
     1
 77
     6
 78
     2
 67
     7
 79
     6
170
     0
171
     0
290
     0
174
     0
 93
        1
 44
0.0
173
     0
291
     0
 45
0.0
1001
ACAD
1000
AcDbSavedByObjectVersion
1070
     0
  0
VISUALSTYLE
  5
37
102
{ACAD_XDICTIONARY
360
60F
102
}
102
{ACAD_REACTORS
330
2A
102
}
330
2A
100
AcDbVisualStyle
  2

 70
    13
 71
     2
 72
     2
 73
     0
 90
        0
 40
-0.6
 41
-30.0
 62
     5
 63
     7
 74
     1
 91
        4
 64
     7
 65
   257
 75
     1
175
     1
 42
1.0
 92
       12
 66
     7
 43
1.0
 76
     1
 77
     6
 78
     2
 67
     7
 79
     5
170
     0
171
     0
290
     0
174
     0
 93
        1
 44
0.0
173
     0
291
     1
 45
0.0
1001
ACAD
1000
AcDbSavedByObjectVersion
1070
     0
  0
VISUALSTYLE
  5
30
102
{ACAD_XDICTIONARY
360
601
102
}
102
{ACAD_REACTORS
330
2A
102
}
330
2A
100
AcDbVisualStyle
  2

 70
     5
 71
     0
 72
     2
 73
     0
 90
        0
 40
-0.6
 41
-30.0
 62
     5
 63
     7
 74
     1
 91
        4
 64
     7
 65
   257
 75
     1
175
     1
 42
1.0
 92
        0
 66
   257
 43
1.0
 76
     1
 77
     6
 78
     2
 67
     7
 79
     3
170
     0
171
     0
290
     0
174
     0
 93
        1
 44
0.0
173
     0
291
     0
 45
0.0
1001
ACAD
1000
AcDbSavedByObjectVersion
1070
     0
  0
VISUALSTYLE
  5
40
102
{ACAD_XDICTIONARY
360
621
102
}
102
{ACAD_REACTORS
330
2A
102
}
330
2A
100
AcDbVisualStyle
  2

 70
    25
 71
     2
 72
     2
 73
     1
 90
        1
 40
0.5
 41
-30.0
 62
     5
 63
     7
 74
     1
 91
        0
 64
     7
 65
   257
 75
     1
175
     1
 42
1.0
 92
        8
 66
     7
 43
1.0
 76
     1
 77
     6
 78
     2
 67
     7
 79
     3
170
     0
171
     0
290
     0
174
     0
 93
       13
 44
0.0
173
     0
291
     0
 45
0.0
1001
ACAD
1000
AcDbSavedByObjectVersion
1070
     0
  0
DICTIONARYVAR
  5
229
102
{ACAD_REACTORS
330
21B
102
}
330
21B
100
DictionaryVariables
280
     0
  1
1:1
  0
DICTIONARYVAR
  5
222
102
{ACAD_REACTORS
330
21B
102
}
330
21B
100
DictionaryVariables
280
     0
  1
3.500000
  0
DICTIONARYVAR
  5
223
102
{ACAD_REACTORS
330
21B
102
}
330
21B
100
DictionaryVariables
280
     0
  1
acadiso.lin
  0
DICTIONARYVAR
  5
21D
102
{ACAD_REACTORS
330
21B
102
}
330
21B
100
DictionaryVariables
280
     0
  1
STANDARD
  0
DICTIONARYVAR
  5
21C
102
{ACAD_REACTORS
330
21B
102
}
330
21B
100
DictionaryVariables
280
     0
  1
STANDARD
  0
DICTIONARYVAR
  5
516
102
{ACAD_REACTORS
330
21B
102
}
330
21B
100
DictionaryVariables
280
     0
  1
Metric50
  0
DICTIONARYVAR
  5
517
102
{ACAD_REACTORS
330
21B
102
}
330
21B
100
DictionaryVariables
280
     0
  1
Metric50
  0
DICTIONARYVAR
  5
224
102
{ACAD_REACTORS
330
21B
102
}
330
21B
100
DictionaryVariables
280
     0
  1
2
  0
DICTIONARYVAR
  5
225
102
{ACAD_REACTORS
330
21B
102
}
330
21B
100
DictionaryVariables
280
     0
  1
1
  0
DICTIONARYVAR
  5
563
102
{ACAD_REACTORS
330
21B
102
}
330
21B
100
DictionaryVariables
280
     0
  1
0
  0
DICTIONARYVAR
  5
519
102
{ACAD_REACTORS
330
21B
102
}
330
21B
100
DictionaryVariables
280
     0
  1
1
  0
DICTIONARYVAR
  5
51A
102
{ACAD_REACTORS
330
21B
102
}
330
21B
100
DictionaryVariables
280
     0
  1
15
  0
DICTIONARYVAR
  5
518
102
{ACAD_REACTORS
330
21B
102
}
330
21B
100
DictionaryVariables
280
     0
  1
0
  0
DICTIONARYVAR
  5
5ED
102
{ACAD_REACTORS
330
21B
102
}
330
21B
100
DictionaryVariables
280
     0
  1
1.570796
  0
DICTIONARYVAR
  5
5EE
102
{ACAD_REACTORS
330
21B
102
}
330
21B
100
DictionaryVariables
280
     0
  1
1.570796
  0
DICTIONARYVAR
  5
22A
102
{ACAD_REACTORS
330
21B
102
}
330
21B
100
DictionaryVariables
280
     0
  1
1
  0
DICTIONARYVAR
  5
5EC
102
{ACAD_REACTORS
330
21B
102
}
330
21B
100
DictionaryVariables
280
     0
  1
80.000000
  0
DICTIONARYVAR
  5
5EB
102
{ACAD_REACTORS
330
21B
102
}
330
21B
100
DictionaryVariables
280
     0
  1
5.000000
  0
DICTIONARYVAR
  5
562
102
{ACAD_REACTORS
330
21B
102
}
330
21B
100
DictionaryVariables
280
     0
  1
127
  0
DICTIONARYVAR
  5
5EF
102
{ACAD_REACTORS
330
21B
102
}
330
21B
100
DictionaryVariables
280
     0
  1
2
  0
DICTIONARY
  5
62A
330
26A
100
AcDbDictionary
280
     1
281
     1
  3
ACAD_XREC_ROUNDTRIP
360
62B
  0
DICTIONARY
  5
5F3
330
1E
100
AcDbDictionary
280
     1
281
     1
  3
ACAD_XREC_ROUNDTRIP
360
5F4
  0
DICTIONARY
  5
5F5
330
22
100
AcDbDictionary
280
     1
281
     1
  3
ACAD_XREC_ROUNDTRIP
360
5F6
  0
DICTIONARY
  5
62C
330
26B
100
AcDbDictionary
280
     1
281
     1
  3
ACAD_XREC_ROUNDTRIP
360
62D
  0
DICTIONARY
  5
25D
330
45
100
AcDbDictionary
280
     1
281
     1
  3
ACAD_XREC_ROUNDTRIP
360
25E
  0
DICTIONARY
  5
25B
330
44
100
AcDbDictionary
280
     1
281
     1
  3
ACAD_XREC_ROUNDTRIP
360
25C
  0
DICTIONARY
  5
25F
330
46
100
AcDbDictionary
280
     1
281
     1
  3
ACAD_XREC_ROUNDTRIP
360
260
  0
DICTIONARY
  5
628
330
268
100
AcDbDictionary
280
     1
281
     1
  3
ACAD_XREC_ROUNDTRIP
360
629
  0
DICTIONARY
  5
51B
330
5A
100
AcDbDictionary
280
     1
281
     1
  3
ACAD_ROUNDTRIP_2008_TABLESTYLE_CELLSTYLEMAP
360
5F0
  3
ACAD_XREC_ROUNDTRIP
360
627
  0
DICTIONARY
  5
5FF
330
2F
100
AcDbDictionary
280
     1
281
     1
  3
ACAD_XREC_ROUNDTRIP
360
600
  0
DICTIONARY
  5
605
330
32
100
AcDbDictionary
280
     1
281
     1
  3
ACAD_XREC_ROUNDTRIP
360
606
  0
DICTIONARY
  5
60D
330
36
100
AcDbDictionary
280
     1
281
     1
  3
ACAD_XREC_ROUNDTRIP
360
60E
  0
DICTIONARY
  5
615
330
3A
100
AcDbDictionary
280
     1
281
     1
  3
ACAD_XREC_ROUNDTRIP
360
616
  0
DICTIONARY
  5
609
330
34
100
AcDbDictionary
280
     1
281
     1
  3
ACAD_XREC_ROUNDTRIP
360
60A
  0
DICTIONARY
  5
60B
330
35
100
AcDbDictionary
280
     1
281
     1
  3
ACAD_XREC_ROUNDTRIP
360
60C
  0
DICTIONARY
  5
61B
330
3D
100
AcDbDictionary
280
     1
281
     1
  3
ACAD_XREC_ROUNDTRIP
360
61C
  0
DICTIONARY
  5
613
330
39
100
AcDbDictionary
280
     1
281
     1
  3
ACAD_XREC_ROUNDTRIP
360
614
  0
DICTIONARY
  5
5F7
330
2B
100
AcDbDictionary
280
     1
281
     1
  3
ACAD_XREC_ROUNDTRIP
360
5F8
  0
DICTIONARY
  5
5F9
330
2C
100
AcDbDictionary
280
     1
281
     1
  3
ACAD_XREC_ROUNDTRIP
360
5FA
  0
DICTIONARY
  5
5FB
330
2D
100
AcDbDictionary
280
     1
281
     1
  3
ACAD_XREC_ROUNDTRIP
360
5FC
  0
DICTIONARY
  5
5FD
330
2E
100
AcDbDictionary
280
     1
281
     1
  3
ACAD_XREC_ROUNDTRIP
360
5FE
  0
DICTIONARY
  5
603
330
31
100
AcDbDictionary
280
     1
281
     1
  3
ACAD_XREC_ROUNDTRIP
360
604
  0
DICTIONARY
  5
617
330
3B
100
AcDbDictionary
280
     1
281
     1
  3
ACAD_XREC_ROUNDTRIP
360
618
  0
DICTIONARY
  5
611
330
38
100
AcDbDictionary
280
     1
281
     1
  3
ACAD_XREC_ROUNDTRIP
360
612
  0
DICTIONARY
  5
619
330
3C
100
AcDbDictionary
280
     1
281
     1
  3
ACAD_XREC_ROUNDTRIP
360
61A
  0
DICTIONARY
  5
607
330
33
100
AcDbDictionary
280
     1
281
     1
  3
ACAD_XREC_ROUNDTRIP
360
608
  0
DICTIONARY
  5
625
330
42
100
AcDbDictionary
280
     1
281
     1
  3
ACAD_XREC_ROUNDTRIP
360
626
  0
DICTIONARY
  5
623
330
41
100
AcDbDictionary
280
     1
281
     1
  3
ACAD_XREC_ROUNDTRIP
360
624
  0
DICTIONARY
  5
61D
330
3E
100
AcDbDictionary
280
     1
281
     1
  3
ACAD_XREC_ROUNDTRIP
360
61E
  0
DICTIONARY
  5
61F
330
3F
100
AcDbDictionary
280
     1
281
     1
  3
ACAD_XREC_ROUNDTRIP
360
620
  0
DICTIONARY
  5
60F
330
37
100
AcDbDictionary
280
     1
281
     1
  3
ACAD_XREC_ROUNDTRIP
360
610
  0
DICTIONARY
  5
601
330
30
100
AcDbDictionary
280
     1
281
     1
  3
ACAD_XREC_ROUNDTRIP
360
602
  0
DICTIONARY
  5
621
330
40
100
AcDbDictionary
280
     1
281
     1
  3
ACAD_XREC_ROUNDTRIP
360
622
  0
XRECORD
  5
62B
102
{ACAD_REACTORS
330
62A
102
}
330
62A
100
AcDbXrecord
280
     1
102
DISPLAYNAME
  1
Metric50
102
FLAGS
 90
        0
  0
XRECORD
  5
5F4
102
{ACAD_REACTORS
330
5F3
102
}
330
5F3
100
AcDbXrecord
280
     1
102
SHADEPLOT
 70
     0
102
SHADEPLOTRESLEVEL
 70
     2
102
SHADEPLOTCUSTOMDPI
 70
   300
  0
XRECORD
  5
5F6
102
{ACAD_REACTORS
330
5F5
102
}
330
5F5
100
AcDbXrecord
280
     1
102
SHADEPLOT
 70
     0
102
SHADEPLOTRESLEVEL
 70
     2
102
SHADEPLOTCUSTOMDPI
 70
   300
  0
XRECORD
  5
62D
102
{ACAD_REACTORS
330
62C
102
}
330
62C
100
AcDbXrecord
280
     1
102
SHADEPLOT
 70
     0
102
SHADEPLOTRESLEVEL
 70
     2
102
SHADEPLOTCUSTOMDPI
 70
   300
  0
XRECORD
  5
25E
102
{ACAD_REACTORS
330
25D
102
}
330
25D
100
AcDbXrecord
280
     1
102
MATERIAL
148
0.0
149
0.0
149
0.0
 93
        0
 94
      127
282
     0
 72
     1
 77
     1
171
     1
175
     1
179
     1
273
     0
  0
XRECORD
  5
25C
102
{ACAD_REACTORS
330
25B
102
}
330
25B
100
AcDbXrecord
280
     1
102
MATERIAL
148
0.0
149
0.0
149
0.0
 93
        0
 94
      127
282
     0
 72
     1
 77
     1
171
     1
175
     1
179
     1
273
     0
  0
XRECORD
  5
260
102
{ACAD_REACTORS
330
25F
102
}
330
25F
100
AcDbXrecord
280
     1
102
MATERIAL
148
0.0
149
0.0
149
0.0
 93
        0
 94
      127
282
     0
 72
     1
 77
     1
171
     1
175
     1
179
     1
273
     0
  0
XRECORD
  5
629
102
{ACAD_REACTORS
330
628
102
}
330
628
100
AcDbXrecord
280
     1
102
DISPLAYNAME
  1
Metric50
102
FLAGS
 90
        0
  0
CELLSTYLEMAP
  5
5F0
102
{ACAD_REACTORS
330
51B
102
}
330
51B
100
AcDbCellStyleMap
 90
        3
300
CELLSTYLE
  1
TABLEFORMAT_BEGIN
 90
        5
170
     1
 91
        0
 92
    32768
 62
   257
 93
        1
300
CONTENTFORMAT
  1
CONTENTFORMAT_BEGIN
 90
        0
 91
        0
 92
        4
 93
        0
300

 40
0.0
140
1.0
 94
        5
 62
     0
340
11
144
6.0
309
CONTENTFORMAT_END
171
     1
301
MARGIN
  1
CELLMARGIN_BEGIN
 40
1.5
 40
1.5
 40
1.5
 40
1.5
 40
0.18
 40
0.18
309
CELLMARGIN_END
 94
        6
 95
        1
302
GRIDFORMAT
  1
GRIDFORMAT_BEGIN
 90
        0
 91
        1
 62
     0
 92
       -2
340
0
 93
        0
 40
0.045
309
GRIDFORMAT_END
 95
        2
302
GRIDFORMAT
  1
GRIDFORMAT_BEGIN
 90
        0
 91
        1
 62
     0
 92
       -2
340
0
 93
        0
 40
0.045
309
GRIDFORMAT_END
 95
        4
302
GRIDFORMAT
  1
GRIDFORMAT_BEGIN
 90
        0
 91
        1
 62
     0
 92
       -2
340
0
 93
        0
 40
0.045
309
GRIDFORMAT_END
 95
        8
302
GRIDFORMAT
  1
GRIDFORMAT_BEGIN
 90
        0
 91
        1
 62
     0
 92
       -2
340
0
 93
        0
 40
0.045
309
GRIDFORMAT_END
 95
       16
302
GRIDFORMAT
  1
GRIDFORMAT_BEGIN
 90
        0
 91
        1
 62
     0
 92
       -2
340
0
 93
        0
 40
0.045
309
GRIDFORMAT_END
 95
       32
302
GRIDFORMAT
  1
GRIDFORMAT_BEGIN
 90
        0
 91
        1
 62
     0
 92
       -2
340
0
 93
        0
 40
0.045
309
GRIDFORMAT_END
309
TABLEFORMAT_END
  1
CELLSTYLE_BEGIN
 90
        1
 91
        1
300
_TITLE
309
CELLSTYLE_END
300
CELLSTYLE
  1
TABLEFORMAT_BEGIN
 90
        5
170
     1
 91
        0
 92
        0
 62
   257
 93
        1
300
CONTENTFORMAT
  1
CONTENTFORMAT_BEGIN
 90
        0
 91
        0
 92
        4
 93
        0
300

 40
0.0
140
1.0
 94
        5
 62
     0
340
11
144
4.5
309
CONTENTFORMAT_END
171
     1
301
MARGIN
  1
CELLMARGIN_BEGIN
 40
1.5
 40
1.5
 40
1.5
 40
1.5
 40
0.18
 40
0.18
309
CELLMARGIN_END
 94
        6
 95
        1
302
GRIDFORMAT
  1
GRIDFORMAT_BEGIN
 90
        0
 91
        1
 62
     0
 92
       -2
340
0
 93
        0
 40
0.045
309
GRIDFORMAT_END
 95
        2
302
GRIDFORMAT
  1
GRIDFORMAT_BEGIN
 90
        0
 91
        1
 62
     0
 92
       -2
340
0
 93
        0
 40
0.045
309
GRIDFORMAT_END
 95
        4
302
GRIDFORMAT
  1
GRIDFORMAT_BEGIN
 90
        0
 91
        1
 62
     0
 92
       -2
340
0
 93
        0
 40
0.045
309
GRIDFORMAT_END
 95
        8
302
GRIDFORMAT
  1
GRIDFORMAT_BEGIN
 90
        0
 91
        1
 62
     0
 92
       -2
340
0
 93
        0
 40
0.045
309
GRIDFORMAT_END
 95
       16
302
GRIDFORMAT
  1
GRIDFORMAT_BEGIN
 90
        0
 91
        1
 62
     0
 92
       -2
340
0
 93
        0
 40
0.045
309
GRIDFORMAT_END
 95
       32
302
GRIDFORMAT
  1
GRIDFORMAT_BEGIN
 90
        0
 91
        1
 62
     0
 92
       -2
340
0
 93
        0
 40
0.045
309
GRIDFORMAT_END
309
TABLEFORMAT_END
  1
CELLSTYLE_BEGIN
 90
        2
 91
        1
300
_HEADER
309
CELLSTYLE_END
300
CELLSTYLE
  1
TABLEFORMAT_BEGIN
 90
        5
170
     1
 91
        0
 92
        0
 62
   257
 93
        1
300
CONTENTFORMAT
  1
CONTENTFORMAT_BEGIN
 90
        0
 91
        0
 92
        4
 93
        0
300

 40
0.0
140
1.0
 94
        2
 62
     0
340
11
144
4.5
309
CONTENTFORMAT_END
171
     1
301
MARGIN
  1
CELLMARGIN_BEGIN
 40
1.5
 40
1.5
 40
1.5
 40
1.5
 40
0.18
 40
0.18
309
CELLMARGIN_END
 94
        6
 95
        1
302
GRIDFORMAT
  1
GRIDFORMAT_BEGIN
 90
        0
 91
        1
 62
     0
 92
       -2
340
0
 93
        0
 40
0.045
309
GRIDFORMAT_END
 95
        2
302
GRIDFORMAT
  1
GRIDFORMAT_BEGIN
 90
        0
 91
        1
 62
     0
 92
       -2
340
0
 93
        0
 40
0.045
309
GRIDFORMAT_END
 95
        4
302
GRIDFORMAT
  1
GRIDFORMAT_BEGIN
 90
        0
 91
        1
 62
     0
 92
       -2
340
0
 93
        0
 40
0.045
309
GRIDFORMAT_END
 95
        8
302
GRIDFORMAT
  1
GRIDFORMAT_BEGIN
 90
        0
 91
        1
 62
     0
 92
       -2
340
0
 93
        0
 40
0.045
309
GRIDFORMAT_END
 95
       16
302
GRIDFORMAT
  1
GRIDFORMAT_BEGIN
 90
        0
 91
        1
 62
     0
 92
       -2
340
0
 93
        0
 40
0.045
309
GRIDFORMAT_END
 95
       32
302
GRIDFORMAT
  1
GRIDFORMAT_BEGIN
 90
        0
 91
        1
 62
     0
 92
       -2
340
0
 93
        0
 40
0.045
309
GRIDFORMAT_END
309
TABLEFORMAT_END
  1
CELLSTYLE_BEGIN
 90
        3
 91
        2
300
_DATA
309
CELLSTYLE_END
  0
XRECORD
  5
627
102
{ACAD_REACTORS
330
51B
102
}
330
51B
100
AcDbXrecord
280
     1
102
ACAD_ROUNDTRIP_PRE2007_TABLESTYLE
 90
        4
 91
        0
  1

 92
        4
 93
        0
  2

 94
        4
 95
        0
  3

  0
XRECORD
  5
600
102
{ACAD_REACTORS
330
5FF
102
}
330
5FF
100
AcDbXrecord
280
     1
102
RTVSPost2010Prop28
280
     1
102
RTVSPost2010PropOp28
 70
     1
102
RTVSPost2010Prop29
280
     1
102
RTVSPost2010PropOp29
 70
     1
102
RTVSPost2010Prop30
280
     0
102
RTVSPost2010PropOp30
 70
     1
102
RTVSPost2010Prop31
280
     0
102
RTVSPost2010PropOp31
 70
     1
102
RTVSPost2010Prop32
280
     0
102
RTVSPost2010PropOp32
 70
     1
102
RTVSPost2010Prop33
280
     0
102
RTVSPost2010PropOp33
 70
     1
102
RTVSPost2010Prop34
280
     0
102
RTVSPost2010PropOp34
 70
     1
102
RTVSPost2010Prop35
280
     0
102
RTVSPost2010PropOp35
 70
     1
102
RTVSPost2010Prop36
280
     0
102
RTVSPost2010PropOp36
 70
     1
102
RTVSPost2010Prop37
 90
       50
102
RTVSPost2010PropOp37
 70
     1
102
RTVSPost2010Prop38
140
0.0
102
RTVSPost2010PropOp38
 70
     1
102
RTVSPost2010Prop39
140
1.0
102
RTVSPost2010PropOp39
 70
     1
102
RTVSPost2010Prop40
 90
        0
102
RTVSPost2010PropOp40
 70
     1
102
RTVSPost2010Prop41ColorIndex
 90
       18
102
RTVSPost2010Prop41ColorRGB
 90
        0
102
RTVSPost2010PropOp41
 70
     1
102
RTVSPost2010Prop42
 90
       50
102
RTVSPost2010PropOp42
 70
     1
102
RTVSPost2010Prop43
 90
        3
102
RTVSPost2010PropOp43
 70
     1
102
RTVSPost2010Prop44ColorIndex
 90
        5
102
RTVSPost2010Prop44ColorRGB
 90
      255
102
RTVSPost2010PropOp44
 70
     1
102
RTVSPost2010Prop45
280
     0
102
RTVSPost2010PropOp45
 70
     1
102
RTVSPost2010Prop46
 90
       50
102
RTVSPost2010PropOp46
 70
     1
102
RTVSPost2010Prop47
 90
       50
102
RTVSPost2010PropOp47
 70
     1
102
RTVSPost2010Prop48
 90
       50
102
RTVSPost2010PropOp48
 70
     1
102
RTVSPost2010Prop49
280
     0
102
RTVSPost2010PropOp49
 70
     1
102
RTVSPost2010Prop50
 90
       50
102
RTVSPost2010PropOp50
 70
     1
102
RTVSPost2010Prop51ColorIndex
 90
      256
102
RTVSPost2010Prop51ColorRGB
 90
-16777216
102
RTVSPost2010PropOp51
 70
     0
102
RTVSPost2010Prop52
140
1.0
102
RTVSPost2010PropOp52
 70
     0
102
RTVSPost2010Prop53
 90
        2
102
RTVSPost2010PropOp53
 70
     1
102
RTVSPost2010Prop54
  1
strokes_ogs.tif
102
RTVSPost2010PropOp54
 70
     1
102
RTVSPost2010Prop55
280
     0
102
RTVSPost2010PropOp55
 70
     1
102
RTVSPost2010Prop56
140
1.0
102
RTVSPost2010PropOp56
 70
     1
102
RTVSPost2010Prop57
140
1.0
102
RTVSPost2010PropOp57
 70
     1
102
RTVSPropertyOp0
 70
     1
102
RTVSPropertyOp1
 70
     1
102
RTVSPropertyOp2
 70
     1
102
RTVSPropertyOp3
 70
     1
102
RTVSPropertyOp4
 70
     1
102
RTVSPropertyOp5
 70
     1
102
RTVSPropertyOp6
 70
     1
102
RTVSPropertyOp7
 70
     1
102
RTVSPropertyOp8
 70
     1
102
RTVSPropertyOp9
 70
     1
102
RTVSPropertyOp10
 70
     1
102
RTVSPropertyOp11
 70
     1
102
RTVSPropertyOp12
 70
     1
102
RTVSPropertyOp13
 70
     1
102
RTVSPropertyOp14
 70
     1
102
RTVSPropertyOp15
 70
     1
102
RTVSPropertyOp16
 70
     1
102
RTVSPropertyOp17
 70
     1
102
RTVSPropertyOp18
 70
     1
102
RTVSPropertyOp19
 70
     1
102
RTVSPropertyOp20
 70
     1
102
RTVSPropertyOp21
 70
     1
102
RTVSPropertyOp22
 70
     1
102
RTVSPropertyOp23
 70
     1
102
RTVSPropertyOp24
 70
     1
102
RTVSPropertyOp25
 70
     1
102
RTVSPropertyOp26
 70
     1
102
RTVSPropertyOp27
 70
     1
102
RTVSPropertyOp28
 70
     1
102
RTVSPropertyOp29
 70
     1
102
RTVSPropertyOp30
 70
     1
102
RTVSPropertyOp31
 70
     1
102
RTVSPropertyOp32
 70
     1
102
RTVSPropertyOp33
 70
     1
102
RTVSPropertyOp34
 70
     1
102
RTVSPropertyOp35
 70
     1
102
RTVSPropertyOp36
 70
     1
102
RTVSPropertyOp37
 70
     1
102
RTVSPropertyOp38
 70
     1
102
RTVSPropertyOp39
 70
     1
102
RTVSPropertyOp40
 70
     1
102
RTVSPropertyOp41
 70
     1
102
RTVSPropertyOp42
 70
     1
102
RTVSPropertyOp43
 70
     1
102
RTVSPropertyOp44
 70
     1
102
RTVSPropertyOp45
 70
     1
102
RTVSPropertyOp46
 70
     1
102
RTVSPropertyOp47
 70
     1
102
RTVSPropertyOp48
 70
     1
102
RTVSPropertyOp49
 70
     1
102
RTVSPropertyOp50
 70
     1
102
RTVSPropertyOp51
 70
     0
102
RTVSPropertyOp52
 70
     0
102
RTVSPropertyOp53
 70
     1
102
RTVSPropertyOp54
 70
     1
102
RTVSPropertyOp55
 70
     1
102
RTVSPropertyOp56
 70
     1
102
RTVSPropertyOp57
 70
     1
102
RTVSPropertyOp58
 70
     1
102
RTVSPropertyOp59
 70
     1
102
RTVSPropertyOp60
 70
     1
102
RTVSPropertyOp61
 70
     1
102
RTVSPropertyOp62
 70
     1
  0
XRECORD
  5
606
102
{ACAD_REACTORS
330
605
102
}
330
605
100
AcDbXrecord
280
     1
102
RTVSPost2010Prop28
280
     0
102
RTVSPost2010PropOp28
 70
     1
102
RTVSPost2010Prop29
280
     1
102
RTVSPost2010PropOp29
 70
     1
102
RTVSPost2010Prop30
280
     1
102
RTVSPost2010PropOp30
 70
     1
102
RTVSPost2010Prop31
280
     0
102
RTVSPost2010PropOp31
 70
     1
102
RTVSPost2010Prop32
280
     0
102
RTVSPost2010PropOp32
 70
     1
102
RTVSPost2010Prop33
280
     0
102
RTVSPost2010PropOp33
 70
     1
102
RTVSPost2010Prop34
280
     0
102
RTVSPost2010PropOp34
 70
     1
102
RTVSPost2010Prop35
280
     0
102
RTVSPost2010PropOp35
 70
     1
102
RTVSPost2010Prop36
280
     0
102
RTVSPost2010PropOp36
 70
     1
102
RTVSPost2010Prop37
 90
       50
102
RTVSPost2010PropOp37
 70
     1
102
RTVSPost2010Prop38
140
0.0
102
RTVSPost2010PropOp38
 70
     1
102
RTVSPost2010Prop39
140
1.0
102
RTVSPost2010PropOp39
 70
     1
102
RTVSPost2010Prop40
 90
        0
102
RTVSPost2010PropOp40
 70
     1
102
RTVSPost2010Prop41ColorIndex
 90
       18
102
RTVSPost2010Prop41ColorRGB
 90
        0
102
RTVSPost2010PropOp41
 70
     1
102
RTVSPost2010Prop42
 90
       50
102
RTVSPost2010PropOp42
 70
     1
102
RTVSPost2010Prop43
 90
        3
102
RTVSPost2010PropOp43
 70
     1
102
RTVSPost2010Prop44ColorIndex
 90
        5
102
RTVSPost2010Prop44ColorRGB
 90
      255
102
RTVSPost2010PropOp44
 70
     1
102
RTVSPost2010Prop45
280
     0
102
RTVSPost2010PropOp45
 70
     1
102
RTVSPost2010Prop46
 90
       50
102
RTVSPost2010PropOp46
 70
     1
102
RTVSPost2010Prop47
 90
       50
102
RTVSPost2010PropOp47
 70
     1
102
RTVSPost2010Prop48
 90
       50
102
RTVSPost2010PropOp48
 70
     1
102
RTVSPost2010Prop49
280
     0
102
RTVSPost2010PropOp49
 70
     1
102
RTVSPost2010Prop50
 90
       50
102
RTVSPost2010PropOp50
 70
     1
102
RTVSPost2010Prop51ColorIndex
 90
      256
102
RTVSPost2010Prop51ColorRGB
 90
-16777216
102
RTVSPost2010PropOp51
 70
     0
102
RTVSPost2010Prop52
140
1.0
102
RTVSPost2010PropOp52
 70
     0
102
RTVSPost2010Prop53
 90
        2
102
RTVSPost2010PropOp53
 70
     1
102
RTVSPost2010Prop54
  1
strokes_ogs.tif
102
RTVSPost2010PropOp54
 70
     1
102
RTVSPost2010Prop55
280
     0
102
RTVSPost2010PropOp55
 70
     1
102
RTVSPost2010Prop56
140
1.0
102
RTVSPost2010PropOp56
 70
     1
102
RTVSPost2010Prop57
140
1.0
102
RTVSPost2010PropOp57
 70
     1
102
RTVSPropertyOp0
 70
     1
102
RTVSPropertyOp1
 70
     1
102
RTVSPropertyOp2
 70
     1
102
RTVSPropertyOp3
 70
     1
102
RTVSPropertyOp4
 70
     1
102
RTVSPropertyOp5
 70
     1
102
RTVSPropertyOp6
 70
     1
102
RTVSPropertyOp7
 70
     1
102
RTVSPropertyOp8
 70
     1
102
RTVSPropertyOp9
 70
     1
102
RTVSPropertyOp10
 70
     1
102
RTVSPropertyOp11
 70
     1
102
RTVSPropertyOp12
 70
     1
102
RTVSPropertyOp13
 70
     1
102
RTVSPropertyOp14
 70
     1
102
RTVSPropertyOp15
 70
     1
102
RTVSPropertyOp16
 70
     1
102
RTVSPropertyOp17
 70
     1
102
RTVSPropertyOp18
 70
     1
102
RTVSPropertyOp19
 70
     1
102
RTVSPropertyOp20
 70
     1
102
RTVSPropertyOp21
 70
     1
102
RTVSPropertyOp22
 70
     1
102
RTVSPropertyOp23
 70
     1
102
RTVSPropertyOp24
 70
     1
102
RTVSPropertyOp25
 70
     1
102
RTVSPropertyOp26
 70
     1
102
RTVSPropertyOp27
 70
     1
102
RTVSPropertyOp28
 70
     1
102
RTVSPropertyOp29
 70
     1
102
RTVSPropertyOp30
 70
     1
102
RTVSPropertyOp31
 70
     1
102
RTVSPropertyOp32
 70
     1
102
RTVSPropertyOp33
 70
     1
102
RTVSPropertyOp34
 70
     1
102
RTVSPropertyOp35
 70
     1
102
RTVSPropertyOp36
 70
     1
102
RTVSPropertyOp37
 70
     1
102
RTVSPropertyOp38
 70
     1
102
RTVSPropertyOp39
 70
     1
102
RTVSPropertyOp40
 70
     1
102
RTVSPropertyOp41
 70
     1
102
RTVSPropertyOp42
 70
     1
102
RTVSPropertyOp43
 70
     1
102
RTVSPropertyOp44
 70
     1
102
RTVSPropertyOp45
 70
     1
102
RTVSPropertyOp46
 70
     1
102
RTVSPropertyOp47
 70
     1
102
RTVSPropertyOp48
 70
     1
102
RTVSPropertyOp49
 70
     1
102
RTVSPropertyOp50
 70
     1
102
RTVSPropertyOp51
 70
     0
102
RTVSPropertyOp52
 70
     0
102
RTVSPropertyOp53
 70
     1
102
RTVSPropertyOp54
 70
     1
102
RTVSPropertyOp55
 70
     1
102
RTVSPropertyOp56
 70
     1
102
RTVSPropertyOp57
 70
     1
102
RTVSPropertyOp58
 70
     1
102
RTVSPropertyOp59
 70
     1
102
RTVSPropertyOp60
 70
     1
102
RTVSPropertyOp61
 70
     1
102
RTVSPropertyOp62
 70
     1
  0
XRECORD
  5
60E
102
{ACAD_REACTORS
330
60D
102
}
330
60D
100
AcDbXrecord
280
     1
102
RTVSPost2010Prop28
280
     0
102
RTVSPost2010PropOp28
 70
     1
102
RTVSPost2010Prop29
280
     1
102
RTVSPost2010PropOp29
 70
     1
102
RTVSPost2010Prop30
280
     1
102
RTVSPost2010PropOp30
 70
     1
102
RTVSPost2010Prop31
280
     0
102
RTVSPost2010PropOp31
 70
     1
102
RTVSPost2010Prop32
280
     0
102
RTVSPost2010PropOp32
 70
     1
102
RTVSPost2010Prop33
280
     0
102
RTVSPost2010PropOp33
 70
     1
102
RTVSPost2010Prop34
280
     0
102
RTVSPost2010PropOp34
 70
     1
102
RTVSPost2010Prop35
280
     0
102
RTVSPost2010PropOp35
 70
     1
102
RTVSPost2010Prop36
280
     0
102
RTVSPost2010PropOp36
 70
     1
102
RTVSPost2010Prop37
 90
       50
102
RTVSPost2010PropOp37
 70
     1
102
RTVSPost2010Prop38
140
0.0
102
RTVSPost2010PropOp38
 70
     1
102
RTVSPost2010Prop39
140
1.0
102
RTVSPost2010PropOp39
 70
     1
102
RTVSPost2010Prop40
 90
        0
102
RTVSPost2010PropOp40
 70
     1
102
RTVSPost2010Prop41ColorIndex
 90
       18
102
RTVSPost2010Prop41ColorRGB
 90
        0
102
RTVSPost2010PropOp41
 70
     1
102
RTVSPost2010Prop42
 90
       50
102
RTVSPost2010PropOp42
 70
     1
102
RTVSPost2010Prop43
 90
        3
102
RTVSPost2010PropOp43
 70
     1
102
RTVSPost2010Prop44ColorIndex
 90
        5
102
RTVSPost2010Prop44ColorRGB
 90
      255
102
RTVSPost2010PropOp44
 70
     1
102
RTVSPost2010Prop45
280
     0
102
RTVSPost2010PropOp45
 70
     1
102
RTVSPost2010Prop46
 90
       50
102
RTVSPost2010PropOp46
 70
     1
102
RTVSPost2010Prop47
 90
       50
102
RTVSPost2010PropOp47
 70
     1
102
RTVSPost2010Prop48
 90
       50
102
RTVSPost2010PropOp48
 70
     1
102
RTVSPost2010Prop49
280
     0
102
RTVSPost2010PropOp49
 70
     1
102
RTVSPost2010Prop50
 90
       50
102
RTVSPost2010PropOp50
 70
     1
102
RTVSPost2010Prop51ColorIndex
 90
      256
102
RTVSPost2010Prop51ColorRGB
 90
-16777216
102
RTVSPost2010PropOp51
 70
     0
102
RTVSPost2010Prop52
140
1.0
102
RTVSPost2010PropOp52
 70
     0
102
RTVSPost2010Prop53
 90
        2
102
RTVSPost2010PropOp53
 70
     1
102
RTVSPost2010Prop54
  1
strokes_ogs.tif
102
RTVSPost2010PropOp54
 70
     1
102
RTVSPost2010Prop55
280
     0
102
RTVSPost2010PropOp55
 70
     1
102
RTVSPost2010Prop56
140
1.0
102
RTVSPost2010PropOp56
 70
     1
102
RTVSPost2010Prop57
140
1.0
102
RTVSPost2010PropOp57
 70
     1
102
RTVSPropertyOp0
 70
     1
102
RTVSPropertyOp1
 70
     1
102
RTVSPropertyOp2
 70
     1
102
RTVSPropertyOp3
 70
     1
102
RTVSPropertyOp4
 70
     1
102
RTVSPropertyOp5
 70
     1
102
RTVSPropertyOp6
 70
     1
102
RTVSPropertyOp7
 70
     1
102
RTVSPropertyOp8
 70
     1
102
RTVSPropertyOp9
 70
     1
102
RTVSPropertyOp10
 70
     1
102
RTVSPropertyOp11
 70
     1
102
RTVSPropertyOp12
 70
     1
102
RTVSPropertyOp13
 70
     1
102
RTVSPropertyOp14
 70
     1
102
RTVSPropertyOp15
 70
     1
102
RTVSPropertyOp16
 70
     1
102
RTVSPropertyOp17
 70
     1
102
RTVSPropertyOp18
 70
     1
102
RTVSPropertyOp19
 70
     1
102
RTVSPropertyOp20
 70
     1
102
RTVSPropertyOp21
 70
     1
102
RTVSPropertyOp22
 70
     1
102
RTVSPropertyOp23
 70
     1
102
RTVSPropertyOp24
 70
     1
102
RTVSPropertyOp25
 70
     1
102
RTVSPropertyOp26
 70
     1
102
RTVSPropertyOp27
 70
     1
102
RTVSPropertyOp28
 70
     1
102
RTVSPropertyOp29
 70
     1
102
RTVSPropertyOp30
 70
     1
102
RTVSPropertyOp31
 70
     1
102
RTVSPropertyOp32
 70
     1
102
RTVSPropertyOp33
 70
     1
102
RTVSPropertyOp34
 70
     1
102
RTVSPropertyOp35
 70
     1
102
RTVSPropertyOp36
 70
     1
102
RTVSPropertyOp37
 70
     1
102
RTVSPropertyOp38
 70
     1
102
RTVSPropertyOp39
 70
     1
102
RTVSPropertyOp40
 70
     1
102
RTVSPropertyOp41
 70
     1
102
RTVSPropertyOp42
 70
     1
102
RTVSPropertyOp43
 70
     1
102
RTVSPropertyOp44
 70
     1
102
RTVSPropertyOp45
 70
     1
102
RTVSPropertyOp46
 70
     1
102
RTVSPropertyOp47
 70
     1
102
RTVSPropertyOp48
 70
     1
102
RTVSPropertyOp49
 70
     1
102
RTVSPropertyOp50
 70
     1
102
RTVSPropertyOp51
 70
     0
102
RTVSPropertyOp52
 70
     0
102
RTVSPropertyOp53
 70
     1
102
RTVSPropertyOp54
 70
     1
102
RTVSPropertyOp55
 70
     1
102
RTVSPropertyOp56
 70
     1
102
RTVSPropertyOp57
 70
     1
102
RTVSPropertyOp58
 70
     1
102
RTVSPropertyOp59
 70
     1
102
RTVSPropertyOp60
 70
     1
102
RTVSPropertyOp61
 70
     1
102
RTVSPropertyOp62
 70
     1
  0
XRECORD
  5
616
102
{ACAD_REACTORS
330
615
102
}
330
615
100
AcDbXrecord
280
     1
102
RTVSPost2010Prop28
280
     0
102
RTVSPost2010PropOp28
 70
     1
102
RTVSPost2010Prop29
280
     1
102
RTVSPost2010PropOp29
 70
     1
102
RTVSPost2010Prop30
280
     1
102
RTVSPost2010PropOp30
 70
     1
102
RTVSPost2010Prop31
280
     0
102
RTVSPost2010PropOp31
 70
     1
102
RTVSPost2010Prop32
280
     0
102
RTVSPost2010PropOp32
 70
     1
102
RTVSPost2010Prop33
280
     0
102
RTVSPost2010PropOp33
 70
     1
102
RTVSPost2010Prop34
280
     0
102
RTVSPost2010PropOp34
 70
     1
102
RTVSPost2010Prop35
280
     0
102
RTVSPost2010PropOp35
 70
     1
102
RTVSPost2010Prop36
280
     0
102
RTVSPost2010PropOp36
 70
     1
102
RTVSPost2010Prop37
 90
       50
102
RTVSPost2010PropOp37
 70
     1
102
RTVSPost2010Prop38
140
0.0
102
RTVSPost2010PropOp38
 70
     1
102
RTVSPost2010Prop39
140
1.0
102
RTVSPost2010PropOp39
 70
     1
102
RTVSPost2010Prop40
 90
        0
102
RTVSPost2010PropOp40
 70
     1
102
RTVSPost2010Prop41ColorIndex
 90
       18
102
RTVSPost2010Prop41ColorRGB
 90
        0
102
RTVSPost2010PropOp41
 70
     1
102
RTVSPost2010Prop42
 90
       50
102
RTVSPost2010PropOp42
 70
     1
102
RTVSPost2010Prop43
 90
        3
102
RTVSPost2010PropOp43
 70
     1
102
RTVSPost2010Prop44ColorIndex
 90
        5
102
RTVSPost2010Prop44ColorRGB
 90
      255
102
RTVSPost2010PropOp44
 70
     1
102
RTVSPost2010Prop45
280
     0
102
RTVSPost2010PropOp45
 70
     1
102
RTVSPost2010Prop46
 90
       50
102
RTVSPost2010PropOp46
 70
     1
102
RTVSPost2010Prop47
 90
       50
102
RTVSPost2010PropOp47
 70
     1
102
RTVSPost2010Prop48
 90
       50
102
RTVSPost2010PropOp48
 70
     1
102
RTVSPost2010Prop49
280
     0
102
RTVSPost2010PropOp49
 70
     1
102
RTVSPost2010Prop50
 90
       50
102
RTVSPost2010PropOp50
 70
     1
102
RTVSPost2010Prop51ColorIndex
 90
      256
102
RTVSPost2010Prop51ColorRGB
 90
-16777216
102
RTVSPost2010PropOp51
 70
     0
102
RTVSPost2010Prop52
140
1.0
102
RTVSPost2010PropOp52
 70
     0
102
RTVSPost2010Prop53
 90
        2
102
RTVSPost2010PropOp53
 70
     1
102
RTVSPost2010Prop54
  1
strokes_ogs.tif
102
RTVSPost2010PropOp54
 70
     1
102
RTVSPost2010Prop55
280
     0
102
RTVSPost2010PropOp55
 70
     1
102
RTVSPost2010Prop56
140
1.0
102
RTVSPost2010PropOp56
 70
     1
102
RTVSPost2010Prop57
140
1.0
102
RTVSPost2010PropOp57
 70
     1
102
RTVSPropertyOp0
 70
     1
102
RTVSPropertyOp1
 70
     1
102
RTVSPropertyOp2
 70
     1
102
RTVSPropertyOp3
 70
     1
102
RTVSPropertyOp4
 70
     1
102
RTVSPropertyOp5
 70
     1
102
RTVSPropertyOp6
 70
     1
102
RTVSPropertyOp7
 70
     1
102
RTVSPropertyOp8
 70
     1
102
RTVSPropertyOp9
 70
     1
102
RTVSPropertyOp10
 70
     1
102
RTVSPropertyOp11
 70
     1
102
RTVSPropertyOp12
 70
     1
102
RTVSPropertyOp13
 70
     1
102
RTVSPropertyOp14
 70
     1
102
RTVSPropertyOp15
 70
     1
102
RTVSPropertyOp16
 70
     1
102
RTVSPropertyOp17
 70
     1
102
RTVSPropertyOp18
 70
     1
102
RTVSPropertyOp19
 70
     1
102
RTVSPropertyOp20
 70
     1
102
RTVSPropertyOp21
 70
     1
102
RTVSPropertyOp22
 70
     1
102
RTVSPropertyOp23
 70
     1
102
RTVSPropertyOp24
 70
     1
102
RTVSPropertyOp25
 70
     1
102
RTVSPropertyOp26
 70
     1
102
RTVSPropertyOp27
 70
     1
102
RTVSPropertyOp28
 70
     1
102
RTVSPropertyOp29
 70
     1
102
RTVSPropertyOp30
 70
     1
102
RTVSPropertyOp31
 70
     1
102
RTVSPropertyOp32
 70
     1
102
RTVSPropertyOp33
 70
     1
102
RTVSPropertyOp34
 70
     1
102
RTVSPropertyOp35
 70
     1
102
RTVSPropertyOp36
 70
     1
102
RTVSPropertyOp37
 70
     1
102
RTVSPropertyOp38
 70
     1
102
RTVSPropertyOp39
 70
     1
102
RTVSPropertyOp40
 70
     1
102
RTVSPropertyOp41
 70
     1
102
RTVSPropertyOp42
 70
     1
102
RTVSPropertyOp43
 70
     1
102
RTVSPropertyOp44
 70
     1
102
RTVSPropertyOp45
 70
     1
102
RTVSPropertyOp46
 70
     1
102
RTVSPropertyOp47
 70
     1
102
RTVSPropertyOp48
 70
     1
102
RTVSPropertyOp49
 70
     1
102
RTVSPropertyOp50
 70
     1
102
RTVSPropertyOp51
 70
     0
102
RTVSPropertyOp52
 70
     0
102
RTVSPropertyOp53
 70
     1
102
RTVSPropertyOp54
 70
     1
102
RTVSPropertyOp55
 70
     1
102
RTVSPropertyOp56
 70
     1
102
RTVSPropertyOp57
 70
     1
102
RTVSPropertyOp58
 70
     1
102
RTVSPropertyOp59
 70
     1
102
RTVSPropertyOp60
 70
     1
102
RTVSPropertyOp61
 70
     1
102
RTVSPropertyOp62
 70
     1
  0
XRECORD
  5
60A
102
{ACAD_REACTORS
330
609
102
}
330
609
100
AcDbXrecord
280
     1
102
RTVSPost2010Prop28
280
     0
102
RTVSPost2010PropOp28
 70
     1
102
RTVSPost2010Prop29
280
     1
102
RTVSPost2010PropOp29
 70
     1
102
RTVSPost2010Prop30
280
     1
102
RTVSPost2010PropOp30
 70
     1
102
RTVSPost2010Prop31
280
     0
102
RTVSPost2010PropOp31
 70
     1
102
RTVSPost2010Prop32
280
     0
102
RTVSPost2010PropOp32
 70
     1
102
RTVSPost2010Prop33
280
     0
102
RTVSPost2010PropOp33
 70
     1
102
RTVSPost2010Prop34
280
     0
102
RTVSPost2010PropOp34
 70
     1
102
RTVSPost2010Prop35
280
     0
102
RTVSPost2010PropOp35
 70
     1
102
RTVSPost2010Prop36
280
     0
102
RTVSPost2010PropOp36
 70
     1
102
RTVSPost2010Prop37
 90
       50
102
RTVSPost2010PropOp37
 70
     1
102
RTVSPost2010Prop38
140
0.0
102
RTVSPost2010PropOp38
 70
     1
102
RTVSPost2010Prop39
140
1.0
102
RTVSPost2010PropOp39
 70
     1
102
RTVSPost2010Prop40
 90
        0
102
RTVSPost2010PropOp40
 70
     1
102
RTVSPost2010Prop41ColorIndex
 90
       18
102
RTVSPost2010Prop41ColorRGB
 90
        0
102
RTVSPost2010PropOp41
 70
     1
102
RTVSPost2010Prop42
 90
       50
102
RTVSPost2010PropOp42
 70
     1
102
RTVSPost2010Prop43
 90
        3
102
RTVSPost2010PropOp43
 70
     1
102
RTVSPost2010Prop44ColorIndex
 90
        5
102
RTVSPost2010Prop44ColorRGB
 90
      255
102
RTVSPost2010PropOp44
 70
     1
102
RTVSPost2010Prop45
280
     0
102
RTVSPost2010PropOp45
 70
     1
102
RTVSPost2010Prop46
 90
       50
102
RTVSPost2010PropOp46
 70
     1
102
RTVSPost2010Prop47
 90
       50
102
RTVSPost2010PropOp47
 70
     1
102
RTVSPost2010Prop48
 90
       50
102
RTVSPost2010PropOp48
 70
     1
102
RTVSPost2010Prop49
280
     0
102
RTVSPost2010PropOp49
 70
     1
102
RTVSPost2010Prop50
 90
       50
102
RTVSPost2010PropOp50
 70
     1
102
RTVSPost2010Prop51ColorIndex
 90
      256
102
RTVSPost2010Prop51ColorRGB
 90
-16777216
102
RTVSPost2010PropOp51
 70
     0
102
RTVSPost2010Prop52
140
1.0
102
RTVSPost2010PropOp52
 70
     0
102
RTVSPost2010Prop53
 90
        2
102
RTVSPost2010PropOp53
 70
     1
102
RTVSPost2010Prop54
  1
strokes_ogs.tif
102
RTVSPost2010PropOp54
 70
     1
102
RTVSPost2010Prop55
280
     0
102
RTVSPost2010PropOp55
 70
     1
102
RTVSPost2010Prop56
140
1.0
102
RTVSPost2010PropOp56
 70
     1
102
RTVSPost2010Prop57
140
1.0
102
RTVSPost2010PropOp57
 70
     1
102
RTVSPropertyOp0
 70
     1
102
RTVSPropertyOp1
 70
     1
102
RTVSPropertyOp2
 70
     1
102
RTVSPropertyOp3
 70
     1
102
RTVSPropertyOp4
 70
     1
102
RTVSPropertyOp5
 70
     1
102
RTVSPropertyOp6
 70
     1
102
RTVSPropertyOp7
 70
     1
102
RTVSPropertyOp8
 70
     1
102
RTVSPropertyOp9
 70
     1
102
RTVSPropertyOp10
 70
     1
102
RTVSPropertyOp11
 70
     1
102
RTVSPropertyOp12
 70
     1
102
RTVSPropertyOp13
 70
     1
102
RTVSPropertyOp14
 70
     1
102
RTVSPropertyOp15
 70
     1
102
RTVSPropertyOp16
 70
     1
102
RTVSPropertyOp17
 70
     1
102
RTVSPropertyOp18
 70
     1
102
RTVSPropertyOp19
 70
     1
102
RTVSPropertyOp20
 70
     1
102
RTVSPropertyOp21
 70
     1
102
RTVSPropertyOp22
 70
     1
102
RTVSPropertyOp23
 70
     1
102
RTVSPropertyOp24
 70
     1
102
RTVSPropertyOp25
 70
     1
102
RTVSPropertyOp26
 70
     1
102
RTVSPropertyOp27
 70
     1
102
RTVSPropertyOp28
 70
     1
102
RTVSPropertyOp29
 70
     1
102
RTVSPropertyOp30
 70
     1
102
RTVSPropertyOp31
 70
     1
102
RTVSPropertyOp32
 70
     1
102
RTVSPropertyOp33
 70
     1
102
RTVSPropertyOp34
 70
     1
102
RTVSPropertyOp35
 70
     1
102
RTVSPropertyOp36
 70
     1
102
RTVSPropertyOp37
 70
     1
102
RTVSPropertyOp38
 70
     1
102
RTVSPropertyOp39
 70
     1
102
RTVSPropertyOp40
 70
     1
102
RTVSPropertyOp41
 70
     1
102
RTVSPropertyOp42
 70
     1
102
RTVSPropertyOp43
 70
     1
102
RTVSPropertyOp44
 70
     1
102
RTVSPropertyOp45
 70
     1
102
RTVSPropertyOp46
 70
     1
102
RTVSPropertyOp47
 70
     1
102
RTVSPropertyOp48
 70
     1
102
RTVSPropertyOp49
 70
     1
102
RTVSPropertyOp50
 70
     1
102
RTVSPropertyOp51
 70
     0
102
RTVSPropertyOp52
 70
     0
102
RTVSPropertyOp53
 70
     1
102
RTVSPropertyOp54
 70
     1
102
RTVSPropertyOp55
 70
     1
102
RTVSPropertyOp56
 70
     1
102
RTVSPropertyOp57
 70
     1
102
RTVSPropertyOp58
 70
     1
102
RTVSPropertyOp59
 70
     1
102
RTVSPropertyOp60
 70
     1
102
RTVSPropertyOp61
 70
     1
102
RTVSPropertyOp62
 70
     1
  0
XRECORD
  5
60C
102
{ACAD_REACTORS
330
60B
102
}
330
60B
100
AcDbXrecord
280
     1
102
RTVSPost2010Prop28
280
     0
102
RTVSPost2010PropOp28
 70
     1
102
RTVSPost2010Prop29
280
     1
102
RTVSPost2010PropOp29
 70
     1
102
RTVSPost2010Prop30
280
     1
102
RTVSPost2010PropOp30
 70
     1
102
RTVSPost2010Prop31
280
     0
102
RTVSPost2010PropOp31
 70
     1
102
RTVSPost2010Prop32
280
     0
102
RTVSPost2010PropOp32
 70
     1
102
RTVSPost2010Prop33
280
     0
102
RTVSPost2010PropOp33
 70
     1
102
RTVSPost2010Prop34
280
     0
102
RTVSPost2010PropOp34
 70
     1
102
RTVSPost2010Prop35
280
     0
102
RTVSPost2010PropOp35
 70
     1
102
RTVSPost2010Prop36
280
     0
102
RTVSPost2010PropOp36
 70
     1
102
RTVSPost2010Prop37
 90
       50
102
RTVSPost2010PropOp37
 70
     1
102
RTVSPost2010Prop38
140
0.0
102
RTVSPost2010PropOp38
 70
     1
102
RTVSPost2010Prop39
140
1.0
102
RTVSPost2010PropOp39
 70
     1
102
RTVSPost2010Prop40
 90
        0
102
RTVSPost2010PropOp40
 70
     1
102
RTVSPost2010Prop41ColorIndex
 90
       18
102
RTVSPost2010Prop41ColorRGB
 90
        0
102
RTVSPost2010PropOp41
 70
     1
102
RTVSPost2010Prop42
 90
       50
102
RTVSPost2010PropOp42
 70
     1
102
RTVSPost2010Prop43
 90
        3
102
RTVSPost2010PropOp43
 70
     1
102
RTVSPost2010Prop44ColorIndex
 90
        5
102
RTVSPost2010Prop44ColorRGB
 90
      255
102
RTVSPost2010PropOp44
 70
     1
102
RTVSPost2010Prop45
280
     0
102
RTVSPost2010PropOp45
 70
     1
102
RTVSPost2010Prop46
 90
       50
102
RTVSPost2010PropOp46
 70
     1
102
RTVSPost2010Prop47
 90
       50
102
RTVSPost2010PropOp47
 70
     1
102
RTVSPost2010Prop48
 90
       50
102
RTVSPost2010PropOp48
 70
     1
102
RTVSPost2010Prop49
280
     0
102
RTVSPost2010PropOp49
 70
     1
102
RTVSPost2010Prop50
 90
       50
102
RTVSPost2010PropOp50
 70
     1
102
RTVSPost2010Prop51ColorIndex
 90
      256
102
RTVSPost2010Prop51ColorRGB
 90
-16777216
102
RTVSPost2010PropOp51
 70
     0
102
RTVSPost2010Prop52
140
1.0
102
RTVSPost2010PropOp52
 70
     0
102
RTVSPost2010Prop53
 90
        2
102
RTVSPost2010PropOp53
 70
     1
102
RTVSPost2010Prop54
  1
strokes_ogs.tif
102
RTVSPost2010PropOp54
 70
     1
102
RTVSPost2010Prop55
280
     0
102
RTVSPost2010PropOp55
 70
     1
102
RTVSPost2010Prop56
140
1.0
102
RTVSPost2010PropOp56
 70
     1
102
RTVSPost2010Prop57
140
1.0
102
RTVSPost2010PropOp57
 70
     1
102
RTVSPropertyOp0
 70
     1
102
RTVSPropertyOp1
 70
     1
102
RTVSPropertyOp2
 70
     1
102
RTVSPropertyOp3
 70
     1
102
RTVSPropertyOp4
 70
     1
102
RTVSPropertyOp5
 70
     1
102
RTVSPropertyOp6
 70
     1
102
RTVSPropertyOp7
 70
     1
102
RTVSPropertyOp8
 70
     1
102
RTVSPropertyOp9
 70
     1
102
RTVSPropertyOp10
 70
     1
102
RTVSPropertyOp11
 70
     1
102
RTVSPropertyOp12
 70
     1
102
RTVSPropertyOp13
 70
     1
102
RTVSPropertyOp14
 70
     1
102
RTVSPropertyOp15
 70
     1
102
RTVSPropertyOp16
 70
     1
102
RTVSPropertyOp17
 70
     1
102
RTVSPropertyOp18
 70
     1
102
RTVSPropertyOp19
 70
     1
102
RTVSPropertyOp20
 70
     1
102
RTVSPropertyOp21
 70
     1
102
RTVSPropertyOp22
 70
     1
102
RTVSPropertyOp23
 70
     1
102
RTVSPropertyOp24
 70
     1
102
RTVSPropertyOp25
 70
     1
102
RTVSPropertyOp26
 70
     1
102
RTVSPropertyOp27
 70
     1
102
RTVSPropertyOp28
 70
     1
102
RTVSPropertyOp29
 70
     1
102
RTVSPropertyOp30
 70
     1
102
RTVSPropertyOp31
 70
     1
102
RTVSPropertyOp32
 70
     1
102
RTVSPropertyOp33
 70
     1
102
RTVSPropertyOp34
 70
     1
102
RTVSPropertyOp35
 70
     1
102
RTVSPropertyOp36
 70
     1
102
RTVSPropertyOp37
 70
     1
102
RTVSPropertyOp38
 70
     1
102
RTVSPropertyOp39
 70
     1
102
RTVSPropertyOp40
 70
     1
102
RTVSPropertyOp41
 70
     1
102
RTVSPropertyOp42
 70
     1
102
RTVSPropertyOp43
 70
     1
102
RTVSPropertyOp44
 70
     1
102
RTVSPropertyOp45
 70
     1
102
RTVSPropertyOp46
 70
     1
102
RTVSPropertyOp47
 70
     1
102
RTVSPropertyOp48
 70
     1
102
RTVSPropertyOp49
 70
     1
102
RTVSPropertyOp50
 70
     1
102
RTVSPropertyOp51
 70
     0
102
RTVSPropertyOp52
 70
     0
102
RTVSPropertyOp53
 70
     1
102
RTVSPropertyOp54
 70
     1
102
RTVSPropertyOp55
 70
     1
102
RTVSPropertyOp56
 70
     1
102
RTVSPropertyOp57
 70
     1
102
RTVSPropertyOp58
 70
     1
102
RTVSPropertyOp59
 70
     1
102
RTVSPropertyOp60
 70
     1
102
RTVSPropertyOp61
 70
     1
102
RTVSPropertyOp62
 70
     1
  0
XRECORD
  5
61C
102
{ACAD_REACTORS
330
61B
102
}
330
61B
100
AcDbXrecord
280
     1
102
RTVSPost2010Prop28
280
     0
102
RTVSPost2010PropOp28
 70
     0
102
RTVSPost2010Prop29
280
     1
102
RTVSPost2010PropOp29
 70
     0
102
RTVSPost2010Prop30
280
     1
102
RTVSPost2010PropOp30
 70
     0
102
RTVSPost2010Prop31
280
     0
102
RTVSPost2010PropOp31
 70
     0
102
RTVSPost2010Prop32
280
     0
102
RTVSPost2010PropOp32
 70
     0
102
RTVSPost2010Prop33
280
     0
102
RTVSPost2010PropOp33
 70
     0
102
RTVSPost2010Prop34
280
     0
102
RTVSPost2010PropOp34
 70
     0
102
RTVSPost2010Prop35
280
     0
102
RTVSPost2010PropOp35
 70
     0
102
RTVSPost2010Prop36
280
     0
102
RTVSPost2010PropOp36
 70
     0
102
RTVSPost2010Prop37
 90
       50
102
RTVSPost2010PropOp37
 70
     0
102
RTVSPost2010Prop38
140
0.0
102
RTVSPost2010PropOp38
 70
     0
102
RTVSPost2010Prop39
140
1.0
102
RTVSPost2010PropOp39
 70
     0
102
RTVSPost2010Prop40
 90
        0
102
RTVSPost2010PropOp40
 70
     0
102
RTVSPost2010Prop41ColorIndex
 90
       18
102
RTVSPost2010Prop41ColorRGB
 90
        0
102
RTVSPost2010PropOp41
 70
     0
102
RTVSPost2010Prop42
 90
       50
102
RTVSPost2010PropOp42
 70
     0
102
RTVSPost2010Prop43
 90
        3
102
RTVSPost2010PropOp43
 70
     0
102
RTVSPost2010Prop44ColorIndex
 90
        5
102
RTVSPost2010Prop44ColorRGB
 90
      255
102
RTVSPost2010PropOp44
 70
     0
102
RTVSPost2010Prop45
280
     0
102
RTVSPost2010PropOp45
 70
     0
102
RTVSPost2010Prop46
 90
       50
102
RTVSPost2010PropOp46
 70
     0
102
RTVSPost2010Prop47
 90
       50
102
RTVSPost2010PropOp47
 70
     0
102
RTVSPost2010Prop48
 90
       50
102
RTVSPost2010PropOp48
 70
     0
102
RTVSPost2010Prop49
280
     0
102
RTVSPost2010PropOp49
 70
     0
102
RTVSPost2010Prop50
 90
       50
102
RTVSPost2010PropOp50
 70
     0
102
RTVSPost2010Prop51ColorIndex
 90
      256
102
RTVSPost2010Prop51ColorRGB
 90
-16777216
102
RTVSPost2010PropOp51
 70
     0
102
RTVSPost2010Prop52
140
1.0
102
RTVSPost2010PropOp52
 70
     0
102
RTVSPost2010Prop53
 90
        2
102
RTVSPost2010PropOp53
 70
     0
102
RTVSPost2010Prop54
  1
strokes_ogs.tif
102
RTVSPost2010PropOp54
 70
     0
102
RTVSPost2010Prop55
280
     0
102
RTVSPost2010PropOp55
 70
     0
102
RTVSPost2010Prop56
140
1.0
102
RTVSPost2010PropOp56
 70
     0
102
RTVSPost2010Prop57
140
1.0
102
RTVSPost2010PropOp57
 70
     0
102
RTVSPropertyOp0
 70
     0
102
RTVSPropertyOp1
 70
     0
102
RTVSPropertyOp2
 70
     0
102
RTVSPropertyOp3
 70
     0
102
RTVSPropertyOp4
 70
     0
102
RTVSPropertyOp5
 70
     0
102
RTVSPropertyOp6
 70
     0
102
RTVSPropertyOp7
 70
     0
102
RTVSPropertyOp8
 70
     0
102
RTVSPropertyOp9
 70
     0
102
RTVSPropertyOp10
 70
     0
102
RTVSPropertyOp11
 70
     0
102
RTVSPropertyOp12
 70
     0
102
RTVSPropertyOp13
 70
     0
102
RTVSPropertyOp14
 70
     2
102
RTVSPropertyOp15
 70
     0
102
RTVSPropertyOp16
 70
     0
102
RTVSPropertyOp17
 70
     0
102
RTVSPropertyOp18
 70
     0
102
RTVSPropertyOp19
 70
     0
102
RTVSPropertyOp20
 70
     0
102
RTVSPropertyOp21
 70
     0
102
RTVSPropertyOp22
 70
     0
102
RTVSPropertyOp23
 70
     0
102
RTVSPropertyOp24
 70
     0
102
RTVSPropertyOp25
 70
     0
102
RTVSPropertyOp26
 70
     0
102
RTVSPropertyOp27
 70
     0
102
RTVSPropertyOp28
 70
     0
102
RTVSPropertyOp29
 70
     0
102
RTVSPropertyOp30
 70
     0
102
RTVSPropertyOp31
 70
     0
102
RTVSPropertyOp32
 70
     0
102
RTVSPropertyOp33
 70
     0
102
RTVSPropertyOp34
 70
     0
102
RTVSPropertyOp35
 70
     0
102
RTVSPropertyOp36
 70
     0
102
RTVSPropertyOp37
 70
     0
102
RTVSPropertyOp38
 70
     0
102
RTVSPropertyOp39
 70
     0
102
RTVSPropertyOp40
 70
     0
102
RTVSPropertyOp41
 70
     0
102
RTVSPropertyOp42
 70
     0
102
RTVSPropertyOp43
 70
     0
102
RTVSPropertyOp44
 70
     0
102
RTVSPropertyOp45
 70
     0
102
RTVSPropertyOp46
 70
     0
102
RTVSPropertyOp47
 70
     0
102
RTVSPropertyOp48
 70
     0
102
RTVSPropertyOp49
 70
     0
102
RTVSPropertyOp50
 70
     0
102
RTVSPropertyOp51
 70
     0
102
RTVSPropertyOp52
 70
     0
102
RTVSPropertyOp53
 70
     0
102
RTVSPropertyOp54
 70
     0
102
RTVSPropertyOp55
 70
     0
102
RTVSPropertyOp56
 70
     0
102
RTVSPropertyOp57
 70
     0
102
RTVSPropertyOp58
 70
     1
102
RTVSPropertyOp59
 70
     1
102
RTVSPropertyOp60
 70
     1
102
RTVSPropertyOp61
 70
     1
102
RTVSPropertyOp62
 70
     1
  0
XRECORD
  5
614
102
{ACAD_REACTORS
330
613
102
}
330
613
100
AcDbXrecord
280
     1
102
RTVSPost2010Prop28
280
     0
102
RTVSPost2010PropOp28
 70
     1
102
RTVSPost2010Prop29
280
     1
102
RTVSPost2010PropOp29
 70
     1
102
RTVSPost2010Prop30
280
     1
102
RTVSPost2010PropOp30
 70
     1
102
RTVSPost2010Prop31
280
     0
102
RTVSPost2010PropOp31
 70
     1
102
RTVSPost2010Prop32
280
     0
102
RTVSPost2010PropOp32
 70
     1
102
RTVSPost2010Prop33
280
     0
102
RTVSPost2010PropOp33
 70
     1
102
RTVSPost2010Prop34
280
     0
102
RTVSPost2010PropOp34
 70
     1
102
RTVSPost2010Prop35
280
     0
102
RTVSPost2010PropOp35
 70
     1
102
RTVSPost2010Prop36
280
     0
102
RTVSPost2010PropOp36
 70
     1
102
RTVSPost2010Prop37
 90
       50
102
RTVSPost2010PropOp37
 70
     1
102
RTVSPost2010Prop38
140
0.0
102
RTVSPost2010PropOp38
 70
     1
102
RTVSPost2010Prop39
140
1.0
102
RTVSPost2010PropOp39
 70
     1
102
RTVSPost2010Prop40
 90
        0
102
RTVSPost2010PropOp40
 70
     1
102
RTVSPost2010Prop41ColorIndex
 90
       18
102
RTVSPost2010Prop41ColorRGB
 90
        0
102
RTVSPost2010PropOp41
 70
     1
102
RTVSPost2010Prop42
 90
       50
102
RTVSPost2010PropOp42
 70
     1
102
RTVSPost2010Prop43
 90
        3
102
RTVSPost2010PropOp43
 70
     1
102
RTVSPost2010Prop44ColorIndex
 90
        5
102
RTVSPost2010Prop44ColorRGB
 90
      255
102
RTVSPost2010PropOp44
 70
     1
102
RTVSPost2010Prop45
280
     0
102
RTVSPost2010PropOp45
 70
     1
102
RTVSPost2010Prop46
 90
       50
102
RTVSPost2010PropOp46
 70
     1
102
RTVSPost2010Prop47
 90
       50
102
RTVSPost2010PropOp47
 70
     1
102
RTVSPost2010Prop48
 90
       50
102
RTVSPost2010PropOp48
 70
     1
102
RTVSPost2010Prop49
280
     0
102
RTVSPost2010PropOp49
 70
     1
102
RTVSPost2010Prop50
 90
       50
102
RTVSPost2010PropOp50
 70
     1
102
RTVSPost2010Prop51ColorIndex
 90
      256
102
RTVSPost2010Prop51ColorRGB
 90
-16777216
102
RTVSPost2010PropOp51
 70
     0
102
RTVSPost2010Prop52
140
1.0
102
RTVSPost2010PropOp52
 70
     0
102
RTVSPost2010Prop53
 90
        2
102
RTVSPost2010PropOp53
 70
     1
102
RTVSPost2010Prop54
  1
strokes_ogs.tif
102
RTVSPost2010PropOp54
 70
     1
102
RTVSPost2010Prop55
280
     0
102
RTVSPost2010PropOp55
 70
     1
102
RTVSPost2010Prop56
140
1.0
102
RTVSPost2010PropOp56
 70
     1
102
RTVSPost2010Prop57
140
1.0
102
RTVSPost2010PropOp57
 70
     1
102
RTVSPropertyOp0
 70
     1
102
RTVSPropertyOp1
 70
     1
102
RTVSPropertyOp2
 70
     1
102
RTVSPropertyOp3
 70
     1
102
RTVSPropertyOp4
 70
     1
102
RTVSPropertyOp5
 70
     1
102
RTVSPropertyOp6
 70
     1
102
RTVSPropertyOp7
 70
     1
102
RTVSPropertyOp8
 70
     1
102
RTVSPropertyOp9
 70
     1
102
RTVSPropertyOp10
 70
     1
102
RTVSPropertyOp11
 70
     1
102
RTVSPropertyOp12
 70
     1
102
RTVSPropertyOp13
 70
     1
102
RTVSPropertyOp14
 70
     1
102
RTVSPropertyOp15
 70
     1
102
RTVSPropertyOp16
 70
     1
102
RTVSPropertyOp17
 70
     1
102
RTVSPropertyOp18
 70
     1
102
RTVSPropertyOp19
 70
     1
102
RTVSPropertyOp20
 70
     1
102
RTVSPropertyOp21
 70
     1
102
RTVSPropertyOp22
 70
     1
102
RTVSPropertyOp23
 70
     1
102
RTVSPropertyOp24
 70
     1
102
RTVSPropertyOp25
 70
     1
102
RTVSPropertyOp26
 70
     1
102
RTVSPropertyOp27
 70
     1
102
RTVSPropertyOp28
 70
     1
102
RTVSPropertyOp29
 70
     1
102
RTVSPropertyOp30
 70
     1
102
RTVSPropertyOp31
 70
     1
102
RTVSPropertyOp32
 70
     1
102
RTVSPropertyOp33
 70
     1
102
RTVSPropertyOp34
 70
     1
102
RTVSPropertyOp35
 70
     1
102
RTVSPropertyOp36
 70
     1
102
RTVSPropertyOp37
 70
     1
102
RTVSPropertyOp38
 70
     1
102
RTVSPropertyOp39
 70
     1
102
RTVSPropertyOp40
 70
     1
102
RTVSPropertyOp41
 70
     1
102
RTVSPropertyOp42
 70
     1
102
RTVSPropertyOp43
 70
     1
102
RTVSPropertyOp44
 70
     1
102
RTVSPropertyOp45
 70
     1
102
RTVSPropertyOp46
 70
     1
102
RTVSPropertyOp47
 70
     1
102
RTVSPropertyOp48
 70
     1
102
RTVSPropertyOp49
 70
     1
102
RTVSPropertyOp50
 70
     1
102
RTVSPropertyOp51
 70
     0
102
RTVSPropertyOp52
 70
     0
102
RTVSPropertyOp53
 70
     1
102
RTVSPropertyOp54
 70
     1
102
RTVSPropertyOp55
 70
     1
102
RTVSPropertyOp56
 70
     1
102
RTVSPropertyOp57
 70
     1
102
RTVSPropertyOp58
 70
     1
102
RTVSPropertyOp59
 70
     1
102
RTVSPropertyOp60
 70
     1
102
RTVSPropertyOp61
 70
     1
102
RTVSPropertyOp62
 70
     1
  0
XRECORD
  5
5F8
102
{ACAD_REACTORS
330
5F7
102
}
330
5F7
100
AcDbXrecord
280
     1
102
RTVSPost2010Prop28
280
     0
102
RTVSPost2010PropOp28
 70
     1
102
RTVSPost2010Prop29
280
     1
102
RTVSPost2010PropOp29
 70
     1
102
RTVSPost2010Prop30
280
     1
102
RTVSPost2010PropOp30
 70
     1
102
RTVSPost2010Prop31
280
     0
102
RTVSPost2010PropOp31
 70
     1
102
RTVSPost2010Prop32
280
     0
102
RTVSPost2010PropOp32
 70
     1
102
RTVSPost2010Prop33
280
     0
102
RTVSPost2010PropOp33
 70
     1
102
RTVSPost2010Prop34
280
     0
102
RTVSPost2010PropOp34
 70
     1
102
RTVSPost2010Prop35
280
     0
102
RTVSPost2010PropOp35
 70
     1
102
RTVSPost2010Prop36
280
     0
102
RTVSPost2010PropOp36
 70
     1
102
RTVSPost2010Prop37
 90
       50
102
RTVSPost2010PropOp37
 70
     1
102
RTVSPost2010Prop38
140
0.0
102
RTVSPost2010PropOp38
 70
     1
102
RTVSPost2010Prop39
140
1.0
102
RTVSPost2010PropOp39
 70
     1
102
RTVSPost2010Prop40
 90
        0
102
RTVSPost2010PropOp40
 70
     1
102
RTVSPost2010Prop41ColorIndex
 90
       18
102
RTVSPost2010Prop41ColorRGB
 90
        0
102
RTVSPost2010PropOp41
 70
     1
102
RTVSPost2010Prop42
 90
       50
102
RTVSPost2010PropOp42
 70
     1
102
RTVSPost2010Prop43
 90
        3
102
RTVSPost2010PropOp43
 70
     1
102
RTVSPost2010Prop44ColorIndex
 90
        5
102
RTVSPost2010Prop44ColorRGB
 90
      255
102
RTVSPost2010PropOp44
 70
     1
102
RTVSPost2010Prop45
280
     0
102
RTVSPost2010PropOp45
 70
     1
102
RTVSPost2010Prop46
 90
       50
102
RTVSPost2010PropOp46
 70
     1
102
RTVSPost2010Prop47
 90
       50
102
RTVSPost2010PropOp47
 70
     1
102
RTVSPost2010Prop48
 90
       50
102
RTVSPost2010PropOp48
 70
     1
102
RTVSPost2010Prop49
280
     0
102
RTVSPost2010PropOp49
 70
     1
102
RTVSPost2010Prop50
 90
       50
102
RTVSPost2010PropOp50
 70
     1
102
RTVSPost2010Prop51ColorIndex
 90
      256
102
RTVSPost2010Prop51ColorRGB
 90
-16777216
102
RTVSPost2010PropOp51
 70
     0
102
RTVSPost2010Prop52
140
1.0
102
RTVSPost2010PropOp52
 70
     0
102
RTVSPost2010Prop53
 90
        2
102
RTVSPost2010PropOp53
 70
     1
102
RTVSPost2010Prop54
  1
strokes_ogs.tif
102
RTVSPost2010PropOp54
 70
     1
102
RTVSPost2010Prop55
280
     0
102
RTVSPost2010PropOp55
 70
     1
102
RTVSPost2010Prop56
140
1.0
102
RTVSPost2010PropOp56
 70
     1
102
RTVSPost2010Prop57
140
1.0
102
RTVSPost2010PropOp57
 70
     1
102
RTVSPropertyOp0
 70
     1
102
RTVSPropertyOp1
 70
     1
102
RTVSPropertyOp2
 70
     1
102
RTVSPropertyOp3
 70
     1
102
RTVSPropertyOp4
 70
     1
102
RTVSPropertyOp5
 70
     1
102
RTVSPropertyOp6
 70
     1
102
RTVSPropertyOp7
 70
     1
102
RTVSPropertyOp8
 70
     1
102
RTVSPropertyOp9
 70
     1
102
RTVSPropertyOp10
 70
     1
102
RTVSPropertyOp11
 70
     1
102
RTVSPropertyOp12
 70
     1
102
RTVSPropertyOp13
 70
     1
102
RTVSPropertyOp14
 70
     1
102
RTVSPropertyOp15
 70
     1
102
RTVSPropertyOp16
 70
     1
102
RTVSPropertyOp17
 70
     1
102
RTVSPropertyOp18
 70
     1
102
RTVSPropertyOp19
 70
     1
102
RTVSPropertyOp20
 70
     1
102
RTVSPropertyOp21
 70
     1
102
RTVSPropertyOp22
 70
     1
102
RTVSPropertyOp23
 70
     1
102
RTVSPropertyOp24
 70
     1
102
RTVSPropertyOp25
 70
     1
102
RTVSPropertyOp26
 70
     1
102
RTVSPropertyOp27
 70
     1
102
RTVSPropertyOp28
 70
     1
102
RTVSPropertyOp29
 70
     1
102
RTVSPropertyOp30
 70
     1
102
RTVSPropertyOp31
 70
     1
102
RTVSPropertyOp32
 70
     1
102
RTVSPropertyOp33
 70
     1
102
RTVSPropertyOp34
 70
     1
102
RTVSPropertyOp35
 70
     1
102
RTVSPropertyOp36
 70
     1
102
RTVSPropertyOp37
 70
     1
102
RTVSPropertyOp38
 70
     1
102
RTVSPropertyOp39
 70
     1
102
RTVSPropertyOp40
 70
     1
102
RTVSPropertyOp41
 70
     1
102
RTVSPropertyOp42
 70
     1
102
RTVSPropertyOp43
 70
     1
102
RTVSPropertyOp44
 70
     1
102
RTVSPropertyOp45
 70
     1
102
RTVSPropertyOp46
 70
     1
102
RTVSPropertyOp47
 70
     1
102
RTVSPropertyOp48
 70
     1
102
RTVSPropertyOp49
 70
     1
102
RTVSPropertyOp50
 70
     1
102
RTVSPropertyOp51
 70
     0
102
RTVSPropertyOp52
 70
     0
102
RTVSPropertyOp53
 70
     1
102
RTVSPropertyOp54
 70
     1
102
RTVSPropertyOp55
 70
     1
102
RTVSPropertyOp56
 70
     1
102
RTVSPropertyOp57
 70
     1
102
RTVSPropertyOp58
 70
     1
102
RTVSPropertyOp59
 70
     1
102
RTVSPropertyOp60
 70
     1
102
RTVSPropertyOp61
 70
     1
102
RTVSPropertyOp62
 70
     1
  0
XRECORD
  5
5FA
102
{ACAD_REACTORS
330
5F9
102
}
330
5F9
100
AcDbXrecord
280
     1
102
RTVSPost2010Prop28
280
     0
102
RTVSPost2010PropOp28
 70
     1
102
RTVSPost2010Prop29
280
     1
102
RTVSPost2010PropOp29
 70
     1
102
RTVSPost2010Prop30
280
     1
102
RTVSPost2010PropOp30
 70
     1
102
RTVSPost2010Prop31
280
     0
102
RTVSPost2010PropOp31
 70
     1
102
RTVSPost2010Prop32
280
     0
102
RTVSPost2010PropOp32
 70
     1
102
RTVSPost2010Prop33
280
     0
102
RTVSPost2010PropOp33
 70
     1
102
RTVSPost2010Prop34
280
     0
102
RTVSPost2010PropOp34
 70
     1
102
RTVSPost2010Prop35
280
     0
102
RTVSPost2010PropOp35
 70
     1
102
RTVSPost2010Prop36
280
     0
102
RTVSPost2010PropOp36
 70
     1
102
RTVSPost2010Prop37
 90
       50
102
RTVSPost2010PropOp37
 70
     1
102
RTVSPost2010Prop38
140
0.0
102
RTVSPost2010PropOp38
 70
     1
102
RTVSPost2010Prop39
140
1.0
102
RTVSPost2010PropOp39
 70
     1
102
RTVSPost2010Prop40
 90
        0
102
RTVSPost2010PropOp40
 70
     1
102
RTVSPost2010Prop41ColorIndex
 90
       18
102
RTVSPost2010Prop41ColorRGB
 90
        0
102
RTVSPost2010PropOp41
 70
     1
102
RTVSPost2010Prop42
 90
       50
102
RTVSPost2010PropOp42
 70
     1
102
RTVSPost2010Prop43
 90
        3
102
RTVSPost2010PropOp43
 70
     1
102
RTVSPost2010Prop44ColorIndex
 90
        5
102
RTVSPost2010Prop44ColorRGB
 90
      255
102
RTVSPost2010PropOp44
 70
     1
102
RTVSPost2010Prop45
280
     0
102
RTVSPost2010PropOp45
 70
     1
102
RTVSPost2010Prop46
 90
       50
102
RTVSPost2010PropOp46
 70
     1
102
RTVSPost2010Prop47
 90
       50
102
RTVSPost2010PropOp47
 70
     1
102
RTVSPost2010Prop48
 90
       50
102
RTVSPost2010PropOp48
 70
     1
102
RTVSPost2010Prop49
280
     0
102
RTVSPost2010PropOp49
 70
     1
102
RTVSPost2010Prop50
 90
       50
102
RTVSPost2010PropOp50
 70
     1
102
RTVSPost2010Prop51ColorIndex
 90
      256
102
RTVSPost2010Prop51ColorRGB
 90
-16777216
102
RTVSPost2010PropOp51
 70
     0
102
RTVSPost2010Prop52
140
1.0
102
RTVSPost2010PropOp52
 70
     0
102
RTVSPost2010Prop53
 90
        2
102
RTVSPost2010PropOp53
 70
     1
102
RTVSPost2010Prop54
  1
strokes_ogs.tif
102
RTVSPost2010PropOp54
 70
     1
102
RTVSPost2010Prop55
280
     0
102
RTVSPost2010PropOp55
 70
     1
102
RTVSPost2010Prop56
140
1.0
102
RTVSPost2010PropOp56
 70
     1
102
RTVSPost2010Prop57
140
1.0
102
RTVSPost2010PropOp57
 70
     1
102
RTVSPropertyOp0
 70
     1
102
RTVSPropertyOp1
 70
     1
102
RTVSPropertyOp2
 70
     1
102
RTVSPropertyOp3
 70
     1
102
RTVSPropertyOp4
 70
     1
102
RTVSPropertyOp5
 70
     1
102
RTVSPropertyOp6
 70
     1
102
RTVSPropertyOp7
 70
     1
102
RTVSPropertyOp8
 70
     1
102
RTVSPropertyOp9
 70
     1
102
RTVSPropertyOp10
 70
     1
102
RTVSPropertyOp11
 70
     1
102
RTVSPropertyOp12
 70
     1
102
RTVSPropertyOp13
 70
     1
102
RTVSPropertyOp14
 70
     1
102
RTVSPropertyOp15
 70
     1
102
RTVSPropertyOp16
 70
     1
102
RTVSPropertyOp17
 70
     1
102
RTVSPropertyOp18
 70
     1
102
RTVSPropertyOp19
 70
     1
102
RTVSPropertyOp20
 70
     1
102
RTVSPropertyOp21
 70
     1
102
RTVSPropertyOp22
 70
     1
102
RTVSPropertyOp23
 70
     1
102
RTVSPropertyOp24
 70
     1
102
RTVSPropertyOp25
 70
     1
102
RTVSPropertyOp26
 70
     1
102
RTVSPropertyOp27
 70
     1
102
RTVSPropertyOp28
 70
     1
102
RTVSPropertyOp29
 70
     1
102
RTVSPropertyOp30
 70
     1
102
RTVSPropertyOp31
 70
     1
102
RTVSPropertyOp32
 70
     1
102
RTVSPropertyOp33
 70
     1
102
RTVSPropertyOp34
 70
     1
102
RTVSPropertyOp35
 70
     1
102
RTVSPropertyOp36
 70
     1
102
RTVSPropertyOp37
 70
     1
102
RTVSPropertyOp38
 70
     1
102
RTVSPropertyOp39
 70
     1
102
RTVSPropertyOp40
 70
     1
102
RTVSPropertyOp41
 70
     1
102
RTVSPropertyOp42
 70
     1
102
RTVSPropertyOp43
 70
     1
102
RTVSPropertyOp44
 70
     1
102
RTVSPropertyOp45
 70
     1
102
RTVSPropertyOp46
 70
     1
102
RTVSPropertyOp47
 70
     1
102
RTVSPropertyOp48
 70
     1
102
RTVSPropertyOp49
 70
     1
102
RTVSPropertyOp50
 70
     1
102
RTVSPropertyOp51
 70
     0
102
RTVSPropertyOp52
 70
     0
102
RTVSPropertyOp53
 70
     1
102
RTVSPropertyOp54
 70
     1
102
RTVSPropertyOp55
 70
     1
102
RTVSPropertyOp56
 70
     1
102
RTVSPropertyOp57
 70
     1
102
RTVSPropertyOp58
 70
     1
102
RTVSPropertyOp59
 70
     1
102
RTVSPropertyOp60
 70
     1
102
RTVSPropertyOp61
 70
     1
102
RTVSPropertyOp62
 70
     1
  0
XRECORD
  5
5FC
102
{ACAD_REACTORS
330
5FB
102
}
330
5FB
100
AcDbXrecord
280
     1
102
RTVSPost2010Prop28
280
     0
102
RTVSPost2010PropOp28
 70
     1
102
RTVSPost2010Prop29
280
     1
102
RTVSPost2010PropOp29
 70
     1
102
RTVSPost2010Prop30
280
     1
102
RTVSPost2010PropOp30
 70
     1
102
RTVSPost2010Prop31
280
     0
102
RTVSPost2010PropOp31
 70
     1
102
RTVSPost2010Prop32
280
     0
102
RTVSPost2010PropOp32
 70
     1
102
RTVSPost2010Prop33
280
     0
102
RTVSPost2010PropOp33
 70
     1
102
RTVSPost2010Prop34
280
     0
102
RTVSPost2010PropOp34
 70
     1
102
RTVSPost2010Prop35
280
     0
102
RTVSPost2010PropOp35
 70
     1
102
RTVSPost2010Prop36
280
     0
102
RTVSPost2010PropOp36
 70
     1
102
RTVSPost2010Prop37
 90
       50
102
RTVSPost2010PropOp37
 70
     1
102
RTVSPost2010Prop38
140
0.0
102
RTVSPost2010PropOp38
 70
     1
102
RTVSPost2010Prop39
140
1.0
102
RTVSPost2010PropOp39
 70
     1
102
RTVSPost2010Prop40
 90
        0
102
RTVSPost2010PropOp40
 70
     1
102
RTVSPost2010Prop41ColorIndex
 90
       18
102
RTVSPost2010Prop41ColorRGB
 90
        0
102
RTVSPost2010PropOp41
 70
     1
102
RTVSPost2010Prop42
 90
       50
102
RTVSPost2010PropOp42
 70
     1
102
RTVSPost2010Prop43
 90
        3
102
RTVSPost2010PropOp43
 70
     1
102
RTVSPost2010Prop44ColorIndex
 90
        5
102
RTVSPost2010Prop44ColorRGB
 90
      255
102
RTVSPost2010PropOp44
 70
     1
102
RTVSPost2010Prop45
280
     0
102
RTVSPost2010PropOp45
 70
     1
102
RTVSPost2010Prop46
 90
       50
102
RTVSPost2010PropOp46
 70
     1
102
RTVSPost2010Prop47
 90
       50
102
RTVSPost2010PropOp47
 70
     1
102
RTVSPost2010Prop48
 90
       50
102
RTVSPost2010PropOp48
 70
     1
102
RTVSPost2010Prop49
280
     0
102
RTVSPost2010PropOp49
 70
     1
102
RTVSPost2010Prop50
 90
       50
102
RTVSPost2010PropOp50
 70
     1
102
RTVSPost2010Prop51ColorIndex
 90
      256
102
RTVSPost2010Prop51ColorRGB
 90
-16777216
102
RTVSPost2010PropOp51
 70
     0
102
RTVSPost2010Prop52
140
1.0
102
RTVSPost2010PropOp52
 70
     0
102
RTVSPost2010Prop53
 90
        2
102
RTVSPost2010PropOp53
 70
     1
102
RTVSPost2010Prop54
  1
strokes_ogs.tif
102
RTVSPost2010PropOp54
 70
     1
102
RTVSPost2010Prop55
280
     0
102
RTVSPost2010PropOp55
 70
     1
102
RTVSPost2010Prop56
140
1.0
102
RTVSPost2010PropOp56
 70
     1
102
RTVSPost2010Prop57
140
1.0
102
RTVSPost2010PropOp57
 70
     1
102
RTVSPropertyOp0
 70
     1
102
RTVSPropertyOp1
 70
     1
102
RTVSPropertyOp2
 70
     1
102
RTVSPropertyOp3
 70
     1
102
RTVSPropertyOp4
 70
     1
102
RTVSPropertyOp5
 70
     1
102
RTVSPropertyOp6
 70
     1
102
RTVSPropertyOp7
 70
     1
102
RTVSPropertyOp8
 70
     1
102
RTVSPropertyOp9
 70
     1
102
RTVSPropertyOp10
 70
     1
102
RTVSPropertyOp11
 70
     1
102
RTVSPropertyOp12
 70
     1
102
RTVSPropertyOp13
 70
     1
102
RTVSPropertyOp14
 70
     1
102
RTVSPropertyOp15
 70
     1
102
RTVSPropertyOp16
 70
     1
102
RTVSPropertyOp17
 70
     1
102
RTVSPropertyOp18
 70
     1
102
RTVSPropertyOp19
 70
     1
102
RTVSPropertyOp20
 70
     1
102
RTVSPropertyOp21
 70
     1
102
RTVSPropertyOp22
 70
     1
102
RTVSPropertyOp23
 70
     1
102
RTVSPropertyOp24
 70
     1
102
RTVSPropertyOp25
 70
     1
102
RTVSPropertyOp26
 70
     1
102
RTVSPropertyOp27
 70
     1
102
RTVSPropertyOp28
 70
     1
102
RTVSPropertyOp29
 70
     1
102
RTVSPropertyOp30
 70
     1
102
RTVSPropertyOp31
 70
     1
102
RTVSPropertyOp32
 70
     1
102
RTVSPropertyOp33
 70
     1
102
RTVSPropertyOp34
 70
     1
102
RTVSPropertyOp35
 70
     1
102
RTVSPropertyOp36
 70
     1
102
RTVSPropertyOp37
 70
     1
102
RTVSPropertyOp38
 70
     1
102
RTVSPropertyOp39
 70
     1
102
RTVSPropertyOp40
 70
     1
102
RTVSPropertyOp41
 70
     1
102
RTVSPropertyOp42
 70
     1
102
RTVSPropertyOp43
 70
     1
102
RTVSPropertyOp44
 70
     1
102
RTVSPropertyOp45
 70
     1
102
RTVSPropertyOp46
 70
     1
102
RTVSPropertyOp47
 70
     1
102
RTVSPropertyOp48
 70
     1
102
RTVSPropertyOp49
 70
     1
102
RTVSPropertyOp50
 70
     1
102
RTVSPropertyOp51
 70
     0
102
RTVSPropertyOp52
 70
     0
102
RTVSPropertyOp53
 70
     1
102
RTVSPropertyOp54
 70
     1
102
RTVSPropertyOp55
 70
     1
102
RTVSPropertyOp56
 70
     1
102
RTVSPropertyOp57
 70
     1
102
RTVSPropertyOp58
 70
     1
102
RTVSPropertyOp59
 70
     1
102
RTVSPropertyOp60
 70
     1
102
RTVSPropertyOp61
 70
     1
102
RTVSPropertyOp62
 70
     1
  0
XRECORD
  5
5FE
102
{ACAD_REACTORS
330
5FD
102
}
330
5FD
100
AcDbXrecord
280
     1
102
RTVSPost2010Prop28
280
     0
102
RTVSPost2010PropOp28
 70
     1
102
RTVSPost2010Prop29
280
     1
102
RTVSPost2010PropOp29
 70
     1
102
RTVSPost2010Prop30
280
     1
102
RTVSPost2010PropOp30
 70
     1
102
RTVSPost2010Prop31
280
     0
102
RTVSPost2010PropOp31
 70
     1
102
RTVSPost2010Prop32
280
     0
102
RTVSPost2010PropOp32
 70
     1
102
RTVSPost2010Prop33
280
     0
102
RTVSPost2010PropOp33
 70
     1
102
RTVSPost2010Prop34
280
     0
102
RTVSPost2010PropOp34
 70
     1
102
RTVSPost2010Prop35
280
     0
102
RTVSPost2010PropOp35
 70
     1
102
RTVSPost2010Prop36
280
     0
102
RTVSPost2010PropOp36
 70
     1
102
RTVSPost2010Prop37
 90
       50
102
RTVSPost2010PropOp37
 70
     1
102
RTVSPost2010Prop38
140
0.0
102
RTVSPost2010PropOp38
 70
     1
102
RTVSPost2010Prop39
140
1.0
102
RTVSPost2010PropOp39
 70
     1
102
RTVSPost2010Prop40
 90
        0
102
RTVSPost2010PropOp40
 70
     1
102
RTVSPost2010Prop41ColorIndex
 90
       18
102
RTVSPost2010Prop41ColorRGB
 90
        0
102
RTVSPost2010PropOp41
 70
     1
102
RTVSPost2010Prop42
 90
       50
102
RTVSPost2010PropOp42
 70
     1
102
RTVSPost2010Prop43
 90
        3
102
RTVSPost2010PropOp43
 70
     1
102
RTVSPost2010Prop44ColorIndex
 90
        5
102
RTVSPost2010Prop44ColorRGB
 90
      255
102
RTVSPost2010PropOp44
 70
     1
102
RTVSPost2010Prop45
280
     0
102
RTVSPost2010PropOp45
 70
     1
102
RTVSPost2010Prop46
 90
       50
102
RTVSPost2010PropOp46
 70
     1
102
RTVSPost2010Prop47
 90
       50
102
RTVSPost2010PropOp47
 70
     1
102
RTVSPost2010Prop48
 90
       50
102
RTVSPost2010PropOp48
 70
     1
102
RTVSPost2010Prop49
280
     0
102
RTVSPost2010PropOp49
 70
     1
102
RTVSPost2010Prop50
 90
       50
102
RTVSPost2010PropOp50
 70
     1
102
RTVSPost2010Prop51ColorIndex
 90
      256
102
RTVSPost2010Prop51ColorRGB
 90
-16777216
102
RTVSPost2010PropOp51
 70
     0
102
RTVSPost2010Prop52
140
1.0
102
RTVSPost2010PropOp52
 70
     0
102
RTVSPost2010Prop53
 90
        2
102
RTVSPost2010PropOp53
 70
     1
102
RTVSPost2010Prop54
  1
strokes_ogs.tif
102
RTVSPost2010PropOp54
 70
     1
102
RTVSPost2010Prop55
280
     0
102
RTVSPost2010PropOp55
 70
     1
102
RTVSPost2010Prop56
140
1.0
102
RTVSPost2010PropOp56
 70
     1
102
RTVSPost2010Prop57
140
1.0
102
RTVSPost2010PropOp57
 70
     1
102
RTVSPropertyOp0
 70
     1
102
RTVSPropertyOp1
 70
     1
102
RTVSPropertyOp2
 70
     1
102
RTVSPropertyOp3
 70
     1
102
RTVSPropertyOp4
 70
     1
102
RTVSPropertyOp5
 70
     1
102
RTVSPropertyOp6
 70
     1
102
RTVSPropertyOp7
 70
     1
102
RTVSPropertyOp8
 70
     1
102
RTVSPropertyOp9
 70
     1
102
RTVSPropertyOp10
 70
     1
102
RTVSPropertyOp11
 70
     1
102
RTVSPropertyOp12
 70
     1
102
RTVSPropertyOp13
 70
     1
102
RTVSPropertyOp14
 70
     1
102
RTVSPropertyOp15
 70
     1
102
RTVSPropertyOp16
 70
     1
102
RTVSPropertyOp17
 70
     1
102
RTVSPropertyOp18
 70
     1
102
RTVSPropertyOp19
 70
     1
102
RTVSPropertyOp20
 70
     1
102
RTVSPropertyOp21
 70
     1
102
RTVSPropertyOp22
 70
     1
102
RTVSPropertyOp23
 70
     1
102
RTVSPropertyOp24
 70
     1
102
RTVSPropertyOp25
 70
     1
102
RTVSPropertyOp26
 70
     1
102
RTVSPropertyOp27
 70
     1
102
RTVSPropertyOp28
 70
     1
102
RTVSPropertyOp29
 70
     1
102
RTVSPropertyOp30
 70
     1
102
RTVSPropertyOp31
 70
     1
102
RTVSPropertyOp32
 70
     1
102
RTVSPropertyOp33
 70
     1
102
RTVSPropertyOp34
 70
     1
102
RTVSPropertyOp35
 70
     1
102
RTVSPropertyOp36
 70
     1
102
RTVSPropertyOp37
 70
     1
102
RTVSPropertyOp38
 70
     1
102
RTVSPropertyOp39
 70
     1
102
RTVSPropertyOp40
 70
     1
102
RTVSPropertyOp41
 70
     1
102
RTVSPropertyOp42
 70
     1
102
RTVSPropertyOp43
 70
     1
102
RTVSPropertyOp44
 70
     1
102
RTVSPropertyOp45
 70
     1
102
RTVSPropertyOp46
 70
     1
102
RTVSPropertyOp47
 70
     1
102
RTVSPropertyOp48
 70
     1
102
RTVSPropertyOp49
 70
     1
102
RTVSPropertyOp50
 70
     1
102
RTVSPropertyOp51
 70
     0
102
RTVSPropertyOp52
 70
     0
102
RTVSPropertyOp53
 70
     1
102
RTVSPropertyOp54
 70
     1
102
RTVSPropertyOp55
 70
     1
102
RTVSPropertyOp56
 70
     1
102
RTVSPropertyOp57
 70
     1
102
RTVSPropertyOp58
 70
     1
102
RTVSPropertyOp59
 70
     1
102
RTVSPropertyOp60
 70
     1
102
RTVSPropertyOp61
 70
     1
102
RTVSPropertyOp62
 70
     1
  0
XRECORD
  5
604
102
{ACAD_REACTORS
330
603
102
}
330
603
100
AcDbXrecord
280
     1
102
RTVSPost2010Prop28
280
     0
102
RTVSPost2010PropOp28
 70
     1
102
RTVSPost2010Prop29
280
     1
102
RTVSPost2010PropOp29
 70
     1
102
RTVSPost2010Prop30
280
     1
102
RTVSPost2010PropOp30
 70
     1
102
RTVSPost2010Prop31
280
     0
102
RTVSPost2010PropOp31
 70
     1
102
RTVSPost2010Prop32
280
     0
102
RTVSPost2010PropOp32
 70
     1
102
RTVSPost2010Prop33
280
     0
102
RTVSPost2010PropOp33
 70
     1
102
RTVSPost2010Prop34
280
     0
102
RTVSPost2010PropOp34
 70
     1
102
RTVSPost2010Prop35
280
     0
102
RTVSPost2010PropOp35
 70
     1
102
RTVSPost2010Prop36
280
     0
102
RTVSPost2010PropOp36
 70
     1
102
RTVSPost2010Prop37
 90
       50
102
RTVSPost2010PropOp37
 70
     1
102
RTVSPost2010Prop38
140
0.0
102
RTVSPost2010PropOp38
 70
     1
102
RTVSPost2010Prop39
140
1.0
102
RTVSPost2010PropOp39
 70
     1
102
RTVSPost2010Prop40
 90
        0
102
RTVSPost2010PropOp40
 70
     1
102
RTVSPost2010Prop41ColorIndex
 90
       18
102
RTVSPost2010Prop41ColorRGB
 90
        0
102
RTVSPost2010PropOp41
 70
     1
102
RTVSPost2010Prop42
 90
       50
102
RTVSPost2010PropOp42
 70
     1
102
RTVSPost2010Prop43
 90
        3
102
RTVSPost2010PropOp43
 70
     1
102
RTVSPost2010Prop44ColorIndex
 90
        5
102
RTVSPost2010Prop44ColorRGB
 90
      255
102
RTVSPost2010PropOp44
 70
     1
102
RTVSPost2010Prop45
280
     0
102
RTVSPost2010PropOp45
 70
     1
102
RTVSPost2010Prop46
 90
       50
102
RTVSPost2010PropOp46
 70
     1
102
RTVSPost2010Prop47
 90
       50
102
RTVSPost2010PropOp47
 70
     1
102
RTVSPost2010Prop48
 90
       50
102
RTVSPost2010PropOp48
 70
     1
102
RTVSPost2010Prop49
280
     0
102
RTVSPost2010PropOp49
 70
     1
102
RTVSPost2010Prop50
 90
       50
102
RTVSPost2010PropOp50
 70
     1
102
RTVSPost2010Prop51ColorIndex
 90
      256
102
RTVSPost2010Prop51ColorRGB
 90
-16777216
102
RTVSPost2010PropOp51
 70
     0
102
RTVSPost2010Prop52
140
1.0
102
RTVSPost2010PropOp52
 70
     0
102
RTVSPost2010Prop53
 90
        2
102
RTVSPost2010PropOp53
 70
     1
102
RTVSPost2010Prop54
  1
strokes_ogs.tif
102
RTVSPost2010PropOp54
 70
     1
102
RTVSPost2010Prop55
280
     0
102
RTVSPost2010PropOp55
 70
     1
102
RTVSPost2010Prop56
140
1.0
102
RTVSPost2010PropOp56
 70
     1
102
RTVSPost2010Prop57
140
1.0
102
RTVSPost2010PropOp57
 70
     1
102
RTVSPropertyOp0
 70
     1
102
RTVSPropertyOp1
 70
     1
102
RTVSPropertyOp2
 70
     1
102
RTVSPropertyOp3
 70
     1
102
RTVSPropertyOp4
 70
     1
102
RTVSPropertyOp5
 70
     1
102
RTVSPropertyOp6
 70
     1
102
RTVSPropertyOp7
 70
     1
102
RTVSPropertyOp8
 70
     1
102
RTVSPropertyOp9
 70
     1
102
RTVSPropertyOp10
 70
     1
102
RTVSPropertyOp11
 70
     1
102
RTVSPropertyOp12
 70
     1
102
RTVSPropertyOp13
 70
     1
102
RTVSPropertyOp14
 70
     1
102
RTVSPropertyOp15
 70
     1
102
RTVSPropertyOp16
 70
     1
102
RTVSPropertyOp17
 70
     1
102
RTVSPropertyOp18
 70
     1
102
RTVSPropertyOp19
 70
     1
102
RTVSPropertyOp20
 70
     1
102
RTVSPropertyOp21
 70
     1
102
RTVSPropertyOp22
 70
     1
102
RTVSPropertyOp23
 70
     1
102
RTVSPropertyOp24
 70
     1
102
RTVSPropertyOp25
 70
     1
102
RTVSPropertyOp26
 70
     1
102
RTVSPropertyOp27
 70
     1
102
RTVSPropertyOp28
 70
     1
102
RTVSPropertyOp29
 70
     1
102
RTVSPropertyOp30
 70
     1
102
RTVSPropertyOp31
 70
     1
102
RTVSPropertyOp32
 70
     1
102
RTVSPropertyOp33
 70
     1
102
RTVSPropertyOp34
 70
     1
102
RTVSPropertyOp35
 70
     1
102
RTVSPropertyOp36
 70
     1
102
RTVSPropertyOp37
 70
     1
102
RTVSPropertyOp38
 70
     1
102
RTVSPropertyOp39
 70
     1
102
RTVSPropertyOp40
 70
     1
102
RTVSPropertyOp41
 70
     1
102
RTVSPropertyOp42
 70
     1
102
RTVSPropertyOp43
 70
     1
102
RTVSPropertyOp44
 70
     1
102
RTVSPropertyOp45
 70
     1
102
RTVSPropertyOp46
 70
     1
102
RTVSPropertyOp47
 70
     1
102
RTVSPropertyOp48
 70
     1
102
RTVSPropertyOp49
 70
     1
102
RTVSPropertyOp50
 70
     1
102
RTVSPropertyOp51
 70
     0
102
RTVSPropertyOp52
 70
     0
102
RTVSPropertyOp53
 70
     1
102
RTVSPropertyOp54
 70
     1
102
RTVSPropertyOp55
 70
     1
102
RTVSPropertyOp56
 70
     1
102
RTVSPropertyOp57
 70
     1
102
RTVSPropertyOp58
 70
     1
102
RTVSPropertyOp59
 70
     1
102
RTVSPropertyOp60
 70
     1
102
RTVSPropertyOp61
 70
     1
102
RTVSPropertyOp62
 70
     1
  0
XRECORD
  5
618
102
{ACAD_REACTORS
330
617
102
}
330
617
100
AcDbXrecord
280
     1
102
RTVSPost2010Prop28
280
     0
102
RTVSPost2010PropOp28
 70
     0
102
RTVSPost2010Prop29
280
     1
102
RTVSPost2010PropOp29
 70
     0
102
RTVSPost2010Prop30
280
     1
102
RTVSPost2010PropOp30
 70
     0
102
RTVSPost2010Prop31
280
     0
102
RTVSPost2010PropOp31
 70
     0
102
RTVSPost2010Prop32
280
     0
102
RTVSPost2010PropOp32
 70
     0
102
RTVSPost2010Prop33
280
     0
102
RTVSPost2010PropOp33
 70
     0
102
RTVSPost2010Prop34
280
     0
102
RTVSPost2010PropOp34
 70
     0
102
RTVSPost2010Prop35
280
     0
102
RTVSPost2010PropOp35
 70
     0
102
RTVSPost2010Prop36
280
     0
102
RTVSPost2010PropOp36
 70
     0
102
RTVSPost2010Prop37
 90
       50
102
RTVSPost2010PropOp37
 70
     0
102
RTVSPost2010Prop38
140
0.0
102
RTVSPost2010PropOp38
 70
     0
102
RTVSPost2010Prop39
140
1.0
102
RTVSPost2010PropOp39
 70
     0
102
RTVSPost2010Prop40
 90
        0
102
RTVSPost2010PropOp40
 70
     0
102
RTVSPost2010Prop41ColorIndex
 90
       18
102
RTVSPost2010Prop41ColorRGB
 90
        0
102
RTVSPost2010PropOp41
 70
     0
102
RTVSPost2010Prop42
 90
       50
102
RTVSPost2010PropOp42
 70
     0
102
RTVSPost2010Prop43
 90
        3
102
RTVSPost2010PropOp43
 70
     0
102
RTVSPost2010Prop44ColorIndex
 90
        5
102
RTVSPost2010Prop44ColorRGB
 90
      255
102
RTVSPost2010PropOp44
 70
     0
102
RTVSPost2010Prop45
280
     0
102
RTVSPost2010PropOp45
 70
     0
102
RTVSPost2010Prop46
 90
       50
102
RTVSPost2010PropOp46
 70
     0
102
RTVSPost2010Prop47
 90
       50
102
RTVSPost2010PropOp47
 70
     0
102
RTVSPost2010Prop48
 90
       50
102
RTVSPost2010PropOp48
 70
     0
102
RTVSPost2010Prop49
280
     0
102
RTVSPost2010PropOp49
 70
     0
102
RTVSPost2010Prop50
 90
       50
102
RTVSPost2010PropOp50
 70
     0
102
RTVSPost2010Prop51ColorIndex
 90
      256
102
RTVSPost2010Prop51ColorRGB
 90
-16777216
102
RTVSPost2010PropOp51
 70
     0
102
RTVSPost2010Prop52
140
1.0
102
RTVSPost2010PropOp52
 70
     0
102
RTVSPost2010Prop53
 90
        2
102
RTVSPost2010PropOp53
 70
     0
102
RTVSPost2010Prop54
  1
strokes_ogs.tif
102
RTVSPost2010PropOp54
 70
     0
102
RTVSPost2010Prop55
280
     0
102
RTVSPost2010PropOp55
 70
     0
102
RTVSPost2010Prop56
140
1.0
102
RTVSPost2010PropOp56
 70
     0
102
RTVSPost2010Prop57
140
1.0
102
RTVSPost2010PropOp57
 70
     0
102
RTVSPropertyOp0
 70
     0
102
RTVSPropertyOp1
 70
     0
102
RTVSPropertyOp2
 70
     0
102
RTVSPropertyOp3
 70
     0
102
RTVSPropertyOp4
 70
     0
102
RTVSPropertyOp5
 70
     0
102
RTVSPropertyOp6
 70
     0
102
RTVSPropertyOp7
 70
     0
102
RTVSPropertyOp8
 70
     0
102
RTVSPropertyOp9
 70
     0
102
RTVSPropertyOp10
 70
     0
102
RTVSPropertyOp11
 70
     0
102
RTVSPropertyOp12
 70
     0
102
RTVSPropertyOp13
 70
     0
102
RTVSPropertyOp14
 70
     2
102
RTVSPropertyOp15
 70
     0
102
RTVSPropertyOp16
 70
     0
102
RTVSPropertyOp17
 70
     0
102
RTVSPropertyOp18
 70
     0
102
RTVSPropertyOp19
 70
     0
102
RTVSPropertyOp20
 70
     0
102
RTVSPropertyOp21
 70
     0
102
RTVSPropertyOp22
 70
     0
102
RTVSPropertyOp23
 70
     0
102
RTVSPropertyOp24
 70
     0
102
RTVSPropertyOp25
 70
     0
102
RTVSPropertyOp26
 70
     0
102
RTVSPropertyOp27
 70
     0
102
RTVSPropertyOp28
 70
     0
102
RTVSPropertyOp29
 70
     0
102
RTVSPropertyOp30
 70
     0
102
RTVSPropertyOp31
 70
     0
102
RTVSPropertyOp32
 70
     0
102
RTVSPropertyOp33
 70
     0
102
RTVSPropertyOp34
 70
     0
102
RTVSPropertyOp35
 70
     0
102
RTVSPropertyOp36
 70
     0
102
RTVSPropertyOp37
 70
     0
102
RTVSPropertyOp38
 70
     0
102
RTVSPropertyOp39
 70
     0
102
RTVSPropertyOp40
 70
     0
102
RTVSPropertyOp41
 70
     0
102
RTVSPropertyOp42
 70
     0
102
RTVSPropertyOp43
 70
     0
102
RTVSPropertyOp44
 70
     0
102
RTVSPropertyOp45
 70
     0
102
RTVSPropertyOp46
 70
     0
102
RTVSPropertyOp47
 70
     0
102
RTVSPropertyOp48
 70
     0
102
RTVSPropertyOp49
 70
     0
102
RTVSPropertyOp50
 70
     0
102
RTVSPropertyOp51
 70
     0
102
RTVSPropertyOp52
 70
     0
102
RTVSPropertyOp53
 70
     0
102
RTVSPropertyOp54
 70
     0
102
RTVSPropertyOp55
 70
     0
102
RTVSPropertyOp56
 70
     0
102
RTVSPropertyOp57
 70
     0
102
RTVSPropertyOp58
 70
     1
102
RTVSPropertyOp59
 70
     1
102
RTVSPropertyOp60
 70
     1
102
RTVSPropertyOp61
 70
     1
102
RTVSPropertyOp62
 70
     1
  0
XRECORD
  5
612
102
{ACAD_REACTORS
330
611
102
}
330
611
100
AcDbXrecord
280
     1
102
RTVSPost2010Prop28
280
     0
102
RTVSPost2010PropOp28
 70
     1
102
RTVSPost2010Prop29
280
     1
102
RTVSPost2010PropOp29
 70
     1
102
RTVSPost2010Prop30
280
     1
102
RTVSPost2010PropOp30
 70
     1
102
RTVSPost2010Prop31
280
     0
102
RTVSPost2010PropOp31
 70
     1
102
RTVSPost2010Prop32
280
     0
102
RTVSPost2010PropOp32
 70
     1
102
RTVSPost2010Prop33
280
     0
102
RTVSPost2010PropOp33
 70
     1
102
RTVSPost2010Prop34
280
     0
102
RTVSPost2010PropOp34
 70
     1
102
RTVSPost2010Prop35
280
     0
102
RTVSPost2010PropOp35
 70
     1
102
RTVSPost2010Prop36
280
     0
102
RTVSPost2010PropOp36
 70
     1
102
RTVSPost2010Prop37
 90
       50
102
RTVSPost2010PropOp37
 70
     1
102
RTVSPost2010Prop38
140
0.0
102
RTVSPost2010PropOp38
 70
     1
102
RTVSPost2010Prop39
140
1.0
102
RTVSPost2010PropOp39
 70
     1
102
RTVSPost2010Prop40
 90
        0
102
RTVSPost2010PropOp40
 70
     1
102
RTVSPost2010Prop41ColorIndex
 90
       18
102
RTVSPost2010Prop41ColorRGB
 90
        0
102
RTVSPost2010PropOp41
 70
     1
102
RTVSPost2010Prop42
 90
       50
102
RTVSPost2010PropOp42
 70
     1
102
RTVSPost2010Prop43
 90
        3
102
RTVSPost2010PropOp43
 70
     1
102
RTVSPost2010Prop44ColorIndex
 90
        5
102
RTVSPost2010Prop44ColorRGB
 90
      255
102
RTVSPost2010PropOp44
 70
     1
102
RTVSPost2010Prop45
280
     0
102
RTVSPost2010PropOp45
 70
     1
102
RTVSPost2010Prop46
 90
       50
102
RTVSPost2010PropOp46
 70
     1
102
RTVSPost2010Prop47
 90
       50
102
RTVSPost2010PropOp47
 70
     1
102
RTVSPost2010Prop48
 90
       50
102
RTVSPost2010PropOp48
 70
     1
102
RTVSPost2010Prop49
280
     0
102
RTVSPost2010PropOp49
 70
     1
102
RTVSPost2010Prop50
 90
       50
102
RTVSPost2010PropOp50
 70
     1
102
RTVSPost2010Prop51ColorIndex
 90
      256
102
RTVSPost2010Prop51ColorRGB
 90
-16777216
102
RTVSPost2010PropOp51
 70
     0
102
RTVSPost2010Prop52
140
1.0
102
RTVSPost2010PropOp52
 70
     0
102
RTVSPost2010Prop53
 90
        2
102
RTVSPost2010PropOp53
 70
     1
102
RTVSPost2010Prop54
  1
strokes_ogs.tif
102
RTVSPost2010PropOp54
 70
     1
102
RTVSPost2010Prop55
280
     0
102
RTVSPost2010PropOp55
 70
     1
102
RTVSPost2010Prop56
140
1.0
102
RTVSPost2010PropOp56
 70
     1
102
RTVSPost2010Prop57
140
1.0
102
RTVSPost2010PropOp57
 70
     1
102
RTVSPropertyOp0
 70
     1
102
RTVSPropertyOp1
 70
     1
102
RTVSPropertyOp2
 70
     1
102
RTVSPropertyOp3
 70
     1
102
RTVSPropertyOp4
 70
     1
102
RTVSPropertyOp5
 70
     1
102
RTVSPropertyOp6
 70
     1
102
RTVSPropertyOp7
 70
     1
102
RTVSPropertyOp8
 70
     1
102
RTVSPropertyOp9
 70
     1
102
RTVSPropertyOp10
 70
     1
102
RTVSPropertyOp11
 70
     1
102
RTVSPropertyOp12
 70
     1
102
RTVSPropertyOp13
 70
     1
102
RTVSPropertyOp14
 70
     1
102
RTVSPropertyOp15
 70
     1
102
RTVSPropertyOp16
 70
     1
102
RTVSPropertyOp17
 70
     1
102
RTVSPropertyOp18
 70
     1
102
RTVSPropertyOp19
 70
     1
102
RTVSPropertyOp20
 70
     1
102
RTVSPropertyOp21
 70
     1
102
RTVSPropertyOp22
 70
     1
102
RTVSPropertyOp23
 70
     1
102
RTVSPropertyOp24
 70
     1
102
RTVSPropertyOp25
 70
     1
102
RTVSPropertyOp26
 70
     1
102
RTVSPropertyOp27
 70
     1
102
RTVSPropertyOp28
 70
     1
102
RTVSPropertyOp29
 70
     1
102
RTVSPropertyOp30
 70
     1
102
RTVSPropertyOp31
 70
     1
102
RTVSPropertyOp32
 70
     1
102
RTVSPropertyOp33
 70
     1
102
RTVSPropertyOp34
 70
     1
102
RTVSPropertyOp35
 70
     1
102
RTVSPropertyOp36
 70
     1
102
RTVSPropertyOp37
 70
     1
102
RTVSPropertyOp38
 70
     1
102
RTVSPropertyOp39
 70
     1
102
RTVSPropertyOp40
 70
     1
102
RTVSPropertyOp41
 70
     1
102
RTVSPropertyOp42
 70
     1
102
RTVSPropertyOp43
 70
     1
102
RTVSPropertyOp44
 70
     1
102
RTVSPropertyOp45
 70
     1
102
RTVSPropertyOp46
 70
     1
102
RTVSPropertyOp47
 70
     1
102
RTVSPropertyOp48
 70
     1
102
RTVSPropertyOp49
 70
     1
102
RTVSPropertyOp50
 70
     1
102
RTVSPropertyOp51
 70
     0
102
RTVSPropertyOp52
 70
     0
102
RTVSPropertyOp53
 70
     1
102
RTVSPropertyOp54
 70
     1
102
RTVSPropertyOp55
 70
     1
102
RTVSPropertyOp56
 70
     1
102
RTVSPropertyOp57
 70
     1
102
RTVSPropertyOp58
 70
     1
102
RTVSPropertyOp59
 70
     1
102
RTVSPropertyOp60
 70
     1
102
RTVSPropertyOp61
 70
     1
102
RTVSPropertyOp62
 70
     1
  0
XRECORD
  5
61A
102
{ACAD_REACTORS
330
619
102
}
330
619
100
AcDbXrecord
280
     1
102
RTVSPost2010Prop28
280
     0
102
RTVSPost2010PropOp28
 70
     0
102
RTVSPost2010Prop29
280
     1
102
RTVSPost2010PropOp29
 70
     0
102
RTVSPost2010Prop30
280
     1
102
RTVSPost2010PropOp30
 70
     0
102
RTVSPost2010Prop31
280
     0
102
RTVSPost2010PropOp31
 70
     0
102
RTVSPost2010Prop32
280
     0
102
RTVSPost2010PropOp32
 70
     0
102
RTVSPost2010Prop33
280
     0
102
RTVSPost2010PropOp33
 70
     0
102
RTVSPost2010Prop34
280
     0
102
RTVSPost2010PropOp34
 70
     0
102
RTVSPost2010Prop35
280
     0
102
RTVSPost2010PropOp35
 70
     0
102
RTVSPost2010Prop36
280
     0
102
RTVSPost2010PropOp36
 70
     0
102
RTVSPost2010Prop37
 90
       50
102
RTVSPost2010PropOp37
 70
     0
102
RTVSPost2010Prop38
140
0.0
102
RTVSPost2010PropOp38
 70
     0
102
RTVSPost2010Prop39
140
1.0
102
RTVSPost2010PropOp39
 70
     0
102
RTVSPost2010Prop40
 90
        0
102
RTVSPost2010PropOp40
 70
     0
102
RTVSPost2010Prop41ColorIndex
 90
       18
102
RTVSPost2010Prop41ColorRGB
 90
        0
102
RTVSPost2010PropOp41
 70
     0
102
RTVSPost2010Prop42
 90
       50
102
RTVSPost2010PropOp42
 70
     0
102
RTVSPost2010Prop43
 90
        3
102
RTVSPost2010PropOp43
 70
     0
102
RTVSPost2010Prop44ColorIndex
 90
        5
102
RTVSPost2010Prop44ColorRGB
 90
      255
102
RTVSPost2010PropOp44
 70
     0
102
RTVSPost2010Prop45
280
     0
102
RTVSPost2010PropOp45
 70
     0
102
RTVSPost2010Prop46
 90
       50
102
RTVSPost2010PropOp46
 70
     0
102
RTVSPost2010Prop47
 90
       50
102
RTVSPost2010PropOp47
 70
     0
102
RTVSPost2010Prop48
 90
       50
102
RTVSPost2010PropOp48
 70
     0
102
RTVSPost2010Prop49
280
     0
102
RTVSPost2010PropOp49
 70
     0
102
RTVSPost2010Prop50
 90
       50
102
RTVSPost2010PropOp50
 70
     0
102
RTVSPost2010Prop51ColorIndex
 90
      256
102
RTVSPost2010Prop51ColorRGB
 90
-16777216
102
RTVSPost2010PropOp51
 70
     0
102
RTVSPost2010Prop52
140
1.0
102
RTVSPost2010PropOp52
 70
     0
102
RTVSPost2010Prop53
 90
        2
102
RTVSPost2010PropOp53
 70
     0
102
RTVSPost2010Prop54
  1
strokes_ogs.tif
102
RTVSPost2010PropOp54
 70
     0
102
RTVSPost2010Prop55
280
     0
102
RTVSPost2010PropOp55
 70
     0
102
RTVSPost2010Prop56
140
1.0
102
RTVSPost2010PropOp56
 70
     0
102
RTVSPost2010Prop57
140
1.0
102
RTVSPost2010PropOp57
 70
     0
102
RTVSPropertyOp0
 70
     0
102
RTVSPropertyOp1
 70
     0
102
RTVSPropertyOp2
 70
     0
102
RTVSPropertyOp3
 70
     0
102
RTVSPropertyOp4
 70
     0
102
RTVSPropertyOp5
 70
     0
102
RTVSPropertyOp6
 70
     0
102
RTVSPropertyOp7
 70
     0
102
RTVSPropertyOp8
 70
     0
102
RTVSPropertyOp9
 70
     0
102
RTVSPropertyOp10
 70
     0
102
RTVSPropertyOp11
 70
     0
102
RTVSPropertyOp12
 70
     0
102
RTVSPropertyOp13
 70
     0
102
RTVSPropertyOp14
 70
     2
102
RTVSPropertyOp15
 70
     0
102
RTVSPropertyOp16
 70
     0
102
RTVSPropertyOp17
 70
     0
102
RTVSPropertyOp18
 70
     0
102
RTVSPropertyOp19
 70
     0
102
RTVSPropertyOp20
 70
     0
102
RTVSPropertyOp21
 70
     0
102
RTVSPropertyOp22
 70
     0
102
RTVSPropertyOp23
 70
     0
102
RTVSPropertyOp24
 70
     0
102
RTVSPropertyOp25
 70
     0
102
RTVSPropertyOp26
 70
     0
102
RTVSPropertyOp27
 70
     0
102
RTVSPropertyOp28
 70
     0
102
RTVSPropertyOp29
 70
     0
102
RTVSPropertyOp30
 70
     0
102
RTVSPropertyOp31
 70
     0
102
RTVSPropertyOp32
 70
     0
102
RTVSPropertyOp33
 70
     0
102
RTVSPropertyOp34
 70
     0
102
RTVSPropertyOp35
 70
     0
102
RTVSPropertyOp36
 70
     0
102
RTVSPropertyOp37
 70
     0
102
RTVSPropertyOp38
 70
     0
102
RTVSPropertyOp39
 70
     0
102
RTVSPropertyOp40
 70
     0
102
RTVSPropertyOp41
 70
     0
102
RTVSPropertyOp42
 70
     0
102
RTVSPropertyOp43
 70
     0
102
RTVSPropertyOp44
 70
     0
102
RTVSPropertyOp45
 70
     0
102
RTVSPropertyOp46
 70
     0
102
RTVSPropertyOp47
 70
     0
102
RTVSPropertyOp48
 70
     0
102
RTVSPropertyOp49
 70
     0
102
RTVSPropertyOp50
 70
     0
102
RTVSPropertyOp51
 70
     0
102
RTVSPropertyOp52
 70
     0
102
RTVSPropertyOp53
 70
     0
102
RTVSPropertyOp54
 70
     0
102
RTVSPropertyOp55
 70
     0
102
RTVSPropertyOp56
 70
     0
102
RTVSPropertyOp57
 70
     0
102
RTVSPropertyOp58
 70
     1
102
RTVSPropertyOp59
 70
     1
102
RTVSPropertyOp60
 70
     1
102
RTVSPropertyOp61
 70
     1
102
RTVSPropertyOp62
 70
     1
  0
XRECORD
  5
608
102
{ACAD_REACTORS
330
607
102
}
330
607
100
AcDbXrecord
280
     1
102
RTVSPost2010Prop28
280
     0
102
RTVSPost2010PropOp28
 70
     1
102
RTVSPost2010Prop29
280
     1
102
RTVSPost2010PropOp29
 70
     1
102
RTVSPost2010Prop30
280
     1
102
RTVSPost2010PropOp30
 70
     1
102
RTVSPost2010Prop31
280
     0
102
RTVSPost2010PropOp31
 70
     1
102
RTVSPost2010Prop32
280
     0
102
RTVSPost2010PropOp32
 70
     1
102
RTVSPost2010Prop33
280
     0
102
RTVSPost2010PropOp33
 70
     1
102
RTVSPost2010Prop34
280
     0
102
RTVSPost2010PropOp34
 70
     1
102
RTVSPost2010Prop35
280
     0
102
RTVSPost2010PropOp35
 70
     1
102
RTVSPost2010Prop36
280
     0
102
RTVSPost2010PropOp36
 70
     1
102
RTVSPost2010Prop37
 90
       50
102
RTVSPost2010PropOp37
 70
     1
102
RTVSPost2010Prop38
140
0.0
102
RTVSPost2010PropOp38
 70
     1
102
RTVSPost2010Prop39
140
1.0
102
RTVSPost2010PropOp39
 70
     1
102
RTVSPost2010Prop40
 90
        0
102
RTVSPost2010PropOp40
 70
     1
102
RTVSPost2010Prop41ColorIndex
 90
       18
102
RTVSPost2010Prop41ColorRGB
 90
        0
102
RTVSPost2010PropOp41
 70
     1
102
RTVSPost2010Prop42
 90
       50
102
RTVSPost2010PropOp42
 70
     1
102
RTVSPost2010Prop43
 90
        3
102
RTVSPost2010PropOp43
 70
     1
102
RTVSPost2010Prop44ColorIndex
 90
        5
102
RTVSPost2010Prop44ColorRGB
 90
      255
102
RTVSPost2010PropOp44
 70
     1
102
RTVSPost2010Prop45
280
     0
102
RTVSPost2010PropOp45
 70
     1
102
RTVSPost2010Prop46
 90
       50
102
RTVSPost2010PropOp46
 70
     1
102
RTVSPost2010Prop47
 90
       50
102
RTVSPost2010PropOp47
 70
     1
102
RTVSPost2010Prop48
 90
       50
102
RTVSPost2010PropOp48
 70
     1
102
RTVSPost2010Prop49
280
     0
102
RTVSPost2010PropOp49
 70
     1
102
RTVSPost2010Prop50
 90
       50
102
RTVSPost2010PropOp50
 70
     1
102
RTVSPost2010Prop51ColorIndex
 90
      256
102
RTVSPost2010Prop51ColorRGB
 90
-16777216
102
RTVSPost2010PropOp51
 70
     0
102
RTVSPost2010Prop52
140
1.0
102
RTVSPost2010PropOp52
 70
     0
102
RTVSPost2010Prop53
 90
        2
102
RTVSPost2010PropOp53
 70
     1
102
RTVSPost2010Prop54
  1
strokes_ogs.tif
102
RTVSPost2010PropOp54
 70
     1
102
RTVSPost2010Prop55
280
     0
102
RTVSPost2010PropOp55
 70
     1
102
RTVSPost2010Prop56
140
1.0
102
RTVSPost2010PropOp56
 70
     1
102
RTVSPost2010Prop57
140
1.0
102
RTVSPost2010PropOp57
 70
     1
102
RTVSPropertyOp0
 70
     1
102
RTVSPropertyOp1
 70
     1
102
RTVSPropertyOp2
 70
     1
102
RTVSPropertyOp3
 70
     1
102
RTVSPropertyOp4
 70
     1
102
RTVSPropertyOp5
 70
     1
102
RTVSPropertyOp6
 70
     1
102
RTVSPropertyOp7
 70
     1
102
RTVSPropertyOp8
 70
     1
102
RTVSPropertyOp9
 70
     1
102
RTVSPropertyOp10
 70
     1
102
RTVSPropertyOp11
 70
     1
102
RTVSPropertyOp12
 70
     1
102
RTVSPropertyOp13
 70
     1
102
RTVSPropertyOp14
 70
     1
102
RTVSPropertyOp15
 70
     1
102
RTVSPropertyOp16
 70
     1
102
RTVSPropertyOp17
 70
     1
102
RTVSPropertyOp18
 70
     1
102
RTVSPropertyOp19
 70
     1
102
RTVSPropertyOp20
 70
     1
102
RTVSPropertyOp21
 70
     1
102
RTVSPropertyOp22
 70
     1
102
RTVSPropertyOp23
 70
     1
102
RTVSPropertyOp24
 70
     1
102
RTVSPropertyOp25
 70
     1
102
RTVSPropertyOp26
 70
     1
102
RTVSPropertyOp27
 70
     1
102
RTVSPropertyOp28
 70
     1
102
RTVSPropertyOp29
 70
     1
102
RTVSPropertyOp30
 70
     1
102
RTVSPropertyOp31
 70
     1
102
RTVSPropertyOp32
 70
     1
102
RTVSPropertyOp33
 70
     1
102
RTVSPropertyOp34
 70
     1
102
RTVSPropertyOp35
 70
     1
102
RTVSPropertyOp36
 70
     1
102
RTVSPropertyOp37
 70
     1
102
RTVSPropertyOp38
 70
     1
102
RTVSPropertyOp39
 70
     1
102
RTVSPropertyOp40
 70
     1
102
RTVSPropertyOp41
 70
     1
102
RTVSPropertyOp42
 70
     1
102
RTVSPropertyOp43
 70
     1
102
RTVSPropertyOp44
 70
     1
102
RTVSPropertyOp45
 70
     1
102
RTVSPropertyOp46
 70
     1
102
RTVSPropertyOp47
 70
     1
102
RTVSPropertyOp48
 70
     1
102
RTVSPropertyOp49
 70
     1
102
RTVSPropertyOp50
 70
     1
102
RTVSPropertyOp51
 70
     0
102
RTVSPropertyOp52
 70
     0
102
RTVSPropertyOp53
 70
     1
102
RTVSPropertyOp54
 70
     1
102
RTVSPropertyOp55
 70
     1
102
RTVSPropertyOp56
 70
     1
102
RTVSPropertyOp57
 70
     1
102
RTVSPropertyOp58
 70
     1
102
RTVSPropertyOp59
 70
     1
102
RTVSPropertyOp60
 70
     1
102
RTVSPropertyOp61
 70
     1
102
RTVSPropertyOp62
 70
     1
  0
XRECORD
  5
626
102
{ACAD_REACTORS
330
625
102
}
330
625
100
AcDbXrecord
280
     1
102
RTVSPost2010Prop28
280
     0
102
RTVSPost2010PropOp28
 70
     1
102
RTVSPost2010Prop29
280
     1
102
RTVSPost2010PropOp29
 70
     1
102
RTVSPost2010Prop30
280
     1
102
RTVSPost2010PropOp30
 70
     1
102
RTVSPost2010Prop31
280
     0
102
RTVSPost2010PropOp31
 70
     1
102
RTVSPost2010Prop32
280
     0
102
RTVSPost2010PropOp32
 70
     1
102
RTVSPost2010Prop33
280
     0
102
RTVSPost2010PropOp33
 70
     1
102
RTVSPost2010Prop34
280
     0
102
RTVSPost2010PropOp34
 70
     1
102
RTVSPost2010Prop35
280
     0
102
RTVSPost2010PropOp35
 70
     1
102
RTVSPost2010Prop36
280
     0
102
RTVSPost2010PropOp36
 70
     1
102
RTVSPost2010Prop37
 90
       50
102
RTVSPost2010PropOp37
 70
     1
102
RTVSPost2010Prop38
140
0.0
102
RTVSPost2010PropOp38
 70
     1
102
RTVSPost2010Prop39
140
1.0
102
RTVSPost2010PropOp39
 70
     1
102
RTVSPost2010Prop40
 90
        0
102
RTVSPost2010PropOp40
 70
     1
102
RTVSPost2010Prop41ColorIndex
 90
       18
102
RTVSPost2010Prop41ColorRGB
 90
        0
102
RTVSPost2010PropOp41
 70
     1
102
RTVSPost2010Prop42
 90
       50
102
RTVSPost2010PropOp42
 70
     1
102
RTVSPost2010Prop43
 90
        3
102
RTVSPost2010PropOp43
 70
     1
102
RTVSPost2010Prop44ColorIndex
 90
        5
102
RTVSPost2010Prop44ColorRGB
 90
      255
102
RTVSPost2010PropOp44
 70
     1
102
RTVSPost2010Prop45
280
     0
102
RTVSPost2010PropOp45
 70
     1
102
RTVSPost2010Prop46
 90
       50
102
RTVSPost2010PropOp46
 70
     1
102
RTVSPost2010Prop47
 90
       50
102
RTVSPost2010PropOp47
 70
     1
102
RTVSPost2010Prop48
 90
       50
102
RTVSPost2010PropOp48
 70
     1
102
RTVSPost2010Prop49
280
     0
102
RTVSPost2010PropOp49
 70
     1
102
RTVSPost2010Prop50
 90
       50
102
RTVSPost2010PropOp50
 70
     1
102
RTVSPost2010Prop51ColorIndex
 90
      256
102
RTVSPost2010Prop51ColorRGB
 90
-16777216
102
RTVSPost2010PropOp51
 70
     0
102
RTVSPost2010Prop52
140
1.0
102
RTVSPost2010PropOp52
 70
     0
102
RTVSPost2010Prop53
 90
        2
102
RTVSPost2010PropOp53
 70
     1
102
RTVSPost2010Prop54
  1
strokes_ogs.tif
102
RTVSPost2010PropOp54
 70
     1
102
RTVSPost2010Prop55
280
     0
102
RTVSPost2010PropOp55
 70
     1
102
RTVSPost2010Prop56
140
1.0
102
RTVSPost2010PropOp56
 70
     1
102
RTVSPost2010Prop57
140
1.0
102
RTVSPost2010PropOp57
 70
     1
102
RTVSPropertyOp0
 70
     1
102
RTVSPropertyOp1
 70
     1
102
RTVSPropertyOp2
 70
     1
102
RTVSPropertyOp3
 70
     1
102
RTVSPropertyOp4
 70
     1
102
RTVSPropertyOp5
 70
     1
102
RTVSPropertyOp6
 70
     1
102
RTVSPropertyOp7
 70
     1
102
RTVSPropertyOp8
 70
     1
102
RTVSPropertyOp9
 70
     1
102
RTVSPropertyOp10
 70
     1
102
RTVSPropertyOp11
 70
     1
102
RTVSPropertyOp12
 70
     1
102
RTVSPropertyOp13
 70
     1
102
RTVSPropertyOp14
 70
     1
102
RTVSPropertyOp15
 70
     1
102
RTVSPropertyOp16
 70
     1
102
RTVSPropertyOp17
 70
     1
102
RTVSPropertyOp18
 70
     1
102
RTVSPropertyOp19
 70
     1
102
RTVSPropertyOp20
 70
     1
102
RTVSPropertyOp21
 70
     1
102
RTVSPropertyOp22
 70
     1
102
RTVSPropertyOp23
 70
     1
102
RTVSPropertyOp24
 70
     1
102
RTVSPropertyOp25
 70
     1
102
RTVSPropertyOp26
 70
     1
102
RTVSPropertyOp27
 70
     1
102
RTVSPropertyOp28
 70
     1
102
RTVSPropertyOp29
 70
     1
102
RTVSPropertyOp30
 70
     1
102
RTVSPropertyOp31
 70
     1
102
RTVSPropertyOp32
 70
     1
102
RTVSPropertyOp33
 70
     1
102
RTVSPropertyOp34
 70
     1
102
RTVSPropertyOp35
 70
     1
102
RTVSPropertyOp36
 70
     1
102
RTVSPropertyOp37
 70
     1
102
RTVSPropertyOp38
 70
     1
102
RTVSPropertyOp39
 70
     1
102
RTVSPropertyOp40
 70
     1
102
RTVSPropertyOp41
 70
     1
102
RTVSPropertyOp42
 70
     1
102
RTVSPropertyOp43
 70
     1
102
RTVSPropertyOp44
 70
     1
102
RTVSPropertyOp45
 70
     1
102
RTVSPropertyOp46
 70
     1
102
RTVSPropertyOp47
 70
     1
102
RTVSPropertyOp48
 70
     1
102
RTVSPropertyOp49
 70
     1
102
RTVSPropertyOp50
 70
     1
102
RTVSPropertyOp51
 70
     0
102
RTVSPropertyOp52
 70
     0
102
RTVSPropertyOp53
 70
     1
102
RTVSPropertyOp54
 70
     1
102
RTVSPropertyOp55
 70
     1
102
RTVSPropertyOp56
 70
     1
102
RTVSPropertyOp57
 70
     1
102
RTVSPropertyOp58
 70
     1
102
RTVSPropertyOp59
 70
     1
102
RTVSPropertyOp60
 70
     1
102
RTVSPropertyOp61
 70
     1
102
RTVSPropertyOp62
 70
     1
  0
XRECORD
  5
624
102
{ACAD_REACTORS
330
623
102
}
330
623
100
AcDbXrecord
280
     1
102
RTVSPost2010Prop28
280
     0
102
RTVSPost2010PropOp28
 70
     1
102
RTVSPost2010Prop29
280
     1
102
RTVSPost2010PropOp29
 70
     1
102
RTVSPost2010Prop30
280
     1
102
RTVSPost2010PropOp30
 70
     1
102
RTVSPost2010Prop31
280
     0
102
RTVSPost2010PropOp31
 70
     1
102
RTVSPost2010Prop32
280
     0
102
RTVSPost2010PropOp32
 70
     1
102
RTVSPost2010Prop33
280
     0
102
RTVSPost2010PropOp33
 70
     1
102
RTVSPost2010Prop34
280
     0
102
RTVSPost2010PropOp34
 70
     1
102
RTVSPost2010Prop35
280
     0
102
RTVSPost2010PropOp35
 70
     1
102
RTVSPost2010Prop36
280
     0
102
RTVSPost2010PropOp36
 70
     1
102
RTVSPost2010Prop37
 90
       50
102
RTVSPost2010PropOp37
 70
     1
102
RTVSPost2010Prop38
140
0.0
102
RTVSPost2010PropOp38
 70
     1
102
RTVSPost2010Prop39
140
1.0
102
RTVSPost2010PropOp39
 70
     1
102
RTVSPost2010Prop40
 90
        0
102
RTVSPost2010PropOp40
 70
     1
102
RTVSPost2010Prop41ColorIndex
 90
       18
102
RTVSPost2010Prop41ColorRGB
 90
        0
102
RTVSPost2010PropOp41
 70
     1
102
RTVSPost2010Prop42
 90
       50
102
RTVSPost2010PropOp42
 70
     1
102
RTVSPost2010Prop43
 90
        3
102
RTVSPost2010PropOp43
 70
     1
102
RTVSPost2010Prop44ColorIndex
 90
        5
102
RTVSPost2010Prop44ColorRGB
 90
      255
102
RTVSPost2010PropOp44
 70
     1
102
RTVSPost2010Prop45
280
     0
102
RTVSPost2010PropOp45
 70
     1
102
RTVSPost2010Prop46
 90
       50
102
RTVSPost2010PropOp46
 70
     1
102
RTVSPost2010Prop47
 90
       50
102
RTVSPost2010PropOp47
 70
     1
102
RTVSPost2010Prop48
 90
       50
102
RTVSPost2010PropOp48
 70
     1
102
RTVSPost2010Prop49
280
     0
102
RTVSPost2010PropOp49
 70
     1
102
RTVSPost2010Prop50
 90
       50
102
RTVSPost2010PropOp50
 70
     1
102
RTVSPost2010Prop51ColorIndex
 90
      256
102
RTVSPost2010Prop51ColorRGB
 90
-16777216
102
RTVSPost2010PropOp51
 70
     0
102
RTVSPost2010Prop52
140
1.0
102
RTVSPost2010PropOp52
 70
     0
102
RTVSPost2010Prop53
 90
        2
102
RTVSPost2010PropOp53
 70
     1
102
RTVSPost2010Prop54
  1
strokes_ogs.tif
102
RTVSPost2010PropOp54
 70
     1
102
RTVSPost2010Prop55
280
     0
102
RTVSPost2010PropOp55
 70
     1
102
RTVSPost2010Prop56
140
1.0
102
RTVSPost2010PropOp56
 70
     1
102
RTVSPost2010Prop57
140
1.0
102
RTVSPost2010PropOp57
 70
     1
102
RTVSPropertyOp0
 70
     1
102
RTVSPropertyOp1
 70
     1
102
RTVSPropertyOp2
 70
     1
102
RTVSPropertyOp3
 70
     1
102
RTVSPropertyOp4
 70
     1
102
RTVSPropertyOp5
 70
     1
102
RTVSPropertyOp6
 70
     1
102
RTVSPropertyOp7
 70
     1
102
RTVSPropertyOp8
 70
     1
102
RTVSPropertyOp9
 70
     1
102
RTVSPropertyOp10
 70
     1
102
RTVSPropertyOp11
 70
     1
102
RTVSPropertyOp12
 70
     1
102
RTVSPropertyOp13
 70
     1
102
RTVSPropertyOp14
 70
     1
102
RTVSPropertyOp15
 70
     1
102
RTVSPropertyOp16
 70
     1
102
RTVSPropertyOp17
 70
     1
102
RTVSPropertyOp18
 70
     1
102
RTVSPropertyOp19
 70
     1
102
RTVSPropertyOp20
 70
     1
102
RTVSPropertyOp21
 70
     1
102
RTVSPropertyOp22
 70
     1
102
RTVSPropertyOp23
 70
     1
102
RTVSPropertyOp24
 70
     1
102
RTVSPropertyOp25
 70
     1
102
RTVSPropertyOp26
 70
     1
102
RTVSPropertyOp27
 70
     1
102
RTVSPropertyOp28
 70
     1
102
RTVSPropertyOp29
 70
     1
102
RTVSPropertyOp30
 70
     1
102
RTVSPropertyOp31
 70
     1
102
RTVSPropertyOp32
 70
     1
102
RTVSPropertyOp33
 70
     1
102
RTVSPropertyOp34
 70
     1
102
RTVSPropertyOp35
 70
     1
102
RTVSPropertyOp36
 70
     1
102
RTVSPropertyOp37
 70
     1
102
RTVSPropertyOp38
 70
     1
102
RTVSPropertyOp39
 70
     1
102
RTVSPropertyOp40
 70
     1
102
RTVSPropertyOp41
 70
     1
102
RTVSPropertyOp42
 70
     1
102
RTVSPropertyOp43
 70
     1
102
RTVSPropertyOp44
 70
     1
102
RTVSPropertyOp45
 70
     1
102
RTVSPropertyOp46
 70
     1
102
RTVSPropertyOp47
 70
     1
102
RTVSPropertyOp48
 70
     1
102
RTVSPropertyOp49
 70
     1
102
RTVSPropertyOp50
 70
     1
102
RTVSPropertyOp51
 70
     0
102
RTVSPropertyOp52
 70
     0
102
RTVSPropertyOp53
 70
     1
102
RTVSPropertyOp54
 70
     1
102
RTVSPropertyOp55
 70
     1
102
RTVSPropertyOp56
 70
     1
102
RTVSPropertyOp57
 70
     1
102
RTVSPropertyOp58
 70
     1
102
RTVSPropertyOp59
 70
     1
102
RTVSPropertyOp60
 70
     1
102
RTVSPropertyOp61
 70
     1
102
RTVSPropertyOp62
 70
     1
  0
XRECORD
  5
61E
102
{ACAD_REACTORS
330
61D
102
}
330
61D
100
AcDbXrecord
280
     1
102
RTVSPost2010Prop28
280
     0
102
RTVSPost2010PropOp28
 70
     1
102
RTVSPost2010Prop29
280
     1
102
RTVSPost2010PropOp29
 70
     1
102
RTVSPost2010Prop30
280
     1
102
RTVSPost2010PropOp30
 70
     1
102
RTVSPost2010Prop31
280
     0
102
RTVSPost2010PropOp31
 70
     1
102
RTVSPost2010Prop32
280
     0
102
RTVSPost2010PropOp32
 70
     1
102
RTVSPost2010Prop33
280
     0
102
RTVSPost2010PropOp33
 70
     1
102
RTVSPost2010Prop34
280
     0
102
RTVSPost2010PropOp34
 70
     1
102
RTVSPost2010Prop35
280
     0
102
RTVSPost2010PropOp35
 70
     1
102
RTVSPost2010Prop36
280
     0
102
RTVSPost2010PropOp36
 70
     1
102
RTVSPost2010Prop37
 90
       50
102
RTVSPost2010PropOp37
 70
     1
102
RTVSPost2010Prop38
140
0.0
102
RTVSPost2010PropOp38
 70
     1
102
RTVSPost2010Prop39
140
1.0
102
RTVSPost2010PropOp39
 70
     1
102
RTVSPost2010Prop40
 90
        0
102
RTVSPost2010PropOp40
 70
     1
102
RTVSPost2010Prop41ColorIndex
 90
       18
102
RTVSPost2010Prop41ColorRGB
 90
        0
102
RTVSPost2010PropOp41
 70
     1
102
RTVSPost2010Prop42
 90
       50
102
RTVSPost2010PropOp42
 70
     1
102
RTVSPost2010Prop43
 90
        3
102
RTVSPost2010PropOp43
 70
     1
102
RTVSPost2010Prop44ColorIndex
 90
        5
102
RTVSPost2010Prop44ColorRGB
 90
      255
102
RTVSPost2010PropOp44
 70
     1
102
RTVSPost2010Prop45
280
     0
102
RTVSPost2010PropOp45
 70
     1
102
RTVSPost2010Prop46
 90
       50
102
RTVSPost2010PropOp46
 70
     1
102
RTVSPost2010Prop47
 90
       50
102
RTVSPost2010PropOp47
 70
     1
102
RTVSPost2010Prop48
 90
       50
102
RTVSPost2010PropOp48
 70
     1
102
RTVSPost2010Prop49
280
     0
102
RTVSPost2010PropOp49
 70
     1
102
RTVSPost2010Prop50
 90
       50
102
RTVSPost2010PropOp50
 70
     1
102
RTVSPost2010Prop51ColorIndex
 90
      256
102
RTVSPost2010Prop51ColorRGB
 90
-16777216
102
RTVSPost2010PropOp51
 70
     0
102
RTVSPost2010Prop52
140
1.0
102
RTVSPost2010PropOp52
 70
     0
102
RTVSPost2010Prop53
 90
        2
102
RTVSPost2010PropOp53
 70
     1
102
RTVSPost2010Prop54
  1
strokes_ogs.tif
102
RTVSPost2010PropOp54
 70
     1
102
RTVSPost2010Prop55
280
     0
102
RTVSPost2010PropOp55
 70
     1
102
RTVSPost2010Prop56
140
1.0
102
RTVSPost2010PropOp56
 70
     1
102
RTVSPost2010Prop57
140
1.0
102
RTVSPost2010PropOp57
 70
     1
102
RTVSPropertyOp0
 70
     1
102
RTVSPropertyOp1
 70
     1
102
RTVSPropertyOp2
 70
     1
102
RTVSPropertyOp3
 70
     1
102
RTVSPropertyOp4
 70
     1
102
RTVSPropertyOp5
 70
     1
102
RTVSPropertyOp6
 70
     1
102
RTVSPropertyOp7
 70
     1
102
RTVSPropertyOp8
 70
     1
102
RTVSPropertyOp9
 70
     1
102
RTVSPropertyOp10
 70
     1
102
RTVSPropertyOp11
 70
     1
102
RTVSPropertyOp12
 70
     1
102
RTVSPropertyOp13
 70
     1
102
RTVSPropertyOp14
 70
     1
102
RTVSPropertyOp15
 70
     1
102
RTVSPropertyOp16
 70
     1
102
RTVSPropertyOp17
 70
     1
102
RTVSPropertyOp18
 70
     1
102
RTVSPropertyOp19
 70
     1
102
RTVSPropertyOp20
 70
     1
102
RTVSPropertyOp21
 70
     1
102
RTVSPropertyOp22
 70
     1
102
RTVSPropertyOp23
 70
     1
102
RTVSPropertyOp24
 70
     1
102
RTVSPropertyOp25
 70
     1
102
RTVSPropertyOp26
 70
     1
102
RTVSPropertyOp27
 70
     1
102
RTVSPropertyOp28
 70
     1
102
RTVSPropertyOp29
 70
     1
102
RTVSPropertyOp30
 70
     1
102
RTVSPropertyOp31
 70
     1
102
RTVSPropertyOp32
 70
     1
102
RTVSPropertyOp33
 70
     1
102
RTVSPropertyOp34
 70
     1
102
RTVSPropertyOp35
 70
     1
102
RTVSPropertyOp36
 70
     1
102
RTVSPropertyOp37
 70
     1
102
RTVSPropertyOp38
 70
     1
102
RTVSPropertyOp39
 70
     1
102
RTVSPropertyOp40
 70
     1
102
RTVSPropertyOp41
 70
     1
102
RTVSPropertyOp42
 70
     1
102
RTVSPropertyOp43
 70
     1
102
RTVSPropertyOp44
 70
     1
102
RTVSPropertyOp45
 70
     1
102
RTVSPropertyOp46
 70
     1
102
RTVSPropertyOp47
 70
     1
102
RTVSPropertyOp48
 70
     1
102
RTVSPropertyOp49
 70
     1
102
RTVSPropertyOp50
 70
     1
102
RTVSPropertyOp51
 70
     0
102
RTVSPropertyOp52
 70
     0
102
RTVSPropertyOp53
 70
     1
102
RTVSPropertyOp54
 70
     1
102
RTVSPropertyOp55
 70
     1
102
RTVSPropertyOp56
 70
     1
102
RTVSPropertyOp57
 70
     1
102
RTVSPropertyOp58
 70
     1
102
RTVSPropertyOp59
 70
     1
102
RTVSPropertyOp60
 70
     1
102
RTVSPropertyOp61
 70
     1
102
RTVSPropertyOp62
 70
     1
  0
XRECORD
  5
620
102
{ACAD_REACTORS
330
61F
102
}
330
61F
100
AcDbXrecord
280
     1
102
RTVSPost2010Prop28
280
     0
102
RTVSPost2010PropOp28
 70
     1
102
RTVSPost2010Prop29
280
     1
102
RTVSPost2010PropOp29
 70
     1
102
RTVSPost2010Prop30
280
     1
102
RTVSPost2010PropOp30
 70
     1
102
RTVSPost2010Prop31
280
     0
102
RTVSPost2010PropOp31
 70
     1
102
RTVSPost2010Prop32
280
     0
102
RTVSPost2010PropOp32
 70
     1
102
RTVSPost2010Prop33
280
     0
102
RTVSPost2010PropOp33
 70
     1
102
RTVSPost2010Prop34
280
     0
102
RTVSPost2010PropOp34
 70
     1
102
RTVSPost2010Prop35
280
     0
102
RTVSPost2010PropOp35
 70
     1
102
RTVSPost2010Prop36
280
     0
102
RTVSPost2010PropOp36
 70
     1
102
RTVSPost2010Prop37
 90
       50
102
RTVSPost2010PropOp37
 70
     1
102
RTVSPost2010Prop38
140
0.0
102
RTVSPost2010PropOp38
 70
     1
102
RTVSPost2010Prop39
140
1.0
102
RTVSPost2010PropOp39
 70
     1
102
RTVSPost2010Prop40
 90
        0
102
RTVSPost2010PropOp40
 70
     1
102
RTVSPost2010Prop41ColorIndex
 90
       18
102
RTVSPost2010Prop41ColorRGB
 90
        0
102
RTVSPost2010PropOp41
 70
     1
102
RTVSPost2010Prop42
 90
       50
102
RTVSPost2010PropOp42
 70
     1
102
RTVSPost2010Prop43
 90
        3
102
RTVSPost2010PropOp43
 70
     1
102
RTVSPost2010Prop44ColorIndex
 90
        5
102
RTVSPost2010Prop44ColorRGB
 90
      255
102
RTVSPost2010PropOp44
 70
     1
102
RTVSPost2010Prop45
280
     0
102
RTVSPost2010PropOp45
 70
     1
102
RTVSPost2010Prop46
 90
       50
102
RTVSPost2010PropOp46
 70
     1
102
RTVSPost2010Prop47
 90
       50
102
RTVSPost2010PropOp47
 70
     1
102
RTVSPost2010Prop48
 90
       50
102
RTVSPost2010PropOp48
 70
     1
102
RTVSPost2010Prop49
280
     0
102
RTVSPost2010PropOp49
 70
     1
102
RTVSPost2010Prop50
 90
       50
102
RTVSPost2010PropOp50
 70
     1
102
RTVSPost2010Prop51ColorIndex
 90
      256
102
RTVSPost2010Prop51ColorRGB
 90
-16777216
102
RTVSPost2010PropOp51
 70
     0
102
RTVSPost2010Prop52
140
1.0
102
RTVSPost2010PropOp52
 70
     0
102
RTVSPost2010Prop53
 90
        2
102
RTVSPost2010PropOp53
 70
     1
102
RTVSPost2010Prop54
  1
strokes_ogs.tif
102
RTVSPost2010PropOp54
 70
     1
102
RTVSPost2010Prop55
280
     0
102
RTVSPost2010PropOp55
 70
     1
102
RTVSPost2010Prop56
140
1.0
102
RTVSPost2010PropOp56
 70
     1
102
RTVSPost2010Prop57
140
1.0
102
RTVSPost2010PropOp57
 70
     1
102
RTVSPropertyOp0
 70
     1
102
RTVSPropertyOp1
 70
     1
102
RTVSPropertyOp2
 70
     1
102
RTVSPropertyOp3
 70
     1
102
RTVSPropertyOp4
 70
     1
102
RTVSPropertyOp5
 70
     1
102
RTVSPropertyOp6
 70
     1
102
RTVSPropertyOp7
 70
     1
102
RTVSPropertyOp8
 70
     1
102
RTVSPropertyOp9
 70
     1
102
RTVSPropertyOp10
 70
     1
102
RTVSPropertyOp11
 70
     1
102
RTVSPropertyOp12
 70
     1
102
RTVSPropertyOp13
 70
     1
102
RTVSPropertyOp14
 70
     1
102
RTVSPropertyOp15
 70
     1
102
RTVSPropertyOp16
 70
     1
102
RTVSPropertyOp17
 70
     1
102
RTVSPropertyOp18
 70
     1
102
RTVSPropertyOp19
 70
     1
102
RTVSPropertyOp20
 70
     1
102
RTVSPropertyOp21
 70
     1
102
RTVSPropertyOp22
 70
     1
102
RTVSPropertyOp23
 70
     1
102
RTVSPropertyOp24
 70
     1
102
RTVSPropertyOp25
 70
     1
102
RTVSPropertyOp26
 70
     1
102
RTVSPropertyOp27
 70
     1
102
RTVSPropertyOp28
 70
     1
102
RTVSPropertyOp29
 70
     1
102
RTVSPropertyOp30
 70
     1
102
RTVSPropertyOp31
 70
     1
102
RTVSPropertyOp32
 70
     1
102
RTVSPropertyOp33
 70
     1
102
RTVSPropertyOp34
 70
     1
102
RTVSPropertyOp35
 70
     1
102
RTVSPropertyOp36
 70
     1
102
RTVSPropertyOp37
 70
     1
102
RTVSPropertyOp38
 70
     1
102
RTVSPropertyOp39
 70
     1
102
RTVSPropertyOp40
 70
     1
102
RTVSPropertyOp41
 70
     1
102
RTVSPropertyOp42
 70
     1
102
RTVSPropertyOp43
 70
     1
102
RTVSPropertyOp44
 70
     1
102
RTVSPropertyOp45
 70
     1
102
RTVSPropertyOp46
 70
     1
102
RTVSPropertyOp47
 70
     1
102
RTVSPropertyOp48
 70
     1
102
RTVSPropertyOp49
 70
     1
102
RTVSPropertyOp50
 70
     1
102
RTVSPropertyOp51
 70
     0
102
RTVSPropertyOp52
 70
     0
102
RTVSPropertyOp53
 70
     1
102
RTVSPropertyOp54
 70
     1
102
RTVSPropertyOp55
 70
     1
102
RTVSPropertyOp56
 70
     1
102
RTVSPropertyOp57
 70
     1
102
RTVSPropertyOp58
 70
     1
102
RTVSPropertyOp59
 70
     1
102
RTVSPropertyOp60
 70
     1
102
RTVSPropertyOp61
 70
     1
102
RTVSPropertyOp62
 70
     1
  0
XRECORD
  5
610
102
{ACAD_REACTORS
330
60F
102
}
330
60F
100
AcDbXrecord
280
     1
102
RTVSPost2010Prop28
280
     0
102
RTVSPost2010PropOp28
 70
     1
102
RTVSPost2010Prop29
280
     1
102
RTVSPost2010PropOp29
 70
     1
102
RTVSPost2010Prop30
280
     1
102
RTVSPost2010PropOp30
 70
     1
102
RTVSPost2010Prop31
280
     0
102
RTVSPost2010PropOp31
 70
     1
102
RTVSPost2010Prop32
280
     0
102
RTVSPost2010PropOp32
 70
     1
102
RTVSPost2010Prop33
280
     0
102
RTVSPost2010PropOp33
 70
     1
102
RTVSPost2010Prop34
280
     0
102
RTVSPost2010PropOp34
 70
     1
102
RTVSPost2010Prop35
280
     0
102
RTVSPost2010PropOp35
 70
     1
102
RTVSPost2010Prop36
280
     0
102
RTVSPost2010PropOp36
 70
     1
102
RTVSPost2010Prop37
 90
       50
102
RTVSPost2010PropOp37
 70
     1
102
RTVSPost2010Prop38
140
0.0
102
RTVSPost2010PropOp38
 70
     1
102
RTVSPost2010Prop39
140
1.0
102
RTVSPost2010PropOp39
 70
     1
102
RTVSPost2010Prop40
 90
        0
102
RTVSPost2010PropOp40
 70
     1
102
RTVSPost2010Prop41ColorIndex
 90
       18
102
RTVSPost2010Prop41ColorRGB
 90
        0
102
RTVSPost2010PropOp41
 70
     1
102
RTVSPost2010Prop42
 90
       50
102
RTVSPost2010PropOp42
 70
     1
102
RTVSPost2010Prop43
 90
        3
102
RTVSPost2010PropOp43
 70
     1
102
RTVSPost2010Prop44ColorIndex
 90
        5
102
RTVSPost2010Prop44ColorRGB
 90
      255
102
RTVSPost2010PropOp44
 70
     1
102
RTVSPost2010Prop45
280
     0
102
RTVSPost2010PropOp45
 70
     1
102
RTVSPost2010Prop46
 90
       50
102
RTVSPost2010PropOp46
 70
     1
102
RTVSPost2010Prop47
 90
       50
102
RTVSPost2010PropOp47
 70
     1
102
RTVSPost2010Prop48
 90
       50
102
RTVSPost2010PropOp48
 70
     1
102
RTVSPost2010Prop49
280
     0
102
RTVSPost2010PropOp49
 70
     1
102
RTVSPost2010Prop50
 90
       50
102
RTVSPost2010PropOp50
 70
     1
102
RTVSPost2010Prop51ColorIndex
 90
      256
102
RTVSPost2010Prop51ColorRGB
 90
-16777216
102
RTVSPost2010PropOp51
 70
     0
102
RTVSPost2010Prop52
140
1.0
102
RTVSPost2010PropOp52
 70
     0
102
RTVSPost2010Prop53
 90
        2
102
RTVSPost2010PropOp53
 70
     1
102
RTVSPost2010Prop54
  1
strokes_ogs.tif
102
RTVSPost2010PropOp54
 70
     1
102
RTVSPost2010Prop55
280
     0
102
RTVSPost2010PropOp55
 70
     1
102
RTVSPost2010Prop56
140
1.0
102
RTVSPost2010PropOp56
 70
     1
102
RTVSPost2010Prop57
140
1.0
102
RTVSPost2010PropOp57
 70
     1
102
RTVSPropertyOp0
 70
     1
102
RTVSPropertyOp1
 70
     1
102
RTVSPropertyOp2
 70
     1
102
RTVSPropertyOp3
 70
     1
102
RTVSPropertyOp4
 70
     1
102
RTVSPropertyOp5
 70
     1
102
RTVSPropertyOp6
 70
     1
102
RTVSPropertyOp7
 70
     1
102
RTVSPropertyOp8
 70
     1
102
RTVSPropertyOp9
 70
     1
102
RTVSPropertyOp10
 70
     1
102
RTVSPropertyOp11
 70
     1
102
RTVSPropertyOp12
 70
     1
102
RTVSPropertyOp13
 70
     1
102
RTVSPropertyOp14
 70
     1
102
RTVSPropertyOp15
 70
     1
102
RTVSPropertyOp16
 70
     1
102
RTVSPropertyOp17
 70
     1
102
RTVSPropertyOp18
 70
     1
102
RTVSPropertyOp19
 70
     1
102
RTVSPropertyOp20
 70
     1
102
RTVSPropertyOp21
 70
     1
102
RTVSPropertyOp22
 70
     1
102
RTVSPropertyOp23
 70
     1
102
RTVSPropertyOp24
 70
     1
102
RTVSPropertyOp25
 70
     1
102
RTVSPropertyOp26
 70
     1
102
RTVSPropertyOp27
 70
     1
102
RTVSPropertyOp28
 70
     1
102
RTVSPropertyOp29
 70
     1
102
RTVSPropertyOp30
 70
     1
102
RTVSPropertyOp31
 70
     1
102
RTVSPropertyOp32
 70
     1
102
RTVSPropertyOp33
 70
     1
102
RTVSPropertyOp34
 70
     1
102
RTVSPropertyOp35
 70
     1
102
RTVSPropertyOp36
 70
     1
102
RTVSPropertyOp37
 70
     1
102
RTVSPropertyOp38
 70
     1
102
RTVSPropertyOp39
 70
     1
102
RTVSPropertyOp40
 70
     1
102
RTVSPropertyOp41
 70
     1
102
RTVSPropertyOp42
 70
     1
102
RTVSPropertyOp43
 70
     1
102
RTVSPropertyOp44
 70
     1
102
RTVSPropertyOp45
 70
     1
102
RTVSPropertyOp46
 70
     1
102
RTVSPropertyOp47
 70
     1
102
RTVSPropertyOp48
 70
     1
102
RTVSPropertyOp49
 70
     1
102
RTVSPropertyOp50
 70
     1
102
RTVSPropertyOp51
 70
     0
102
RTVSPropertyOp52
 70
     0
102
RTVSPropertyOp53
 70
     1
102
RTVSPropertyOp54
 70
     1
102
RTVSPropertyOp55
 70
     1
102
RTVSPropertyOp56
 70
     1
102
RTVSPropertyOp57
 70
     1
102
RTVSPropertyOp58
 70
     1
102
RTVSPropertyOp59
 70
     1
102
RTVSPropertyOp60
 70
     1
102
RTVSPropertyOp61
 70
     1
102
RTVSPropertyOp62
 70
     1
  0
XRECORD
  5
602
102
{ACAD_REACTORS
330
601
102
}
330
601
100
AcDbXrecord
280
     1
102
RTVSPost2010Prop28
280
     0
102
RTVSPost2010PropOp28
 70
     1
102
RTVSPost2010Prop29
280
     1
102
RTVSPost2010PropOp29
 70
     1
102
RTVSPost2010Prop30
280
     1
102
RTVSPost2010PropOp30
 70
     1
102
RTVSPost2010Prop31
280
     0
102
RTVSPost2010PropOp31
 70
     1
102
RTVSPost2010Prop32
280
     0
102
RTVSPost2010PropOp32
 70
     1
102
RTVSPost2010Prop33
280
     0
102
RTVSPost2010PropOp33
 70
     1
102
RTVSPost2010Prop34
280
     0
102
RTVSPost2010PropOp34
 70
     1
102
RTVSPost2010Prop35
280
     0
102
RTVSPost2010PropOp35
 70
     1
102
RTVSPost2010Prop36
280
     0
102
RTVSPost2010PropOp36
 70
     1
102
RTVSPost2010Prop37
 90
       50
102
RTVSPost2010PropOp37
 70
     1
102
RTVSPost2010Prop38
140
0.0
102
RTVSPost2010PropOp38
 70
     1
102
RTVSPost2010Prop39
140
1.0
102
RTVSPost2010PropOp39
 70
     1
102
RTVSPost2010Prop40
 90
        0
102
RTVSPost2010PropOp40
 70
     1
102
RTVSPost2010Prop41ColorIndex
 90
       18
102
RTVSPost2010Prop41ColorRGB
 90
        0
102
RTVSPost2010PropOp41
 70
     1
102
RTVSPost2010Prop42
 90
       50
102
RTVSPost2010PropOp42
 70
     1
102
RTVSPost2010Prop43
 90
        3
102
RTVSPost2010PropOp43
 70
     1
102
RTVSPost2010Prop44ColorIndex
 90
        5
102
RTVSPost2010Prop44ColorRGB
 90
      255
102
RTVSPost2010PropOp44
 70
     1
102
RTVSPost2010Prop45
280
     0
102
RTVSPost2010PropOp45
 70
     1
102
RTVSPost2010Prop46
 90
       50
102
RTVSPost2010PropOp46
 70
     1
102
RTVSPost2010Prop47
 90
       50
102
RTVSPost2010PropOp47
 70
     1
102
RTVSPost2010Prop48
 90
       50
102
RTVSPost2010PropOp48
 70
     1
102
RTVSPost2010Prop49
280
     0
102
RTVSPost2010PropOp49
 70
     1
102
RTVSPost2010Prop50
 90
       50
102
RTVSPost2010PropOp50
 70
     1
102
RTVSPost2010Prop51ColorIndex
 90
      256
102
RTVSPost2010Prop51ColorRGB
 90
-16777216
102
RTVSPost2010PropOp51
 70
     0
102
RTVSPost2010Prop52
140
1.0
102
RTVSPost2010PropOp52
 70
     0
102
RTVSPost2010Prop53
 90
        2
102
RTVSPost2010PropOp53
 70
     1
102
RTVSPost2010Prop54
  1
strokes_ogs.tif
102
RTVSPost2010PropOp54
 70
     1
102
RTVSPost2010Prop55
280
     0
102
RTVSPost2010PropOp55
 70
     1
102
RTVSPost2010Prop56
140
1.0
102
RTVSPost2010PropOp56
 70
     1
102
RTVSPost2010Prop57
140
1.0
102
RTVSPost2010PropOp57
 70
     1
102
RTVSPropertyOp0
 70
     1
102
RTVSPropertyOp1
 70
     1
102
RTVSPropertyOp2
 70
     1
102
RTVSPropertyOp3
 70
     1
102
RTVSPropertyOp4
 70
     1
102
RTVSPropertyOp5
 70
     1
102
RTVSPropertyOp6
 70
     1
102
RTVSPropertyOp7
 70
     1
102
RTVSPropertyOp8
 70
     1
102
RTVSPropertyOp9
 70
     1
102
RTVSPropertyOp10
 70
     1
102
RTVSPropertyOp11
 70
     1
102
RTVSPropertyOp12
 70
     1
102
RTVSPropertyOp13
 70
     1
102
RTVSPropertyOp14
 70
     1
102
RTVSPropertyOp15
 70
     1
102
RTVSPropertyOp16
 70
     1
102
RTVSPropertyOp17
 70
     1
102
RTVSPropertyOp18
 70
     1
102
RTVSPropertyOp19
 70
     1
102
RTVSPropertyOp20
 70
     1
102
RTVSPropertyOp21
 70
     1
102
RTVSPropertyOp22
 70
     1
102
RTVSPropertyOp23
 70
     1
102
RTVSPropertyOp24
 70
     1
102
RTVSPropertyOp25
 70
     1
102
RTVSPropertyOp26
 70
     1
102
RTVSPropertyOp27
 70
     1
102
RTVSPropertyOp28
 70
     1
102
RTVSPropertyOp29
 70
     1
102
RTVSPropertyOp30
 70
     1
102
RTVSPropertyOp31
 70
     1
102
RTVSPropertyOp32
 70
     1
102
RTVSPropertyOp33
 70
     1
102
RTVSPropertyOp34
 70
     1
102
RTVSPropertyOp35
 70
     1
102
RTVSPropertyOp36
 70
     1
102
RTVSPropertyOp37
 70
     1
102
RTVSPropertyOp38
 70
     1
102
RTVSPropertyOp39
 70
     1
102
RTVSPropertyOp40
 70
     1
102
RTVSPropertyOp41
 70
     1
102
RTVSPropertyOp42
 70
     1
102
RTVSPropertyOp43
 70
     1
102
RTVSPropertyOp44
 70
     1
102
RTVSPropertyOp45
 70
     1
102
RTVSPropertyOp46
 70
     1
102
RTVSPropertyOp47
 70
     1
102
RTVSPropertyOp48
 70
     1
102
RTVSPropertyOp49
 70
     1
102
RTVSPropertyOp50
 70
     1
102
RTVSPropertyOp51
 70
     0
102
RTVSPropertyOp52
 70
     0
102
RTVSPropertyOp53
 70
     1
102
RTVSPropertyOp54
 70
     1
102
RTVSPropertyOp55
 70
     1
102
RTVSPropertyOp56
 70
     1
102
RTVSPropertyOp57
 70
     1
102
RTVSPropertyOp58
 70
     1
102
RTVSPropertyOp59
 70
     1
102
RTVSPropertyOp60
 70
     1
102
RTVSPropertyOp61
 70
     1
102
RTVSPropertyOp62
 70
     1
  0
XRECORD
  5
622
102
{ACAD_REACTORS
330
621
102
}
330
621
100
AcDbXrecord
280
     1
102
RTVSPost2010Prop28
280
     0
102
RTVSPost2010PropOp28
 70
     1
102
RTVSPost2010Prop29
280
     1
102
RTVSPost2010PropOp29
 70
     1
102
RTVSPost2010Prop30
280
     1
102
RTVSPost2010PropOp30
 70
     1
102
RTVSPost2010Prop31
280
     0
102
RTVSPost2010PropOp31
 70
     1
102
RTVSPost2010Prop32
280
     0
102
RTVSPost2010PropOp32
 70
     1
102
RTVSPost2010Prop33
280
     0
102
RTVSPost2010PropOp33
 70
     1
102
RTVSPost2010Prop34
280
     0
102
RTVSPost2010PropOp34
 70
     1
102
RTVSPost2010Prop35
280
     0
102
RTVSPost2010PropOp35
 70
     1
102
RTVSPost2010Prop36
280
     0
102
RTVSPost2010PropOp36
 70
     1
102
RTVSPost2010Prop37
 90
       50
102
RTVSPost2010PropOp37
 70
     1
102
RTVSPost2010Prop38
140
0.0
102
RTVSPost2010PropOp38
 70
     1
102
RTVSPost2010Prop39
140
1.0
102
RTVSPost2010PropOp39
 70
     1
102
RTVSPost2010Prop40
 90
        0
102
RTVSPost2010PropOp40
 70
     1
102
RTVSPost2010Prop41ColorIndex
 90
       18
102
RTVSPost2010Prop41ColorRGB
 90
        0
102
RTVSPost2010PropOp41
 70
     1
102
RTVSPost2010Prop42
 90
       50
102
RTVSPost2010PropOp42
 70
     1
102
RTVSPost2010Prop43
 90
        3
102
RTVSPost2010PropOp43
 70
     1
102
RTVSPost2010Prop44ColorIndex
 90
        5
102
RTVSPost2010Prop44ColorRGB
 90
      255
102
RTVSPost2010PropOp44
 70
     1
102
RTVSPost2010Prop45
280
     0
102
RTVSPost2010PropOp45
 70
     1
102
RTVSPost2010Prop46
 90
       50
102
RTVSPost2010PropOp46
 70
     1
102
RTVSPost2010Prop47
 90
       50
102
RTVSPost2010PropOp47
 70
     1
102
RTVSPost2010Prop48
 90
       50
102
RTVSPost2010PropOp48
 70
     1
102
RTVSPost2010Prop49
280
     0
102
RTVSPost2010PropOp49
 70
     1
102
RTVSPost2010Prop50
 90
       50
102
RTVSPost2010PropOp50
 70
     1
102
RTVSPost2010Prop51ColorIndex
 90
      256
102
RTVSPost2010Prop51ColorRGB
 90
-16777216
102
RTVSPost2010PropOp51
 70
     0
102
RTVSPost2010Prop52
140
1.0
102
RTVSPost2010PropOp52
 70
     0
102
RTVSPost2010Prop53
 90
        2
102
RTVSPost2010PropOp53
 70
     1
102
RTVSPost2010Prop54
  1
strokes_ogs.tif
102
RTVSPost2010PropOp54
 70
     1
102
RTVSPost2010Prop55
280
     0
102
RTVSPost2010PropOp55
 70
     1
102
RTVSPost2010Prop56
140
1.0
102
RTVSPost2010PropOp56
 70
     1
102
RTVSPost2010Prop57
140
1.0
102
RTVSPost2010PropOp57
 70
     1
102
RTVSPropertyOp0
 70
     1
102
RTVSPropertyOp1
 70
     1
102
RTVSPropertyOp2
 70
     1
102
RTVSPropertyOp3
 70
     1
102
RTVSPropertyOp4
 70
     1
102
RTVSPropertyOp5
 70
     1
102
RTVSPropertyOp6
 70
     1
102
RTVSPropertyOp7
 70
     1
102
RTVSPropertyOp8
 70
     1
102
RTVSPropertyOp9
 70
     1
102
RTVSPropertyOp10
 70
     1
102
RTVSPropertyOp11
 70
     1
102
RTVSPropertyOp12
 70
     1
102
RTVSPropertyOp13
 70
     1
102
RTVSPropertyOp14
 70
     1
102
RTVSPropertyOp15
 70
     1
102
RTVSPropertyOp16
 70
     1
102
RTVSPropertyOp17
 70
     1
102
RTVSPropertyOp18
 70
     1
102
RTVSPropertyOp19
 70
     1
102
RTVSPropertyOp20
 70
     1
102
RTVSPropertyOp21
 70
     1
102
RTVSPropertyOp22
 70
     1
102
RTVSPropertyOp23
 70
     1
102
RTVSPropertyOp24
 70
     1
102
RTVSPropertyOp25
 70
     1
102
RTVSPropertyOp26
 70
     1
102
RTVSPropertyOp27
 70
     1
102
RTVSPropertyOp28
 70
     1
102
RTVSPropertyOp29
 70
     1
102
RTVSPropertyOp30
 70
     1
102
RTVSPropertyOp31
 70
     1
102
RTVSPropertyOp32
 70
     1
102
RTVSPropertyOp33
 70
     1
102
RTVSPropertyOp34
 70
     1
102
RTVSPropertyOp35
 70
     1
102
RTVSPropertyOp36
 70
     1
102
RTVSPropertyOp37
 70
     1
102
RTVSPropertyOp38
 70
     1
102
RTVSPropertyOp39
 70
     1
102
RTVSPropertyOp40
 70
     1
102
RTVSPropertyOp41
 70
     1
102
RTVSPropertyOp42
 70
     1
102
RTVSPropertyOp43
 70
     1
102
RTVSPropertyOp44
 70
     1
102
RTVSPropertyOp45
 70
     1
102
RTVSPropertyOp46
 70
     1
102
RTVSPropertyOp47
 70
     1
102
RTVSPropertyOp48
 70
     1
102
RTVSPropertyOp49
 70
     1
102
RTVSPropertyOp50
 70
     1
102
RTVSPropertyOp51
 70
     0
102
RTVSPropertyOp52
 70
     0
102
RTVSPropertyOp53
 70
     1
102
RTVSPropertyOp54
 70
     1
102
RTVSPropertyOp55
 70
     1
102
RTVSPropertyOp56
 70
     1
102
RTVSPropertyOp57
 70
     1
102
RTVSPropertyOp58
 70
     1
102
RTVSPropertyOp59
 70
     1
102
RTVSPropertyOp60
 70
     1
102
RTVSPropertyOp61
 70
     1
102
RTVSPropertyOp62
 70
     1
  0
ENDSEC
  0
EOF
