  0
SECTION
  2
HEADER
  9
$ACADVER
  1
AC1015
  9
$ACADMAINTVER
 70
    20
  9
$DWGCODEPAGE
  3
ANSI_932
  9
$INSBASE
 10
0.0
 20
0.0
 30
0.0
  9
$EXTMIN
 10
23.93454905592307
 20
27.38434064927606
 30
-0.0015258207003583
  9
$EXTMAX
 10
888.1304815740477
 20
711.4153913268392
 30
0.0000000349246037
  9
$LIMMIN
 10
-443.7525939941417
 20
-397.1734237670906
  9
$LIMMAX
 10
1052.943267822265
 20
569.5630645751962
  9
$ORTHOMODE
 70
     1
  9
$REGENMODE
 70
     1
  9
$FILLMODE
 70
     1
  9
$QTEXTMODE
 70
     0
  9
$MIRRTEXT
 70
     1
  9
$LTSCALE
 40
0.1128512645330957
  9
$ATTMODE
 70
     1
  9
$TEXTSIZE
 40
2.5
  9
$TRACEWID
 40
1.0
  9
$TEXTSTYLE
  7
Standard
  9
$CLAYER
  8
0
  9
$CELTYPE
  6
ByLayer
  9
$CECOLOR
 62
   256
  9
$CELTSCALE
 40
1.0
  9
$DISPSILH
 70
     0
  9
$DIMSCALE
 40
1.0
  9
$DIMASZ
 40
2.5
  9
$DIMEXO
 40
0.625
  9
$DIMDLI
 40
3.75
  9
$DIMRND
 40
0.0
  9
$DIMDLE
 40
0.0
  9
$DIMEXE
 40
1.25
  9
$DIMTP
 40
0.0
  9
$DIMTM
 40
0.0
  9
$DIMTXT
 40
2.5
  9
$DIMCEN
 40
2.5
  9
$DIMTSZ
 40
0.0
  9
$DIMTOL
 70
     0
  9
$DIMLIM
 70
     0
  9
$DIMTIH
 70
     0
  9
$DIMTOH
 70
     0
  9
$DIMSE1
 70
     0
  9
$DIMSE2
 70
     0
  9
$DIMTAD
 70
     1
  9
$DIMZIN
 70
     0
  9
$DIMBLK
  1

  9
$DIMASO
 70
     1
  9
$DIMSHO
 70
     1
  9
$DIMPOST
  1

  9
$DIMAPOST
  1

  9
$DIMALT
 70
     0
  9
$DIMALTD
 70
     3
  9
$DIMALTF
 40
0.03937007874016
  9
$DIMLFAC
 40
1.0
  9
$DIMTOFL
 70
     1
  9
$DIMTVP
 40
0.0
  9
$DIMTIX
 70
     0
  9
$DIMSOXD
 70
     0
  9
$DIMSAH
 70
     0
  9
$DIMBLK1
  1

  9
$DIMBLK2
  1

  9
$DIMSTYLE
  2
Standard
  9
$DIMCLRD
 70
     0
  9
$DIMCLRE
 70
     0
  9
$DIMCLRT
 70
     0
  9
$DIMTFAC
 40
0.75
  9
$DIMGAP
 40
0.625
  9
$DIMJUST
 70
     0
  9
$DIMSD1
 70
     0
  9
$DIMSD2
 70
     0
  9
$DIMTOLJ
 70
     0
  9
$DIMTZIN
 70
     8
  9
$DIMALTZ
 70
     0
  9
$DIMALTTZ
 70
     0
  9
$DIMUPT
 70
     0
  9
$DIMDEC
 70
     2
  9
$DIMTDEC
 70
     2
  9
$DIMALTU
 70
     2
  9
$DIMALTTD
 70
     3
  9
$DIMTXSTY
  7
Standard
  9
$DIMAUNIT
 70
     0
  9
$DIMADEC
 70
     0
  9
$DIMALTRND
 40
0.0
  9
$DIMAZIN
 70
     0
  9
$DIMDSEP
 70
    46
  9
$DIMATFIT
 70
     3
  9
$DIMFRAC
 70
     0
  9
$DIMLDRBLK
  1

  9
$DIMLUNIT
 70
     2
  9
$DIMLWD
 70
    -2
  9
$DIMLWE
 70
    -2
  9
$DIMTMOVE
 70
     0
  9
$LUNITS
 70
     2
  9
$LUPREC
 70
     4
  9
$SKETCHINC
 40
1.0
  9
$FILLETRAD
 40
0.0
  9
$AUNITS
 70
     0
  9
$AUPREC
 70
     0
  9
$MENU
  1
.
  9
$ELEVATION
 40
0.0
  9
$PELEVATION
 40
0.0
  9
$THICKNESS
 40
0.0
  9
$LIMCHECK
 70
     0
  9
$CHAMFERA
 40
10.0
  9
$CHAMFERB
 40
10.0
  9
$CHAMFERC
 40
20.0
  9
$CHAMFERD
 40
0.0
  9
$SKPOLY
 70
     0
  9
$TDCREATE
 40
2455188.750000000
  9
$TDUCREATE
 40
2455188.375000000
  9
$TDUPDATE
 40
2459753.570770440
  9
$TDUUPDATE
 40
2459753.195770440
  9
$TDINDWG
 40
0.0348961343
  9
$TDUSRTIMER
 40
0.0348958912
  9
$USRTIMER
 70
     1
  9
$ANGBASE
 50
0.0
  9
$ANGDIR
 70
     0
  9
$PDMODE
 70
     0
  9
$PDSIZE
 40
0.0
  9
$PLINEWID
 40
0.0
  9
$SPLFRAME
 70
     0
  9
$SPLINETYPE
 70
     6
  9
$SPLINESEGS
 70
     8
  9
$HANDSEED
  5
843
  9
$SURFTAB1
 70
     6
  9
$SURFTAB2
 70
     6
  9
$SURFTYPE
 70
     6
  9
$SURFU
 70
     6
  9
$SURFV
 70
     6
  9
$UCSBASE
  2

  9
$UCSNAME
  2

  9
$UCSORG
 10
0.0
 20
0.0
 30
0.0
  9
$UCSXDIR
 10
1.0
 20
0.0
 30
0.0
  9
$UCSYDIR
 10
0.0
 20
1.0
 30
0.0
  9
$UCSORTHOREF
  2

  9
$UCSORTHOVIEW
 70
     0
  9
$UCSORGTOP
 10
0.0
 20
0.0
 30
0.0
  9
$UCSORGBOTTOM
 10
0.0
 20
0.0
 30
0.0
  9
$UCSORGLEFT
 10
0.0
 20
0.0
 30
0.0
  9
$UCSORGRIGHT
 10
0.0
 20
0.0
 30
0.0
  9
$UCSORGFRONT
 10
0.0
 20
0.0
 30
0.0
  9
$UCSORGBACK
 10
0.0
 20
0.0
 30
0.0
  9
$PUCSBASE
  2

  9
$PUCSNAME
  2

  9
$PUCSORG
 10
0.0
 20
0.0
 30
0.0
  9
$PUCSXDIR
 10
1.0
 20
0.0
 30
0.0
  9
$PUCSYDIR
 10
0.0
 20
1.0
 30
0.0
  9
$PUCSORTHOREF
  2

  9
$PUCSORTHOVIEW
 70
     0
  9
$PUCSORGTOP
 10
0.0
 20
0.0
 30
0.0
  9
$PUCSORGBOTTOM
 10
0.0
 20
0.0
 30
0.0
  9
$PUCSORGLEFT
 10
0.0
 20
0.0
 30
0.0
  9
$PUCSORGRIGHT
 10
0.0
 20
0.0
 30
0.0
  9
$PUCSORGFRONT
 10
0.0
 20
0.0
 30
0.0
  9
$PUCSORGBACK
 10
0.0
 20
0.0
 30
0.0
  9
$USERI1
 70
     0
  9
$USERI2
 70
     0
  9
$USERI3
 70
     0
  9
$USERI4
 70
     0
  9
$USERI5
 70
     0
  9
$USERR1
 40
0.0
  9
$USERR2
 40
0.0
  9
$USERR3
 40
0.0
  9
$USERR4
 40
0.0
  9
$USERR5
 40
0.0
  9
$WORLDVIEW
 70
     1
  9
$SHADEDGE
 70
     3
  9
$SHADEDIF
 70
    70
  9
$TILEMODE
 70
     1
  9
$MAXACTVP
 70
    64
  9
$PINSBASE
 10
0.0
 20
0.0
 30
0.0
  9
$PLIMCHECK
 70
     0
  9
$PEXTMIN
 10
1.000000000000000E+20
 20
1.000000000000000E+20
 30
1.000000000000000E+20
  9
$PEXTMAX
 10
-1.000000000000000E+20
 20
-1.000000000000000E+20
 30
-1.000000000000000E+20
  9
$PLIMMIN
 10
0.0
 20
0.0
  9
$PLIMMAX
 10
420.0
 20
297.0
  9
$UNITMODE
 70
     0
  9
$VISRETAIN
 70
     1
  9
$PLINEGEN
 70
     0
  9
$PSLTSCALE
 70
     1
  9
$TREEDEPTH
 70
  3020
  9
$CMLSTYLE
  2
Standard
  9
$CMLJUST
 70
     0
  9
$CMLSCALE
 40
20.0
  9
$PROXYGRAPHICS
 70
     1
  9
$MEASUREMENT
 70
     1
  9
$CELWEIGHT
370
    -1
  9
$ENDCAPS
280
     0
  9
$JOINSTYLE
280
     0
  9
$LWDISPLAY
290
     0
  9
$INSUNITS
 70
     4
  9
$HYPERLINKBASE
  1

  9
$STYLESHEET
  1

  9
$XEDIT
290
     1
  9
$CEPSNTYPE
380
     0
  9
$PSTYLEMODE
290
     1
  9
$FINGERPRINTGUID
  2
{D80D0F28-CD04-40F4-816E-2ACC5CCC55F3}
  9
$VERSIONGUID
  2
{517BC265-BBE5-47B2-BE3F-A7F4F09D139A}
  9
$EXTNAMES
290
     1
  9
$PSVPSCALE
 40
0.0
  9
$OLESTARTUP
290
     0
  0
ENDSEC
  0
SECTION
  2
CLASSES
  0
CLASS
  1
ACDBDICTIONARYWDFLT
  2
AcDbDictionaryWithDefault
  3
ObjectDBX Classes
 90
        0
280
     0
281
     0
  0
CLASS
  1
VISUALSTYLE
  2
AcDbVisualStyle
  3
ObjectDBX Classes
 90
     4095
280
     0
281
     0
  0
CLASS
  1
MATERIAL
  2
AcDbMaterial
  3
ObjectDBX Classes
 90
     1153
280
     0
281
     0
  0
CLASS
  1
SCALE
  2
AcDbScale
  3
ObjectDBX Classes
 90
     1153
280
     0
281
     0
  0
CLASS
  1
TABLESTYLE
  2
AcDbTableStyle
  3
ObjectDBX Classes
 90
     4095
280
     0
281
     0
  0
CLASS
  1
MLEADERSTYLE
  2
AcDbMLeaderStyle
  3
ACDB_MLEADERSTYLE_CLASS
 90
     4095
280
     0
281
     0
  0
CLASS
  1
SUN
  2
AcDbSun
  3
SCENEOE
 90
    33921
280
     0
281
     0
  0
CLASS
  1
DICTIONARYVAR
  2
AcDbDictionaryVar
  3
ObjectDBX Classes
 90
        0
280
     0
281
     0
  0
CLASS
  1
ACDBSECTIONVIEWSTYLE
  2
AcDbSectionViewStyle
  3
ObjectDBX Classes
 90
     1025
280
     0
281
     0
  0
CLASS
  1
ACDBDETAILVIEWSTYLE
  2
AcDbDetailViewStyle
  3
ObjectDBX Classes
 90
     1025
280
     0
281
     0
  0
CLASS
  1
SORTENTSTABLE
  2
AcDbSortentsTable
  3
ObjectDBX Classes
 90
        0
280
     0
281
     0
  0
CLASS
  1
CELLSTYLEMAP
  2
AcDbCellStyleMap
  3
ObjectDBX Classes
 90
     1152
280
     0
281
     0
  0
CLASS
  1
ACDBPLACEHOLDER
  2
AcDbPlaceHolder
  3
ObjectDBX Classes
 90
        0
280
     0
281
     0
  0
CLASS
  1
LAYOUT
  2
AcDbLayout
  3
ObjectDBX Classes
 90
        0
280
     0
281
     0
  0
CLASS
  1
DIMASSOC
  2
AcDbDimAssoc
  3
"AcDbDimAssoc|Product Desc:     AcDim ARX App For Dimension|Company:          Autodesk, Inc.|WEB Address:      www.autodesk.com"
 90
        0
280
     0
281
     0
  0
ENDSEC
  0
SECTION
  2
TABLES
  0
TABLE
  2
VPORT
  5
8
330
0
100
AcDbSymbolTable
 70
     1
  0
VPORT
  5
29
330
8
100
AcDbSymbolTableRecord
100
AcDbViewportTableRecord
  2
*Active
 70
     0
 10
0.0
 20
0.0
 11
1.0
 21
1.0
 12
456.0325153149854
 22
369.3998659880576
 13
0.0
 23
0.0
 14
10.0
 24
10.0
 15
10.0
 25
10.0
 16
0.0
 26
0.0
 36
1.0
 17
0.0
 27
0.0
 37
0.0
 40
688.9286476991208
 41
1.918757467144564
 42
50.0
 43
0.0
 44
0.0
 50
0.0
 51
0.0
 71
     0
 72
 20000
 73
     1
 74
     3
 75
     0
 76
     0
 77
     0
 78
     0
281
     0
 65
     1
110
0.0
120
0.0
130
0.0
111
1.0
121
0.0
131
0.0
112
0.0
122
1.0
132
0.0
 79
     0
146
0.0
1001
ACAD_NAV_VCDISPLAY
1070
     3
  0
ENDTAB
  0
TABLE
  2
LTYPE
  5
5
330
0
100
AcDbSymbolTable
 70
     2
  0
LTYPE
  5
14
330
5
100
AcDbSymbolTableRecord
100
AcDbLinetypeTableRecord
  2
ByBlock
 70
     0
  3

 72
    65
 73
     0
 40
0.0
  0
LTYPE
  5
15
330
5
100
AcDbSymbolTableRecord
100
AcDbLinetypeTableRecord
  2
ByLayer
 70
     0
  3

 72
    65
 73
     0
 40
0.0
  0
LTYPE
  5
16
330
5
100
AcDbSymbolTableRecord
100
AcDbLinetypeTableRecord
  2
Continuous
 70
     0
  3
Solid line
 72
    65
 73
     0
 40
0.0
  0
LTYPE
  5
25E
330
5
100
AcDbSymbolTableRecord
100
AcDbLinetypeTableRecord
  2
CENTER2
 70
     0
  3
Center (.5x) ___ _ ___ _ ___ _ ___ _ ___ _ ___
 72
    65
 73
     4
 40
28.575
 49
19.05
 74
     0
 49
-3.174999999999998
 74
     0
 49
3.174999999999998
 74
     0
 49
-3.174999999999998
 74
     0
  0
ENDTAB
  0
TABLE
  2
LAYER
  5
2
102
{ACAD_XDICTIONARY
360
264
102
}
330
0
100
AcDbSymbolTable
 70
     4
  0
LAYER
  5
10
102
{ACAD_XDICTIONARY
360
6A7
102
}
330
2
100
AcDbSymbolTableRecord
100
AcDbLayerTableRecord
  2
0
 70
     0
 62
     7
  6
Continuous
370
    -3
390
F
  0
LAYER
  5
66
330
2
100
AcDbSymbolTableRecord
100
AcDbLayerTableRecord
  2
Defpoints
 70
     0
 62
     7
  6
Continuous
290
     0
370
    -3
390
F
  0
LAYER
  5
25F
102
{ACAD_XDICTIONARY
360
260
102
}
330
2
100
AcDbSymbolTableRecord
100
AcDbLayerTableRecord
  2
中心線
 70
     0
 62
     3
  6
CENTER2
370
    -3
390
F
  0
LAYER
  5
261
102
{ACAD_XDICTIONARY
360
262
102
}
330
2
100
AcDbSymbolTableRecord
100
AcDbLayerTableRecord
  2
実線
 70
     0
 62
     7
  6
Continuous
370
    -3
390
F
  0
ENDTAB
  0
TABLE
  2
STYLE
  5
3
330
0
100
AcDbSymbolTable
 70
     1
  0
STYLE
  5
11
330
3
100
AcDbSymbolTableRecord
100
AcDbTextStyleTableRecord
  2
Standard
 70
     0
 40
0.0
 41
1.0
 50
0.0
 71
     0
 42
2.5
  3
txt
  4
extfont2
  0
ENDTAB
  0
TABLE
  2
VIEW
  5
6
330
0
100
AcDbSymbolTable
 70
     0
  0
ENDTAB
  0
TABLE
  2
UCS
  5
7
330
0
100
AcDbSymbolTable
 70
     0
  0
ENDTAB
  0
TABLE
  2
APPID
  5
9
330
0
100
AcDbSymbolTable
 70
     3
  0
APPID
  5
12
330
9
100
AcDbSymbolTableRecord
100
AcDbRegAppTableRecord
  2
ACAD
 70
     0
  0
APPID
  5
24E
330
9
100
AcDbSymbolTableRecord
100
AcDbRegAppTableRecord
  2
ACAD_MLEADERVER
 70
     0
  0
APPID
  5
263
330
9
100
AcDbSymbolTableRecord
100
AcDbRegAppTableRecord
  2
ACAD_NAV_VCDISPLAY
 70
     0
  0
ENDTAB
  0
TABLE
  2
DIMSTYLE
  5
A
330
0
100
AcDbSymbolTable
 70
     1
100
AcDbDimStyleTable
 71
     1
340
27
  0
DIMSTYLE
105
27
330
A
100
AcDbSymbolTableRecord
100
AcDbDimStyleTableRecord
  2
Standard
 70
     0
 41
2.5
 42
0.625
 43
3.75
 44
1.25
 73
     0
 74
     0
 77
     1
140
2.5
141
2.5
143
0.03937007874016
146
0.75
147
0.625
171
     3
172
     1
271
     2
272
     2
274
     3
283
     0
284
     8
340
11
  0
ENDTAB
  0
TABLE
  2
BLOCK_RECORD
  5
1
330
0
100
AcDbSymbolTable
 70
     3
  0
BLOCK_RECORD
  5
1F
102
{ACAD_XDICTIONARY
360
543
102
}
330
1
100
AcDbSymbolTableRecord
100
AcDbBlockTableRecord
  2
*Model_Space
340
22
  0
BLOCK_RECORD
  5
1B
330
1
100
AcDbSymbolTableRecord
100
AcDbBlockTableRecord
  2
*Paper_Space
340
1E
  0
BLOCK_RECORD
  5
23
330
1
100
AcDbSymbolTableRecord
100
AcDbBlockTableRecord
  2
*Paper_Space0
340
258
  0
BLOCK_RECORD
  5
7CC
330
1
100
AcDbSymbolTableRecord
100
AcDbBlockTableRecord
  2
*D1
340
0
  0
BLOCK_RECORD
  5
7E4
330
1
100
AcDbSymbolTableRecord
100
AcDbBlockTableRecord
  2
*D2
340
0
  0
ENDTAB
  0
ENDSEC
  0
SECTION
  2
BLOCKS
  0
BLOCK
  5
20
330
1F
100
AcDbEntity
  8
0
100
AcDbBlockBegin
  2
*Model_Space
 70
     0
 10
0.0
 20
0.0
 30
0.0
  3
*Model_Space
  1

  0
ENDBLK
  5
21
330
1F
100
AcDbEntity
  8
0
100
AcDbBlockEnd
  0
BLOCK
  5
1C
330
1B
100
AcDbEntity
 67
     1
  8
0
100
AcDbBlockBegin
  2
*Paper_Space
 70
     0
 10
0.0
 20
0.0
 30
0.0
  3
*Paper_Space
  1

  0
ENDBLK
  5
1D
330
1B
100
AcDbEntity
 67
     1
  8
0
100
AcDbBlockEnd
  0
BLOCK
  5
24
330
23
100
AcDbEntity
 67
     1
  8
0
100
AcDbBlockBegin
  2
*Paper_Space0
 70
     0
 10
0.0
 20
0.0
 30
0.0
  3
*Paper_Space0
  1

  0
ENDBLK
  5
25
330
23
100
AcDbEntity
 67
     1
  8
0
100
AcDbBlockEnd
  0
BLOCK
  5
7CD
330
7CC
100
AcDbEntity
  8
0
100
AcDbBlockBegin
  2
*D1
 70
     1
 10
0.0
 20
0.0
 30
0.0
  3
*D1
  1

  0
LINE
  5
7D9
330
7CC
100
AcDbEntity
  8
0
 62
     0
370
    -2
100
AcDbLine
 10
408.6424792998504
 20
99.41158987909105
 30
0.0
 11
423.1953830722468
 21
99.41158987909105
 31
0.0
  0
LINE
  5
7DA
330
7CC
100
AcDbEntity
  8
0
 62
     0
370
    -2
100
AcDbLine
 10
406.6424792998504
 20
123.3209705611276
 30
0.0
 11
423.1953830722468
 21
123.3209705611275
 31
0.0
  0
LINE
  5
7DB
330
7CC
100
AcDbEntity
  8
0
 62
     0
370
    -2
100
AcDbLine
 10
421.9453830722468
 20
101.911589879091
 30
0.0
 11
421.9453830722468
 21
120.8209705611275
 31
0.0
  0
SOLID
  5
7DC
330
7CC
100
AcDbEntity
  8
0
 62
     0
100
AcDbTrace
 10
421.5287164055801
 20
101.911589879091
 30
0.0
 11
422.3620497389135
 21
101.911589879091
 31
0.0
 12
421.9453830722468
 22
99.41158987909105
 32
0.0
 13
421.9453830722468
 23
99.41158987909105
 33
0.0
  0
SOLID
  5
7DD
330
7CC
100
AcDbEntity
  8
0
 62
     0
100
AcDbTrace
 10
421.5287164055801
 20
120.8209705611275
 30
0.0
 11
422.3620497389135
 21
120.8209705611275
 31
0.0
 12
421.9453830722468
 22
123.3209705611275
 32
0.0
 13
421.9453830722468
 23
123.3209705611275
 33
0.0
  0
MTEXT
  5
7DE
330
7CC
100
AcDbEntity
  8
0
 62
     0
100
AcDbMText
 10
420.0703830722468
 20
111.3662802201093
 30
0.0
 40
2.5
 41
0.0
 71
     5
 72
     1
  1
23.91
 11
0.0000000000000001
 21
1.0
 31
0.0
 73
     1
 44
1.0
1001
ACAD
1000
MTEXTBEGIN
1070
    73
1070
     1
1070
    44
1040
1.0
1070
    74
1070
     0
1000
MTEXTEND
  0
POINT
  5
7DF
330
7CC
100
AcDbEntity
  8
Defpoints
 62
     0
100
AcDbPoint
 10
408.0174792998503
 20
99.41158987909105
 30
0.0
  0
POINT
  5
7E0
330
7CC
100
AcDbEntity
  8
Defpoints
 62
     0
100
AcDbPoint
 10
406.0174792998504
 20
123.3209705611276
 30
0.0
  0
POINT
  5
7E1
330
7CC
100
AcDbEntity
  8
Defpoints
 62
     0
100
AcDbPoint
 10
421.9453830722468
 20
123.3209705611275
 30
0.0
  0
ENDBLK
  5
7CE
330
7CC
100
AcDbEntity
  8
0
100
AcDbBlockEnd
  0
BLOCK
  5
7E5
330
7E4
100
AcDbEntity
  8
0
100
AcDbBlockBegin
  2
*D2
 70
     1
 10
0.0
 20
0.0
 30
0.0
  3
*D2
  1

  0
LINE
  5
7F3
330
7E4
100
AcDbEntity
  8
0
 62
     0
370
    -2
100
AcDbLine
 10
406.6424792998504
 20
98.07097056112755
 30
0.0
 11
429.3791443717518
 21
98.07097056112754
 31
0.0
  0
LINE
  5
7F4
330
7E4
100
AcDbEntity
  8
0
 62
     0
370
    -2
100
AcDbLine
 10
408.6424792998504
 20
99.41158987909105
 30
0.0
 11
429.3791443717518
 21
99.41158987909105
 31
0.0
  0
LINE
  5
7F5
330
7E4
100
AcDbEntity
  8
0
 62
     0
370
    -2
100
AcDbLine
 10
428.1291443717519
 20
95.57097056112754
 30
0.0
 11
428.1291443717519
 21
93.07097056112754
 31
0.0
  0
LINE
  5
7F6
330
7E4
100
AcDbEntity
  8
0
 62
     0
370
    -2
100
AcDbLine
 10
428.1291443717519
 20
101.911589879091
 30
0.0
 11
428.1291443717519
 21
112.3282565457577
 31
0.0
  0
LINE
  5
7F7
330
7E4
100
AcDbEntity
  8
0
 62
     0
370
    -2
100
AcDbLine
 10
428.1291443717519
 20
98.07097056112754
 30
0.0
 11
428.1291443717519
 21
99.41158987909105
 31
0.0
  0
SOLID
  5
7F8
330
7E4
100
AcDbEntity
  8
0
 62
     0
100
AcDbTrace
 10
427.7124777050851
 20
95.57097056112754
 30
0.0
 11
428.5458110384185
 21
95.57097056112754
 31
0.0
 12
428.1291443717519
 22
98.07097056112754
 32
0.0
 13
428.1291443717519
 23
98.07097056112754
 33
0.0
  0
SOLID
  5
7F9
330
7E4
100
AcDbEntity
  8
0
 62
     0
100
AcDbTrace
 10
427.7124777050851
 20
101.911589879091
 30
0.0
 11
428.5458110384185
 21
101.911589879091
 31
0.0
 12
428.1291443717519
 22
99.41158987909105
 32
0.0
 13
428.1291443717519
 23
99.41158987909105
 33
0.0
  0
MTEXT
  5
7FA
330
7E4
100
AcDbEntity
  8
0
 62
     0
100
AcDbMText
 10
426.2541443717518
 20
108.3699232124244
 30
0.0
 40
2.5
 41
0.0
 71
     5
 72
     1
  1
1.34
 11
0.0000000000000001
 21
1.0
 31
0.0
 73
     1
 44
1.0
1001
ACAD
1000
MTEXTBEGIN
1070
    73
1070
     1
1070
    44
1040
1.0
1070
    74
1070
     0
1000
MTEXTEND
  0
POINT
  5
7FB
330
7E4
100
AcDbEntity
  8
Defpoints
 62
     0
100
AcDbPoint
 10
406.0174792998504
 20
98.07097056112755
 30
0.0
  0
POINT
  5
7FC
330
7E4
100
AcDbEntity
  8
Defpoints
 62
     0
100
AcDbPoint
 10
408.0174792998503
 20
99.41158987909105
 30
0.0
  0
POINT
  5
7FD
330
7E4
100
AcDbEntity
  8
Defpoints
 62
     0
100
AcDbPoint
 10
428.1291443717519
 20
99.41158987909105
 30
0.0
  0
ENDBLK
  5
7E6
330
7E4
100
AcDbEntity
  8
0
100
AcDbBlockEnd
  0
ENDSEC
  0
SECTION
  2
ENTITIES
  0
LINE
  5
4FC
102
{ACAD_REACTORS
330
6A3
102
}
330
1F
100
AcDbEntity
  8
中心線
100
AcDbLine
 10
576.0174792998517
 20
193.9672432316159
 30
0.0
 11
576.0174792998517
 21
528.020730415516
 31
0.0
  0
LINE
  5
4FD
102
{ACAD_REACTORS
330
6A6
102
}
330
1F
100
AcDbEntity
  8
中心線
100
AcDbLine
 10
264.0174792998514
 20
639.4115898790911
 30
0.0
 11
408.0174792998514
 21
639.4115898790911
 31
0.0
  0
LINE
  5
4FE
102
{ACAD_REACTORS
330
6A6
102
}
330
1F
100
AcDbEntity
  8
中心線
100
AcDbLine
 10
336.0174792998514
 20
567.4115898790911
 30
0.0
 11
336.0174792998514
 21
711.4115898790911
 31
0.0
  0
LINE
  5
4FF
102
{ACAD_REACTORS
330
6A1
102
}
330
1F
100
AcDbEntity
  8
中心線
100
AcDbLine
 10
264.0174792998505
 20
99.41158987909101
 30
0.0
 11
408.0174792998503
 21
99.411589879091
 31
0.0
  0
LINE
  5
500
102
{ACAD_REACTORS
330
6A1
102
}
330
1F
100
AcDbEntity
  8
中心線
100
AcDbLine
 10
336.0174792998505
 20
27.41158987909099
 30
0.0
 11
336.0174792998505
 21
171.411589879091
 31
0.0
  0
LINE
  5
501
102
{ACAD_REACTORS
330
6A3
102
}
330
1F
100
AcDbEntity
  8
中心線
100
AcDbLine
 10
521.0174833621108
 20
279.4115898790908
 30
0.0
 11
631.0174752375925
 21
279.4115898790908
 31
0.0
  0
LINE
  5
502
102
{ACAD_REACTORS
330
6A2
102
}
330
1F
100
AcDbEntity
  8
中心線
100
AcDbLine
 10
744.0174792998507
 20
279.4115898790907
 30
0.0
 11
888.0174792998502
 21
279.4115898790907
 31
0.0
  0
LINE
  5
503
102
{ACAD_REACTORS
330
6A4
102
}
330
1F
100
AcDbEntity
  8
中心線
100
AcDbLine
 10
264.0174792998505
 20
279.411589879091
 30
0.0
 11
408.0174792998503
 21
279.411589879091
 31
0.0
  0
LINE
  5
504
102
{ACAD_REACTORS
330
6A5
102
}
330
1F
100
AcDbEntity
  8
中心線
100
AcDbLine
 10
41.0174792998477
 20
279.4115898790907
 30
0.0
 11
151.0174792998476
 21
279.4115898790906
 31
0.0
  0
LINE
  5
505
102
{ACAD_REACTORS
330
6A2
102
}
330
1F
100
AcDbEntity
  8
中心線
100
AcDbLine
 10
816.0174792998514
 20
193.9672432316158
 30
0.0
 11
816.0174792998514
 21
528.0207304155159
 31
0.0
  0
LINE
  5
506
102
{ACAD_REACTORS
330
6A4
102
}
330
1F
100
AcDbEntity
  8
中心線
100
AcDbLine
 10
336.0174792998514
 20
193.9672432316159
 30
0.0
 11
336.0174792998514
 21
528.0207304155159
 31
0.0
  0
LINE
  5
507
102
{ACAD_REACTORS
330
6A5
102
}
330
1F
100
AcDbEntity
  8
中心線
100
AcDbLine
 10
96.01747929984773
 20
193.9672432316158
 30
0.0
 11
96.01747929984773
 21
528.0207304155156
 31
0.0
  0
CIRCLE
  5
508
102
{ACAD_REACTORS
330
6A6
102
}
330
1F
100
AcDbEntity
  8
実線
100
AcDbCircle
 10
336.0174792998514
 20
639.4115898790911
 30
0.0
 40
35.0
  0
CIRCLE
  5
509
102
{ACAD_REACTORS
330
6A6
102
}
330
1F
100
AcDbEntity
  8
実線
100
AcDbCircle
 10
336.0174792998514
 20
639.4115898790911
 30
0.0
 40
6.0
  0
LINE
  5
50A
102
{ACAD_REACTORS
330
6A6
102
}
330
1F
100
AcDbEntity
  8
実線
100
AcDbLine
 10
400.9174792998506
 20
658.4615898790922
 30
0.0
 11
382.246231175713
 21
658.4615898790922
 31
0.0
  0
LINE
  5
50B
102
{ACAD_REACTORS
330
6A6
102
}
330
1F
100
AcDbEntity
  8
実線
100
AcDbLine
 10
382.2462311757135
 20
620.3615898790921
 30
0.0
 11
400.9174792998506
 21
620.3615898790921
 31
0.0
  0
LINE
  5
50C
102
{ACAD_REACTORS
330
6A6
102
}
330
1F
100
AcDbEntity
  8
実線
100
AcDbLine
 10
406.0174792998504
 20
664.6615898790923
 30
0.0
 11
403.2674792998506
 21
664.6615898790923
 31
0.0
  0
LINE
  5
50D
102
{ACAD_REACTORS
330
6A6
102
}
330
1F
100
AcDbEntity
  8
実線
100
AcDbLine
 10
403.2674792998506
 20
614.1615898790923
 30
0.0
 11
406.0174792998504
 21
614.1615898790923
 31
0.0
  0
LINE
  5
50E
102
{ACAD_REACTORS
330
6A6
102
}
330
1F
100
AcDbEntity
  8
実線
100
AcDbLine
 10
406.0174792998504
 20
614.1615898790923
 30
0.0
 11
406.0174792998504
 21
664.6615898790923
 31
0.0
  0
LINE
  5
50F
102
{ACAD_REACTORS
330
6A6
102
}
330
1F
100
AcDbEntity
  8
実線
100
AcDbLine
 10
400.9174792998506
 20
620.3615898790921
 30
0.0
 11
403.2674792998506
 21
614.1615898790923
 31
0.0
  0
LINE
  5
510
102
{ACAD_REACTORS
330
6A6
102
}
330
1F
100
AcDbEntity
  8
実線
100
AcDbLine
 10
403.2674792998506
 20
664.6615898790923
 30
0.0
 11
400.9174792998506
 21
658.4615898790922
 31
0.0
  0
LINE
  5
511
102
{ACAD_REACTORS
330
6A6
102
}
330
1F
100
AcDbEntity
  8
実線
100
AcDbLine
 10
403.2674792998506
 20
614.1615898790923
 30
0.0
 11
403.2674792998506
 21
664.6615898790923
 31
0.0
  0
LINE
  5
512
102
{ACAD_REACTORS
330
6A6
102
}
330
1F
100
AcDbEntity
  8
実線
100
AcDbLine
 10
400.9174792998506
 20
620.3615898790921
 30
0.0
 11
400.9174792998506
 21
658.4615898790922
 31
0.0
  0
LINE
  5
513
102
{ACAD_REACTORS
330
6A6
102
}
330
1F
100
AcDbEntity
  8
実線
100
AcDbLine
 10
271.1174792998506
 20
620.3615898790921
 30
0.0
 11
289.7887274239892
 21
620.3615898790921
 31
0.0
  0
LINE
  5
514
102
{ACAD_REACTORS
330
6A6
102
}
330
1F
100
AcDbEntity
  8
実線
100
AcDbLine
 10
289.7887274239898
 20
658.4615898790922
 30
0.0
 11
271.1174792998506
 21
658.4615898790922
 31
0.0
  0
LINE
  5
515
102
{ACAD_REACTORS
330
6A6
102
}
330
1F
100
AcDbEntity
  8
実線
100
AcDbLine
 10
271.1174792998506
 20
658.4615898790922
 30
0.0
 11
268.7674792998506
 21
664.6615898790923
 31
0.0
  0
LINE
  5
516
102
{ACAD_REACTORS
330
6A6
102
}
330
1F
100
AcDbEntity
  8
実線
100
AcDbLine
 10
268.7674792998506
 20
614.1615898790923
 30
0.0
 11
271.1174792998506
 21
620.3615898790921
 31
0.0
  0
LINE
  5
517
102
{ACAD_REACTORS
330
6A6
102
}
330
1F
100
AcDbEntity
  8
実線
100
AcDbLine
 10
271.1174792998506
 20
658.4615898790922
 30
0.0
 11
271.1174792998506
 21
620.3615898790921
 31
0.0
  0
LINE
  5
518
102
{ACAD_REACTORS
330
6A6
102
}
330
1F
100
AcDbEntity
  8
実線
100
AcDbLine
 10
266.0174792998506
 20
614.1615898790923
 30
0.0
 11
268.7674792998506
 21
614.1615898790923
 31
0.0
  0
LINE
  5
519
102
{ACAD_REACTORS
330
6A6
102
}
330
1F
100
AcDbEntity
  8
実線
100
AcDbLine
 10
268.7674792998506
 20
664.6615898790923
 30
0.0
 11
266.0174792998506
 21
664.6615898790923
 31
0.0
  0
LINE
  5
51A
102
{ACAD_REACTORS
330
6A6
102
}
330
1F
100
AcDbEntity
  8
実線
100
AcDbLine
 10
266.0174792998506
 20
664.6615898790923
 30
0.0
 11
266.0174792998506
 21
614.1615898790923
 31
0.0
  0
LINE
  5
51B
102
{ACAD_REACTORS
330
6A6
102
}
330
1F
100
AcDbEntity
  8
実線
100
AcDbLine
 10
268.7674792998506
 20
664.6615898790923
 30
0.0
 11
268.7674792998506
 21
614.1615898790923
 31
0.0
  0
LINE
  5
51C
102
{ACAD_REACTORS
330
6A6
102
}
330
1F
100
AcDbEntity
  8
実線
100
AcDbLine
 10
316.9674792998506
 20
593.1828380032292
 30
0.0
 11
316.9674792998506
 21
574.511589879092
 31
0.0
  0
LINE
  5
51D
102
{ACAD_REACTORS
330
6A6
102
}
330
1F
100
AcDbEntity
  8
実線
100
AcDbLine
 10
316.9674792998506
 20
704.3115898790921
 30
0.0
 11
316.9674792998506
 21
685.640341754952
 31
0.0
  0
LINE
  5
51E
102
{ACAD_REACTORS
330
6A6
102
}
330
1F
100
AcDbEntity
  8
実線
100
AcDbLine
 10
355.0674792998507
 20
685.6403417549532
 30
0.0
 11
355.0674792998507
 21
704.3115898790921
 31
0.0
  0
LINE
  5
51F
102
{ACAD_REACTORS
330
6A6
102
}
330
1F
100
AcDbEntity
  8
実線
100
AcDbLine
 10
355.0674792998507
 20
574.511589879092
 30
0.0
 11
355.0674792998507
 21
593.1828380032292
 31
0.0
  0
LINE
  5
520
102
{ACAD_REACTORS
330
6A6
102
}
330
1F
100
AcDbEntity
  8
実線
100
AcDbLine
 10
310.7674792998506
 20
709.4115898790922
 30
0.0
 11
310.7674792998506
 21
706.6615898790923
 31
0.0
  0
LINE
  5
521
102
{ACAD_REACTORS
330
6A6
102
}
330
1F
100
AcDbEntity
  8
実線
100
AcDbLine
 10
361.2674792998506
 20
706.6615898790923
 30
0.0
 11
361.2674792998506
 21
709.4115898790922
 31
0.0
  0
LINE
  5
522
102
{ACAD_REACTORS
330
6A6
102
}
330
1F
100
AcDbEntity
  8
実線
100
AcDbLine
 10
361.2674792998506
 20
709.4115898790922
 30
0.0
 11
310.7674792998506
 21
709.4115898790922
 31
0.0
  0
LINE
  5
523
102
{ACAD_REACTORS
330
6A6
102
}
330
1F
100
AcDbEntity
  8
実線
100
AcDbLine
 10
355.0674792998507
 20
704.3115898790921
 30
0.0
 11
361.2674792998506
 21
706.6615898790923
 31
0.0
  0
LINE
  5
524
102
{ACAD_REACTORS
330
6A6
102
}
330
1F
100
AcDbEntity
  8
実線
100
AcDbLine
 10
310.7674792998506
 20
706.6615898790923
 30
0.0
 11
316.9674792998506
 21
704.3115898790921
 31
0.0
  0
LINE
  5
525
102
{ACAD_REACTORS
330
6A6
102
}
330
1F
100
AcDbEntity
  8
実線
100
AcDbLine
 10
361.2674792998506
 20
706.6615898790923
 30
0.0
 11
310.7674792998506
 21
706.6615898790923
 31
0.0
  0
LINE
  5
526
102
{ACAD_REACTORS
330
6A6
102
}
330
1F
100
AcDbEntity
  8
実線
100
AcDbLine
 10
355.0674792998507
 20
704.3115898790921
 30
0.0
 11
316.9674792998506
 21
704.3115898790921
 31
0.0
  0
LINE
  5
527
102
{ACAD_REACTORS
330
6A6
102
}
330
1F
100
AcDbEntity
  8
実線
100
AcDbLine
 10
361.2674792998506
 20
569.411589879092
 30
0.0
 11
361.2674792998506
 21
572.161589879092
 31
0.0
  0
LINE
  5
528
102
{ACAD_REACTORS
330
6A6
102
}
330
1F
100
AcDbEntity
  8
実線
100
AcDbLine
 10
310.7674792998506
 20
572.161589879092
 30
0.0
 11
310.7674792998506
 21
569.411589879092
 31
0.0
  0
LINE
  5
529
102
{ACAD_REACTORS
330
6A6
102
}
330
1F
100
AcDbEntity
  8
実線
100
AcDbLine
 10
310.7674792998506
 20
569.411589879092
 30
0.0
 11
361.2674792998506
 21
569.411589879092
 31
0.0
  0
LINE
  5
52A
102
{ACAD_REACTORS
330
6A6
102
}
330
1F
100
AcDbEntity
  8
実線
100
AcDbLine
 10
316.9674792998506
 20
574.511589879092
 30
0.0
 11
310.7674792998506
 21
572.161589879092
 31
0.0
  0
LINE
  5
52B
102
{ACAD_REACTORS
330
6A6
102
}
330
1F
100
AcDbEntity
  8
実線
100
AcDbLine
 10
361.2674792998506
 20
572.161589879092
 30
0.0
 11
355.0674792998507
 21
574.511589879092
 31
0.0
  0
LINE
  5
52C
102
{ACAD_REACTORS
330
6A6
102
}
330
1F
100
AcDbEntity
  8
実線
100
AcDbLine
 10
310.7674792998506
 20
572.161589879092
 30
0.0
 11
361.2674792998506
 21
572.161589879092
 31
0.0
  0
LINE
  5
52D
102
{ACAD_REACTORS
330
6A6
102
}
330
1F
100
AcDbEntity
  8
実線
100
AcDbLine
 10
316.9674792998506
 20
574.511589879092
 30
0.0
 11
355.0674792998507
 21
574.511589879092
 31
0.0
  0
LINE
  5
52E
102
{ACAD_REACTORS
330
6A6
102
}
330
1F
100
AcDbEntity
  8
実線
100
AcDbLine
 10
293.9797212197836
 20
612.3408142049121
 30
0.0
 11
290.4870931766554
 21
607.352824426827
 31
0.0
  0
ARC
  5
52F
102
{ACAD_REACTORS
330
6A6
102
}
330
1F
100
AcDbEntity
  8
実線
100
AcDbCircle
 10
297.0403095309677
 20
602.7642129360191
 30
0.0
 40
7.999999999999996
100
AcDbArc
 50
145.0000000000026
 51
223.235426257111
  0
ARC
  5
530
102
{ACAD_REACTORS
330
6A6
102
}
330
1F
100
AcDbEntity
  8
実線
100
AcDbCircle
 10
336.0174792998515
 20
639.4115898790911
 30
0.0
 40
61.50000000000008
100
AcDbArc
 50
223.235426257111
 51
226.764573742889
  0
ARC
  5
531
102
{ACAD_REACTORS
330
6A6
102
}
330
1F
100
AcDbEntity
  8
実線
100
AcDbCircle
 10
299.3701023567794
 20
600.4344201102072
 30
0.0
 40
8.000000000000021
100
AcDbArc
 50
226.764573742889
 51
304.9999999999974
  0
LINE
  5
532
102
{ACAD_REACTORS
330
6A6
102
}
330
1F
100
AcDbEntity
  8
実線
100
AcDbLine
 10
308.9467036256726
 20
681.4493479591591
 30
0.0
 11
303.9587138475878
 21
684.9419760022872
 31
0.0
  0
ARC
  5
533
102
{ACAD_REACTORS
330
6A6
102
}
330
1F
100
AcDbEntity
  8
実線
100
AcDbCircle
 10
299.3701023567794
 20
678.3887596479752
 30
0.0
 40
8.000000000000008
100
AcDbArc
 50
55.00000000000264
 51
133.235426257111
  0
ARC
  5
534
102
{ACAD_REACTORS
330
6A6
102
}
330
1F
100
AcDbEntity
  8
実線
100
AcDbCircle
 10
336.0174792998522
 20
639.4115898790902
 30
0.0
 40
61.50000000000114
100
AcDbArc
 50
133.235426257111
 51
136.764573742889
  0
ARC
  5
535
102
{ACAD_REACTORS
330
6A6
102
}
330
1F
100
AcDbEntity
  8
実線
100
AcDbCircle
 10
297.0403095309677
 20
676.0589668221631
 30
0.0
 40
8.000000000000008
100
AcDbArc
 50
136.764573742889
 51
214.9999999999974
  0
LINE
  5
536
102
{ACAD_REACTORS
330
6A6
102
}
330
1F
100
AcDbEntity
  8
実線
100
AcDbLine
 10
290.4870931766554
 20
671.4703553313544
 30
0.0
 11
293.9797212197836
 21
666.4823655532701
 31
0.0
  0
LINE
  5
537
102
{ACAD_REACTORS
330
6A6
102
}
330
1F
100
AcDbEntity
  8
実線
100
AcDbLine
 10
381.5478654230473
 20
607.352824426827
 30
0.0
 11
378.0552373799192
 21
612.3408142049121
 31
0.0
  0
LINE
  5
538
102
{ACAD_REACTORS
330
6A6
102
}
330
1F
100
AcDbEntity
  8
実線
100
AcDbLine
 10
378.0552373799192
 20
666.4823655532701
 30
0.0
 11
381.5478654230473
 21
671.4703553313544
 31
0.0
  0
ARC
  5
539
102
{ACAD_REACTORS
330
6A6
102
}
330
1F
100
AcDbEntity
  8
実線
100
AcDbCircle
 10
374.994649068735
 20
676.0589668221631
 30
0.0
 40
7.999999999999995
100
AcDbArc
 50
325.0000000000026
 51
43.23542625711097
  0
ARC
  5
53A
102
{ACAD_REACTORS
330
6A6
102
}
330
1F
100
AcDbEntity
  8
実線
100
AcDbCircle
 10
336.0174792998514
 20
639.4115898790911
 30
0.0
 40
61.50000000000009
100
AcDbArc
 50
43.23542625711097
 51
46.764573742889
  0
ARC
  5
53B
102
{ACAD_REACTORS
330
6A6
102
}
330
1F
100
AcDbEntity
  8
実線
100
AcDbCircle
 10
372.6648562429233
 20
678.3887596479752
 30
0.0
 40
8.000000000000008
100
AcDbArc
 50
46.764573742889
 51
124.9999999999974
  0
LINE
  5
53C
102
{ACAD_REACTORS
330
6A6
102
}
330
1F
100
AcDbEntity
  8
実線
100
AcDbLine
 10
368.076244752115
 20
684.9419760022872
 30
0.0
 11
363.0882549740302
 21
681.4493479591591
 31
0.0
  0
LINE
  5
53D
102
{ACAD_REACTORS
330
6A6
102
}
330
1F
100
AcDbEntity
  8
実線
100
AcDbLine
 10
303.9587138475878
 20
593.8812037558952
 30
0.0
 11
308.9467036256726
 21
597.3738317990231
 31
0.0
  0
LINE
  5
53E
102
{ACAD_REACTORS
330
6A6
102
}
330
1F
100
AcDbEntity
  8
実線
100
AcDbLine
 10
363.0882549740302
 20
597.3738317990231
 30
0.0
 11
368.076244752115
 21
593.8812037558952
 31
0.0
  0
ARC
  5
53F
102
{ACAD_REACTORS
330
6A6
102
}
330
1F
100
AcDbEntity
  8
実線
100
AcDbCircle
 10
372.6648562429233
 20
600.4344201102072
 30
0.0
 40
7.999999999999986
100
AcDbArc
 50
235.0000000000026
 51
313.235426257111
  0
ARC
  5
540
102
{ACAD_REACTORS
330
6A6
102
}
330
1F
100
AcDbEntity
  8
実線
100
AcDbCircle
 10
336.0174792998522
 20
639.4115898790902
 30
0.0
 40
61.49999999999885
100
AcDbArc
 50
313.235426257111
 51
316.764573742889
  0
ARC
  5
541
102
{ACAD_REACTORS
330
6A6
102
}
330
1F
100
AcDbEntity
  8
実線
100
AcDbCircle
 10
374.994649068735
 20
602.7642129360191
 30
0.0
 40
8.000000000000023
100
AcDbArc
 50
316.7645737428844
 51
34.99999999999737
  0
CIRCLE
  5
542
102
{ACAD_REACTORS
330
6A6
102
}
330
1F
100
AcDbEntity
  8
実線
100
AcDbCircle
 10
336.0174792998514
 20
639.4115898790911
 30
0.0
 40
50.0
  0
ARC
  5
545
102
{ACAD_REACTORS
330
6A1
102
}
330
1F
100
AcDbEntity
  8
実線
100
AcDbCircle
 10
336.0174792998514
 20
99.41158987909176
 30
0.0
 40
50.0
100
AcDbArc
 50
112.3956387194863
 51
122.7800510628626
  0
ARC
  5
546
102
{ACAD_REACTORS
330
6A1
102
}
330
1F
100
AcDbEntity
  8
実線
100
AcDbCircle
 10
336.0174792998514
 20
99.41158987909176
 30
0.0
 40
50.0
100
AcDbArc
 50
147.2199489371374
 51
157.6043612805137
  0
ARC
  5
547
102
{ACAD_REACTORS
330
6A1
102
}
330
1F
100
AcDbEntity
  8
実線
100
AcDbCircle
 10
336.0174792998514
 20
99.41158987909176
 30
0.0
 40
50.0
100
AcDbArc
 50
202.3956387194863
 51
212.7800510628626
  0
ARC
  5
548
102
{ACAD_REACTORS
330
6A1
102
}
330
1F
100
AcDbEntity
  8
実線
100
AcDbCircle
 10
336.0174792998514
 20
99.41158987909176
 30
0.0
 40
50.0
100
AcDbArc
 50
237.2199489371374
 51
247.6043612805137
  0
ARC
  5
549
102
{ACAD_REACTORS
330
6A1
102
}
330
1F
100
AcDbEntity
  8
実線
100
AcDbCircle
 10
336.0174792998514
 20
99.41158987909176
 30
0.0
 40
50.0
100
AcDbArc
 50
292.3956387194863
 51
302.7800510628626
  0
ARC
  5
54A
102
{ACAD_REACTORS
330
6A1
102
}
330
1F
100
AcDbEntity
  8
実線
100
AcDbCircle
 10
336.0174792998514
 20
99.41158987909176
 30
0.0
 40
50.0
100
AcDbArc
 50
327.2199489371374
 51
337.6043612805137
  0
ARC
  5
54B
102
{ACAD_REACTORS
330
6A1
102
}
330
1F
100
AcDbEntity
  8
実線
100
AcDbCircle
 10
336.0174792998514
 20
99.41158987909176
 30
0.0
 40
50.0
100
AcDbArc
 50
22.39563871948627
 51
32.78005106286261
  0
ARC
  5
54C
102
{ACAD_REACTORS
330
6A1
102
}
330
1F
100
AcDbEntity
  8
実線
100
AcDbCircle
 10
336.0174792998514
 20
99.41158987909176
 30
0.0
 40
50.0
100
AcDbArc
 50
57.2199489371374
 51
67.60436128051373
  0
LINE
  5
54D
102
{ACAD_REACTORS
330
6A1
102
}
330
1F
100
AcDbEntity
  8
実線
100
AcDbLine
 10
400.9174792998506
 20
118.461589879091
 30
0.0
 11
371.1898761473785
 21
118.461589879091
 31
0.0
  0
LINE
  5
54E
102
{ACAD_REACTORS
330
6A1
102
}
330
1F
100
AcDbEntity
  8
実線
100
AcDbLine
 10
371.1898761473785
 20
80.361589879091
 30
0.0
 11
400.9174792998506
 21
80.361589879091
 31
0.0
  0
LINE
  5
54F
102
{ACAD_REACTORS
330
6A1
102
}
330
1F
100
AcDbEntity
  8
実線
100
AcDbLine
 10
400.9174792998506
 20
118.461589879091
 30
0.0
 11
400.9174792998506
 21
80.361589879091
 31
0.0
  0
LINE
  5
550
102
{ACAD_REACTORS
330
6A1
102
}
330
1F
100
AcDbEntity
  8
実線
100
AcDbLine
 10
400.9174792998506
 20
80.361589879091
 30
0.0
 11
403.2674792998506
 21
74.16158987909097
 31
0.0
  0
LINE
  5
551
102
{ACAD_REACTORS
330
6A1
102
}
330
1F
100
AcDbEntity
  8
実線
100
AcDbLine
 10
403.2674792998506
 20
124.6615898790908
 30
0.0
 11
400.9174792998506
 21
118.461589879091
 31
0.0
  0
LINE
  5
552
102
{ACAD_REACTORS
330
6A1
102
}
330
1F
100
AcDbEntity
  8
実線
100
AcDbLine
 10
406.0174792998504
 20
124.661589879091
 30
0.0
 11
406.0174792998504
 21
74.16158987909097
 31
0.0
  0
LINE
  5
553
102
{ACAD_REACTORS
330
6A1
102
}
330
1F
100
AcDbEntity
  8
実線
100
AcDbLine
 10
403.2674792998506
 20
124.661589879091
 30
0.0
 11
403.2674792998506
 21
74.16158987909097
 31
0.0
  0
LINE
  5
554
102
{ACAD_REACTORS
330
6A1
102
}
330
1F
100
AcDbEntity
  8
実線
100
AcDbLine
 10
406.0174792998504
 20
124.661589879091
 30
0.0
 11
403.2674792998506
 21
124.661589879091
 31
0.0
  0
LINE
  5
555
102
{ACAD_REACTORS
330
6A1
102
}
330
1F
100
AcDbEntity
  8
実線
100
AcDbLine
 10
403.2674792998506
 20
74.16158987909097
 30
0.0
 11
406.0174792998504
 21
74.16158987909097
 31
0.0
  0
LINE
  5
556
102
{ACAD_REACTORS
330
6A1
102
}
330
1F
100
AcDbEntity
  8
実線
100
AcDbLine
 10
271.1174792998506
 20
80.361589879091
 30
0.0
 11
300.8450824523225
 21
80.361589879091
 31
0.0
  0
LINE
  5
557
102
{ACAD_REACTORS
330
6A1
102
}
330
1F
100
AcDbEntity
  8
実線
100
AcDbLine
 10
300.8450824523225
 20
118.461589879091
 30
0.0
 11
271.1174792998506
 21
118.461589879091
 31
0.0
  0
LINE
  5
558
102
{ACAD_REACTORS
330
6A1
102
}
330
1F
100
AcDbEntity
  8
実線
100
AcDbLine
 10
266.0174792998506
 20
74.16158987909097
 30
0.0
 11
266.0174792998506
 21
124.661589879091
 31
0.0
  0
LINE
  5
559
102
{ACAD_REACTORS
330
6A1
102
}
330
1F
100
AcDbEntity
  8
実線
100
AcDbLine
 10
266.0174792998506
 20
74.16158987909097
 30
0.0
 11
268.7674792998506
 21
74.16158987909097
 31
0.0
  0
LINE
  5
55A
102
{ACAD_REACTORS
330
6A1
102
}
330
1F
100
AcDbEntity
  8
実線
100
AcDbLine
 10
268.7674792998506
 20
124.661589879091
 30
0.0
 11
266.0174792998506
 21
124.661589879091
 31
0.0
  0
LINE
  5
55B
102
{ACAD_REACTORS
330
6A1
102
}
330
1F
100
AcDbEntity
  8
実線
100
AcDbLine
 10
268.7674792998506
 20
74.16158987909097
 30
0.0
 11
268.7674792998506
 21
124.661589879091
 31
0.0
  0
LINE
  5
55C
102
{ACAD_REACTORS
330
6A1
102
}
330
1F
100
AcDbEntity
  8
実線
100
AcDbLine
 10
271.1174792998506
 20
80.361589879091
 30
0.0
 11
271.1174792998506
 21
118.461589879091
 31
0.0
  0
LINE
  5
55D
102
{ACAD_REACTORS
330
6A1
102
}
330
1F
100
AcDbEntity
  8
実線
100
AcDbLine
 10
271.1174792998506
 20
118.461589879091
 30
0.0
 11
268.7674792998506
 21
124.661589879091
 31
0.0
  0
LINE
  5
55E
102
{ACAD_REACTORS
330
6A1
102
}
330
1F
100
AcDbEntity
  8
実線
100
AcDbLine
 10
268.7674792998506
 20
74.16158987909097
 30
0.0
 11
271.1174792998506
 21
80.361589879091
 31
0.0
  0
LINE
  5
55F
102
{ACAD_REACTORS
330
6A1
102
}
330
1F
100
AcDbEntity
  8
実線
100
AcDbLine
 10
290.4870931766546
 20
67.35282442682732
 30
0.0
 11
299.5959288091317
 21
80.361589879091
 31
0.0
  0
LINE
  5
560
102
{ACAD_REACTORS
330
6A1
102
}
330
1F
100
AcDbEntity
  8
実線
100
AcDbLine
 10
316.9674792998506
 20
62.99003938837228
 30
0.0
 11
303.958713847587
 21
53.88120375589522
 31
0.0
  0
ARC
  5
561
102
{ACAD_REACTORS
330
6A1
102
}
330
1F
100
AcDbEntity
  8
実線
100
AcDbCircle
 10
299.3701023567787
 20
60.4344201102072
 30
0.0
 40
8.000000000000008
100
AcDbArc
 50
226.7645737428889
 51
304.9999999999974
  0
ARC
  5
562
102
{ACAD_REACTORS
330
6A1
102
}
330
1F
100
AcDbEntity
  8
実線
100
AcDbCircle
 10
297.0403095309667
 20
62.76421293601897
 30
0.0
 40
8.000000000000008
100
AcDbArc
 50
145.0000000000026
 51
223.235426257111
  0
ARC
  5
563
102
{ACAD_REACTORS
330
6A1
102
}
330
1F
100
AcDbEntity
  8
実線
100
AcDbCircle
 10
336.0174792998514
 20
99.41158987909172
 30
0.0
 40
61.50000000000114
100
AcDbArc
 50
223.235426257111
 51
226.7645737428889
  0
LINE
  5
564
102
{ACAD_REACTORS
330
6A1
102
}
330
1F
100
AcDbEntity
  8
実線
100
AcDbLine
 10
381.5478654230465
 20
131.4703553313546
 30
0.0
 11
372.4390297905693
 21
118.461589879091
 31
0.0
  0
LINE
  5
565
102
{ACAD_REACTORS
330
6A1
102
}
330
1F
100
AcDbEntity
  8
実線
100
AcDbLine
 10
355.0674792998507
 20
135.8331403698098
 30
0.0
 11
368.0762447521141
 21
144.9419760022868
 31
0.0
  0
ARC
  5
566
102
{ACAD_REACTORS
330
6A1
102
}
330
1F
100
AcDbEntity
  8
実線
100
AcDbCircle
 10
374.9946490687344
 20
136.0589668221629
 30
0.0
 40
8.000000000000023
100
AcDbArc
 50
325.0000000000026
 51
43.23542625711558
  0
ARC
  5
567
102
{ACAD_REACTORS
330
6A1
102
}
330
1F
100
AcDbEntity
  8
実線
100
AcDbCircle
 10
336.0174792998514
 20
99.41158987909176
 30
0.0
 40
61.49999999999885
100
AcDbArc
 50
43.23542625711097
 51
46.76457374288901
  0
ARC
  5
568
102
{ACAD_REACTORS
330
6A1
102
}
330
1F
100
AcDbEntity
  8
実線
100
AcDbCircle
 10
372.6648562429225
 20
138.3887596479748
 30
0.0
 40
7.999999999999986
100
AcDbArc
 50
46.76457374288901
 51
124.9999999999974
  0
ARC
  5
569
102
{ACAD_REACTORS
330
6A1
102
}
330
1F
100
AcDbEntity
  8
実線
100
AcDbCircle
 10
297.0403095309667
 20
136.0589668221629
 30
0.0
 40
7.999999999999996
100
AcDbArc
 50
136.764573742889
 51
214.9999999999974
  0
ARC
  5
56A
102
{ACAD_REACTORS
330
6A1
102
}
330
1F
100
AcDbEntity
  8
実線
100
AcDbCircle
 10
336.0174792998508
 20
99.41158987909119
 30
0.0
 40
61.50000000000008
100
AcDbArc
 50
133.235426257111
 51
136.764573742889
  0
ARC
  5
56B
102
{ACAD_REACTORS
330
6A1
102
}
330
1F
100
AcDbEntity
  8
実線
100
AcDbCircle
 10
299.3701023567787
 20
138.3887596479748
 30
0.0
 40
8.000000000000021
100
AcDbArc
 50
55.00000000000263
 51
133.235426257111
  0
LINE
  5
56C
102
{ACAD_REACTORS
330
6A1
102
}
330
1F
100
AcDbEntity
  8
実線
100
AcDbLine
 10
303.958713847587
 20
144.9419760022868
 30
0.0
 11
316.9674792998506
 21
135.8331403698096
 31
0.0
  0
LINE
  5
56D
102
{ACAD_REACTORS
330
6A1
102
}
330
1F
100
AcDbEntity
  8
実線
100
AcDbLine
 10
299.5959288091317
 20
118.461589879091
 30
0.0
 11
290.4870931766546
 21
131.4703553313546
 31
0.0
  0
LINE
  5
56E
102
{ACAD_REACTORS
330
6A1
102
}
330
1F
100
AcDbEntity
  8
実線
100
AcDbLine
 10
368.0762447521141
 20
53.88120375589522
 30
0.0
 11
355.0674792998507
 21
62.99003938837228
 31
0.0
  0
ARC
  5
56F
102
{ACAD_REACTORS
330
6A1
102
}
330
1F
100
AcDbEntity
  8
実線
100
AcDbCircle
 10
372.6648562429225
 20
60.4344201102072
 30
0.0
 40
8.000000000000008
100
AcDbArc
 50
235.0000000000026
 51
313.235426257111
  0
ARC
  5
570
102
{ACAD_REACTORS
330
6A1
102
}
330
1F
100
AcDbEntity
  8
実線
100
AcDbCircle
 10
336.0174792998506
 20
99.41158987909119
 30
0.0
 40
61.50000000000009
100
AcDbArc
 50
313.235426257111
 51
316.7645737428844
  0
ARC
  5
571
102
{ACAD_REACTORS
330
6A1
102
}
330
1F
100
AcDbEntity
  8
実線
100
AcDbCircle
 10
374.9946490687346
 20
62.76421293601897
 30
0.0
 40
7.999999999999995
100
AcDbArc
 50
316.764573742889
 51
34.99999999999737
  0
LINE
  5
572
102
{ACAD_REACTORS
330
6A1
102
}
330
1F
100
AcDbEntity
  8
実線
100
AcDbLine
 10
372.4390297905693
 20
80.361589879091
 30
0.0
 11
381.5478654230465
 21
67.35282442682732
 31
0.0
  0
ARC
  5
573
102
{ACAD_REACTORS
330
6A1
102
}
330
1F
100
AcDbEntity
  8
実線
100
AcDbCircle
 10
336.0174792998506
 20
99.41158987909096
 30
0.0
 40
40.0
100
AcDbArc
 50
118.4407686454636
 51
241.5592313545364
  0
ARC
  5
574
102
{ACAD_REACTORS
330
6A1
102
}
330
1F
100
AcDbEntity
  8
実線
100
AcDbCircle
 10
336.0174792998506
 20
99.41158987909096
 30
0.0
 40
40.0
100
AcDbArc
 50
298.4407686454637
 51
61.5592313545364
  0
LINE
  5
575
102
{ACAD_REACTORS
330
6A1
102
}
330
1F
100
AcDbEntity
  8
実線
100
AcDbLine
 10
355.0674792998507
 20
121.431458294448
 30
0.0
 11
355.0674792998507
 21
164.3115898790909
 31
0.0
  0
LINE
  5
576
102
{ACAD_REACTORS
330
6A1
102
}
330
1F
100
AcDbEntity
  8
実線
100
AcDbLine
 10
355.0674792998507
 20
34.511589879091
 30
0.0
 11
355.0674792998507
 21
77.39172146373396
 31
0.0
  0
LINE
  5
577
102
{ACAD_REACTORS
330
6A1
102
}
330
1F
100
AcDbEntity
  8
実線
100
AcDbLine
 10
316.9674792998506
 20
77.39172146373396
 30
0.0
 11
316.9674792998506
 21
34.511589879091
 31
0.0
  0
LINE
  5
578
102
{ACAD_REACTORS
330
6A1
102
}
330
1F
100
AcDbEntity
  8
実線
100
AcDbLine
 10
316.9674792998506
 20
164.3115898790909
 30
0.0
 11
316.9674792998506
 21
121.431458294448
 31
0.0
  0
LINE
  5
579
102
{ACAD_REACTORS
330
6A1
102
}
330
1F
100
AcDbEntity
  8
実線
100
AcDbLine
 10
316.9674792998506
 20
164.3115898790909
 30
0.0
 11
355.0674792998507
 21
164.3115898790909
 31
0.0
  0
LINE
  5
57A
102
{ACAD_REACTORS
330
6A1
102
}
330
1F
100
AcDbEntity
  8
実線
100
AcDbLine
 10
355.0674792998507
 20
164.3115898790909
 30
0.0
 11
361.2674792998506
 21
166.661589879091
 31
0.0
  0
LINE
  5
57B
102
{ACAD_REACTORS
330
6A1
102
}
330
1F
100
AcDbEntity
  8
実線
100
AcDbLine
 10
310.7674792998506
 20
166.661589879091
 30
0.0
 11
316.9674792998506
 21
164.3115898790909
 31
0.0
  0
LINE
  5
57C
102
{ACAD_REACTORS
330
6A1
102
}
330
1F
100
AcDbEntity
  8
実線
100
AcDbLine
 10
361.2674792998506
 20
29.41158987909096
 30
0.0
 11
310.7674792998506
 21
29.41158987909096
 31
0.0
  0
LINE
  5
57D
102
{ACAD_REACTORS
330
6A1
102
}
330
1F
100
AcDbEntity
  8
実線
100
AcDbLine
 10
361.2674792998506
 20
29.41158987909096
 30
0.0
 11
361.2674792998506
 21
32.16158987909097
 31
0.0
  0
LINE
  5
57E
102
{ACAD_REACTORS
330
6A1
102
}
330
1F
100
AcDbEntity
  8
実線
100
AcDbLine
 10
310.7674792998506
 20
32.16158987909097
 30
0.0
 11
310.7674792998506
 21
29.41158987909096
 31
0.0
  0
LINE
  5
57F
102
{ACAD_REACTORS
330
6A1
102
}
330
1F
100
AcDbEntity
  8
実線
100
AcDbLine
 10
361.2674792998506
 20
32.16158987909097
 30
0.0
 11
310.7674792998506
 21
32.16158987909097
 31
0.0
  0
LINE
  5
580
102
{ACAD_REACTORS
330
6A1
102
}
330
1F
100
AcDbEntity
  8
実線
100
AcDbLine
 10
355.0674792998507
 20
34.511589879091
 30
0.0
 11
316.9674792998506
 21
34.511589879091
 31
0.0
  0
LINE
  5
581
102
{ACAD_REACTORS
330
6A1
102
}
330
1F
100
AcDbEntity
  8
実線
100
AcDbLine
 10
316.9674792998506
 20
34.511589879091
 30
0.0
 11
310.7674792998506
 21
32.16158987909097
 31
0.0
  0
LINE
  5
582
102
{ACAD_REACTORS
330
6A1
102
}
330
1F
100
AcDbEntity
  8
実線
100
AcDbLine
 10
361.2674792998506
 20
32.16158987909097
 30
0.0
 11
355.0674792998507
 21
34.511589879091
 31
0.0
  0
LINE
  5
583
102
{ACAD_REACTORS
330
6A1
102
}
330
1F
100
AcDbEntity
  8
実線
100
AcDbLine
 10
310.7674792998506
 20
169.411589879091
 30
0.0
 11
361.2674792998506
 21
169.411589879091
 31
0.0
  0
LINE
  5
584
102
{ACAD_REACTORS
330
6A1
102
}
330
1F
100
AcDbEntity
  8
実線
100
AcDbLine
 10
310.7674792998506
 20
166.661589879091
 30
0.0
 11
361.2674792998506
 21
166.661589879091
 31
0.0
  0
LINE
  5
585
102
{ACAD_REACTORS
330
6A1
102
}
330
1F
100
AcDbEntity
  8
実線
100
AcDbLine
 10
310.7674792998506
 20
169.411589879091
 30
0.0
 11
310.7674792998506
 21
166.661589879091
 31
0.0
  0
LINE
  5
586
102
{ACAD_REACTORS
330
6A1
102
}
330
1F
100
AcDbEntity
  8
実線
100
AcDbLine
 10
361.2674792998506
 20
166.661589879091
 30
0.0
 11
361.2674792998506
 21
169.411589879091
 31
0.0
  0
LINE
  5
587
102
{ACAD_REACTORS
330
6A1
102
}
330
1F
100
AcDbEntity
  8
実線
100
AcDbLine
 10
367.3674792998506
 20
76.91158987909107
 30
0.0
 11
356.3674792998506
 21
76.91158987909107
 31
0.0
  0
ARC
  5
588
102
{ACAD_REACTORS
330
6A1
102
}
330
1F
100
AcDbEntity
  8
実線
100
AcDbCircle
 10
367.3674792998506
 20
78.91158987909108
 30
0.0
 40
2.0
100
AcDbArc
 50
270.0
 51
0.0
  0
LINE
  5
589
102
{ACAD_REACTORS
330
6A1
102
}
330
1F
100
AcDbEntity
  8
実線
100
AcDbLine
 10
369.3674792998506
 20
119.9115898790909
 30
0.0
 11
369.3674792998506
 21
78.91158987909108
 31
0.0
  0
ARC
  5
58A
102
{ACAD_REACTORS
330
6A1
102
}
330
1F
100
AcDbEntity
  8
実線
100
AcDbCircle
 10
367.3674792998506
 20
119.9115898790909
 30
0.0
 40
2.0
100
AcDbArc
 50
0.0
 51
90.0
  0
LINE
  5
58B
102
{ACAD_REACTORS
330
6A1
102
}
330
1F
100
AcDbEntity
  8
実線
100
AcDbLine
 10
356.3674792998506
 20
121.9115898790909
 30
0.0
 11
367.3674792998506
 21
121.9115898790909
 31
0.0
  0
ARC
  5
58C
102
{ACAD_REACTORS
330
6A1
102
}
330
1F
100
AcDbEntity
  8
実線
100
AcDbCircle
 10
356.3674792998506
 20
119.9115898790909
 30
0.0
 40
2.0
100
AcDbArc
 50
90.0
 51
180.0
  0
LINE
  5
58D
102
{ACAD_REACTORS
330
6A1
102
}
330
1F
100
AcDbEntity
  8
実線
100
AcDbLine
 10
354.3674792998506
 20
78.91158987909108
 30
0.0
 11
354.3674792998506
 21
119.9115898790909
 31
0.0
  0
ARC
  5
58E
102
{ACAD_REACTORS
330
6A1
102
}
330
1F
100
AcDbEntity
  8
実線
100
AcDbCircle
 10
356.3674792998506
 20
78.91158987909108
 30
0.0
 40
2.0
100
AcDbArc
 50
180.0
 51
270.0
  0
LINE
  5
58F
102
{ACAD_REACTORS
330
6A1
102
}
330
1F
100
AcDbEntity
  8
実線
100
AcDbLine
 10
315.6674792998507
 20
76.91158987909107
 30
0.0
 11
304.6674792998507
 21
76.91158987909107
 31
0.0
  0
ARC
  5
590
102
{ACAD_REACTORS
330
6A1
102
}
330
1F
100
AcDbEntity
  8
実線
100
AcDbCircle
 10
315.6674792998507
 20
78.91158987909108
 30
0.0
 40
2.0
100
AcDbArc
 50
270.0
 51
0.0
  0
ARC
  5
591
102
{ACAD_REACTORS
330
6A1
102
}
330
1F
100
AcDbEntity
  8
実線
100
AcDbCircle
 10
315.6674792998507
 20
119.9115898790909
 30
0.0
 40
2.0
100
AcDbArc
 50
0.0
 51
90.0
  0
LINE
  5
592
102
{ACAD_REACTORS
330
6A1
102
}
330
1F
100
AcDbEntity
  8
実線
100
AcDbLine
 10
302.6674792998507
 20
78.91158987909108
 30
0.0
 11
302.6674792998507
 21
119.9115898790909
 31
0.0
  0
ARC
  5
593
102
{ACAD_REACTORS
330
6A1
102
}
330
1F
100
AcDbEntity
  8
実線
100
AcDbCircle
 10
304.6674792998507
 20
119.9115898790909
 30
0.0
 40
2.0
100
AcDbArc
 50
90.0
 51
180.0
  0
ARC
  5
594
102
{ACAD_REACTORS
330
6A1
102
}
330
1F
100
AcDbEntity
  8
実線
100
AcDbCircle
 10
304.6674792998507
 20
78.91158987909108
 30
0.0
 40
2.0
100
AcDbArc
 50
180.0
 51
270.0
  0
LINE
  5
595
102
{ACAD_REACTORS
330
6A1
102
}
330
1F
100
AcDbEntity
  8
実線
100
AcDbLine
 10
317.6674792998507
 20
119.9115898790909
 30
0.0
 11
317.6674792998507
 21
78.91158987909108
 31
0.0
  0
LINE
  5
596
102
{ACAD_REACTORS
330
6A1
102
}
330
1F
100
AcDbEntity
  8
実線
100
AcDbLine
 10
304.6674792998507
 20
121.9115898790909
 30
0.0
 11
315.6674792998507
 21
121.9115898790909
 31
0.0
  0
LINE
  5
597
102
{ACAD_REACTORS
330
6A2
102
}
330
1F
100
AcDbEntity
  8
実線
100
AcDbLine
 10
822.0174792998514
 20
320.8115898790908
 30
0.0
 11
822.0174792998514
 21
347.8115898790908
 31
0.0
  0
LINE
  5
598
102
{ACAD_REACTORS
330
6A2
102
}
330
1F
100
AcDbEntity
  8
実線
100
AcDbLine
 10
810.0174792998503
 20
347.8115898790908
 30
0.0
 11
810.0174792998503
 21
320.8115898790908
 31
0.0
  0
LINE
  5
599
102
{ACAD_REACTORS
330
6A2
102
}
330
1F
100
AcDbEntity
  8
実線
100
AcDbLine
 10
766.0174792998514
 20
467.3115898790906
 30
0.0
 11
866.0174792998514
 21
467.3115898790906
 31
0.0
  0
LINE
  5
59A
102
{ACAD_REACTORS
330
6A2
102
}
330
1F
100
AcDbEntity
  8
実線
100
AcDbLine
 10
866.0174792998514
 20
391.3115898790909
 30
0.0
 11
866.0174792998514
 21
467.3115898790906
 31
0.0
  0
LINE
  5
59B
102
{ACAD_REACTORS
330
6A2
102
}
330
1F
100
AcDbEntity
  8
実線
100
AcDbLine
 10
766.0174792998514
 20
467.3115898790906
 30
0.0
 11
766.0174792998514
 21
391.3115898790909
 31
0.0
  0
LINE
  5
59C
102
{ACAD_REACTORS
330
6A2
102
}
330
1F
100
AcDbEntity
  8
実線
100
AcDbLine
 10
766.0174792998514
 20
391.3115898790909
 30
0.0
 11
866.0174792998514
 21
391.3115898790909
 31
0.0
  0
LINE
  5
59D
102
{ACAD_REACTORS
330
6A2
102
}
330
1F
100
AcDbEntity
  8
実線
100
AcDbLine
 10
781.0174792998503
 20
482.3115898790908
 30
0.0
 11
851.0174792998514
 21
482.3115898790908
 31
0.0
  0
LINE
  5
59E
102
{ACAD_REACTORS
330
6A2
102
}
330
1F
100
AcDbEntity
  8
実線
100
AcDbLine
 10
851.0174792998514
 20
471.8115898790906
 30
0.0
 11
851.0174792998514
 21
482.3115898790908
 31
0.0
  0
LINE
  5
59F
102
{ACAD_REACTORS
330
6A2
102
}
330
1F
100
AcDbEntity
  8
実線
100
AcDbLine
 10
781.0174792998503
 20
482.3115898790908
 30
0.0
 11
781.0174792998503
 21
471.8115898790906
 31
0.0
  0
LINE
  5
5A0
102
{ACAD_REACTORS
330
6A2
102
}
330
1F
100
AcDbEntity
  8
実線
100
AcDbLine
 10
810.0174792998503
 20
510.8115898790908
 30
0.0
 11
822.0174792998514
 21
510.8115898790908
 31
0.0
  0
LINE
  5
5A1
102
{ACAD_REACTORS
330
6A2
102
}
330
1F
100
AcDbEntity
  8
実線
100
AcDbLine
 10
822.0174792998514
 20
482.3115898790908
 30
0.0
 11
822.0174792998514
 21
510.8115898790908
 31
0.0
  0
LINE
  5
5A2
102
{ACAD_REACTORS
330
6A2
102
}
330
1F
100
AcDbEntity
  8
実線
100
AcDbLine
 10
810.0174792998503
 20
510.8115898790908
 30
0.0
 11
810.0174792998503
 21
482.3115898790908
 31
0.0
  0
LINE
  5
5A3
102
{ACAD_REACTORS
330
6A2
102
}
330
1F
100
AcDbEntity
  8
実線
100
AcDbLine
 10
751.1174792998515
 20
260.3615898790908
 30
0.0
 11
776.0174792998514
 21
260.3615898790908
 31
0.0
  0
LINE
  5
5A4
102
{ACAD_REACTORS
330
6A2
102
}
330
1F
100
AcDbEntity
  8
実線
100
AcDbLine
 10
769.0403095309683
 20
298.4615898790908
 30
0.0
 11
751.1174792998515
 21
298.4615898790908
 31
0.0
  0
LINE
  5
5A5
102
{ACAD_REACTORS
330
6A2
102
}
330
1F
100
AcDbEntity
  8
実線
100
AcDbLine
 10
746.0174792998514
 20
254.1615898790908
 30
0.0
 11
748.7674792998523
 21
254.1615898790908
 31
0.0
  0
LINE
  5
5A6
102
{ACAD_REACTORS
330
6A2
102
}
330
1F
100
AcDbEntity
  8
実線
100
AcDbLine
 10
748.7674792998523
 20
304.6615898790907
 30
0.0
 11
746.0174792998514
 21
304.6615898790907
 31
0.0
  0
LINE
  5
5A7
102
{ACAD_REACTORS
330
6A2
102
}
330
1F
100
AcDbEntity
  8
実線
100
AcDbLine
 10
746.0174792998514
 20
254.1615898790908
 30
0.0
 11
746.0174792998514
 21
304.6615898790907
 31
0.0
  0
LINE
  5
5A8
102
{ACAD_REACTORS
330
6A2
102
}
330
1F
100
AcDbEntity
  8
実線
100
AcDbLine
 10
751.1174792998515
 20
298.4615898790908
 30
0.0
 11
748.7674792998523
 21
304.6615898790907
 31
0.0
  0
LINE
  5
5A9
102
{ACAD_REACTORS
330
6A2
102
}
330
1F
100
AcDbEntity
  8
実線
100
AcDbLine
 10
748.7674792998523
 20
254.1615898790909
 30
0.0
 11
751.1174792998515
 21
260.3615898790908
 31
0.0
  0
LINE
  5
5AA
102
{ACAD_REACTORS
330
6A2
102
}
330
1F
100
AcDbEntity
  8
実線
100
AcDbLine
 10
748.7674792998523
 20
304.6615898790907
 30
0.0
 11
748.7674792998523
 21
254.1615898790908
 31
0.0
  0
LINE
  5
5AB
102
{ACAD_REACTORS
330
6A2
102
}
330
1F
100
AcDbEntity
  8
実線
100
AcDbLine
 10
751.1174792998515
 20
298.4615898790908
 30
0.0
 11
751.1174792998515
 21
260.3615898790908
 31
0.0
  0
LINE
  5
5AC
102
{ACAD_REACTORS
330
6A2
102
}
330
1F
100
AcDbEntity
  8
実線
100
AcDbLine
 10
880.9174792998515
 20
298.4615898790908
 30
0.0
 11
862.9946490687355
 21
298.4615898790908
 31
0.0
  0
LINE
  5
5AD
102
{ACAD_REACTORS
330
6A2
102
}
330
1F
100
AcDbEntity
  8
実線
100
AcDbLine
 10
856.0174792998523
 20
260.3615898790908
 30
0.0
 11
880.9174792998515
 21
260.3615898790908
 31
0.0
  0
LINE
  5
5AE
102
{ACAD_REACTORS
330
6A2
102
}
330
1F
100
AcDbEntity
  8
実線
100
AcDbLine
 10
886.0174792998511
 20
254.1615898790908
 30
0.0
 11
886.0174792998511
 21
304.6615898790907
 31
0.0
  0
LINE
  5
5AF
102
{ACAD_REACTORS
330
6A2
102
}
330
1F
100
AcDbEntity
  8
実線
100
AcDbLine
 10
886.0174792998511
 20
304.6615898790907
 30
0.0
 11
883.2674792998512
 21
304.6615898790907
 31
0.0
  0
LINE
  5
5B0
102
{ACAD_REACTORS
330
6A2
102
}
330
1F
100
AcDbEntity
  8
実線
100
AcDbLine
 10
883.2674792998512
 20
254.1615898790908
 30
0.0
 11
886.0174792998511
 21
254.1615898790908
 31
0.0
  0
LINE
  5
5B1
102
{ACAD_REACTORS
330
6A2
102
}
330
1F
100
AcDbEntity
  8
実線
100
AcDbLine
 10
883.2674792998512
 20
254.1615898790908
 30
0.0
 11
883.2674792998512
 21
304.6615898790907
 31
0.0
  0
LINE
  5
5B2
102
{ACAD_REACTORS
330
6A2
102
}
330
1F
100
AcDbEntity
  8
実線
100
AcDbLine
 10
880.9174792998515
 20
260.3615898790908
 30
0.0
 11
880.9174792998515
 21
298.4615898790908
 31
0.0
  0
LINE
  5
5B3
102
{ACAD_REACTORS
330
6A2
102
}
330
1F
100
AcDbEntity
  8
実線
100
AcDbLine
 10
880.9174792998515
 20
260.3615898790908
 30
0.0
 11
883.2674792998512
 21
254.1615898790908
 31
0.0
  0
LINE
  5
5B4
102
{ACAD_REACTORS
330
6A2
102
}
330
1F
100
AcDbEntity
  8
実線
100
AcDbLine
 10
883.2674792998512
 20
304.6615898790907
 30
0.0
 11
880.9174792998515
 21
298.4615898790908
 31
0.0
  0
LINE
  5
5B5
102
{ACAD_REACTORS
330
6A2
102
}
330
1F
100
AcDbEntity
  8
実線
100
AcDbLine
 10
849.3674792998524
 20
250.3864284883393
 30
0.0
 11
854.8477015154464
 21
256.9175030019892
 31
0.0
  0
LINE
  5
5B6
102
{ACAD_REACTORS
330
6A2
102
}
330
1F
100
AcDbEntity
  8
実線
100
AcDbLine
 10
777.1872570842572
 20
256.9175030019892
 30
0.0
 11
782.6674792998515
 21
250.3864284883393
 31
0.0
  0
LINE
  5
5B7
102
{ACAD_REACTORS
330
6A2
102
}
330
1F
100
AcDbEntity
  8
実線
100
AcDbLine
 10
856.0174792998523
 20
260.1314410504218
 30
0.0
 11
856.0174792998523
 21
260.3615898790908
 31
0.0
  0
LINE
  5
5B8
102
{ACAD_REACTORS
330
6A2
102
}
330
1F
100
AcDbEntity
  8
実線
100
AcDbLine
 10
776.0174792998514
 20
260.3615898790908
 30
0.0
 11
776.0174792998514
 21
260.1314410504218
 31
0.0
  0
ARC
  5
5B9
102
{ACAD_REACTORS
330
6A2
102
}
330
1F
100
AcDbEntity
  8
実線
100
AcDbCircle
 10
781.0174792998523
 20
260.1314410504218
 30
0.0
 40
5.0
100
AcDbArc
 50
180.0
 51
220.0000000000001
  0
ARC
  5
5BA
102
{ACAD_REACTORS
330
6A2
102
}
330
1F
100
AcDbEntity
  8
実線
100
AcDbCircle
 10
851.0174792998522
 20
260.1314410504218
 30
0.0
 40
5.0
100
AcDbArc
 50
319.9999999999999
 51
0.0
  0
LINE
  5
5BB
102
{ACAD_REACTORS
330
6A2
102
}
330
1F
100
AcDbEntity
  8
実線
100
AcDbLine
 10
862.9946490687355
 20
297.3115898790908
 30
0.0
 11
834.0463761102752
 21
297.3115898790908
 31
0.0
  0
LINE
  5
5BC
102
{ACAD_REACTORS
330
6A2
102
}
330
1F
100
AcDbEntity
  8
実線
100
AcDbLine
 10
862.9946490687355
 20
297.3115898790908
 30
0.0
 11
862.9946490687355
 21
307.3115898790909
 31
0.0
  0
LINE
  5
5BD
102
{ACAD_REACTORS
330
6A2
102
}
330
1F
100
AcDbEntity
  8
実線
100
AcDbLine
 10
769.0403095309683
 20
307.3115898790909
 30
0.0
 11
769.0403095309683
 21
297.3115898790908
 31
0.0
  0
LINE
  5
5BE
102
{ACAD_REACTORS
330
6A2
102
}
330
1F
100
AcDbEntity
  8
実線
100
AcDbLine
 10
769.0403095309683
 20
297.3115898790908
 30
0.0
 11
797.9885824894271
 21
297.3115898790908
 31
0.0
  0
LINE
  5
5BF
102
{ACAD_REACTORS
330
6A2
102
}
330
1F
100
AcDbEntity
  8
実線
100
AcDbLine
 10
797.9885824894271
 20
307.3115898790909
 30
0.0
 11
797.9885824894271
 21
297.3115898790908
 31
0.0
  0
LINE
  5
5C0
102
{ACAD_REACTORS
330
6A2
102
}
330
1F
100
AcDbEntity
  8
実線
100
AcDbLine
 10
834.0463761102752
 20
307.3115898790909
 30
0.0
 11
834.0463761102752
 21
297.3115898790908
 31
0.0
  0
CIRCLE
  5
5C1
102
{ACAD_REACTORS
330
6A2
102
}
330
1F
100
AcDbEntity
  8
実線
100
AcDbCircle
 10
816.0174792998514
 20
241.4115898790909
 30
0.0
 40
25.25
  0
LINE
  5
5C2
102
{ACAD_REACTORS
330
6A2
102
}
330
1F
100
AcDbEntity
  8
実線
100
AcDbLine
 10
771.7174792998513
 20
391.3115898790909
 30
0.0
 11
771.7174792998513
 21
361.8115898790909
 31
0.0
  0
ARC
  5
5C3
102
{ACAD_REACTORS
330
6A2
102
}
330
1F
100
AcDbEntity
  8
実線
100
AcDbCircle
 10
841.7174792998503
 20
361.8115898790909
 30
0.0
 40
70.00000000000003
100
AcDbArc
 50
180.0
 51
215.8534670634654
  0
ARC
  5
5C4
102
{ACAD_REACTORS
330
6A2
102
}
330
1F
100
AcDbEntity
  8
実線
100
AcDbCircle
 10
839.7174792998503
 20
361.8115898790909
 30
0.0
 40
57.99999999999997
100
AcDbArc
 50
193.9679626746475
 51
224.9829679599013
  0
ARC
  5
5C5
102
{ACAD_REACTORS
330
6A2
102
}
330
1F
100
AcDbEntity
  8
実線
100
AcDbCircle
 10
792.3174792998517
 20
361.8115898790909
 30
0.0
 40
57.99999999999997
100
AcDbArc
 50
315.0170320400941
 51
346.0320373253524
  0
ARC
  5
5C6
102
{ACAD_REACTORS
330
6A2
102
}
330
1F
100
AcDbEntity
  8
実線
100
AcDbCircle
 10
790.3174792998515
 20
361.8115898790909
 30
0.0
 40
70.00000000000003
100
AcDbArc
 50
324.1465329365346
 51
0.0
  0
LINE
  5
5C7
102
{ACAD_REACTORS
330
6A2
102
}
330
1F
100
AcDbEntity
  8
実線
100
AcDbLine
 10
860.3174792998501
 20
391.3115898790909
 30
0.0
 11
860.3174792998501
 21
361.8115898790909
 31
0.0
  0
LINE
  5
5C8
102
{ACAD_REACTORS
330
6A2
102
}
330
1F
100
AcDbEntity
  8
実線
100
AcDbLine
 10
777.6320979678912
 20
347.8115898790908
 30
0.0
 11
854.4028606318113
 21
347.8115898790908
 31
0.0
  0
LINE
  5
5C9
102
{ACAD_REACTORS
330
6A2
102
}
330
1F
100
AcDbEntity
  8
実線
100
AcDbLine
 10
854.4028606318113
 20
391.3115898790909
 30
0.0
 11
854.4028606318113
 21
347.8115898790908
 31
0.0
  0
LINE
  5
5CA
102
{ACAD_REACTORS
330
6A2
102
}
330
1F
100
AcDbEntity
  8
実線
100
AcDbLine
 10
777.6320979678912
 20
391.3115898790909
 30
0.0
 11
777.6320979678912
 21
347.8115898790908
 31
0.0
  0
LINE
  5
5CB
102
{ACAD_REACTORS
330
6A2
102
}
330
1F
100
AcDbEntity
  8
実線
100
AcDbLine
 10
769.0403095309675
 20
320.8115898790908
 30
0.0
 11
862.9946490687355
 21
320.8115898790908
 31
0.0
  0
LINE
  5
5CC
102
{ACAD_REACTORS
330
6A2
102
}
330
1F
100
AcDbEntity
  8
実線
100
AcDbLine
 10
769.0403095309675
 20
307.3115898790909
 30
0.0
 11
862.9946490687355
 21
307.3115898790909
 31
0.0
  0
LINE
  5
5CD
102
{ACAD_REACTORS
330
6A2
102
}
330
1F
100
AcDbEntity
  8
実線
100
AcDbLine
 10
862.9946490687355
 20
307.3115898790909
 30
0.0
 11
862.9946490687355
 21
320.8115898790908
 31
0.0
  0
LINE
  5
5CE
102
{ACAD_REACTORS
330
6A2
102
}
330
1F
100
AcDbEntity
  8
実線
100
AcDbLine
 10
769.0403095309675
 20
320.8115898790908
 30
0.0
 11
769.0403095309675
 21
307.3115898790909
 31
0.0
  0
LINE
  5
5CF
102
{ACAD_REACTORS
330
6A2
102
}
330
1F
100
AcDbEntity
  8
実線
100
AcDbLine
 10
797.9885824894262
 20
320.8115898790908
 30
0.0
 11
797.9885824894262
 21
307.3115898790909
 31
0.0
  0
LINE
  5
5D0
102
{ACAD_REACTORS
330
6A2
102
}
330
1F
100
AcDbEntity
  8
実線
100
AcDbLine
 10
834.0463761102752
 20
320.8115898790908
 30
0.0
 11
834.0463761102752
 21
307.3115898790909
 31
0.0
  0
LINE
  5
5D1
102
{ACAD_REACTORS
330
6A2
102
}
330
1F
100
AcDbEntity
  8
実線
100
AcDbLine
 10
797.6674792998514
 20
220.0615898790908
 30
0.0
 11
782.6674792998515
 21
220.0615898790908
 31
0.0
  0
LINE
  5
5D2
102
{ACAD_REACTORS
330
6A2
102
}
330
1F
100
AcDbEntity
  8
実線
100
AcDbLine
 10
797.6674792998514
 20
224.0668500424718
 30
0.0
 11
797.6674792998514
 21
220.0615898790908
 31
0.0
  0
LINE
  5
5D3
102
{ACAD_REACTORS
330
6A2
102
}
330
1F
100
AcDbEntity
  8
実線
100
AcDbLine
 10
782.6674792998515
 20
220.0615898790908
 30
0.0
 11
782.6674792998515
 21
257.337878535609
 31
0.0
  0
LINE
  5
5D4
102
{ACAD_REACTORS
330
6A2
102
}
330
1F
100
AcDbEntity
  8
実線
100
AcDbLine
 10
866.0174792998514
 20
467.3115898790906
 30
0.0
 11
866.0174792998514
 21
468.8115898790908
 31
0.0
  0
LINE
  5
5D5
102
{ACAD_REACTORS
330
6A2
102
}
330
1F
100
AcDbEntity
  8
実線
100
AcDbLine
 10
766.0174792998514
 20
468.8115898790908
 30
0.0
 11
766.0174792998514
 21
467.3115898790906
 31
0.0
  0
LINE
  5
5D6
102
{ACAD_REACTORS
330
6A2
102
}
330
1F
100
AcDbEntity
  8
実線
100
AcDbLine
 10
769.0174792998512
 20
471.8115898790906
 30
0.0
 11
863.0174792986052
 21
471.8115898790906
 31
0.0
  0
ARC
  5
5D7
102
{ACAD_REACTORS
330
6A2
102
}
330
1F
100
AcDbEntity
  8
実線
100
AcDbCircle
 10
863.0174792998515
 20
468.8115898790908
 30
0.0
 40
3.0
100
AcDbArc
 50
0.0
 51
90.0
  0
ARC
  5
5D8
102
{ACAD_REACTORS
330
6A2
102
}
330
1F
100
AcDbEntity
  8
実線
100
AcDbCircle
 10
769.0174792998512
 20
468.8115898790908
 30
0.0
 40
3.0
100
AcDbArc
 50
90.0
 51
180.0
  0
LINE
  5
5D9
102
{ACAD_REACTORS
330
6A2
102
}
330
1F
100
AcDbEntity
  8
実線
100
AcDbLine
 10
849.3674792998524
 20
220.0615898790908
 30
0.0
 11
834.3674792998514
 21
220.0615898790908
 31
0.0
  0
LINE
  5
5DA
102
{ACAD_REACTORS
330
6A2
102
}
330
1F
100
AcDbEntity
  8
実線
100
AcDbLine
 10
849.3674792998524
 20
257.337878535609
 30
0.0
 11
849.3674792998524
 21
220.0615898790908
 31
0.0
  0
LINE
  5
5DB
102
{ACAD_REACTORS
330
6A2
102
}
330
1F
100
AcDbEntity
  8
実線
100
AcDbLine
 10
834.3674792998514
 20
220.0615898790908
 30
0.0
 11
834.3674792998514
 21
224.0668500424718
 31
0.0
  0
LINE
  5
5DC
102
{ACAD_REACTORS
330
6A3
102
}
330
1F
100
AcDbEntity
  8
実線
100
AcDbLine
 10
626.0174792998517
 20
467.3115898790909
 30
0.0
 11
526.0174792998516
 21
467.3115898790909
 31
0.0
  0
LINE
  5
5DD
102
{ACAD_REACTORS
330
6A3
102
}
330
1F
100
AcDbEntity
  8
実線
100
AcDbLine
 10
526.0174792998516
 20
391.3115898790911
 30
0.0
 11
626.0174792998517
 21
391.3115898790911
 31
0.0
  0
LINE
  5
5DE
102
{ACAD_REACTORS
330
6A3
102
}
330
1F
100
AcDbEntity
  8
実線
100
AcDbLine
 10
626.0174792998517
 20
391.3115898790911
 30
0.0
 11
626.0174792998517
 21
467.3115898790909
 31
0.0
  0
LINE
  5
5DF
102
{ACAD_REACTORS
330
6A3
102
}
330
1F
100
AcDbEntity
  8
実線
100
AcDbLine
 10
526.0174792998516
 20
467.3115898790909
 30
0.0
 11
526.0174792998516
 21
391.3115898790911
 31
0.0
  0
LINE
  5
5E0
102
{ACAD_REACTORS
330
6A3
102
}
330
1F
100
AcDbEntity
  8
実線
100
AcDbLine
 10
611.0174792998517
 20
482.3115898790908
 30
0.0
 11
541.0174792998516
 21
482.3115898790908
 31
0.0
  0
LINE
  5
5E1
102
{ACAD_REACTORS
330
6A3
102
}
330
1F
100
AcDbEntity
  8
実線
100
AcDbLine
 10
611.0174792998517
 20
471.8115898790909
 30
0.0
 11
611.0174792998517
 21
482.3115898790908
 31
0.0
  0
LINE
  5
5E2
102
{ACAD_REACTORS
330
6A3
102
}
330
1F
100
AcDbEntity
  8
実線
100
AcDbLine
 10
541.0174792998516
 20
482.3115898790908
 30
0.0
 11
541.0174792998516
 21
471.8115898790909
 31
0.0
  0
LINE
  5
5E3
102
{ACAD_REACTORS
330
6A3
102
}
330
1F
100
AcDbEntity
  8
実線
100
AcDbLine
 10
582.0174792998517
 20
510.8115898790908
 30
0.0
 11
570.0174792998517
 21
510.8115898790908
 31
0.0
  0
LINE
  5
5E4
102
{ACAD_REACTORS
330
6A3
102
}
330
1F
100
AcDbEntity
  8
実線
100
AcDbLine
 10
582.0174792998517
 20
482.3115898790908
 30
0.0
 11
582.0174792998517
 21
510.8115898790908
 31
0.0
  0
LINE
  5
5E5
102
{ACAD_REACTORS
330
6A3
102
}
330
1F
100
AcDbEntity
  8
実線
100
AcDbLine
 10
570.0174792998517
 20
510.8115898790908
 30
0.0
 11
570.0174792998517
 21
482.3115898790908
 31
0.0
  0
CIRCLE
  5
5E6
102
{ACAD_REACTORS
330
6A3
102
}
330
1F
100
AcDbEntity
  8
実線
100
AcDbCircle
 10
576.0174792998529
 20
279.411589879091
 30
0.0
 40
25.25
  0
LINE
  5
5E7
102
{ACAD_REACTORS
330
6A3
102
}
330
1F
100
AcDbEntity
  8
実線
100
AcDbLine
 10
616.0174792998527
 20
260.4615898790909
 30
0.0
 11
616.0174792998527
 21
297.3115898790909
 31
0.0
  0
LINE
  5
5E8
102
{ACAD_REACTORS
330
6A3
102
}
330
1F
100
AcDbEntity
  8
実線
100
AcDbLine
 10
536.0174792998516
 20
297.3115898790909
 30
0.0
 11
536.0174792998516
 21
260.4615898790909
 31
0.0
  0
LINE
  5
5E9
102
{ACAD_REACTORS
330
6A3
102
}
330
1F
100
AcDbEntity
  8
実線
100
AcDbLine
 10
529.0403095309686
 20
307.311589879091
 30
0.0
 11
529.0403095309686
 21
297.3115898790909
 31
0.0
  0
LINE
  5
5EA
102
{ACAD_REACTORS
330
6A3
102
}
330
1F
100
AcDbEntity
  8
実線
100
AcDbLine
 10
529.0403095309686
 20
297.3115898790909
 30
0.0
 11
557.9885824894278
 21
297.3115898790909
 31
0.0
  0
LINE
  5
5EB
102
{ACAD_REACTORS
330
6A3
102
}
330
1F
100
AcDbEntity
  8
実線
100
AcDbLine
 10
622.9946490687368
 20
297.3115898790909
 30
0.0
 11
594.0463761102757
 21
297.3115898790909
 31
0.0
  0
LINE
  5
5EC
102
{ACAD_REACTORS
330
6A3
102
}
330
1F
100
AcDbEntity
  8
実線
100
AcDbLine
 10
622.9946490687368
 20
297.3115898790909
 30
0.0
 11
622.9946490687368
 21
307.311589879091
 31
0.0
  0
LINE
  5
5ED
102
{ACAD_REACTORS
330
6A3
102
}
330
1F
100
AcDbEntity
  8
実線
100
AcDbLine
 10
557.9885824894278
 20
307.311589879091
 30
0.0
 11
557.9885824894278
 21
297.3115898790909
 31
0.0
  0
LINE
  5
5EE
102
{ACAD_REACTORS
330
6A3
102
}
330
1F
100
AcDbEntity
  8
実線
100
AcDbLine
 10
594.0463761102757
 20
307.311589879091
 30
0.0
 11
594.0463761102757
 21
297.3115898790909
 31
0.0
  0
LINE
  5
5EF
102
{ACAD_REACTORS
330
6A3
102
}
330
1F
100
AcDbEntity
  8
実線
100
AcDbLine
 10
536.0174792998516
 20
260.4615898790909
 30
0.0
 11
511.1174792998528
 21
260.4615898790909
 31
0.0
  0
LINE
  5
5F0
102
{ACAD_REACTORS
330
6A3
102
}
330
1F
100
AcDbEntity
  8
実線
100
AcDbLine
 10
640.9174792998518
 20
260.4615898790909
 30
0.0
 11
616.0174792998527
 21
260.4615898790909
 31
0.0
  0
LINE
  5
5F1
102
{ACAD_REACTORS
330
6A3
102
}
330
1F
100
AcDbEntity
  8
実線
100
AcDbLine
 10
598.5174792998527
 20
222.361589879091
 30
0.0
 11
640.9174792998518
 21
222.361589879091
 31
0.0
  0
LINE
  5
5F2
102
{ACAD_REACTORS
330
6A3
102
}
330
1F
100
AcDbEntity
  8
実線
100
AcDbLine
 10
511.1174792998528
 20
222.361589879091
 30
0.0
 11
553.5174792998516
 21
222.361589879091
 31
0.0
  0
LINE
  5
5F3
102
{ACAD_REACTORS
330
6A3
102
}
330
1F
100
AcDbEntity
  8
実線
100
AcDbLine
 10
640.9174792998518
 20
222.361589879091
 30
0.0
 11
640.9174792998518
 21
260.4615898790909
 31
0.0
  0
LINE
  5
5F4
102
{ACAD_REACTORS
330
6A3
102
}
330
1F
100
AcDbEntity
  8
実線
100
AcDbLine
 10
640.9174792998518
 20
222.361589879091
 30
0.0
 11
643.2674792998527
 21
216.161589879091
 31
0.0
  0
LINE
  5
5F5
102
{ACAD_REACTORS
330
6A3
102
}
330
1F
100
AcDbEntity
  8
実線
100
AcDbLine
 10
643.2674792998527
 20
266.6615898790909
 30
0.0
 11
640.9174792998518
 21
260.4615898790909
 31
0.0
  0
LINE
  5
5F6
102
{ACAD_REACTORS
330
6A3
102
}
330
1F
100
AcDbEntity
  8
実線
100
AcDbLine
 10
511.1174792998528
 20
260.4615898790909
 30
0.0
 11
508.7674792998517
 21
266.6615898790909
 31
0.0
  0
LINE
  5
5F7
102
{ACAD_REACTORS
330
6A3
102
}
330
1F
100
AcDbEntity
  8
実線
100
AcDbLine
 10
508.7674792998517
 20
216.161589879091
 30
0.0
 11
511.1174792998528
 21
222.361589879091
 31
0.0
  0
LINE
  5
5F8
102
{ACAD_REACTORS
330
6A3
102
}
330
1F
100
AcDbEntity
  8
実線
100
AcDbLine
 10
511.1174792998528
 20
260.4615898790909
 30
0.0
 11
511.1174792998528
 21
222.361589879091
 31
0.0
  0
LINE
  5
5F9
102
{ACAD_REACTORS
330
6A3
102
}
330
1F
100
AcDbEntity
  8
実線
100
AcDbLine
 10
646.0174792998527
 20
216.161589879091
 30
0.0
 11
646.0174792998527
 21
266.6615898790909
 31
0.0
  0
LINE
  5
5FA
102
{ACAD_REACTORS
330
6A3
102
}
330
1F
100
AcDbEntity
  8
実線
100
AcDbLine
 10
643.2674792998527
 20
216.161589879091
 30
0.0
 11
643.2674792998527
 21
266.6615898790909
 31
0.0
  0
LINE
  5
5FB
102
{ACAD_REACTORS
330
6A3
102
}
330
1F
100
AcDbEntity
  8
実線
100
AcDbLine
 10
646.0174792998527
 20
266.6615898790909
 30
0.0
 11
643.2674792998527
 21
266.6615898790909
 31
0.0
  0
LINE
  5
5FC
102
{ACAD_REACTORS
330
6A3
102
}
330
1F
100
AcDbEntity
  8
実線
100
AcDbLine
 10
643.2674792998527
 20
216.161589879091
 30
0.0
 11
646.0174792998527
 21
216.161589879091
 31
0.0
  0
LINE
  5
5FD
102
{ACAD_REACTORS
330
6A3
102
}
330
1F
100
AcDbEntity
  8
実線
100
AcDbLine
 10
506.0174792998516
 20
216.161589879091
 30
0.0
 11
508.7674792998517
 21
216.161589879091
 31
0.0
  0
LINE
  5
5FE
102
{ACAD_REACTORS
330
6A3
102
}
330
1F
100
AcDbEntity
  8
実線
100
AcDbLine
 10
508.7674792998517
 20
266.6615898790909
 30
0.0
 11
506.0174792998516
 21
266.6615898790909
 31
0.0
  0
LINE
  5
5FF
102
{ACAD_REACTORS
330
6A3
102
}
330
1F
100
AcDbEntity
  8
実線
100
AcDbLine
 10
506.0174792998516
 20
266.6615898790909
 30
0.0
 11
506.0174792998516
 21
216.161589879091
 31
0.0
  0
LINE
  5
600
102
{ACAD_REACTORS
330
6A3
102
}
330
1F
100
AcDbEntity
  8
実線
100
AcDbLine
 10
508.7674792998517
 20
266.6615898790909
 30
0.0
 11
508.7674792998517
 21
216.161589879091
 31
0.0
  0
LINE
  5
601
102
{ACAD_REACTORS
330
6A3
102
}
330
1F
100
AcDbEntity
  8
実線
100
AcDbLine
 10
536.0174792998516
 20
391.3115898790911
 30
0.0
 11
536.0174792998516
 21
347.8115898790909
 31
0.0
  0
LINE
  5
602
102
{ACAD_REACTORS
330
6A3
102
}
330
1F
100
AcDbEntity
  8
実線
100
AcDbLine
 10
536.0174792998516
 20
347.8115898790909
 30
0.0
 11
564.7674792998517
 21
347.8115898790909
 31
0.0
  0
LINE
  5
603
102
{ACAD_REACTORS
330
6A3
102
}
330
1F
100
AcDbEntity
  8
実線
100
AcDbLine
 10
587.2674792998517
 20
347.8115898790909
 30
0.0
 11
616.0174792998518
 21
347.8115898790909
 31
0.0
  0
LINE
  5
604
102
{ACAD_REACTORS
330
6A3
102
}
330
1F
100
AcDbEntity
  8
実線
100
AcDbLine
 10
616.0174792998518
 20
347.8115898790909
 30
0.0
 11
616.0174792998518
 21
391.3115898790911
 31
0.0
  0
LINE
  5
605
102
{ACAD_REACTORS
330
6A3
102
}
330
1F
100
AcDbEntity
  8
実線
100
AcDbLine
 10
564.7674792998517
 20
391.3115898790911
 30
0.0
 11
564.7674792998517
 21
320.8115898790909
 31
0.0
  0
LINE
  5
606
102
{ACAD_REACTORS
330
6A3
102
}
330
1F
100
AcDbEntity
  8
実線
100
AcDbLine
 10
587.2674792998517
 20
391.3115898790911
 30
0.0
 11
587.2674792998517
 21
320.8115898790909
 31
0.0
  0
LINE
  5
607
102
{ACAD_REACTORS
330
6A3
102
}
330
1F
100
AcDbEntity
  8
実線
100
AcDbLine
 10
622.9946490687357
 20
320.8115898790909
 30
0.0
 11
529.0403095309677
 21
320.8115898790909
 31
0.0
  0
LINE
  5
608
102
{ACAD_REACTORS
330
6A3
102
}
330
1F
100
AcDbEntity
  8
実線
100
AcDbLine
 10
622.9946490687357
 20
307.311589879091
 30
0.0
 11
529.0403095309677
 21
307.311589879091
 31
0.0
  0
LINE
  5
609
102
{ACAD_REACTORS
330
6A3
102
}
330
1F
100
AcDbEntity
  8
実線
100
AcDbLine
 10
529.0403095309677
 20
320.8115898790909
 30
0.0
 11
529.0403095309677
 21
307.311589879091
 31
0.0
  0
LINE
  5
60A
102
{ACAD_REACTORS
330
6A3
102
}
330
1F
100
AcDbEntity
  8
実線
100
AcDbLine
 10
622.9946490687357
 20
307.311589879091
 30
0.0
 11
622.9946490687357
 21
320.8115898790909
 31
0.0
  0
LINE
  5
60B
102
{ACAD_REACTORS
330
6A3
102
}
330
1F
100
AcDbEntity
  8
実線
100
AcDbLine
 10
557.9885824894278
 20
320.8115898790909
 30
0.0
 11
557.9885824894278
 21
307.311589879091
 31
0.0
  0
LINE
  5
60C
102
{ACAD_REACTORS
330
6A3
102
}
330
1F
100
AcDbEntity
  8
実線
100
AcDbLine
 10
594.0463761102757
 20
320.8115898790909
 30
0.0
 11
594.0463761102757
 21
307.311589879091
 31
0.0
  0
LINE
  5
60D
102
{ACAD_REACTORS
330
6A3
102
}
330
1F
100
AcDbEntity
  8
実線
100
AcDbLine
 10
598.5174792998527
 20
220.061589879091
 30
0.0
 11
553.5174792998516
 21
220.061589879091
 31
0.0
  0
LINE
  5
60E
102
{ACAD_REACTORS
330
6A3
102
}
330
1F
100
AcDbEntity
  8
実線
100
AcDbLine
 10
553.5174792998516
 20
220.061589879091
 30
0.0
 11
553.5174792998516
 21
256.6294322735101
 31
0.0
  0
LINE
  5
60F
102
{ACAD_REACTORS
330
6A3
102
}
330
1F
100
AcDbEntity
  8
実線
100
AcDbLine
 10
598.5174792998527
 20
256.6294322735101
 30
0.0
 11
598.5174792998527
 21
220.061589879091
 31
0.0
  0
LINE
  5
610
102
{ACAD_REACTORS
330
6A3
102
}
330
1F
100
AcDbEntity
  8
実線
100
AcDbLine
 10
626.0174792998517
 20
467.3115898790909
 30
0.0
 11
626.0174792998517
 21
468.8115898790909
 31
0.0
  0
LINE
  5
611
102
{ACAD_REACTORS
330
6A3
102
}
330
1F
100
AcDbEntity
  8
実線
100
AcDbLine
 10
526.0174792998516
 20
468.8115898790909
 30
0.0
 11
526.0174792998516
 21
467.3115898790909
 31
0.0
  0
LINE
  5
612
102
{ACAD_REACTORS
330
6A3
102
}
330
1F
100
AcDbEntity
  8
実線
100
AcDbLine
 10
623.0174792998517
 20
471.8115898790909
 30
0.0
 11
529.0174792998516
 21
471.8115898790909
 31
0.0
  0
ARC
  5
613
102
{ACAD_REACTORS
330
6A3
102
}
330
1F
100
AcDbEntity
  8
実線
100
AcDbCircle
 10
623.0174792998517
 20
468.8115898790909
 30
0.0
 40
3.0
100
AcDbArc
 50
0.0
 51
90.0
  0
ARC
  5
614
102
{ACAD_REACTORS
330
6A3
102
}
330
1F
100
AcDbEntity
  8
実線
100
AcDbCircle
 10
529.0174792998516
 20
468.8115898790909
 30
0.0
 40
3.0
100
AcDbArc
 50
90.0
 51
180.0
  0
LINE
  5
615
102
{ACAD_REACTORS
330
6A5
102
}
330
1F
100
AcDbEntity
  8
実線
100
AcDbLine
 10
146.01747929985
 20
391.3115898790908
 30
0.0
 11
146.01747929985
 21
467.3115898790906
 31
0.0
  0
LINE
  5
616
102
{ACAD_REACTORS
330
6A5
102
}
330
1F
100
AcDbEntity
  8
実線
100
AcDbLine
 10
46.01747929985004
 20
467.3115898790906
 30
0.0
 11
46.01747929985004
 21
391.3115898790908
 31
0.0
  0
LINE
  5
617
102
{ACAD_REACTORS
330
6A5
102
}
330
1F
100
AcDbEntity
  8
実線
100
AcDbLine
 10
146.01747929985
 20
467.3115898790906
 30
0.0
 11
46.01747929985004
 21
467.3115898790906
 31
0.0
  0
LINE
  5
618
102
{ACAD_REACTORS
330
6A5
102
}
330
1F
100
AcDbEntity
  8
実線
100
AcDbLine
 10
46.01747929985004
 20
391.3115898790908
 30
0.0
 11
146.01747929985
 21
391.3115898790908
 31
0.0
  0
LINE
  5
619
102
{ACAD_REACTORS
330
6A5
102
}
330
1F
100
AcDbEntity
  8
実線
100
AcDbLine
 10
131.01747929985
 20
471.8115898790906
 30
0.0
 11
131.01747929985
 21
482.3115898790907
 31
0.0
  0
LINE
  5
61A
102
{ACAD_REACTORS
330
6A5
102
}
330
1F
100
AcDbEntity
  8
実線
100
AcDbLine
 10
61.01747929985004
 20
482.3115898790907
 30
0.0
 11
61.01747929985004
 21
471.8115898790906
 31
0.0
  0
LINE
  5
61B
102
{ACAD_REACTORS
330
6A5
102
}
330
1F
100
AcDbEntity
  8
実線
100
AcDbLine
 10
131.01747929985
 20
482.3115898790907
 30
0.0
 11
61.01747929985004
 21
482.3115898790907
 31
0.0
  0
LINE
  5
61C
102
{ACAD_REACTORS
330
6A5
102
}
330
1F
100
AcDbEntity
  8
実線
100
AcDbLine
 10
102.01747929985
 20
482.3115898790907
 30
0.0
 11
102.01747929985
 21
510.8115898790906
 31
0.0
  0
LINE
  5
61D
102
{ACAD_REACTORS
330
6A5
102
}
330
1F
100
AcDbEntity
  8
実線
100
AcDbLine
 10
90.01747929985004
 20
510.8115898790906
 30
0.0
 11
90.01747929985004
 21
482.3115898790907
 31
0.0
  0
LINE
  5
61E
102
{ACAD_REACTORS
330
6A5
102
}
330
1F
100
AcDbEntity
  8
実線
100
AcDbLine
 10
102.01747929985
 20
510.8115898790906
 30
0.0
 11
90.01747929985004
 21
510.8115898790906
 31
0.0
  0
CIRCLE
  5
61F
102
{ACAD_REACTORS
330
6A5
102
}
330
1F
100
AcDbEntity
  8
実線
100
AcDbCircle
 10
96.01747929984918
 20
279.4115898790908
 30
0.0
 40
25.25
  0
LINE
  5
620
102
{ACAD_REACTORS
330
6A5
102
}
330
1F
100
AcDbEntity
  8
実線
100
AcDbLine
 10
136.0174792998491
 20
260.4615898790906
 30
0.0
 11
136.0174792998491
 21
297.3115898790906
 31
0.0
  0
LINE
  5
621
102
{ACAD_REACTORS
330
6A5
102
}
330
1F
100
AcDbEntity
  8
実線
100
AcDbLine
 10
56.01747929984917
 20
297.3115898790906
 30
0.0
 11
56.01747929984917
 21
260.4615898790906
 31
0.0
  0
LINE
  5
622
102
{ACAD_REACTORS
330
6A5
102
}
330
1F
100
AcDbEntity
  8
実線
100
AcDbLine
 10
49.04030953096537
 20
307.3115898790908
 30
0.0
 11
49.04030953096537
 21
297.3115898790906
 31
0.0
  0
LINE
  5
623
102
{ACAD_REACTORS
330
6A5
102
}
330
1F
100
AcDbEntity
  8
実線
100
AcDbLine
 10
49.04030953096537
 20
297.3115898790906
 30
0.0
 11
77.98858248942519
 21
297.3115898790906
 31
0.0
  0
LINE
  5
624
102
{ACAD_REACTORS
330
6A5
102
}
330
1F
100
AcDbEntity
  8
実線
100
AcDbLine
 10
142.9946490687331
 20
297.3115898790906
 30
0.0
 11
114.0463761102731
 21
297.3115898790906
 31
0.0
  0
LINE
  5
625
102
{ACAD_REACTORS
330
6A5
102
}
330
1F
100
AcDbEntity
  8
実線
100
AcDbLine
 10
142.9946490687331
 20
297.3115898790906
 30
0.0
 11
142.9946490687331
 21
307.3115898790908
 31
0.0
  0
LINE
  5
626
102
{ACAD_REACTORS
330
6A5
102
}
330
1F
100
AcDbEntity
  8
実線
100
AcDbLine
 10
77.98858248942519
 20
307.3115898790908
 30
0.0
 11
77.98858248942519
 21
297.3115898790906
 31
0.0
  0
LINE
  5
627
102
{ACAD_REACTORS
330
6A5
102
}
330
1F
100
AcDbEntity
  8
実線
100
AcDbLine
 10
114.0463761102731
 20
307.3115898790908
 30
0.0
 11
114.0463761102731
 21
297.3115898790906
 31
0.0
  0
LINE
  5
628
102
{ACAD_REACTORS
330
6A5
102
}
330
1F
100
AcDbEntity
  8
実線
100
AcDbLine
 10
118.5174792998492
 20
222.3615898790908
 30
0.0
 11
160.9174792998493
 21
222.3615898790908
 31
0.0
  0
LINE
  5
629
102
{ACAD_REACTORS
330
6A5
102
}
330
1F
100
AcDbEntity
  8
実線
100
AcDbLine
 10
31.11747929984915
 20
222.3615898790908
 30
0.0
 11
73.51747929984918
 21
222.3615898790908
 31
0.0
  0
LINE
  5
62A
102
{ACAD_REACTORS
330
6A5
102
}
330
1F
100
AcDbEntity
  8
実線
100
AcDbLine
 10
56.01747929984917
 20
260.4615898790906
 30
0.0
 11
31.11747929984915
 21
260.4615898790906
 31
0.0
  0
LINE
  5
62B
102
{ACAD_REACTORS
330
6A5
102
}
330
1F
100
AcDbEntity
  8
実線
100
AcDbLine
 10
160.9174792998493
 20
260.4615898790906
 30
0.0
 11
136.0174792998491
 21
260.4615898790906
 31
0.0
  0
LINE
  5
62C
102
{ACAD_REACTORS
330
6A5
102
}
330
1F
100
AcDbEntity
  8
実線
100
AcDbLine
 10
160.9174792998493
 20
222.3615898790908
 30
0.0
 11
160.9174792998493
 21
260.4615898790906
 31
0.0
  0
LINE
  5
62D
102
{ACAD_REACTORS
330
6A5
102
}
330
1F
100
AcDbEntity
  8
実線
100
AcDbLine
 10
160.9174792998493
 20
222.3615898790908
 30
0.0
 11
163.2674792998492
 21
216.1615898790908
 31
0.0
  0
LINE
  5
62E
102
{ACAD_REACTORS
330
6A5
102
}
330
1F
100
AcDbEntity
  8
実線
100
AcDbLine
 10
163.2674792998492
 20
266.6615898790907
 30
0.0
 11
160.9174792998493
 21
260.4615898790906
 31
0.0
  0
LINE
  5
62F
102
{ACAD_REACTORS
330
6A5
102
}
330
1F
100
AcDbEntity
  8
実線
100
AcDbLine
 10
166.0174792998492
 20
216.1615898790908
 30
0.0
 11
166.0174792998492
 21
266.6615898790907
 31
0.0
  0
LINE
  5
630
102
{ACAD_REACTORS
330
6A5
102
}
330
1F
100
AcDbEntity
  8
実線
100
AcDbLine
 10
163.2674792998492
 20
216.1615898790908
 30
0.0
 11
163.2674792998492
 21
266.6615898790907
 31
0.0
  0
LINE
  5
631
102
{ACAD_REACTORS
330
6A5
102
}
330
1F
100
AcDbEntity
  8
実線
100
AcDbLine
 10
166.0174792998492
 20
266.6615898790907
 30
0.0
 11
163.2674792998492
 21
266.6615898790907
 31
0.0
  0
LINE
  5
632
102
{ACAD_REACTORS
330
6A5
102
}
330
1F
100
AcDbEntity
  8
実線
100
AcDbLine
 10
163.2674792998492
 20
216.1615898790908
 30
0.0
 11
166.0174792998492
 21
216.1615898790908
 31
0.0
  0
LINE
  5
633
102
{ACAD_REACTORS
330
6A5
102
}
330
1F
100
AcDbEntity
  8
実線
100
AcDbLine
 10
31.11747929984915
 20
260.4615898790906
 30
0.0
 11
28.76747929984919
 21
266.6615898790907
 31
0.0
  0
LINE
  5
634
102
{ACAD_REACTORS
330
6A5
102
}
330
1F
100
AcDbEntity
  8
実線
100
AcDbLine
 10
28.76747929984919
 20
216.1615898790908
 30
0.0
 11
31.11747929984915
 21
222.3615898790908
 31
0.0
  0
LINE
  5
635
102
{ACAD_REACTORS
330
6A5
102
}
330
1F
100
AcDbEntity
  8
実線
100
AcDbLine
 10
31.11747929984915
 20
260.4615898790906
 30
0.0
 11
31.11747929984915
 21
222.3615898790908
 31
0.0
  0
LINE
  5
636
102
{ACAD_REACTORS
330
6A5
102
}
330
1F
100
AcDbEntity
  8
実線
100
AcDbLine
 10
26.01747929984919
 20
216.1615898790908
 30
0.0
 11
28.76747929984919
 21
216.1615898790908
 31
0.0
  0
LINE
  5
637
102
{ACAD_REACTORS
330
6A5
102
}
330
1F
100
AcDbEntity
  8
実線
100
AcDbLine
 10
28.76747929984919
 20
266.6615898790907
 30
0.0
 11
26.01747929984919
 21
266.6615898790907
 31
0.0
  0
LINE
  5
638
102
{ACAD_REACTORS
330
6A5
102
}
330
1F
100
AcDbEntity
  8
実線
100
AcDbLine
 10
26.01747929984919
 20
266.6615898790907
 30
0.0
 11
26.01747929984919
 21
216.1615898790908
 31
0.0
  0
LINE
  5
639
102
{ACAD_REACTORS
330
6A5
102
}
330
1F
100
AcDbEntity
  8
実線
100
AcDbLine
 10
28.76747929984919
 20
266.6615898790907
 30
0.0
 11
28.76747929984919
 21
216.1615898790908
 31
0.0
  0
LINE
  5
63A
102
{ACAD_REACTORS
330
6A5
102
}
330
1F
100
AcDbEntity
  8
実線
100
AcDbLine
 10
107.26747929985
 20
347.8115898790907
 30
0.0
 11
136.01747929985
 21
347.8115898790907
 31
0.0
  0
LINE
  5
63B
102
{ACAD_REACTORS
330
6A5
102
}
330
1F
100
AcDbEntity
  8
実線
100
AcDbLine
 10
136.01747929985
 20
347.8115898790907
 30
0.0
 11
136.01747929985
 21
391.3115898790908
 31
0.0
  0
LINE
  5
63C
102
{ACAD_REACTORS
330
6A5
102
}
330
1F
100
AcDbEntity
  8
実線
100
AcDbLine
 10
56.01747929985004
 20
391.3115898790908
 30
0.0
 11
56.01747929985004
 21
347.8115898790907
 31
0.0
  0
LINE
  5
63D
102
{ACAD_REACTORS
330
6A5
102
}
330
1F
100
AcDbEntity
  8
実線
100
AcDbLine
 10
56.01747929985004
 20
347.8115898790907
 30
0.0
 11
84.76747929985004
 21
347.8115898790907
 31
0.0
  0
LINE
  5
63E
102
{ACAD_REACTORS
330
6A5
102
}
330
1F
100
AcDbEntity
  8
実線
100
AcDbLine
 10
84.76747929985004
 20
391.3115898790908
 30
0.0
 11
84.76747929985004
 21
320.8115898790907
 31
0.0
  0
LINE
  5
63F
102
{ACAD_REACTORS
330
6A5
102
}
330
1F
100
AcDbEntity
  8
実線
100
AcDbLine
 10
107.26747929985
 20
391.3115898790908
 30
0.0
 11
107.26747929985
 21
320.8115898790907
 31
0.0
  0
LINE
  5
640
102
{ACAD_REACTORS
330
6A5
102
}
330
1F
100
AcDbEntity
  8
実線
100
AcDbLine
 10
142.9946490687339
 20
307.3115898790908
 30
0.0
 11
49.04030953096617
 21
307.3115898790908
 31
0.0
  0
LINE
  5
641
102
{ACAD_REACTORS
330
6A5
102
}
330
1F
100
AcDbEntity
  8
実線
100
AcDbLine
 10
142.9946490687339
 20
320.8115898790907
 30
0.0
 11
49.04030953096617
 21
320.8115898790907
 31
0.0
  0
LINE
  5
642
102
{ACAD_REACTORS
330
6A5
102
}
330
1F
100
AcDbEntity
  8
実線
100
AcDbLine
 10
49.04030953096617
 20
320.8115898790907
 30
0.0
 11
49.04030953096617
 21
307.3115898790908
 31
0.0
  0
LINE
  5
643
102
{ACAD_REACTORS
330
6A5
102
}
330
1F
100
AcDbEntity
  8
実線
100
AcDbLine
 10
142.9946490687339
 20
307.3115898790908
 30
0.0
 11
142.9946490687339
 21
320.8115898790907
 31
0.0
  0
LINE
  5
644
102
{ACAD_REACTORS
330
6A5
102
}
330
1F
100
AcDbEntity
  8
実線
100
AcDbLine
 10
77.98858248942605
 20
320.8115898790907
 30
0.0
 11
77.98858248942605
 21
307.3115898790908
 31
0.0
  0
LINE
  5
645
102
{ACAD_REACTORS
330
6A5
102
}
330
1F
100
AcDbEntity
  8
実線
100
AcDbLine
 10
114.046376110274
 20
320.8115898790907
 30
0.0
 11
114.046376110274
 21
307.3115898790908
 31
0.0
  0
LINE
  5
646
102
{ACAD_REACTORS
330
6A5
102
}
330
1F
100
AcDbEntity
  8
実線
100
AcDbLine
 10
49.01747929985003
 20
471.8115898790906
 30
0.0
 11
143.01747929985
 21
471.8115898790906
 31
0.0
  0
ARC
  5
647
102
{ACAD_REACTORS
330
6A5
102
}
330
1F
100
AcDbEntity
  8
実線
100
AcDbCircle
 10
143.01747929985
 20
468.8115898790906
 30
0.0
 40
3.0
100
AcDbArc
 50
0.0
 51
90.0
  0
ARC
  5
648
102
{ACAD_REACTORS
330
6A5
102
}
330
1F
100
AcDbEntity
  8
実線
100
AcDbCircle
 10
49.01747929985003
 20
468.8115898790906
 30
0.0
 40
3.0
100
AcDbArc
 50
90.0
 51
180.0
  0
LINE
  5
649
102
{ACAD_REACTORS
330
6A5
102
}
330
1F
100
AcDbEntity
  8
実線
100
AcDbLine
 10
146.01747929985
 20
467.3115898790906
 30
0.0
 11
146.01747929985
 21
468.8115898790906
 31
0.0
  0
LINE
  5
64A
102
{ACAD_REACTORS
330
6A5
102
}
330
1F
100
AcDbEntity
  8
実線
100
AcDbLine
 10
46.01747929985004
 20
468.8115898790906
 30
0.0
 11
46.01747929985004
 21
467.3115898790906
 31
0.0
  0
LINE
  5
64B
102
{ACAD_REACTORS
330
6A5
102
}
330
1F
100
AcDbEntity
  8
実線
100
AcDbLine
 10
118.5174792998492
 20
220.0615898790907
 30
0.0
 11
73.51747929984918
 21
220.0615898790907
 31
0.0
  0
LINE
  5
64C
102
{ACAD_REACTORS
330
6A5
102
}
330
1F
100
AcDbEntity
  8
実線
100
AcDbLine
 10
118.5174792998492
 20
256.6294322735099
 30
0.0
 11
118.5174792998492
 21
220.0615898790907
 31
0.0
  0
LINE
  5
64D
102
{ACAD_REACTORS
330
6A5
102
}
330
1F
100
AcDbEntity
  8
実線
100
AcDbLine
 10
73.51747929984918
 20
220.0615898790907
 30
0.0
 11
73.51747929984918
 21
256.6294322735097
 31
0.0
  0
LINE
  5
64E
102
{ACAD_REACTORS
330
6A4
102
}
330
1F
100
AcDbEntity
  8
実線
100
AcDbLine
 10
342.0174792998514
 20
320.8115898790908
 30
0.0
 11
342.0174792998514
 21
347.8115898790908
 31
0.0
  0
LINE
  5
64F
102
{ACAD_REACTORS
330
6A4
102
}
330
1F
100
AcDbEntity
  8
実線
100
AcDbLine
 10
330.0174792998514
 20
347.8115898790908
 30
0.0
 11
330.0174792998514
 21
320.8115898790908
 31
0.0
  0
LINE
  5
650
102
{ACAD_REACTORS
330
6A4
102
}
330
1F
100
AcDbEntity
  8
実線
100
AcDbLine
 10
386.0174792998514
 20
391.3115898790909
 30
0.0
 11
286.0174792998513
 21
391.3115898790909
 31
0.0
  0
LINE
  5
651
102
{ACAD_REACTORS
330
6A4
102
}
330
1F
100
AcDbEntity
  8
実線
100
AcDbLine
 10
386.0174792998514
 20
391.3115898790909
 30
0.0
 11
386.0174792998514
 21
467.3115898790906
 31
0.0
  0
LINE
  5
652
102
{ACAD_REACTORS
330
6A4
102
}
330
1F
100
AcDbEntity
  8
実線
100
AcDbLine
 10
286.0174792998513
 20
467.3115898790906
 30
0.0
 11
286.0174792998513
 21
391.3115898790909
 31
0.0
  0
LINE
  5
653
102
{ACAD_REACTORS
330
6A4
102
}
330
1F
100
AcDbEntity
  8
実線
100
AcDbLine
 10
386.0174792998514
 20
467.3115898790906
 30
0.0
 11
286.0174792998513
 21
467.3115898790906
 31
0.0
  0
LINE
  5
654
102
{ACAD_REACTORS
330
6A4
102
}
330
1F
100
AcDbEntity
  8
実線
100
AcDbLine
 10
371.0174792998514
 20
471.8115898790906
 30
0.0
 11
371.0174792998514
 21
482.3115898790908
 31
0.0
  0
LINE
  5
655
102
{ACAD_REACTORS
330
6A4
102
}
330
1F
100
AcDbEntity
  8
実線
100
AcDbLine
 10
301.0174792998514
 20
482.3115898790908
 30
0.0
 11
301.0174792998514
 21
471.8115898790906
 31
0.0
  0
LINE
  5
656
102
{ACAD_REACTORS
330
6A4
102
}
330
1F
100
AcDbEntity
  8
実線
100
AcDbLine
 10
371.0174792998514
 20
482.3115898790908
 30
0.0
 11
301.0174792998514
 21
482.3115898790908
 31
0.0
  0
LINE
  5
657
102
{ACAD_REACTORS
330
6A4
102
}
330
1F
100
AcDbEntity
  8
実線
100
AcDbLine
 10
342.0174792998514
 20
482.3115898790908
 30
0.0
 11
342.0174792998514
 21
510.8115898790908
 31
0.0
  0
LINE
  5
658
102
{ACAD_REACTORS
330
6A4
102
}
330
1F
100
AcDbEntity
  8
実線
100
AcDbLine
 10
330.0174792998514
 20
510.8115898790908
 30
0.0
 11
330.0174792998514
 21
482.3115898790908
 31
0.0
  0
LINE
  5
659
102
{ACAD_REACTORS
330
6A4
102
}
330
1F
100
AcDbEntity
  8
実線
100
AcDbLine
 10
342.0174792998514
 20
510.8115898790908
 30
0.0
 11
330.0174792998514
 21
510.8115898790908
 31
0.0
  0
LINE
  5
65A
102
{ACAD_REACTORS
330
6A4
102
}
330
1F
100
AcDbEntity
  8
実線
100
AcDbLine
 10
400.9174792998506
 20
298.4615898790908
 30
0.0
 11
382.9946490687346
 21
298.4615898790908
 31
0.0
  0
LINE
  5
65B
102
{ACAD_REACTORS
330
6A4
102
}
330
1F
100
AcDbEntity
  8
実線
100
AcDbLine
 10
376.0174792998506
 20
260.3615898790908
 30
0.0
 11
400.9174792998506
 21
260.3615898790908
 31
0.0
  0
LINE
  5
65C
102
{ACAD_REACTORS
330
6A4
102
}
330
1F
100
AcDbEntity
  8
実線
100
AcDbLine
 10
406.0174792998504
 20
254.1615898790908
 30
0.0
 11
406.0174792998504
 21
304.6615898790907
 31
0.0
  0
LINE
  5
65D
102
{ACAD_REACTORS
330
6A4
102
}
330
1F
100
AcDbEntity
  8
実線
100
AcDbLine
 10
406.0174792998504
 20
304.6615898790907
 30
0.0
 11
403.2674792998506
 21
304.6615898790907
 31
0.0
  0
LINE
  5
65E
102
{ACAD_REACTORS
330
6A4
102
}
330
1F
100
AcDbEntity
  8
実線
100
AcDbLine
 10
403.2674792998506
 20
254.1615898790908
 30
0.0
 11
406.0174792998504
 21
254.1615898790908
 31
0.0
  0
LINE
  5
65F
102
{ACAD_REACTORS
330
6A4
102
}
330
1F
100
AcDbEntity
  8
実線
100
AcDbLine
 10
403.2674792998506
 20
254.1615898790908
 30
0.0
 11
403.2674792998506
 21
304.6615898790907
 31
0.0
  0
LINE
  5
660
102
{ACAD_REACTORS
330
6A4
102
}
330
1F
100
AcDbEntity
  8
実線
100
AcDbLine
 10
400.9174792998506
 20
260.3615898790908
 30
0.0
 11
400.9174792998506
 21
298.4615898790908
 31
0.0
  0
LINE
  5
661
102
{ACAD_REACTORS
330
6A4
102
}
330
1F
100
AcDbEntity
  8
実線
100
AcDbLine
 10
400.9174792998506
 20
260.3615898790908
 30
0.0
 11
403.2674792998506
 21
254.1615898790909
 31
0.0
  0
LINE
  5
662
102
{ACAD_REACTORS
330
6A4
102
}
330
1F
100
AcDbEntity
  8
実線
100
AcDbLine
 10
403.2674792998506
 20
304.6615898790907
 30
0.0
 11
400.9174792998506
 21
298.4615898790908
 31
0.0
  0
LINE
  5
663
102
{ACAD_REACTORS
330
6A4
102
}
330
1F
100
AcDbEntity
  8
実線
100
AcDbLine
 10
271.1174792998506
 20
260.3615898790908
 30
0.0
 11
296.0174792998506
 21
260.3615898790908
 31
0.0
  0
LINE
  5
664
102
{ACAD_REACTORS
330
6A4
102
}
330
1F
100
AcDbEntity
  8
実線
100
AcDbLine
 10
289.0403095309667
 20
298.4615898790908
 30
0.0
 11
271.1174792998506
 21
298.4615898790908
 31
0.0
  0
LINE
  5
665
102
{ACAD_REACTORS
330
6A4
102
}
330
1F
100
AcDbEntity
  8
実線
100
AcDbLine
 10
271.1174792998506
 20
298.4615898790908
 30
0.0
 11
268.7674792998506
 21
304.6615898790907
 31
0.0
  0
LINE
  5
666
102
{ACAD_REACTORS
330
6A4
102
}
330
1F
100
AcDbEntity
  8
実線
100
AcDbLine
 10
268.7674792998506
 20
254.1615898790908
 30
0.0
 11
271.1174792998506
 21
260.3615898790908
 31
0.0
  0
LINE
  5
667
102
{ACAD_REACTORS
330
6A4
102
}
330
1F
100
AcDbEntity
  8
実線
100
AcDbLine
 10
271.1174792998506
 20
298.4615898790908
 30
0.0
 11
271.1174792998506
 21
260.3615898790908
 31
0.0
  0
LINE
  5
668
102
{ACAD_REACTORS
330
6A4
102
}
330
1F
100
AcDbEntity
  8
実線
100
AcDbLine
 10
266.0174792998506
 20
254.1615898790908
 30
0.0
 11
268.7674792998506
 21
254.1615898790908
 31
0.0
  0
LINE
  5
669
102
{ACAD_REACTORS
330
6A4
102
}
330
1F
100
AcDbEntity
  8
実線
100
AcDbLine
 10
268.7674792998506
 20
304.6615898790907
 30
0.0
 11
266.0174792998506
 21
304.6615898790907
 31
0.0
  0
LINE
  5
66A
102
{ACAD_REACTORS
330
6A4
102
}
330
1F
100
AcDbEntity
  8
実線
100
AcDbLine
 10
266.0174792998506
 20
254.1615898790908
 30
0.0
 11
266.0174792998506
 21
304.6615898790907
 31
0.0
  0
LINE
  5
66B
102
{ACAD_REACTORS
330
6A4
102
}
330
1F
100
AcDbEntity
  8
実線
100
AcDbLine
 10
268.7674792998506
 20
254.1615898790908
 30
0.0
 11
268.7674792998506
 21
304.6615898790907
 31
0.0
  0
LINE
  5
66C
102
{ACAD_REACTORS
330
6A4
102
}
330
1F
100
AcDbEntity
  8
実線
100
AcDbLine
 10
369.3674792998506
 20
250.3864284883393
 30
0.0
 11
374.8477015154457
 21
256.9175030019892
 31
0.0
  0
LINE
  5
66D
102
{ACAD_REACTORS
330
6A4
102
}
330
1F
100
AcDbEntity
  8
実線
100
AcDbLine
 10
297.1872570842556
 20
256.9175030019892
 30
0.0
 11
302.6674792998507
 21
250.3864284883393
 31
0.0
  0
ARC
  5
66E
102
{ACAD_REACTORS
330
6A4
102
}
330
1F
100
AcDbEntity
  8
実線
100
AcDbCircle
 10
301.0174792998506
 20
260.1314410504218
 30
0.0
 40
5.0
100
AcDbArc
 50
180.0
 51
220.0000000000026
  0
ARC
  5
66F
102
{ACAD_REACTORS
330
6A4
102
}
330
1F
100
AcDbEntity
  8
実線
100
AcDbCircle
 10
371.0174792998506
 20
260.1314410504218
 30
0.0
 40
5.0
100
AcDbArc
 50
319.9999999999974
 51
0.0
  0
LINE
  5
670
102
{ACAD_REACTORS
330
6A4
102
}
330
1F
100
AcDbEntity
  8
実線
100
AcDbLine
 10
382.9946490687346
 20
307.3115898790909
 30
0.0
 11
289.0403095309667
 21
307.3115898790909
 31
0.0
  0
LINE
  5
671
102
{ACAD_REACTORS
330
6A4
102
}
330
1F
100
AcDbEntity
  8
実線
100
AcDbLine
 10
376.0174792998506
 20
260.1314410504218
 30
0.0
 11
376.0174792998506
 21
260.3615898790908
 31
0.0
  0
LINE
  5
672
102
{ACAD_REACTORS
330
6A4
102
}
330
1F
100
AcDbEntity
  8
実線
100
AcDbLine
 10
296.0174792998506
 20
260.3615898790908
 30
0.0
 11
296.0174792998506
 21
260.1314410504218
 31
0.0
  0
LINE
  5
673
102
{ACAD_REACTORS
330
6A4
102
}
330
1F
100
AcDbEntity
  8
実線
100
AcDbLine
 10
289.0403095309667
 20
307.3115898790909
 30
0.0
 11
289.0403095309667
 21
297.3115898790908
 31
0.0
  0
LINE
  5
674
102
{ACAD_REACTORS
330
6A4
102
}
330
1F
100
AcDbEntity
  8
実線
100
AcDbLine
 10
289.0403095309667
 20
297.3115898790908
 30
0.0
 11
317.9885824894264
 21
297.3115898790908
 31
0.0
  0
LINE
  5
675
102
{ACAD_REACTORS
330
6A4
102
}
330
1F
100
AcDbEntity
  8
実線
100
AcDbLine
 10
382.9946490687346
 20
297.3115898790908
 30
0.0
 11
354.0463761102746
 21
297.3115898790908
 31
0.0
  0
LINE
  5
676
102
{ACAD_REACTORS
330
6A4
102
}
330
1F
100
AcDbEntity
  8
実線
100
AcDbLine
 10
382.9946490687346
 20
297.3115898790908
 30
0.0
 11
382.9946490687346
 21
307.3115898790909
 31
0.0
  0
LINE
  5
677
102
{ACAD_REACTORS
330
6A4
102
}
330
1F
100
AcDbEntity
  8
実線
100
AcDbLine
 10
354.0463761102746
 20
307.3115898790909
 30
0.0
 11
354.0463761102746
 21
297.3115898790908
 31
0.0
  0
LINE
  5
678
102
{ACAD_REACTORS
330
6A4
102
}
330
1F
100
AcDbEntity
  8
実線
100
AcDbLine
 10
317.9885824894264
 20
307.3115898790909
 30
0.0
 11
317.9885824894264
 21
297.3115898790908
 31
0.0
  0
CIRCLE
  5
679
102
{ACAD_REACTORS
330
6A4
102
}
330
1F
100
AcDbEntity
  8
実線
100
AcDbCircle
 10
336.0174792998506
 20
241.4115898790909
 30
0.0
 40
25.25
  0
ARC
  5
67A
102
{ACAD_REACTORS
330
6A4
102
}
330
1F
100
AcDbEntity
  8
実線
100
AcDbCircle
 10
359.7174792998515
 20
361.8115898790909
 30
0.0
 40
57.99999999999997
100
AcDbArc
 50
193.9679626746547
 51
224.9829679599036
  0
LINE
  5
67B
102
{ACAD_REACTORS
330
6A4
102
}
330
1F
100
AcDbEntity
  8
実線
100
AcDbLine
 10
291.7174792998515
 20
391.3115898790909
 30
0.0
 11
291.7174792998515
 21
361.8115898790909
 31
0.0
  0
ARC
  5
67C
102
{ACAD_REACTORS
330
6A4
102
}
330
1F
100
AcDbEntity
  8
実線
100
AcDbCircle
 10
361.7174792998515
 20
361.8115898790909
 30
0.0
 40
70.00000000000003
100
AcDbArc
 50
180.0
 51
215.8534670634654
  0
LINE
  5
67D
102
{ACAD_REACTORS
330
6A4
102
}
330
1F
100
AcDbEntity
  8
実線
100
AcDbLine
 10
380.3174792998515
 20
391.3115898790909
 30
0.0
 11
380.3174792998515
 21
361.8115898790909
 31
0.0
  0
ARC
  5
67E
102
{ACAD_REACTORS
330
6A4
102
}
330
1F
100
AcDbEntity
  8
実線
100
AcDbCircle
 10
312.3174792998515
 20
361.8115898790909
 30
0.0
 40
57.99999999999997
100
AcDbArc
 50
315.0170320400964
 51
346.0320373253524
  0
ARC
  5
67F
102
{ACAD_REACTORS
330
6A4
102
}
330
1F
100
AcDbEntity
  8
実線
100
AcDbCircle
 10
310.3174792998515
 20
361.8115898790909
 30
0.0
 40
70.00000000000003
100
AcDbArc
 50
324.1465329365346
 51
0.0
  0
LINE
  5
680
102
{ACAD_REACTORS
330
6A4
102
}
330
1F
100
AcDbEntity
  8
実線
100
AcDbLine
 10
297.6320979678911
 20
391.3115898790909
 30
0.0
 11
297.6320979678911
 21
347.8115898790908
 31
0.0
  0
LINE
  5
681
102
{ACAD_REACTORS
330
6A4
102
}
330
1F
100
AcDbEntity
  8
実線
100
AcDbLine
 10
297.6320979678911
 20
347.8115898790908
 30
0.0
 11
374.4028606318116
 21
347.8115898790908
 31
0.0
  0
LINE
  5
682
102
{ACAD_REACTORS
330
6A4
102
}
330
1F
100
AcDbEntity
  8
実線
100
AcDbLine
 10
374.4028606318116
 20
391.3115898790909
 30
0.0
 11
374.4028606318116
 21
347.8115898790908
 31
0.0
  0
LINE
  5
683
102
{ACAD_REACTORS
330
6A4
102
}
330
1F
100
AcDbEntity
  8
実線
100
AcDbLine
 10
382.9946490687353
 20
320.8115898790908
 30
0.0
 11
289.0403095309677
 21
320.8115898790908
 31
0.0
  0
LINE
  5
684
102
{ACAD_REACTORS
330
6A4
102
}
330
1F
100
AcDbEntity
  8
実線
100
AcDbLine
 10
289.0403095309677
 20
320.8115898790908
 30
0.0
 11
289.0403095309677
 21
307.3115898790909
 31
0.0
  0
LINE
  5
685
102
{ACAD_REACTORS
330
6A4
102
}
330
1F
100
AcDbEntity
  8
実線
100
AcDbLine
 10
382.9946490687353
 20
307.3115898790909
 30
0.0
 11
382.9946490687353
 21
320.8115898790908
 31
0.0
  0
LINE
  5
686
102
{ACAD_REACTORS
330
6A4
102
}
330
1F
100
AcDbEntity
  8
実線
100
AcDbLine
 10
354.0463761102753
 20
320.8115898790908
 30
0.0
 11
354.0463761102753
 21
307.3115898790909
 31
0.0
  0
LINE
  5
687
102
{ACAD_REACTORS
330
6A4
102
}
330
1F
100
AcDbEntity
  8
実線
100
AcDbLine
 10
317.9885824894272
 20
320.8115898790908
 30
0.0
 11
317.9885824894272
 21
307.3115898790909
 31
0.0
  0
LINE
  5
688
102
{ACAD_REACTORS
330
6A4
102
}
330
1F
100
AcDbEntity
  8
実線
100
AcDbLine
 10
369.3674792998506
 20
220.0615898790908
 30
0.0
 11
354.3674792998506
 21
220.0615898790908
 31
0.0
  0
LINE
  5
689
102
{ACAD_REACTORS
330
6A4
102
}
330
1F
100
AcDbEntity
  8
実線
100
AcDbLine
 10
369.3674792998506
 20
257.337878535609
 30
0.0
 11
369.3674792998506
 21
220.0615898790909
 31
0.0
  0
LINE
  5
68A
102
{ACAD_REACTORS
330
6A4
102
}
330
1F
100
AcDbEntity
  8
実線
100
AcDbLine
 10
354.3674792998506
 20
220.0615898790908
 30
0.0
 11
354.3674792998506
 21
224.0668500424718
 31
0.0
  0
LINE
  5
68B
102
{ACAD_REACTORS
330
6A4
102
}
330
1F
100
AcDbEntity
  8
実線
100
AcDbLine
 10
386.0174792998514
 20
467.3115898790906
 30
0.0
 11
386.0174792998514
 21
468.8115898790908
 31
0.0
  0
LINE
  5
68C
102
{ACAD_REACTORS
330
6A4
102
}
330
1F
100
AcDbEntity
  8
実線
100
AcDbLine
 10
286.0174792998513
 20
468.8115898790908
 30
0.0
 11
286.0174792998513
 21
467.3115898790906
 31
0.0
  0
LINE
  5
68D
102
{ACAD_REACTORS
330
6A4
102
}
330
1F
100
AcDbEntity
  8
実線
100
AcDbLine
 10
383.0174792998514
 20
471.8115898790906
 30
0.0
 11
289.0174792998513
 21
471.8115898790906
 31
0.0
  0
ARC
  5
68E
102
{ACAD_REACTORS
330
6A4
102
}
330
1F
100
AcDbEntity
  8
実線
100
AcDbCircle
 10
383.0174792998514
 20
468.8115898790908
 30
0.0
 40
3.0
100
AcDbArc
 50
0.0
 51
90.0
  0
ARC
  5
68F
102
{ACAD_REACTORS
330
6A4
102
}
330
1F
100
AcDbEntity
  8
実線
100
AcDbCircle
 10
289.0174792998513
 20
468.8115898790908
 30
0.0
 40
3.0
100
AcDbArc
 50
90.0
 51
180.0
  0
LINE
  5
690
102
{ACAD_REACTORS
330
6A4
102
}
330
1F
100
AcDbEntity
  8
実線
100
AcDbLine
 10
317.6674792998507
 20
220.0615898790908
 30
0.0
 11
302.6674792998507
 21
220.0615898790908
 31
0.0
  0
LINE
  5
691
102
{ACAD_REACTORS
330
6A4
102
}
330
1F
100
AcDbEntity
  8
実線
100
AcDbLine
 10
302.6674792998507
 20
220.0615898790908
 30
0.0
 11
302.6674792998507
 21
257.337878535609
 31
0.0
  0
LINE
  5
692
102
{ACAD_REACTORS
330
6A4
102
}
330
1F
100
AcDbEntity
  8
実線
100
AcDbLine
 10
317.6674792998507
 20
224.0668500424718
 30
0.0
 11
317.6674792998507
 21
220.0615898790908
 31
0.0
  0
LINE
  5
69D
102
{ACAD_REACTORS
330
6A3
102
}
330
1F
100
AcDbEntity
  8
中心線
100
AcDbLine
 10
504.0174792998518
 20
241.4115898790911
 30
0.0
 11
648.0174792998517
 21
241.4115898790911
 31
0.0
  0
LINE
  5
69E
102
{ACAD_REACTORS
330
6A2
102
}
330
1F
100
AcDbEntity
  8
中心線
100
AcDbLine
 10
761.0174792998511
 20
241.4115898790908
 30
0.0
 11
871.0174792998511
 21
241.4115898790909
 31
0.0
  0
LINE
  5
69F
102
{ACAD_REACTORS
330
6A4
102
}
330
1F
100
AcDbEntity
  8
中心線
100
AcDbLine
 10
281.0174792998505
 20
241.4115898790909
 30
0.0
 11
391.0174792998504
 21
241.4115898790909
 31
0.0
  0
LINE
  5
6A0
102
{ACAD_REACTORS
330
6A5
102
}
330
1F
100
AcDbEntity
  8
中心線
100
AcDbLine
 10
24.0174792998485
 20
241.4115898790908
 30
0.0
 11
168.0174792998484
 21
241.4115898790909
 31
0.0
  0
ENDSEC
  0
SECTION
  2
OBJECTS
  0
DICTIONARY
  5
C
330
0
100
AcDbDictionary
281
     1
  3
ACAD_CIP_PREVIOUS_PRODUCT_INFO
350
25D
  3
ACAD_COLOR
350
253
  3
ACAD_DETAILVIEWSTYLE
350
256
  3
ACAD_GROUP
350
D
  3
ACAD_LAYOUT
350
1A
  3
ACAD_MATERIAL
350
43
  3
ACAD_MLEADERSTYLE
350
5B
  3
ACAD_MLINESTYLE
350
17
  3
ACAD_PLOTSETTINGS
350
19
  3
ACAD_PLOTSTYLENAME
350
E
  3
ACAD_SCALELIST
350
47
  3
ACAD_SECTIONVIEWSTYLE
350
254
  3
ACAD_TABLESTYLE
350
59
  3
ACAD_VISUALSTYLE
350
2A
  3
ACDB_RECOMPOSE_DATA
350
806
  3
AcDbVariableDictionary
350
208
  3
DWGPROPS
350
807
  0
DICTIONARY
  5
264
330
2
100
AcDbDictionary
280
     1
281
     1
  3
ACAD_LAYERSTATES
360
265
  0
DICTIONARY
  5
6A7
330
10
100
AcDbDictionary
280
     1
281
     1
  3
ADSK_XREC_LAYER_RECONCILED
360
6A8
  0
DICTIONARY
  5
260
330
25F
100
AcDbDictionary
280
     1
281
     1
  3
ADSK_XREC_LAYER_RECONCILED
360
6A9
  0
DICTIONARY
  5
262
330
261
100
AcDbDictionary
280
     1
281
     1
  3
ADSK_XREC_LAYER_RECONCILED
360
6AA
  0
DICTIONARY
  5
543
330
1F
100
AcDbDictionary
280
     1
281
     1
  3
ACAD_SORTENTS
360
544
  0
XRECORD
  5
25D
102
{ACAD_REACTORS
330
C
102
}
330
C
100
AcDbXrecord
280
     1
300
ACDLT
300
2016
300
ACDLT_F_S
  0
DICTIONARY
  5
253
102
{ACAD_REACTORS
330
C
102
}
330
C
100
AcDbDictionary
281
     1
  0
DICTIONARY
  5
256
102
{ACAD_REACTORS
330
C
102
}
330
C
100
AcDbDictionary
281
     1
  3
Metric50
350
257
  0
DICTIONARY
  5
D
102
{ACAD_REACTORS
330
C
102
}
330
C
100
AcDbDictionary
281
     1
  3
*A1
350
6A1
  3
*A2
350
6A2
  3
*A3
350
6A3
  3
*A4
350
6A4
  3
*A5
350
6A5
  3
*A6
350
6A6
  0
DICTIONARY
  5
1A
102
{ACAD_REACTORS
330
C
102
}
330
C
100
AcDbDictionary
281
     1
  3
Layout1
350
1E
  3
Model
350
22
  3
レイアウト1
350
258
  0
DICTIONARY
  5
43
102
{ACAD_REACTORS
330
C
102
}
330
C
100
AcDbDictionary
281
     1
  3
ByBlock
350
45
  3
ByLayer
350
44
  3
Global
350
46
  0
DICTIONARY
  5
5B
102
{ACAD_REACTORS
330
C
102
}
330
C
100
AcDbDictionary
281
     1
  3
Standard
350
5C
  0
DICTIONARY
  5
17
102
{ACAD_REACTORS
330
C
102
}
330
C
100
AcDbDictionary
281
     1
  3
Standard
350
18
  0
DICTIONARY
  5
19
102
{ACAD_REACTORS
330
C
102
}
330
C
100
AcDbDictionary
281
     1
  0
ACDBDICTIONARYWDFLT
  5
E
102
{ACAD_REACTORS
330
C
102
}
330
C
100
AcDbDictionary
281
     1
  3
Normal
350
F
100
AcDbDictionaryWithDefault
340
F
  0
DICTIONARY
  5
47
102
{ACAD_REACTORS
330
C
102
}
330
C
100
AcDbDictionary
281
     1
  3
A0
350
48
  3
A1
350
49
  3
A2
350
4A
  3
A3
350
4B
  3
A4
350
4C
  3
A5
350
4D
  3
A6
350
4E
  3
A7
350
4F
  3
A8
350
50
  3
A9
350
51
  3
B0
350
52
  3
B1
350
53
  3
B2
350
54
  3
B3
350
55
  3
B4
350
56
  3
B5
350
57
  3
B6
350
58
  0
DICTIONARY
  5
254
102
{ACAD_REACTORS
330
C
102
}
330
C
100
AcDbDictionary
281
     1
  3
Metric50
350
255
  0
DICTIONARY
  5
59
102
{ACAD_REACTORS
330
C
102
}
330
C
100
AcDbDictionary
281
     1
  3
Standard
350
5A
  0
DICTIONARY
  5
2A
102
{ACAD_REACTORS
330
C
102
}
330
C
100
AcDbDictionary
281
     1
  3
2dWireframe
350
2F
  3
Basic
350
32
  3
Brighten
350
36
  3
ColorChange
350
3A
  3
Conceptual
350
34
  3
Dim
350
35
  3
EdgeColorOff
350
3D
  3
Facepattern
350
39
  3
Flat
350
2B
  3
FlatWithEdges
350
2C
  3
Gouraud
350
2D
  3
GouraudWithEdges
350
2E
  3
Hidden
350
31
  3
JitterOff
350
3B
  3
Linepattern
350
38
  3
OverhangOff
350
3C
  3
Realistic
350
33
  3
Shaded
350
42
  3
Shaded with edges
350
41
  3
Shades of Gray
350
3E
  3
Sketchy
350
3F
  3
Thicken
350
37
  3
Wireframe
350
30
  3
X-Ray
350
40
  0
XRECORD
  5
806
102
{ACAD_REACTORS
330
C
102
}
330
C
100
AcDbXrecord
280
     1
 90
        1
330
5A
  0
DICTIONARY
  5
208
102
{ACAD_REACTORS
330
C
102
}
330
C
100
AcDbDictionary
281
     1
  3
CANNOSCALE
350
216
  3
CENTEREXE
350
20F
  3
CENTERLTYPEFILE
350
210
  3
CMLEADERSTYLE
350
20A
  3
CTABLESTYLE
350
209
  3
CVIEWDETAILSTYLE
350
6AB
  3
CVIEWSECTIONSTYLE
350
6AC
  3
DIMASSOC
350
211
  3
HIDETEXT
350
212
  3
INDEXCTL
350
705
  3
LAYEREVAL
350
6AE
  3
LAYERNOTIFY
350
6AF
  3
LIGHTINGUNITS
350
6AD
  3
LOFTANG1
350
802
  3
LOFTANG2
350
803
  3
MSLTSCALE
350
217
  3
PSOLHEIGHT
350
801
  3
PSOLWIDTH
350
800
  3
SORTENTS
350
704
  3
XCLIPFRAME
350
804
  0
XRECORD
  5
807
102
{ACAD_REACTORS
330
C
102
}
330
C
100
AcDbXrecord
280
     1
  1
DWGPROPS COOKIE
  2

  3

  4

  6
File was created by TR2_DExp
  7

  8
t.yanai
  9

300
=
301
=
302
=
303
=
304
=
305
=
306
=
307
=
308
=
309
=
 40
0.0348936689814815
 41
2455188.75
 42
2459753.57077044
  1

 90
        0
  0
DICTIONARY
  5
265
102
{ACAD_REACTORS
330
264
102
}
330
264
100
AcDbDictionary
281
     1
  0
XRECORD
  5
6A8
102
{ACAD_REACTORS
330
6A7
102
}
330
6A7
100
AcDbXrecord
280
     1
290
     1
  0
XRECORD
  5
6A9
102
{ACAD_REACTORS
330
260
102
}
330
260
100
AcDbXrecord
280
     1
290
     1
  0
XRECORD
  5
6AA
102
{ACAD_REACTORS
330
262
102
}
330
262
100
AcDbXrecord
280
     1
290
     1
  0
SORTENTSTABLE
  5
544
102
{ACAD_REACTORS
330
543
102
}
330
543
100
AcDbSortentsTable
330
1F
331
625
  5
40F
331
664
  5
3D0
331
5AF
  5
489
331
5EE
  5
44A
331
621
  5
40B
331
660
  5
3CC
331
5AB
  5
485
331
5EA
  5
446
331
5E6
  5
442
331
61D
  5
407
331
65C
  5
3C8
331
5A7
  5
481
331
658
  5
3C4
331
5A3
  5
47D
331
5E2
  5
43E
331
619
  5
403
331
690
  5
3FC
331
4FD
  5
688
331
577
  5
4E8
331
573
  5
4E4
331
52C
  5
52C
331
528
  5
528
331
56F
  5
4E0
331
524
  5
524
331
56B
  5
4DC
331
520
  5
520
331
654
  5
3C0
331
59F
  5
479
331
5DE
  5
43A
331
615
  5
3FF
331
611
  5
46D
331
650
  5
3BC
331
68C
  5
3F8
331
59B
  5
475
331
5DA
  5
4B4
331
5D6
  5
4B0
331
60D
  5
469
331
64C
  5
436
331
688
  5
3F4
331
597
  5
471
331
593
  5
504
331
5D2
  5
4AC
331
609
  5
465
331
684
  5
3F0
331
648
  5
432
331
680
  5
3EC
331
545
  5
4B6
331
567
  5
4D8
331
563
  5
4D4
331
541
  5
541
331
51C
  5
51C
331
518
  5
518
331
55F
  5
4D0
331
55B
  5
4CC
331
644
  5
42E
331
5CE
  5
4A8
331
640
  5
42A
331
67F
  5
3EB
331
5CA
  5
4A4
331
5C6
  5
4A0
331
605
  5
461
331
63C
  5
426
331
67B
  5
3E7
331
5C2
  5
49C
331
601
  5
45D
331
638
  5
422
331
557
  5
4C8
331
553
  5
4C4
331
514
  5
514
331
54F
  5
4C0
331
58E
  5
4FF
331
510
  5
510
331
54B
  5
4BC
331
58A
  5
4FB
331
677
  5
3E3
331
634
  5
41E
331
673
  5
3DF
331
5BE
  5
498
331
5FD
  5
459
331
5F9
  5
455
331
630
  5
41A
331
66F
  5
3DB
331
5BA
  5
494
331
5B6
  5
490
331
5F5
  5
451
331
62C
  5
416
331
66B
  5
3D7
331
5B2
  5
48C
331
5F1
  5
44D
331
628
  5
412
331
586
  5
4F7
331
50C
  5
50C
331
53F
  5
53F
331
53B
  5
53B
331
582
  5
4F3
331
508
  5
508
331
504
  5
68F
331
537
  5
537
331
57E
  5
4EF
331
500
  5
68B
331
533
  5
533
331
57A
  5
4EB
331
667
  5
3D3
331
624
  5
40E
331
663
  5
3CF
331
69F
  5
69F
331
5AE
  5
488
331
5ED
  5
449
331
5E9
  5
445
331
620
  5
40A
331
65F
  5
3CB
331
5AA
  5
484
331
5E5
  5
441
331
61C
  5
406
331
65B
  5
3C7
331
5A6
  5
480
331
5A2
  5
47C
331
5E1
  5
43D
331
618
  5
402
331
576
  5
4E7
331
4FC
  5
687
331
52F
  5
52F
331
572
  5
4E3
331
52B
  5
52B
331
527
  5
527
331
56E
  5
4DF
331
523
  5
523
331
56A
  5
4DB
331
657
  5
3C3
331
614
  5
470
331
653
  5
3BF
331
68F
  5
3FB
331
59E
  5
478
331
5DD
  5
439
331
610
  5
46C
331
64F
  5
3BB
331
68B
  5
3F7
331
59A
  5
474
331
5D9
  5
4B3
331
5D5
  5
4AF
331
60C
  5
468
331
64B
  5
435
331
687
  5
3F3
331
596
  5
507
331
683
  5
3EF
331
592
  5
503
331
5D1
  5
4AB
331
608
  5
464
331
51F
  5
51F
331
566
  5
4D7
331
562
  5
4D3
331
540
  5
540
331
51B
  5
51B
331
55E
  5
4CF
331
55A
  5
4CB
331
647
  5
431
331
643
  5
42D
331
5CD
  5
4A7
331
63F
  5
429
331
67E
  5
3EA
331
5C9
  5
4A3
331
67A
  5
3E6
331
5C5
  5
49F
331
604
  5
460
331
63B
  5
425
331
5C1
  5
49B
331
600
  5
45C
331
556
  5
4C7
331
517
  5
517
331
552
  5
4C3
331
513
  5
513
331
54E
  5
4BF
331
58D
  5
4FE
331
54A
  5
4BB
331
589
  5
4FA
331
676
  5
3E2
331
637
  5
421
331
633
  5
41D
331
672
  5
3DE
331
5BD
  5
497
331
5FC
  5
458
331
5F8
  5
454
331
62F
  5
419
331
66E
  5
3DA
331
5B9
  5
493
331
5B5
  5
48F
331
5F4
  5
450
331
62B
  5
415
331
66A
  5
3D6
331
5B1
  5
48B
331
5F0
  5
44C
331
50F
  5
50F
331
585
  5
4F6
331
50B
  5
50B
331
53E
  5
53E
331
53A
  5
53A
331
581
  5
4F2
331
507
  5
692
331
503
  5
68E
331
536
  5
536
331
57D
  5
4EE
331
532
  5
532
331
579
  5
4EA
331
666
  5
3D2
331
627
  5
411
331
623
  5
40D
331
662
  5
3CE
331
69E
  5
69E
331
5AD
  5
487
331
5EC
  5
448
331
5E8
  5
444
331
61F
  5
409
331
65E
  5
3CA
331
5A9
  5
483
331
5A5
  5
47F
331
5E4
  5
440
331
61B
  5
405
331
65A
  5
3C6
331
692
  5
3FE
331
5A1
  5
47B
331
5E0
  5
43C
331
4FF
  5
68A
331
575
  5
4E6
331
52E
  5
52E
331
52A
  5
52A
331
571
  5
4E2
331
526
  5
526
331
56D
  5
4DE
331
6A0
  5
6A0
331
522
  5
522
331
569
  5
4DA
331
656
  5
3C2
331
617
  5
401
331
613
  5
46F
331
652
  5
3BE
331
68E
  5
3FA
331
59D
  5
477
331
5DC
  5
438
331
5D8
  5
4B2
331
60F
  5
46B
331
64E
  5
3BA
331
68A
  5
3F6
331
599
  5
473
331
5D4
  5
4AE
331
60B
  5
467
331
64A
  5
434
331
686
  5
3F2
331
595
  5
506
331
682
  5
3EE
331
591
  5
502
331
5D0
  5
4AA
331
547
  5
4B8
331
565
  5
4D6
331
51E
  5
51E
331
561
  5
4D2
331
51A
  5
51A
331
55D
  5
4CE
331
559
  5
4CA
331
646
  5
430
331
642
  5
42C
331
5CC
  5
4A6
331
607
  5
463
331
63E
  5
428
331
67D
  5
3E9
331
5C8
  5
4A2
331
679
  5
3E5
331
5C4
  5
49E
331
603
  5
45F
331
63A
  5
424
331
5C0
  5
49A
331
555
  5
4C6
331
516
  5
516
331
551
  5
4C2
331
512
  5
512
331
54D
  5
4BE
331
58C
  5
4FD
331
549
  5
4BA
331
588
  5
4F9
331
636
  5
420
331
675
  5
3E1
331
5FF
  5
45B
331
632
  5
41C
331
671
  5
3DD
331
5BC
  5
496
331
5FB
  5
457
331
5F7
  5
453
331
62E
  5
418
331
66D
  5
3D9
331
5B8
  5
492
331
669
  5
3D5
331
5B4
  5
48E
331
5F3
  5
44F
331
62A
  5
414
331
5B0
  5
48A
331
50E
  5
50E
331
584
  5
4F5
331
50A
  5
50A
331
53D
  5
53D
331
506
  5
691
331
539
  5
539
331
580
  5
4F1
331
502
  5
68D
331
535
  5
535
331
57C
  5
4ED
331
531
  5
531
331
578
  5
4E9
331
665
  5
3D1
331
5EF
  5
44B
331
626
  5
410
331
622
  5
40C
331
661
  5
3CD
331
69D
  5
69D
331
5AC
  5
486
331
5EB
  5
447
331
5E7
  5
443
331
61E
  5
408
331
65D
  5
3C9
331
5A8
  5
482
331
5A4
  5
47E
331
5E3
  5
43F
331
61A
  5
404
331
659
  5
3C5
331
691
  5
3FD
331
5A0
  5
47A
331
4FE
  5
689
331
574
  5
4E5
331
52D
  5
52D
331
529
  5
529
331
570
  5
4E1
331
525
  5
525
331
56C
  5
4DD
331
521
  5
521
331
568
  5
4D9
331
655
  5
3C1
331
5DF
  5
43B
331
616
  5
400
331
612
  5
46E
331
651
  5
3BD
331
68D
  5
3F9
331
59C
  5
476
331
5DB
  5
4B5
331
5D7
  5
4B1
331
60E
  5
46A
331
64D
  5
437
331
689
  5
3F5
331
598
  5
472
331
594
  5
505
331
5D3
  5
4AD
331
60A
  5
466
331
685
  5
3F1
331
649
  5
433
331
681
  5
3ED
331
590
  5
501
331
546
  5
4B7
331
564
  5
4D5
331
542
  5
542
331
51D
  5
51D
331
519
  5
519
331
560
  5
4D1
331
55C
  5
4CD
331
558
  5
4C9
331
645
  5
42F
331
5CF
  5
4A9
331
641
  5
42B
331
5CB
  5
4A5
331
5C7
  5
4A1
331
606
  5
462
331
63D
  5
427
331
67C
  5
3E8
331
678
  5
3E4
331
5C3
  5
49D
331
602
  5
45E
331
639
  5
423
331
554
  5
4C5
331
515
  5
515
331
550
  5
4C1
331
58F
  5
500
331
511
  5
511
331
54C
  5
4BD
331
58B
  5
4FC
331
548
  5
4B9
331
635
  5
41F
331
674
  5
3E0
331
5BF
  5
499
331
5FE
  5
45A
331
5FA
  5
456
331
631
  5
41B
331
670
  5
3DC
331
5BB
  5
495
331
5F6
  5
452
331
62D
  5
417
331
66C
  5
3D8
331
5B7
  5
491
331
668
  5
3D4
331
5B3
  5
48D
331
5F2
  5
44E
331
629
  5
413
331
587
  5
4F8
331
50D
  5
50D
331
583
  5
4F4
331
509
  5
509
331
53C
  5
53C
331
505
  5
690
331
538
  5
538
331
57F
  5
4F0
331
501
  5
68C
331
534
  5
534
331
57B
  5
4EC
331
530
  5
530
  0
ACDBDETAILVIEWSTYLE
  5
257
102
{ACAD_XDICTIONARY
360
83F
102
}
102
{ACAD_REACTORS
330
256
102
}
330
256
100
AcDbModelDocViewStyle
 70
     0
  3
Metric50
290
     0
100
AcDbDetailViewStyle
 70
     0
 71
     0
 90
        3
 71
     1
340
11
 40
5.0
340
0
 40
5.0
300

 40
0.0
280
     1
 71
     2
340
16
 90
       25
 71
     3
340
11
 40
5.0
 90
        0
 40
15.0
 90
        1
300
%<\AcVar ViewDetailId>% (%<\AcVar ViewScale \f "%sn">%)
 71
     4
340
16
 90
       25
340
16
 90
       25
280
     0
  0
GROUP
  5
6A1
102
{ACAD_REACTORS
330
D
102
}
330
D
100
AcDbGroup
300

 70
     1
 71
     1
340
500
340
4FF
340
596
340
595
340
594
340
593
340
592
340
591
340
590
340
58F
340
58E
340
58D
340
58C
340
58B
340
58A
340
589
340
588
340
587
340
586
340
585
340
584
340
583
340
582
340
581
340
580
340
57F
340
57E
340
57D
340
57C
340
57B
340
57A
340
579
340
578
340
577
340
576
340
575
340
574
340
573
340
572
340
571
340
570
340
56F
340
56E
340
56D
340
56C
340
56B
340
56A
340
569
340
568
340
567
340
566
340
565
340
564
340
563
340
562
340
561
340
560
340
55F
340
55E
340
55D
340
55C
340
55B
340
55A
340
559
340
558
340
557
340
556
340
555
340
554
340
553
340
552
340
551
340
550
340
54F
340
54E
340
54D
340
54C
340
54B
340
54A
340
549
340
548
340
547
340
546
340
545
  0
GROUP
  5
6A2
102
{ACAD_REACTORS
330
D
102
}
330
D
100
AcDbGroup
300

 70
     1
 71
     1
340
69E
340
505
340
502
340
5DB
340
5DA
340
5D9
340
5D8
340
5D7
340
5D6
340
5D5
340
5D4
340
5D3
340
5D2
340
5D1
340
5D0
340
5CF
340
5CE
340
5CD
340
5CC
340
5CB
340
5CA
340
5C9
340
5C8
340
5C7
340
5C6
340
5C5
340
5C4
340
5C3
340
5C2
340
5C1
340
5C0
340
5BF
340
5BE
340
5BD
340
5BC
340
5BB
340
5BA
340
5B9
340
5B8
340
5B7
340
5B6
340
5B5
340
5B4
340
5B3
340
5B2
340
5B1
340
5B0
340
5AF
340
5AE
340
5AD
340
5AC
340
5AB
340
5AA
340
5A9
340
5A8
340
5A7
340
5A6
340
5A5
340
5A4
340
5A3
340
5A2
340
5A1
340
5A0
340
59F
340
59E
340
59D
340
59C
340
59B
340
59A
340
599
340
598
340
597
  0
GROUP
  5
6A3
102
{ACAD_REACTORS
330
D
102
}
330
D
100
AcDbGroup
300

 70
     1
 71
     1
340
69D
340
501
340
4FC
340
614
340
613
340
612
340
611
340
610
340
60F
340
60E
340
60D
340
60C
340
60B
340
60A
340
609
340
608
340
607
340
606
340
605
340
604
340
603
340
602
340
601
340
600
340
5FF
340
5FE
340
5FD
340
5FC
340
5FB
340
5FA
340
5F9
340
5F8
340
5F7
340
5F6
340
5F5
340
5F4
340
5F3
340
5F2
340
5F1
340
5F0
340
5EF
340
5EE
340
5ED
340
5EC
340
5EB
340
5EA
340
5E9
340
5E8
340
5E7
340
5E6
340
5E5
340
5E4
340
5E3
340
5E2
340
5E1
340
5E0
340
5DF
340
5DE
340
5DD
340
5DC
  0
GROUP
  5
6A4
102
{ACAD_REACTORS
330
D
102
}
330
D
100
AcDbGroup
300

 70
     1
 71
     1
340
69F
340
506
340
503
340
692
340
691
340
690
340
68F
340
68E
340
68D
340
68C
340
68B
340
68A
340
689
340
688
340
687
340
686
340
685
340
684
340
683
340
682
340
681
340
680
340
67F
340
67E
340
67D
340
67C
340
67B
340
67A
340
679
340
678
340
677
340
676
340
675
340
674
340
673
340
672
340
671
340
670
340
66F
340
66E
340
66D
340
66C
340
66B
340
66A
340
669
340
668
340
667
340
666
340
665
340
664
340
663
340
662
340
661
340
660
340
65F
340
65E
340
65D
340
65C
340
65B
340
65A
340
659
340
658
340
657
340
656
340
655
340
654
340
653
340
652
340
651
340
650
340
64F
340
64E
  0
GROUP
  5
6A5
102
{ACAD_REACTORS
330
D
102
}
330
D
100
AcDbGroup
300

 70
     1
 71
     1
340
6A0
340
507
340
504
340
64D
340
64C
340
64B
340
64A
340
649
340
648
340
647
340
646
340
645
340
644
340
643
340
642
340
641
340
640
340
63F
340
63E
340
63D
340
63C
340
63B
340
63A
340
639
340
638
340
637
340
636
340
635
340
634
340
633
340
632
340
631
340
630
340
62F
340
62E
340
62D
340
62C
340
62B
340
62A
340
629
340
628
340
627
340
626
340
625
340
624
340
623
340
622
340
621
340
620
340
61F
340
61E
340
61D
340
61C
340
61B
340
61A
340
619
340
618
340
617
340
616
340
615
  0
GROUP
  5
6A6
102
{ACAD_REACTORS
330
D
102
}
330
D
100
AcDbGroup
300

 70
     1
 71
     1
340
4FE
340
4FD
340
542
340
541
340
540
340
53F
340
53E
340
53D
340
53C
340
53B
340
53A
340
539
340
538
340
537
340
536
340
535
340
534
340
533
340
532
340
531
340
530
340
52F
340
52E
340
52D
340
52C
340
52B
340
52A
340
529
340
528
340
527
340
526
340
525
340
524
340
523
340
522
340
521
340
520
340
51F
340
51E
340
51D
340
51C
340
51B
340
51A
340
519
340
518
340
517
340
516
340
515
340
514
340
513
340
512
340
511
340
510
340
50F
340
50E
340
50D
340
50C
340
50B
340
50A
340
509
340
508
  0
LAYOUT
  5
1E
102
{ACAD_XDICTIONARY
360
808
102
}
102
{ACAD_REACTORS
330
1A
102
}
330
1A
100
AcDbPlotSettings
  1

  2
none_device
  4

  6

 40
0.0
 41
0.0
 42
0.0
 43
0.0
 44
0.0
 45
0.0
 46
0.0
 47
0.0
 48
0.0
 49
0.0
140
0.0
141
0.0
142
1.0
143
1.0
 70
   688
 72
     1
 73
     0
 74
     5
  7

 75
    16
147
1.0
148
0.0
149
0.0
100
AcDbLayout
  1
Layout1
 70
     1
 71
     1
 10
0.0
 20
0.0
 11
420.0
 21
297.0
 12
0.0
 22
0.0
 32
0.0
 14
1.000000000000000E+20
 24
1.000000000000000E+20
 34
1.000000000000000E+20
 15
-1.000000000000000E+20
 25
-1.000000000000000E+20
 35
-1.000000000000000E+20
146
0.0
 13
0.0
 23
0.0
 33
0.0
 16
1.0
 26
0.0
 36
0.0
 17
0.0
 27
1.0
 37
0.0
 76
     0
330
1B
  0
LAYOUT
  5
22
102
{ACAD_XDICTIONARY
360
80A
102
}
102
{ACAD_REACTORS
330
1A
102
}
330
1A
100
AcDbPlotSettings
  1

  2
none_device
  4
Letter_(8.50_x_11.00_Inches)
  6

 40
6.349999999999997
 41
6.349999999999997
 42
6.350005079999997
 43
6.350005079999997
 44
215.9
 45
279.4
 46
0.0
 47
0.0
 48
0.0
 49
0.0
140
0.0
141
0.0
142
1.0
143
1.0
 70
  1712
 72
     1
 73
     0
 74
     0
  7

 75
     0
147
1.0
148
0.0
149
0.0
100
AcDbLayout
  1
Model
 70
     1
 71
     0
 10
-443.7525939941417
 20
-397.1734237670906
 11
1052.943267822265
 21
569.5630645751962
 12
0.0
 22
0.0
 32
0.0
 14
-443.7525939941417
 24
-397.1734237670906
 34
0.0
 15
1052.943267822265
 25
569.5630645751962
 35
0.0
146
0.0
 13
0.0
 23
0.0
 33
0.0
 16
1.0
 26
0.0
 36
0.0
 17
0.0
 27
1.0
 37
0.0
 76
     0
330
1F
331
29
  0
LAYOUT
  5
258
102
{ACAD_XDICTIONARY
360
841
102
}
102
{ACAD_REACTORS
330
1A
102
}
330
1A
100
AcDbPlotSettings
  1

  2
青梅 FX DocuCentre-V C2275 T2
  4

  6

 40
0.0
 41
0.0
 42
0.0
 43
0.0
 44
0.0
 45
0.0
 46
0.0
 47
0.0
 48
0.0
 49
0.0
140
0.0
141
0.0
142
1.0
143
1.0
 70
   688
 72
     0
 73
     0
 74
     5
  7
AutoCAD_PEN.ctb
 75
    16
147
1.0
148
0.0
149
0.0
100
AcDbLayout
  1
レイアウト1
 70
     1
 71
     2
 10
0.0
 20
0.0
 11
12.0
 21
9.0
 12
0.0
 22
0.0
 32
0.0
 14
0.0
 24
0.0
 34
0.0
 15
0.0
 25
0.0
 35
0.0
146
0.0
 13
0.0
 23
0.0
 33
0.0
 16
1.0
 26
0.0
 36
0.0
 17
0.0
 27
1.0
 37
0.0
 76
     0
330
23
  0
MATERIAL
  5
45
102
{ACAD_XDICTIONARY
360
24A
102
}
102
{ACAD_REACTORS
330
43
102
}
330
43
100
AcDbMaterial
  1
ByBlock
  0
MATERIAL
  5
44
102
{ACAD_XDICTIONARY
360
248
102
}
102
{ACAD_REACTORS
330
43
102
}
330
43
100
AcDbMaterial
  1
ByLayer
  0
MATERIAL
  5
46
102
{ACAD_XDICTIONARY
360
24C
102
}
102
{ACAD_REACTORS
330
43
102
}
330
43
100
AcDbMaterial
  1
Global
  0
MLEADERSTYLE
  5
5C
102
{ACAD_REACTORS
330
5B
102
}
330
5B
100
AcDbMLeaderStyle
170
     2
171
     1
172
     0
 90
        2
 40
0.0
 41
0.0
173
     1
 91
-1056964608
340
14
 92
       -2
290
     1
 42
2.0
291
     1
 43
8.0
  3
Standard
 44
4.0
300

342
11
174
     1
178
     6
175
     1
176
     0
 93
-1056964608
 45
4.0
292
     0
297
     0
 46
4.0
 94
-1056964608
 47
1.0
 49
1.0
140
1.0
293
     1
141
0.0
294
     1
177
     0
142
1.0
295
     0
296
     0
143
3.75
1001
ACAD_MLEADERVER
1070
     2
  0
MLINESTYLE
  5
18
102
{ACAD_REACTORS
330
17
102
}
330
17
100
AcDbMlineStyle
  2
STANDARD
 70
     0
  3

 62
   256
 51
90.0
 52
90.0
 71
     2
 49
0.5
 62
   256
  6
BYLAYER
 49
-0.5
 62
   256
  6
BYLAYER
  0
ACDBPLACEHOLDER
  5
F
102
{ACAD_REACTORS
330
E
102
}
330
E
  0
SCALE
  5
48
102
{ACAD_REACTORS
330
47
102
}
330
47
100
AcDbScale
 70
     0
300
1:1
140
1.0
141
1.0
290
     1
  0
SCALE
  5
49
102
{ACAD_REACTORS
330
47
102
}
330
47
100
AcDbScale
 70
     0
300
1:2
140
1.0
141
2.0
290
     0
  0
SCALE
  5
4A
102
{ACAD_REACTORS
330
47
102
}
330
47
100
AcDbScale
 70
     0
300
1:4
140
1.0
141
4.0
290
     0
  0
SCALE
  5
4B
102
{ACAD_REACTORS
330
47
102
}
330
47
100
AcDbScale
 70
     0
300
1:5
140
1.0
141
5.0
290
     0
  0
SCALE
  5
4C
102
{ACAD_REACTORS
330
47
102
}
330
47
100
AcDbScale
 70
     0
300
1:8
140
1.0
141
8.0
290
     0
  0
SCALE
  5
4D
102
{ACAD_REACTORS
330
47
102
}
330
47
100
AcDbScale
 70
     0
300
1:10
140
1.0
141
10.0
290
     0
  0
SCALE
  5
4E
102
{ACAD_REACTORS
330
47
102
}
330
47
100
AcDbScale
 70
     0
300
1:16
140
1.0
141
16.0
290
     0
  0
SCALE
  5
4F
102
{ACAD_REACTORS
330
47
102
}
330
47
100
AcDbScale
 70
     0
300
1:20
140
1.0
141
20.0
290
     0
  0
SCALE
  5
50
102
{ACAD_REACTORS
330
47
102
}
330
47
100
AcDbScale
 70
     0
300
1:30
140
1.0
141
30.0
290
     0
  0
SCALE
  5
51
102
{ACAD_REACTORS
330
47
102
}
330
47
100
AcDbScale
 70
     0
300
1:40
140
1.0
141
40.0
290
     0
  0
SCALE
  5
52
102
{ACAD_REACTORS
330
47
102
}
330
47
100
AcDbScale
 70
     0
300
1:50
140
1.0
141
50.0
290
     0
  0
SCALE
  5
53
102
{ACAD_REACTORS
330
47
102
}
330
47
100
AcDbScale
 70
     0
300
1:100
140
1.0
141
100.0
290
     0
  0
SCALE
  5
54
102
{ACAD_REACTORS
330
47
102
}
330
47
100
AcDbScale
 70
     0
300
2:1
140
2.0
141
1.0
290
     0
  0
SCALE
  5
55
102
{ACAD_REACTORS
330
47
102
}
330
47
100
AcDbScale
 70
     0
300
4:1
140
4.0
141
1.0
290
     0
  0
SCALE
  5
56
102
{ACAD_REACTORS
330
47
102
}
330
47
100
AcDbScale
 70
     0
300
8:1
140
8.0
141
1.0
290
     0
  0
SCALE
  5
57
102
{ACAD_REACTORS
330
47
102
}
330
47
100
AcDbScale
 70
     0
300
10:1
140
10.0
141
1.0
290
     0
  0
SCALE
  5
58
102
{ACAD_REACTORS
330
47
102
}
330
47
100
AcDbScale
 70
     0
300
100:1
140
100.0
141
1.0
290
     0
  0
ACDBSECTIONVIEWSTYLE
  5
255
102
{ACAD_XDICTIONARY
360
83D
102
}
102
{ACAD_REACTORS
330
254
102
}
330
254
100
AcDbModelDocViewStyle
 70
     0
  3
Metric50
290
     0
100
AcDbSectionViewStyle
 70
     0
 71
     0
 90
      102
 71
     1
340
11
 40
5.0
340
0
340
0
 40
5.0
300
I, O, Q, S, X, Z
 40
10.0
 90
        0
 40
2.5
 90
        0
 71
     2
340
16
 90
       25
340
16
 90
       50
 40
5.0
 40
2.5
 40
5.0
 71
     3
340
11
 40
5.0
 90
        0
 40
15.0
 90
        1
300
%<\AcVar ViewSectionStartId>%-%<\AcVar ViewSectionEndId>% (%<\AcVar ViewScale \f "%sn">%)
 71
     4
300
ANSI31
 40
1.0
 90
        0
290
     0
290
     0
 90
        6
 40
0.0
 40
1.570796326794896
 40
0.2617993877991494
 40
1.308996938995747
 40
-0.2617993877991494
 40
1.832595714594044
  0
TABLESTYLE
  5
5A
102
{ACAD_XDICTIONARY
360
6B0
102
}
102
{ACAD_REACTORS
330
59
102
}
330
59
100
AcDbTableStyle
  3
Standard
 70
     0
 71
     0
 40
1.5
 41
1.5
280
     0
281
     0
  7
Standard
140
4.5
170
     2
 62
     0
 63
     7
283
     0
274
    -2
284
     1
 64
     0
275
    -2
285
     1
 65
     0
276
    -2
286
     1
 66
     0
277
    -2
287
     1
 67
     0
278
    -2
288
     1
 68
     0
279
    -2
289
     1
 69
     0
  7
Standard
140
6.0
170
     5
 62
     0
 63
     7
283
     0
274
    -2
284
     1
 64
     0
275
    -2
285
     1
 65
     0
276
    -2
286
     1
 66
     0
277
    -2
287
     1
 67
     0
278
    -2
288
     1
 68
     0
279
    -2
289
     1
 69
     0
  7
Standard
140
4.5
170
     5
 62
     0
 63
     7
283
     0
274
    -2
284
     1
 64
     0
275
    -2
285
     1
 65
     0
276
    -2
286
     1
 66
     0
277
    -2
287
     1
 67
     0
278
    -2
288
     1
 68
     0
279
    -2
289
     1
 69
     0
  0
VISUALSTYLE
  5
2F
102
{ACAD_XDICTIONARY
360
814
102
}
102
{ACAD_REACTORS
330
2A
102
}
330
2A
100
AcDbVisualStyle
  2

 70
     4
 71
     0
 72
     2
 73
     0
 90
        0
 40
-0.6
 41
-30.0
 62
     5
 63
     7
 74
     1
 91
        4
 64
     7
 65
   257
 75
     1
175
     1
 42
1.0
 92
        0
 66
   257
 43
1.0
 76
     1
 77
     6
 78
     2
 67
     7
 79
     5
170
     0
171
     0
290
     0
174
     0
 93
        1
 44
0.0
173
     0
291
     0
 45
0.0
1001
ACAD
1000
AcDbSavedByObjectVersion
1070
     0
  0
VISUALSTYLE
  5
32
102
{ACAD_XDICTIONARY
360
81A
102
}
102
{ACAD_REACTORS
330
2A
102
}
330
2A
100
AcDbVisualStyle
  2

 70
     7
 71
     1
 72
     0
 73
     1
 90
        0
 40
-0.6
 41
-30.0
 62
     5
 63
     7
 74
     0
 91
        4
 64
     7
 65
   257
 75
     1
175
     1
 42
1.0
 92
        8
 66
     7
 43
1.0
 76
     1
 77
     6
 78
     2
 67
     7
 79
     5
170
     0
171
     0
290
     0
174
     0
 93
        1
 44
0.0
173
     0
291
     1
 45
0.0
1001
ACAD
1000
AcDbSavedByObjectVersion
1070
     0
  0
VISUALSTYLE
  5
36
102
{ACAD_XDICTIONARY
360
822
102
}
102
{ACAD_REACTORS
330
2A
102
}
330
2A
100
AcDbVisualStyle
  2

 70
    12
 71
     2
 72
     2
 73
     0
 90
        0
 40
-0.6
 41
-30.0
 62
     5
 63
     7
 74
     1
 91
        4
 64
     7
 65
   257
 75
     1
175
     1
 42
1.0
 92
        8
 66
     7
 43
1.0
 76
     1
 77
     6
 78
     2
 67
     7
 79
     5
170
     0
171
     0
290
     0
174
     0
 93
        1
 44
50.0
173
     0
291
     1
 45
0.0
1001
ACAD
1000
AcDbSavedByObjectVersion
1070
     0
  0
VISUALSTYLE
  5
3A
102
{ACAD_XDICTIONARY
360
82A
102
}
102
{ACAD_REACTORS
330
2A
102
}
330
2A
100
AcDbVisualStyle
  2

 70
    16
 71
     2
 72
     2
 73
     3
 90
        0
 40
-0.6
 41
-30.0
 62
     5
 63
     8
 74
     1
 91
        4
 64
     7
 65
   257
 75
     1
175
     1
 42
1.0
 92
        8
 66
     8
 43
1.0
 76
     1
 77
     6
 78
     2
 67
     7
 79
     5
170
     0
171
     0
290
     0
174
     0
 93
        1
 44
0.0
173
     0
291
     1
 45
0.0
1001
ACAD
1000
AcDbSavedByObjectVersion
1070
     0
  0
VISUALSTYLE
  5
34
102
{ACAD_XDICTIONARY
360
81E
102
}
102
{ACAD_REACTORS
330
2A
102
}
330
2A
100
AcDbVisualStyle
  2

 70
     9
 71
     3
 72
     2
 73
     0
 90
        0
 40
-0.6
 41
-30.0
 62
     5
 63
     7
 74
     2
 91
        2
 64
     7
 65
   257
 75
     1
175
     1
 42
179.0
 92
        8
 66
     7
 43
1.0
 76
     1
 77
     6
 78
     2
 67
     7
 79
     3
170
     0
171
     0
290
     0
174
     0
 93
        1
 44
0.0
173
     0
291
     0
 45
0.0
1001
ACAD
1000
AcDbSavedByObjectVersion
1070
     0
  0
VISUALSTYLE
  5
35
102
{ACAD_XDICTIONARY
360
820
102
}
102
{ACAD_REACTORS
330
2A
102
}
330
2A
100
AcDbVisualStyle
  2

 70
    11
 71
     2
 72
     2
 73
     0
 90
        0
 40
-0.6
 41
-30.0
 62
     5
 63
     7
 74
     1
 91
        4
 64
     7
 65
   257
 75
     1
175
     1
 42
1.0
 92
        8
 66
     7
 43
1.0
 76
     1
 77
     6
 78
     2
 67
     7
 79
     5
170
     0
171
     0
290
     0
174
     0
 93
        1
 44
-50.0
173
     0
291
     1
 45
0.0
1001
ACAD
1000
AcDbSavedByObjectVersion
1070
     0
  0
VISUALSTYLE
  5
3D
102
{ACAD_XDICTIONARY
360
830
102
}
102
{ACAD_REACTORS
330
2A
102
}
330
2A
100
AcDbVisualStyle
  2

 70
    22
 71
     2
 72
     2
 73
     0
 90
        0
 40
-0.6
 41
-30.0
 62
     5
 63
     7
 74
     1
 91
        4
 64
     7
 65
   257
 75
     1
175
     1
 42
1.0
 92
        8
 66
     7
 43
1.0
 76
     1
 77
     6
 78
     2
 67
     7
 79
     5
170
     0
171
     0
290
     0
174
     0
 93
        1
 44
0.0
173
     0
291
     1
 45
0.0
1001
ACAD
1000
AcDbSavedByObjectVersion
1070
     0
  0
VISUALSTYLE
  5
39
102
{ACAD_XDICTIONARY
360
828
102
}
102
{ACAD_REACTORS
330
2A
102
}
330
2A
100
AcDbVisualStyle
  2

 70
    15
 71
     2
 72
     2
 73
     0
 90
        0
 40
-0.6
 41
-30.0
 62
     5
 63
     7
 74
     1
 91
        4
 64
     7
 65
   257
 75
     1
175
     1
 42
1.0
 92
        8
 66
     7
 43
1.0
 76
     1
 77
     6
 78
     2
 67
     7
 79
     5
170
     0
171
     0
290
     0
174
     0
 93
        1
 44
0.0
173
     0
291
     1
 45
0.0
1001
ACAD
1000
AcDbSavedByObjectVersion
1070
     0
  0
VISUALSTYLE
  5
2B
102
{ACAD_XDICTIONARY
360
80C
102
}
102
{ACAD_REACTORS
330
2A
102
}
330
2A
100
AcDbVisualStyle
  2

 70
     0
 71
     2
 72
     1
 73
     1
 90
        2
 40
-0.6
 41
30.0
 62
     5
 63
     7
 74
     0
 91
        0
 64
     7
 65
   257
 75
     1
175
     1
 42
1.0
 92
        8
 66
     7
 43
1.0
 76
     1
 77
     6
 78
     2
 67
     7
 79
     5
170
     0
171
     0
290
     0
174
     0
 93
       13
 44
0.0
173
     0
291
     1
 45
0.0
1001
ACAD
1000
AcDbSavedByObjectVersion
1070
     0
  0
VISUALSTYLE
  5
2C
102
{ACAD_XDICTIONARY
360
80E
102
}
102
{ACAD_REACTORS
330
2A
102
}
330
2A
100
AcDbVisualStyle
  2

 70
     1
 71
     2
 72
     1
 73
     1
 90
        2
 40
-0.6
 41
30.0
 62
     5
 63
     7
 74
     1
 91
        0
 64
     7
 65
   257
 75
     1
175
     1
 42
1.0
 92
        0
 66
   257
 43
1.0
 76
     1
 77
     6
 78
     2
 67
     7
 79
     5
170
     0
171
     0
290
     0
174
     0
 93
       13
 44
0.0
173
     0
291
     1
 45
0.0
1001
ACAD
1000
AcDbSavedByObjectVersion
1070
     0
  0
VISUALSTYLE
  5
2D
102
{ACAD_XDICTIONARY
360
810
102
}
102
{ACAD_REACTORS
330
2A
102
}
330
2A
100
AcDbVisualStyle
  2

 70
     2
 71
     2
 72
     2
 73
     1
 90
        2
 40
-0.6
 41
30.0
 62
     5
 63
     7
 74
     0
 91
        0
 64
     7
 65
   257
 75
     1
175
     1
 42
1.0
 92
        0
 66
     7
 43
1.0
 76
     1
 77
     6
 78
     2
 67
     7
 79
     5
170
     0
171
     0
290
     0
174
     0
 93
       13
 44
0.0
173
     0
291
     1
 45
0.0
1001
ACAD
1000
AcDbSavedByObjectVersion
1070
     0
  0
VISUALSTYLE
  5
2E
102
{ACAD_XDICTIONARY
360
812
102
}
102
{ACAD_REACTORS
330
2A
102
}
330
2A
100
AcDbVisualStyle
  2

 70
     3
 71
     2
 72
     2
 73
     1
 90
        2
 40
-0.6
 41
30.0
 62
     5
 63
     7
 74
     1
 91
        0
 64
     7
 65
   257
 75
     1
175
     1
 42
1.0
 92
        0
 66
   257
 43
1.0
 76
     1
 77
     6
 78
     2
 67
     7
 79
     5
170
     0
171
     0
290
     0
174
     0
 93
       13
 44
0.0
173
     0
291
     1
 45
0.0
1001
ACAD
1000
AcDbSavedByObjectVersion
1070
     0
  0
VISUALSTYLE
  5
31
102
{ACAD_XDICTIONARY
360
818
102
}
102
{ACAD_REACTORS
330
2A
102
}
330
2A
100
AcDbVisualStyle
  2

 70
     6
 71
     1
 72
     2
 73
     2
 90
        0
 40
-0.6
 41
-30.0
 62
     5
 63
     7
 74
     2
 91
        2
 64
     7
 65
   257
 75
     2
175
     1
 42
40.0
 92
        0
 66
   257
 43
1.0
 76
     1
 77
     6
 78
     2
 67
     7
 79
     3
170
     0
171
     0
290
     0
174
     0
 93
        1
 44
0.0
173
     0
291
     0
 45
0.0
1001
ACAD
1000
AcDbSavedByObjectVersion
1070
     0
  0
VISUALSTYLE
  5
3B
102
{ACAD_XDICTIONARY
360
82C
102
}
102
{ACAD_REACTORS
330
2A
102
}
330
2A
100
AcDbVisualStyle
  2

 70
    20
 71
     2
 72
     2
 73
     0
 90
        0
 40
-0.6
 41
-30.0
 62
     5
 63
     7
 74
     1
 91
        4
 64
     7
 65
   257
 75
     1
175
     1
 42
1.0
 92
       10
 66
     7
 43
1.0
 76
     1
 77
     6
 78
     2
 67
     7
 79
     5
170
     0
171
     0
290
     0
174
     0
 93
        1
 44
0.0
173
     0
291
     1
 45
0.0
1001
ACAD
1000
AcDbSavedByObjectVersion
1070
     0
  0
VISUALSTYLE
  5
38
102
{ACAD_XDICTIONARY
360
826
102
}
102
{ACAD_REACTORS
330
2A
102
}
330
2A
100
AcDbVisualStyle
  2

 70
    14
 71
     2
 72
     2
 73
     0
 90
        0
 40
-0.6
 41
-30.0
 62
     5
 63
     7
 74
     1
 91
        4
 64
     7
 65
   257
 75
     7
175
     7
 42
1.0
 92
        8
 66
     7
 43
1.0
 76
     1
 77
     6
 78
     2
 67
     7
 79
     5
170
     0
171
     0
290
     0
174
     0
 93
        1
 44
0.0
173
     0
291
     1
 45
0.0
1001
ACAD
1000
AcDbSavedByObjectVersion
1070
     0
  0
VISUALSTYLE
  5
3C
102
{ACAD_XDICTIONARY
360
82E
102
}
102
{ACAD_REACTORS
330
2A
102
}
330
2A
100
AcDbVisualStyle
  2

 70
    21
 71
     2
 72
     2
 73
     0
 90
        0
 40
-0.6
 41
-30.0
 62
     5
 63
     7
 74
     1
 91
        4
 64
     7
 65
   257
 75
     1
175
     1
 42
1.0
 92
        9
 66
     7
 43
1.0
 76
     1
 77
     6
 78
     2
 67
     7
 79
     5
170
     0
171
     0
290
     0
174
     0
 93
        1
 44
0.0
173
     0
291
     1
 45
0.0
1001
ACAD
1000
AcDbSavedByObjectVersion
1070
     0
  0
VISUALSTYLE
  5
33
102
{ACAD_XDICTIONARY
360
81C
102
}
102
{ACAD_REACTORS
330
2A
102
}
330
2A
100
AcDbVisualStyle
  2

 70
     8
 71
     2
 72
     3
 73
     0
 90
        2
 40
-0.6
 41
30.0
 62
     5
 63
     7
 74
     0
 91
        0
 64
     7
 65
   257
 75
     1
175
     1
 42
1.0
 92
        8
 66
   257
 43
1.0
 76
     1
 77
     6
 78
     2
 67
     7
 79
     3
170
     0
171
     0
290
     0
174
     0
 93
       13
 44
0.0
173
     0
291
     0
 45
0.0
1001
ACAD
1000
AcDbSavedByObjectVersion
1070
     0
  0
VISUALSTYLE
  5
42
102
{ACAD_XDICTIONARY
360
83A
102
}
102
{ACAD_REACTORS
330
2A
102
}
330
2A
100
AcDbVisualStyle
  2

 70
    27
 71
     2
 72
     2
 73
     1
 90
        2
 40
-0.6
 41
30.0
 62
     5
 63
     7
 74
     0
 91
        4
 64
     7
 65
   257
 75
     1
175
     1
 42
1.0
 92
        8
 66
   257
 43
1.0
 76
     1
 77
     6
 78
     2
 67
     8
 79
     3
170
     0
171
     0
290
     0
174
     0
 93
        5
 44
0.0
173
     0
291
     0
 45
0.0
1001
ACAD
1000
AcDbSavedByObjectVersion
1070
     0
  0
VISUALSTYLE
  5
41
102
{ACAD_XDICTIONARY
360
838
102
}
102
{ACAD_REACTORS
330
2A
102
}
330
2A
100
AcDbVisualStyle
  2

 70
    26
 71
     2
 72
     2
 73
     1
 90
        2
 40
-0.6
 41
30.0
 62
     5
 63
     7
 74
     1
 91
       10
 64
     7
 65
   257
 75
     2
175
     1
 42
1.0
 92
        8
 66
   257
 43
1.0
 76
     1
 77
     6
 78
     2
 67
     7
 79
     3
170
     0
171
     0
290
     0
174
     0
 93
        5
 44
0.0
173
     0
291
     0
 45
0.0
1001
ACAD
1000
AcDbSavedByObjectVersion
1070
     0
  0
VISUALSTYLE
  5
3E
102
{ACAD_XDICTIONARY
360
832
102
}
102
{ACAD_REACTORS
330
2A
102
}
330
2A
100
AcDbVisualStyle
  2

 70
    23
 71
     2
 72
     2
 73
     3
 90
        0
 40
-0.6
 41
-30.0
 62
     5
 63
     7
 74
     2
 91
        2
 64
     7
 65
     7
 75
     1
175
     1
 42
40.0
 92
        8
 66
     7
 43
1.0
 76
     1
 77
     6
 78
     2
 67
     7
 79
     3
170
     0
171
     0
290
     0
174
     0
 93
        1
 44
0.0
173
     0
291
     0
 45
0.0
1001
ACAD
1000
AcDbSavedByObjectVersion
1070
     0
  0
VISUALSTYLE
  5
3F
102
{ACAD_XDICTIONARY
360
834
102
}
102
{ACAD_REACTORS
330
2A
102
}
330
2A
100
AcDbVisualStyle
  2

 70
    24
 71
     1
 72
     2
 73
     2
 90
        0
 40
-0.6
 41
-30.0
 62
     5
 63
     7
 74
     2
 91
        2
 64
     7
 65
     7
 75
     1
175
     1
 42
40.0
 92
       11
 66
     7
 43
1.0
 76
     1
 77
     6
 78
     2
 67
     7
 79
     6
170
     0
171
     0
290
     0
174
     0
 93
        1
 44
0.0
173
     0
291
     0
 45
0.0
1001
ACAD
1000
AcDbSavedByObjectVersion
1070
     0
  0
VISUALSTYLE
  5
37
102
{ACAD_XDICTIONARY
360
824
102
}
102
{ACAD_REACTORS
330
2A
102
}
330
2A
100
AcDbVisualStyle
  2

 70
    13
 71
     2
 72
     2
 73
     0
 90
        0
 40
-0.6
 41
-30.0
 62
     5
 63
     7
 74
     1
 91
        4
 64
     7
 65
   257
 75
     1
175
     1
 42
1.0
 92
       12
 66
     7
 43
1.0
 76
     1
 77
     6
 78
     2
 67
     7
 79
     5
170
     0
171
     0
290
     0
174
     0
 93
        1
 44
0.0
173
     0
291
     1
 45
0.0
1001
ACAD
1000
AcDbSavedByObjectVersion
1070
     0
  0
VISUALSTYLE
  5
30
102
{ACAD_XDICTIONARY
360
816
102
}
102
{ACAD_REACTORS
330
2A
102
}
330
2A
100
AcDbVisualStyle
  2

 70
     5
 71
     0
 72
     2
 73
     0
 90
        0
 40
-0.6
 41
-30.0
 62
     5
 63
     7
 74
     1
 91
        4
 64
     7
 65
   257
 75
     1
175
     1
 42
1.0
 92
        0
 66
   257
 43
1.0
 76
     1
 77
     6
 78
     2
 67
     7
 79
     3
170
     0
171
     0
290
     0
174
     0
 93
        1
 44
0.0
173
     0
291
     0
 45
0.0
1001
ACAD
1000
AcDbSavedByObjectVersion
1070
     0
  0
VISUALSTYLE
  5
40
102
{ACAD_XDICTIONARY
360
836
102
}
102
{ACAD_REACTORS
330
2A
102
}
330
2A
100
AcDbVisualStyle
  2

 70
    25
 71
     2
 72
     2
 73
     1
 90
        1
 40
0.5
 41
-30.0
 62
     5
 63
     7
 74
     1
 91
        0
 64
     7
 65
   257
 75
     1
175
     1
 42
1.0
 92
        8
 66
     7
 43
1.0
 76
     1
 77
     6
 78
     2
 67
     7
 79
     3
170
     0
171
     0
290
     0
174
     0
 93
       13
 44
0.0
173
     0
291
     0
 45
0.0
1001
ACAD
1000
AcDbSavedByObjectVersion
1070
     0
  0
DICTIONARYVAR
  5
216
102
{ACAD_REACTORS
330
208
102
}
330
208
100
DictionaryVariables
280
     0
  1
1:1
  0
DICTIONARYVAR
  5
20F
102
{ACAD_REACTORS
330
208
102
}
330
208
100
DictionaryVariables
280
     0
  1
3.500000
  0
DICTIONARYVAR
  5
210
102
{ACAD_REACTORS
330
208
102
}
330
208
100
DictionaryVariables
280
     0
  1
acadiso.lin
  0
DICTIONARYVAR
  5
20A
102
{ACAD_REACTORS
330
208
102
}
330
208
100
DictionaryVariables
280
     0
  1
STANDARD
  0
DICTIONARYVAR
  5
209
102
{ACAD_REACTORS
330
208
102
}
330
208
100
DictionaryVariables
280
     0
  1
STANDARD
  0
DICTIONARYVAR
  5
6AB
102
{ACAD_REACTORS
330
208
102
}
330
208
100
DictionaryVariables
280
     0
  1
Metric50
  0
DICTIONARYVAR
  5
6AC
102
{ACAD_REACTORS
330
208
102
}
330
208
100
DictionaryVariables
280
     0
  1
Metric50
  0
DICTIONARYVAR
  5
211
102
{ACAD_REACTORS
330
208
102
}
330
208
100
DictionaryVariables
280
     0
  1
2
  0
DICTIONARYVAR
  5
212
102
{ACAD_REACTORS
330
208
102
}
330
208
100
DictionaryVariables
280
     0
  1
1
  0
DICTIONARYVAR
  5
705
102
{ACAD_REACTORS
330
208
102
}
330
208
100
DictionaryVariables
280
     0
  1
0
  0
DICTIONARYVAR
  5
6AE
102
{ACAD_REACTORS
330
208
102
}
330
208
100
DictionaryVariables
280
     0
  1
1
  0
DICTIONARYVAR
  5
6AF
102
{ACAD_REACTORS
330
208
102
}
330
208
100
DictionaryVariables
280
     0
  1
15
  0
DICTIONARYVAR
  5
6AD
102
{ACAD_REACTORS
330
208
102
}
330
208
100
DictionaryVariables
280
     0
  1
0
  0
DICTIONARYVAR
  5
802
102
{ACAD_REACTORS
330
208
102
}
330
208
100
DictionaryVariables
280
     0
  1
1.570796
  0
DICTIONARYVAR
  5
803
102
{ACAD_REACTORS
330
208
102
}
330
208
100
DictionaryVariables
280
     0
  1
1.570796
  0
DICTIONARYVAR
  5
217
102
{ACAD_REACTORS
330
208
102
}
330
208
100
DictionaryVariables
280
     0
  1
1
  0
DICTIONARYVAR
  5
801
102
{ACAD_REACTORS
330
208
102
}
330
208
100
DictionaryVariables
280
     0
  1
80.000000
  0
DICTIONARYVAR
  5
800
102
{ACAD_REACTORS
330
208
102
}
330
208
100
DictionaryVariables
280
     0
  1
5.000000
  0
DICTIONARYVAR
  5
704
102
{ACAD_REACTORS
330
208
102
}
330
208
100
DictionaryVariables
280
     0
  1
127
  0
DICTIONARYVAR
  5
804
102
{ACAD_REACTORS
330
208
102
}
330
208
100
DictionaryVariables
280
     0
  1
2
  0
DICTIONARY
  5
83F
330
257
100
AcDbDictionary
280
     1
281
     1
  3
ACAD_XREC_ROUNDTRIP
360
840
  0
DICTIONARY
  5
808
330
1E
100
AcDbDictionary
280
     1
281
     1
  3
ACAD_XREC_ROUNDTRIP
360
809
  0
DICTIONARY
  5
80A
330
22
100
AcDbDictionary
280
     1
281
     1
  3
ACAD_XREC_ROUNDTRIP
360
80B
  0
DICTIONARY
  5
841
330
258
100
AcDbDictionary
280
     1
281
     1
  3
ACAD_XREC_ROUNDTRIP
360
842
  0
DICTIONARY
  5
24A
330
45
100
AcDbDictionary
280
     1
281
     1
  3
ACAD_XREC_ROUNDTRIP
360
24B
  0
DICTIONARY
  5
248
330
44
100
AcDbDictionary
280
     1
281
     1
  3
ACAD_XREC_ROUNDTRIP
360
249
  0
DICTIONARY
  5
24C
330
46
100
AcDbDictionary
280
     1
281
     1
  3
ACAD_XREC_ROUNDTRIP
360
24D
  0
DICTIONARY
  5
83D
330
255
100
AcDbDictionary
280
     1
281
     1
  3
ACAD_XREC_ROUNDTRIP
360
83E
  0
DICTIONARY
  5
6B0
330
5A
100
AcDbDictionary
280
     1
281
     1
  3
ACAD_ROUNDTRIP_2008_TABLESTYLE_CELLSTYLEMAP
360
805
  3
ACAD_XREC_ROUNDTRIP
360
83C
  0
DICTIONARY
  5
814
330
2F
100
AcDbDictionary
280
     1
281
     1
  3
ACAD_XREC_ROUNDTRIP
360
815
  0
DICTIONARY
  5
81A
330
32
100
AcDbDictionary
280
     1
281
     1
  3
ACAD_XREC_ROUNDTRIP
360
81B
  0
DICTIONARY
  5
822
330
36
100
AcDbDictionary
280
     1
281
     1
  3
ACAD_XREC_ROUNDTRIP
360
823
  0
DICTIONARY
  5
82A
330
3A
100
AcDbDictionary
280
     1
281
     1
  3
ACAD_XREC_ROUNDTRIP
360
82B
  0
DICTIONARY
  5
81E
330
34
100
AcDbDictionary
280
     1
281
     1
  3
ACAD_XREC_ROUNDTRIP
360
81F
  0
DICTIONARY
  5
820
330
35
100
AcDbDictionary
280
     1
281
     1
  3
ACAD_XREC_ROUNDTRIP
360
821
  0
DICTIONARY
  5
830
330
3D
100
AcDbDictionary
280
     1
281
     1
  3
ACAD_XREC_ROUNDTRIP
360
831
  0
DICTIONARY
  5
828
330
39
100
AcDbDictionary
280
     1
281
     1
  3
ACAD_XREC_ROUNDTRIP
360
829
  0
DICTIONARY
  5
80C
330
2B
100
AcDbDictionary
280
     1
281
     1
  3
ACAD_XREC_ROUNDTRIP
360
80D
  0
DICTIONARY
  5
80E
330
2C
100
AcDbDictionary
280
     1
281
     1
  3
ACAD_XREC_ROUNDTRIP
360
80F
  0
DICTIONARY
  5
810
330
2D
100
AcDbDictionary
280
     1
281
     1
  3
ACAD_XREC_ROUNDTRIP
360
811
  0
DICTIONARY
  5
812
330
2E
100
AcDbDictionary
280
     1
281
     1
  3
ACAD_XREC_ROUNDTRIP
360
813
  0
DICTIONARY
  5
818
330
31
100
AcDbDictionary
280
     1
281
     1
  3
ACAD_XREC_ROUNDTRIP
360
819
  0
DICTIONARY
  5
82C
330
3B
100
AcDbDictionary
280
     1
281
     1
  3
ACAD_XREC_ROUNDTRIP
360
82D
  0
DICTIONARY
  5
826
330
38
100
AcDbDictionary
280
     1
281
     1
  3
ACAD_XREC_ROUNDTRIP
360
827
  0
DICTIONARY
  5
82E
330
3C
100
AcDbDictionary
280
     1
281
     1
  3
ACAD_XREC_ROUNDTRIP
360
82F
  0
DICTIONARY
  5
81C
330
33
100
AcDbDictionary
280
     1
281
     1
  3
ACAD_XREC_ROUNDTRIP
360
81D
  0
DICTIONARY
  5
83A
330
42
100
AcDbDictionary
280
     1
281
     1
  3
ACAD_XREC_ROUNDTRIP
360
83B
  0
DICTIONARY
  5
838
330
41
100
AcDbDictionary
280
     1
281
     1
  3
ACAD_XREC_ROUNDTRIP
360
839
  0
DICTIONARY
  5
832
330
3E
100
AcDbDictionary
280
     1
281
     1
  3
ACAD_XREC_ROUNDTRIP
360
833
  0
DICTIONARY
  5
834
330
3F
100
AcDbDictionary
280
     1
281
     1
  3
ACAD_XREC_ROUNDTRIP
360
835
  0
DICTIONARY
  5
824
330
37
100
AcDbDictionary
280
     1
281
     1
  3
ACAD_XREC_ROUNDTRIP
360
825
  0
DICTIONARY
  5
816
330
30
100
AcDbDictionary
280
     1
281
     1
  3
ACAD_XREC_ROUNDTRIP
360
817
  0
DICTIONARY
  5
836
330
40
100
AcDbDictionary
280
     1
281
     1
  3
ACAD_XREC_ROUNDTRIP
360
837
  0
XRECORD
  5
840
102
{ACAD_REACTORS
330
83F
102
}
330
83F
100
AcDbXrecord
280
     1
102
DISPLAYNAME
  1
Metric50
102
FLAGS
 90
        0
  0
XRECORD
  5
809
102
{ACAD_REACTORS
330
808
102
}
330
808
100
AcDbXrecord
280
     1
102
SHADEPLOT
 70
     0
102
SHADEPLOTRESLEVEL
 70
     2
102
SHADEPLOTCUSTOMDPI
 70
   300
  0
XRECORD
  5
80B
102
{ACAD_REACTORS
330
80A
102
}
330
80A
100
AcDbXrecord
280
     1
102
SHADEPLOT
 70
     0
102
SHADEPLOTRESLEVEL
 70
     2
102
SHADEPLOTCUSTOMDPI
 70
   300
  0
XRECORD
  5
842
102
{ACAD_REACTORS
330
841
102
}
330
841
100
AcDbXrecord
280
     1
102
SHADEPLOT
 70
     0
102
SHADEPLOTRESLEVEL
 70
     2
102
SHADEPLOTCUSTOMDPI
 70
   300
  0
XRECORD
  5
24B
102
{ACAD_REACTORS
330
24A
102
}
330
24A
100
AcDbXrecord
280
     1
102
MATERIAL
148
0.0
149
0.0
149
0.0
 93
        0
 94
      127
282
     0
 72
     1
 77
     1
171
     1
175
     1
179
     1
273
     0
  0
XRECORD
  5
249
102
{ACAD_REACTORS
330
248
102
}
330
248
100
AcDbXrecord
280
     1
102
MATERIAL
148
0.0
149
0.0
149
0.0
 93
        0
 94
      127
282
     0
 72
     1
 77
     1
171
     1
175
     1
179
     1
273
     0
  0
XRECORD
  5
24D
102
{ACAD_REACTORS
330
24C
102
}
330
24C
100
AcDbXrecord
280
     1
102
MATERIAL
148
0.0
149
0.0
149
0.0
 93
        0
 94
      127
282
     0
 72
     1
 77
     1
171
     1
175
     1
179
     1
273
     0
  0
XRECORD
  5
83E
102
{ACAD_REACTORS
330
83D
102
}
330
83D
100
AcDbXrecord
280
     1
102
DISPLAYNAME
  1
Metric50
102
FLAGS
 90
        0
  0
CELLSTYLEMAP
  5
805
102
{ACAD_REACTORS
330
6B0
102
}
330
6B0
100
AcDbCellStyleMap
 90
        3
300
CELLSTYLE
  1
TABLEFORMAT_BEGIN
 90
        5
170
     1
 91
        0
 92
    32768
 62
   257
 93
        1
300
CONTENTFORMAT
  1
CONTENTFORMAT_BEGIN
 90
        0
 91
        0
 92
        4
 93
        0
300

 40
0.0
140
1.0
 94
        5
 62
     0
340
11
144
6.0
309
CONTENTFORMAT_END
171
     1
301
MARGIN
  1
CELLMARGIN_BEGIN
 40
1.5
 40
1.5
 40
1.5
 40
1.5
 40
0.18
 40
0.18
309
CELLMARGIN_END
 94
        6
 95
        1
302
GRIDFORMAT
  1
GRIDFORMAT_BEGIN
 90
        0
 91
        1
 62
     0
 92
       -2
340
0
 93
        0
 40
0.045
309
GRIDFORMAT_END
 95
        2
302
GRIDFORMAT
  1
GRIDFORMAT_BEGIN
 90
        0
 91
        1
 62
     0
 92
       -2
340
0
 93
        0
 40
0.045
309
GRIDFORMAT_END
 95
        4
302
GRIDFORMAT
  1
GRIDFORMAT_BEGIN
 90
        0
 91
        1
 62
     0
 92
       -2
340
0
 93
        0
 40
0.045
309
GRIDFORMAT_END
 95
        8
302
GRIDFORMAT
  1
GRIDFORMAT_BEGIN
 90
        0
 91
        1
 62
     0
 92
       -2
340
0
 93
        0
 40
0.045
309
GRIDFORMAT_END
 95
       16
302
GRIDFORMAT
  1
GRIDFORMAT_BEGIN
 90
        0
 91
        1
 62
     0
 92
       -2
340
0
 93
        0
 40
0.045
309
GRIDFORMAT_END
 95
       32
302
GRIDFORMAT
  1
GRIDFORMAT_BEGIN
 90
        0
 91
        1
 62
     0
 92
       -2
340
0
 93
        0
 40
0.045
309
GRIDFORMAT_END
309
TABLEFORMAT_END
  1
CELLSTYLE_BEGIN
 90
        1
 91
        1
300
_TITLE
309
CELLSTYLE_END
300
CELLSTYLE
  1
TABLEFORMAT_BEGIN
 90
        5
170
     1
 91
        0
 92
        0
 62
   257
 93
        1
300
CONTENTFORMAT
  1
CONTENTFORMAT_BEGIN
 90
        0
 91
        0
 92
        4
 93
        0
300

 40
0.0
140
1.0
 94
        5
 62
     0
340
11
144
4.5
309
CONTENTFORMAT_END
171
     1
301
MARGIN
  1
CELLMARGIN_BEGIN
 40
1.5
 40
1.5
 40
1.5
 40
1.5
 40
0.18
 40
0.18
309
CELLMARGIN_END
 94
        6
 95
        1
302
GRIDFORMAT
  1
GRIDFORMAT_BEGIN
 90
        0
 91
        1
 62
     0
 92
       -2
340
0
 93
        0
 40
0.045
309
GRIDFORMAT_END
 95
        2
302
GRIDFORMAT
  1
GRIDFORMAT_BEGIN
 90
        0
 91
        1
 62
     0
 92
       -2
340
0
 93
        0
 40
0.045
309
GRIDFORMAT_END
 95
        4
302
GRIDFORMAT
  1
GRIDFORMAT_BEGIN
 90
        0
 91
        1
 62
     0
 92
       -2
340
0
 93
        0
 40
0.045
309
GRIDFORMAT_END
 95
        8
302
GRIDFORMAT
  1
GRIDFORMAT_BEGIN
 90
        0
 91
        1
 62
     0
 92
       -2
340
0
 93
        0
 40
0.045
309
GRIDFORMAT_END
 95
       16
302
GRIDFORMAT
  1
GRIDFORMAT_BEGIN
 90
        0
 91
        1
 62
     0
 92
       -2
340
0
 93
        0
 40
0.045
309
GRIDFORMAT_END
 95
       32
302
GRIDFORMAT
  1
GRIDFORMAT_BEGIN
 90
        0
 91
        1
 62
     0
 92
       -2
340
0
 93
        0
 40
0.045
309
GRIDFORMAT_END
309
TABLEFORMAT_END
  1
CELLSTYLE_BEGIN
 90
        2
 91
        1
300
_HEADER
309
CELLSTYLE_END
300
CELLSTYLE
  1
TABLEFORMAT_BEGIN
 90
        5
170
     1
 91
        0
 92
        0
 62
   257
 93
        1
300
CONTENTFORMAT
  1
CONTENTFORMAT_BEGIN
 90
        0
 91
        0
 92
        4
 93
        0
300

 40
0.0
140
1.0
 94
        2
 62
     0
340
11
144
4.5
309
CONTENTFORMAT_END
171
     1
301
MARGIN
  1
CELLMARGIN_BEGIN
 40
1.5
 40
1.5
 40
1.5
 40
1.5
 40
0.18
 40
0.18
309
CELLMARGIN_END
 94
        6
 95
        1
302
GRIDFORMAT
  1
GRIDFORMAT_BEGIN
 90
        0
 91
        1
 62
     0
 92
       -2
340
0
 93
        0
 40
0.045
309
GRIDFORMAT_END
 95
        2
302
GRIDFORMAT
  1
GRIDFORMAT_BEGIN
 90
        0
 91
        1
 62
     0
 92
       -2
340
0
 93
        0
 40
0.045
309
GRIDFORMAT_END
 95
        4
302
GRIDFORMAT
  1
GRIDFORMAT_BEGIN
 90
        0
 91
        1
 62
     0
 92
       -2
340
0
 93
        0
 40
0.045
309
GRIDFORMAT_END
 95
        8
302
GRIDFORMAT
  1
GRIDFORMAT_BEGIN
 90
        0
 91
        1
 62
     0
 92
       -2
340
0
 93
        0
 40
0.045
309
GRIDFORMAT_END
 95
       16
302
GRIDFORMAT
  1
GRIDFORMAT_BEGIN
 90
        0
 91
        1
 62
     0
 92
       -2
340
0
 93
        0
 40
0.045
309
GRIDFORMAT_END
 95
       32
302
GRIDFORMAT
  1
GRIDFORMAT_BEGIN
 90
        0
 91
        1
 62
     0
 92
       -2
340
0
 93
        0
 40
0.045
309
GRIDFORMAT_END
309
TABLEFORMAT_END
  1
CELLSTYLE_BEGIN
 90
        3
 91
        2
300
_DATA
309
CELLSTYLE_END
  0
XRECORD
  5
83C
102
{ACAD_REACTORS
330
6B0
102
}
330
6B0
100
AcDbXrecord
280
     1
102
ACAD_ROUNDTRIP_PRE2007_TABLESTYLE
 90
        4
 91
        0
  1

 92
        4
 93
        0
  2

 94
        4
 95
        0
  3

  0
XRECORD
  5
815
102
{ACAD_REACTORS
330
814
102
}
330
814
100
AcDbXrecord
280
     1
102
RTVSPost2010Prop28
280
     1
102
RTVSPost2010PropOp28
 70
     1
102
RTVSPost2010Prop29
280
     1
102
RTVSPost2010PropOp29
 70
     1
102
RTVSPost2010Prop30
280
     0
102
RTVSPost2010PropOp30
 70
     1
102
RTVSPost2010Prop31
280
     0
102
RTVSPost2010PropOp31
 70
     1
102
RTVSPost2010Prop32
280
     0
102
RTVSPost2010PropOp32
 70
     1
102
RTVSPost2010Prop33
280
     0
102
RTVSPost2010PropOp33
 70
     1
102
RTVSPost2010Prop34
280
     0
102
RTVSPost2010PropOp34
 70
     1
102
RTVSPost2010Prop35
280
     0
102
RTVSPost2010PropOp35
 70
     1
102
RTVSPost2010Prop36
280
     0
102
RTVSPost2010PropOp36
 70
     1
102
RTVSPost2010Prop37
 90
       50
102
RTVSPost2010PropOp37
 70
     1
102
RTVSPost2010Prop38
140
0.0
102
RTVSPost2010PropOp38
 70
     1
102
RTVSPost2010Prop39
140
1.0
102
RTVSPost2010PropOp39
 70
     1
102
RTVSPost2010Prop40
 90
        0
102
RTVSPost2010PropOp40
 70
     1
102
RTVSPost2010Prop41ColorIndex
 90
       18
102
RTVSPost2010Prop41ColorRGB
 90
        0
102
RTVSPost2010PropOp41
 70
     1
102
RTVSPost2010Prop42
 90
       50
102
RTVSPost2010PropOp42
 70
     1
102
RTVSPost2010Prop43
 90
        3
102
RTVSPost2010PropOp43
 70
     1
102
RTVSPost2010Prop44ColorIndex
 90
        5
102
RTVSPost2010Prop44ColorRGB
 90
      255
102
RTVSPost2010PropOp44
 70
     1
102
RTVSPost2010Prop45
280
     0
102
RTVSPost2010PropOp45
 70
     1
102
RTVSPost2010Prop46
 90
       50
102
RTVSPost2010PropOp46
 70
     1
102
RTVSPost2010Prop47
 90
       50
102
RTVSPost2010PropOp47
 70
     1
102
RTVSPost2010Prop48
 90
       50
102
RTVSPost2010PropOp48
 70
     1
102
RTVSPost2010Prop49
280
     0
102
RTVSPost2010PropOp49
 70
     1
102
RTVSPost2010Prop50
 90
       50
102
RTVSPost2010PropOp50
 70
     1
102
RTVSPost2010Prop51ColorIndex
 90
      256
102
RTVSPost2010Prop51ColorRGB
 90
-16777216
102
RTVSPost2010PropOp51
 70
     0
102
RTVSPost2010Prop52
140
1.0
102
RTVSPost2010PropOp52
 70
     0
102
RTVSPost2010Prop53
 90
        2
102
RTVSPost2010PropOp53
 70
     1
102
RTVSPost2010Prop54
  1
strokes_ogs.tif
102
RTVSPost2010PropOp54
 70
     1
102
RTVSPost2010Prop55
280
     0
102
RTVSPost2010PropOp55
 70
     1
102
RTVSPost2010Prop56
140
1.0
102
RTVSPost2010PropOp56
 70
     1
102
RTVSPost2010Prop57
140
1.0
102
RTVSPost2010PropOp57
 70
     1
102
RTVSPropertyOp0
 70
     1
102
RTVSPropertyOp1
 70
     1
102
RTVSPropertyOp2
 70
     1
102
RTVSPropertyOp3
 70
     1
102
RTVSPropertyOp4
 70
     1
102
RTVSPropertyOp5
 70
     1
102
RTVSPropertyOp6
 70
     1
102
RTVSPropertyOp7
 70
     1
102
RTVSPropertyOp8
 70
     1
102
RTVSPropertyOp9
 70
     1
102
RTVSPropertyOp10
 70
     1
102
RTVSPropertyOp11
 70
     1
102
RTVSPropertyOp12
 70
     1
102
RTVSPropertyOp13
 70
     1
102
RTVSPropertyOp14
 70
     1
102
RTVSPropertyOp15
 70
     1
102
RTVSPropertyOp16
 70
     1
102
RTVSPropertyOp17
 70
     1
102
RTVSPropertyOp18
 70
     1
102
RTVSPropertyOp19
 70
     1
102
RTVSPropertyOp20
 70
     1
102
RTVSPropertyOp21
 70
     1
102
RTVSPropertyOp22
 70
     1
102
RTVSPropertyOp23
 70
     1
102
RTVSPropertyOp24
 70
     1
102
RTVSPropertyOp25
 70
     1
102
RTVSPropertyOp26
 70
     1
102
RTVSPropertyOp27
 70
     1
102
RTVSPropertyOp28
 70
     1
102
RTVSPropertyOp29
 70
     1
102
RTVSPropertyOp30
 70
     1
102
RTVSPropertyOp31
 70
     1
102
RTVSPropertyOp32
 70
     1
102
RTVSPropertyOp33
 70
     1
102
RTVSPropertyOp34
 70
     1
102
RTVSPropertyOp35
 70
     1
102
RTVSPropertyOp36
 70
     1
102
RTVSPropertyOp37
 70
     1
102
RTVSPropertyOp38
 70
     1
102
RTVSPropertyOp39
 70
     1
102
RTVSPropertyOp40
 70
     1
102
RTVSPropertyOp41
 70
     1
102
RTVSPropertyOp42
 70
     1
102
RTVSPropertyOp43
 70
     1
102
RTVSPropertyOp44
 70
     1
102
RTVSPropertyOp45
 70
     1
102
RTVSPropertyOp46
 70
     1
102
RTVSPropertyOp47
 70
     1
102
RTVSPropertyOp48
 70
     1
102
RTVSPropertyOp49
 70
     1
102
RTVSPropertyOp50
 70
     1
102
RTVSPropertyOp51
 70
     0
102
RTVSPropertyOp52
 70
     0
102
RTVSPropertyOp53
 70
     1
102
RTVSPropertyOp54
 70
     1
102
RTVSPropertyOp55
 70
     1
102
RTVSPropertyOp56
 70
     1
102
RTVSPropertyOp57
 70
     1
102
RTVSPropertyOp58
 70
     1
102
RTVSPropertyOp59
 70
     1
102
RTVSPropertyOp60
 70
     1
102
RTVSPropertyOp61
 70
     1
102
RTVSPropertyOp62
 70
     1
  0
XRECORD
  5
81B
102
{ACAD_REACTORS
330
81A
102
}
330
81A
100
AcDbXrecord
280
     1
102
RTVSPost2010Prop28
280
     0
102
RTVSPost2010PropOp28
 70
     1
102
RTVSPost2010Prop29
280
     1
102
RTVSPost2010PropOp29
 70
     1
102
RTVSPost2010Prop30
280
     1
102
RTVSPost2010PropOp30
 70
     1
102
RTVSPost2010Prop31
280
     0
102
RTVSPost2010PropOp31
 70
     1
102
RTVSPost2010Prop32
280
     0
102
RTVSPost2010PropOp32
 70
     1
102
RTVSPost2010Prop33
280
     0
102
RTVSPost2010PropOp33
 70
     1
102
RTVSPost2010Prop34
280
     0
102
RTVSPost2010PropOp34
 70
     1
102
RTVSPost2010Prop35
280
     0
102
RTVSPost2010PropOp35
 70
     1
102
RTVSPost2010Prop36
280
     0
102
RTVSPost2010PropOp36
 70
     1
102
RTVSPost2010Prop37
 90
       50
102
RTVSPost2010PropOp37
 70
     1
102
RTVSPost2010Prop38
140
0.0
102
RTVSPost2010PropOp38
 70
     1
102
RTVSPost2010Prop39
140
1.0
102
RTVSPost2010PropOp39
 70
     1
102
RTVSPost2010Prop40
 90
        0
102
RTVSPost2010PropOp40
 70
     1
102
RTVSPost2010Prop41ColorIndex
 90
       18
102
RTVSPost2010Prop41ColorRGB
 90
        0
102
RTVSPost2010PropOp41
 70
     1
102
RTVSPost2010Prop42
 90
       50
102
RTVSPost2010PropOp42
 70
     1
102
RTVSPost2010Prop43
 90
        3
102
RTVSPost2010PropOp43
 70
     1
102
RTVSPost2010Prop44ColorIndex
 90
        5
102
RTVSPost2010Prop44ColorRGB
 90
      255
102
RTVSPost2010PropOp44
 70
     1
102
RTVSPost2010Prop45
280
     0
102
RTVSPost2010PropOp45
 70
     1
102
RTVSPost2010Prop46
 90
       50
102
RTVSPost2010PropOp46
 70
     1
102
RTVSPost2010Prop47
 90
       50
102
RTVSPost2010PropOp47
 70
     1
102
RTVSPost2010Prop48
 90
       50
102
RTVSPost2010PropOp48
 70
     1
102
RTVSPost2010Prop49
280
     0
102
RTVSPost2010PropOp49
 70
     1
102
RTVSPost2010Prop50
 90
       50
102
RTVSPost2010PropOp50
 70
     1
102
RTVSPost2010Prop51ColorIndex
 90
      256
102
RTVSPost2010Prop51ColorRGB
 90
-16777216
102
RTVSPost2010PropOp51
 70
     0
102
RTVSPost2010Prop52
140
1.0
102
RTVSPost2010PropOp52
 70
     0
102
RTVSPost2010Prop53
 90
        2
102
RTVSPost2010PropOp53
 70
     1
102
RTVSPost2010Prop54
  1
strokes_ogs.tif
102
RTVSPost2010PropOp54
 70
     1
102
RTVSPost2010Prop55
280
     0
102
RTVSPost2010PropOp55
 70
     1
102
RTVSPost2010Prop56
140
1.0
102
RTVSPost2010PropOp56
 70
     1
102
RTVSPost2010Prop57
140
1.0
102
RTVSPost2010PropOp57
 70
     1
102
RTVSPropertyOp0
 70
     1
102
RTVSPropertyOp1
 70
     1
102
RTVSPropertyOp2
 70
     1
102
RTVSPropertyOp3
 70
     1
102
RTVSPropertyOp4
 70
     1
102
RTVSPropertyOp5
 70
     1
102
RTVSPropertyOp6
 70
     1
102
RTVSPropertyOp7
 70
     1
102
RTVSPropertyOp8
 70
     1
102
RTVSPropertyOp9
 70
     1
102
RTVSPropertyOp10
 70
     1
102
RTVSPropertyOp11
 70
     1
102
RTVSPropertyOp12
 70
     1
102
RTVSPropertyOp13
 70
     1
102
RTVSPropertyOp14
 70
     1
102
RTVSPropertyOp15
 70
     1
102
RTVSPropertyOp16
 70
     1
102
RTVSPropertyOp17
 70
     1
102
RTVSPropertyOp18
 70
     1
102
RTVSPropertyOp19
 70
     1
102
RTVSPropertyOp20
 70
     1
102
RTVSPropertyOp21
 70
     1
102
RTVSPropertyOp22
 70
     1
102
RTVSPropertyOp23
 70
     1
102
RTVSPropertyOp24
 70
     1
102
RTVSPropertyOp25
 70
     1
102
RTVSPropertyOp26
 70
     1
102
RTVSPropertyOp27
 70
     1
102
RTVSPropertyOp28
 70
     1
102
RTVSPropertyOp29
 70
     1
102
RTVSPropertyOp30
 70
     1
102
RTVSPropertyOp31
 70
     1
102
RTVSPropertyOp32
 70
     1
102
RTVSPropertyOp33
 70
     1
102
RTVSPropertyOp34
 70
     1
102
RTVSPropertyOp35
 70
     1
102
RTVSPropertyOp36
 70
     1
102
RTVSPropertyOp37
 70
     1
102
RTVSPropertyOp38
 70
     1
102
RTVSPropertyOp39
 70
     1
102
RTVSPropertyOp40
 70
     1
102
RTVSPropertyOp41
 70
     1
102
RTVSPropertyOp42
 70
     1
102
RTVSPropertyOp43
 70
     1
102
RTVSPropertyOp44
 70
     1
102
RTVSPropertyOp45
 70
     1
102
RTVSPropertyOp46
 70
     1
102
RTVSPropertyOp47
 70
     1
102
RTVSPropertyOp48
 70
     1
102
RTVSPropertyOp49
 70
     1
102
RTVSPropertyOp50
 70
     1
102
RTVSPropertyOp51
 70
     0
102
RTVSPropertyOp52
 70
     0
102
RTVSPropertyOp53
 70
     1
102
RTVSPropertyOp54
 70
     1
102
RTVSPropertyOp55
 70
     1
102
RTVSPropertyOp56
 70
     1
102
RTVSPropertyOp57
 70
     1
102
RTVSPropertyOp58
 70
     1
102
RTVSPropertyOp59
 70
     1
102
RTVSPropertyOp60
 70
     1
102
RTVSPropertyOp61
 70
     1
102
RTVSPropertyOp62
 70
     1
  0
XRECORD
  5
823
102
{ACAD_REACTORS
330
822
102
}
330
822
100
AcDbXrecord
280
     1
102
RTVSPost2010Prop28
280
     0
102
RTVSPost2010PropOp28
 70
     1
102
RTVSPost2010Prop29
280
     1
102
RTVSPost2010PropOp29
 70
     1
102
RTVSPost2010Prop30
280
     1
102
RTVSPost2010PropOp30
 70
     1
102
RTVSPost2010Prop31
280
     0
102
RTVSPost2010PropOp31
 70
     1
102
RTVSPost2010Prop32
280
     0
102
RTVSPost2010PropOp32
 70
     1
102
RTVSPost2010Prop33
280
     0
102
RTVSPost2010PropOp33
 70
     1
102
RTVSPost2010Prop34
280
     0
102
RTVSPost2010PropOp34
 70
     1
102
RTVSPost2010Prop35
280
     0
102
RTVSPost2010PropOp35
 70
     1
102
RTVSPost2010Prop36
280
     0
102
RTVSPost2010PropOp36
 70
     1
102
RTVSPost2010Prop37
 90
       50
102
RTVSPost2010PropOp37
 70
     1
102
RTVSPost2010Prop38
140
0.0
102
RTVSPost2010PropOp38
 70
     1
102
RTVSPost2010Prop39
140
1.0
102
RTVSPost2010PropOp39
 70
     1
102
RTVSPost2010Prop40
 90
        0
102
RTVSPost2010PropOp40
 70
     1
102
RTVSPost2010Prop41ColorIndex
 90
       18
102
RTVSPost2010Prop41ColorRGB
 90
        0
102
RTVSPost2010PropOp41
 70
     1
102
RTVSPost2010Prop42
 90
       50
102
RTVSPost2010PropOp42
 70
     1
102
RTVSPost2010Prop43
 90
        3
102
RTVSPost2010PropOp43
 70
     1
102
RTVSPost2010Prop44ColorIndex
 90
        5
102
RTVSPost2010Prop44ColorRGB
 90
      255
102
RTVSPost2010PropOp44
 70
     1
102
RTVSPost2010Prop45
280
     0
102
RTVSPost2010PropOp45
 70
     1
102
RTVSPost2010Prop46
 90
       50
102
RTVSPost2010PropOp46
 70
     1
102
RTVSPost2010Prop47
 90
       50
102
RTVSPost2010PropOp47
 70
     1
102
RTVSPost2010Prop48
 90
       50
102
RTVSPost2010PropOp48
 70
     1
102
RTVSPost2010Prop49
280
     0
102
RTVSPost2010PropOp49
 70
     1
102
RTVSPost2010Prop50
 90
       50
102
RTVSPost2010PropOp50
 70
     1
102
RTVSPost2010Prop51ColorIndex
 90
      256
102
RTVSPost2010Prop51ColorRGB
 90
-16777216
102
RTVSPost2010PropOp51
 70
     0
102
RTVSPost2010Prop52
140
1.0
102
RTVSPost2010PropOp52
 70
     0
102
RTVSPost2010Prop53
 90
        2
102
RTVSPost2010PropOp53
 70
     1
102
RTVSPost2010Prop54
  1
strokes_ogs.tif
102
RTVSPost2010PropOp54
 70
     1
102
RTVSPost2010Prop55
280
     0
102
RTVSPost2010PropOp55
 70
     1
102
RTVSPost2010Prop56
140
1.0
102
RTVSPost2010PropOp56
 70
     1
102
RTVSPost2010Prop57
140
1.0
102
RTVSPost2010PropOp57
 70
     1
102
RTVSPropertyOp0
 70
     1
102
RTVSPropertyOp1
 70
     1
102
RTVSPropertyOp2
 70
     1
102
RTVSPropertyOp3
 70
     1
102
RTVSPropertyOp4
 70
     1
102
RTVSPropertyOp5
 70
     1
102
RTVSPropertyOp6
 70
     1
102
RTVSPropertyOp7
 70
     1
102
RTVSPropertyOp8
 70
     1
102
RTVSPropertyOp9
 70
     1
102
RTVSPropertyOp10
 70
     1
102
RTVSPropertyOp11
 70
     1
102
RTVSPropertyOp12
 70
     1
102
RTVSPropertyOp13
 70
     1
102
RTVSPropertyOp14
 70
     1
102
RTVSPropertyOp15
 70
     1
102
RTVSPropertyOp16
 70
     1
102
RTVSPropertyOp17
 70
     1
102
RTVSPropertyOp18
 70
     1
102
RTVSPropertyOp19
 70
     1
102
RTVSPropertyOp20
 70
     1
102
RTVSPropertyOp21
 70
     1
102
RTVSPropertyOp22
 70
     1
102
RTVSPropertyOp23
 70
     1
102
RTVSPropertyOp24
 70
     1
102
RTVSPropertyOp25
 70
     1
102
RTVSPropertyOp26
 70
     1
102
RTVSPropertyOp27
 70
     1
102
RTVSPropertyOp28
 70
     1
102
RTVSPropertyOp29
 70
     1
102
RTVSPropertyOp30
 70
     1
102
RTVSPropertyOp31
 70
     1
102
RTVSPropertyOp32
 70
     1
102
RTVSPropertyOp33
 70
     1
102
RTVSPropertyOp34
 70
     1
102
RTVSPropertyOp35
 70
     1
102
RTVSPropertyOp36
 70
     1
102
RTVSPropertyOp37
 70
     1
102
RTVSPropertyOp38
 70
     1
102
RTVSPropertyOp39
 70
     1
102
RTVSPropertyOp40
 70
     1
102
RTVSPropertyOp41
 70
     1
102
RTVSPropertyOp42
 70
     1
102
RTVSPropertyOp43
 70
     1
102
RTVSPropertyOp44
 70
     1
102
RTVSPropertyOp45
 70
     1
102
RTVSPropertyOp46
 70
     1
102
RTVSPropertyOp47
 70
     1
102
RTVSPropertyOp48
 70
     1
102
RTVSPropertyOp49
 70
     1
102
RTVSPropertyOp50
 70
     1
102
RTVSPropertyOp51
 70
     0
102
RTVSPropertyOp52
 70
     0
102
RTVSPropertyOp53
 70
     1
102
RTVSPropertyOp54
 70
     1
102
RTVSPropertyOp55
 70
     1
102
RTVSPropertyOp56
 70
     1
102
RTVSPropertyOp57
 70
     1
102
RTVSPropertyOp58
 70
     1
102
RTVSPropertyOp59
 70
     1
102
RTVSPropertyOp60
 70
     1
102
RTVSPropertyOp61
 70
     1
102
RTVSPropertyOp62
 70
     1
  0
XRECORD
  5
82B
102
{ACAD_REACTORS
330
82A
102
}
330
82A
100
AcDbXrecord
280
     1
102
RTVSPost2010Prop28
280
     0
102
RTVSPost2010PropOp28
 70
     1
102
RTVSPost2010Prop29
280
     1
102
RTVSPost2010PropOp29
 70
     1
102
RTVSPost2010Prop30
280
     1
102
RTVSPost2010PropOp30
 70
     1
102
RTVSPost2010Prop31
280
     0
102
RTVSPost2010PropOp31
 70
     1
102
RTVSPost2010Prop32
280
     0
102
RTVSPost2010PropOp32
 70
     1
102
RTVSPost2010Prop33
280
     0
102
RTVSPost2010PropOp33
 70
     1
102
RTVSPost2010Prop34
280
     0
102
RTVSPost2010PropOp34
 70
     1
102
RTVSPost2010Prop35
280
     0
102
RTVSPost2010PropOp35
 70
     1
102
RTVSPost2010Prop36
280
     0
102
RTVSPost2010PropOp36
 70
     1
102
RTVSPost2010Prop37
 90
       50
102
RTVSPost2010PropOp37
 70
     1
102
RTVSPost2010Prop38
140
0.0
102
RTVSPost2010PropOp38
 70
     1
102
RTVSPost2010Prop39
140
1.0
102
RTVSPost2010PropOp39
 70
     1
102
RTVSPost2010Prop40
 90
        0
102
RTVSPost2010PropOp40
 70
     1
102
RTVSPost2010Prop41ColorIndex
 90
       18
102
RTVSPost2010Prop41ColorRGB
 90
        0
102
RTVSPost2010PropOp41
 70
     1
102
RTVSPost2010Prop42
 90
       50
102
RTVSPost2010PropOp42
 70
     1
102
RTVSPost2010Prop43
 90
        3
102
RTVSPost2010PropOp43
 70
     1
102
RTVSPost2010Prop44ColorIndex
 90
        5
102
RTVSPost2010Prop44ColorRGB
 90
      255
102
RTVSPost2010PropOp44
 70
     1
102
RTVSPost2010Prop45
280
     0
102
RTVSPost2010PropOp45
 70
     1
102
RTVSPost2010Prop46
 90
       50
102
RTVSPost2010PropOp46
 70
     1
102
RTVSPost2010Prop47
 90
       50
102
RTVSPost2010PropOp47
 70
     1
102
RTVSPost2010Prop48
 90
       50
102
RTVSPost2010PropOp48
 70
     1
102
RTVSPost2010Prop49
280
     0
102
RTVSPost2010PropOp49
 70
     1
102
RTVSPost2010Prop50
 90
       50
102
RTVSPost2010PropOp50
 70
     1
102
RTVSPost2010Prop51ColorIndex
 90
      256
102
RTVSPost2010Prop51ColorRGB
 90
-16777216
102
RTVSPost2010PropOp51
 70
     0
102
RTVSPost2010Prop52
140
1.0
102
RTVSPost2010PropOp52
 70
     0
102
RTVSPost2010Prop53
 90
        2
102
RTVSPost2010PropOp53
 70
     1
102
RTVSPost2010Prop54
  1
strokes_ogs.tif
102
RTVSPost2010PropOp54
 70
     1
102
RTVSPost2010Prop55
280
     0
102
RTVSPost2010PropOp55
 70
     1
102
RTVSPost2010Prop56
140
1.0
102
RTVSPost2010PropOp56
 70
     1
102
RTVSPost2010Prop57
140
1.0
102
RTVSPost2010PropOp57
 70
     1
102
RTVSPropertyOp0
 70
     1
102
RTVSPropertyOp1
 70
     1
102
RTVSPropertyOp2
 70
     1
102
RTVSPropertyOp3
 70
     1
102
RTVSPropertyOp4
 70
     1
102
RTVSPropertyOp5
 70
     1
102
RTVSPropertyOp6
 70
     1
102
RTVSPropertyOp7
 70
     1
102
RTVSPropertyOp8
 70
     1
102
RTVSPropertyOp9
 70
     1
102
RTVSPropertyOp10
 70
     1
102
RTVSPropertyOp11
 70
     1
102
RTVSPropertyOp12
 70
     1
102
RTVSPropertyOp13
 70
     1
102
RTVSPropertyOp14
 70
     1
102
RTVSPropertyOp15
 70
     1
102
RTVSPropertyOp16
 70
     1
102
RTVSPropertyOp17
 70
     1
102
RTVSPropertyOp18
 70
     1
102
RTVSPropertyOp19
 70
     1
102
RTVSPropertyOp20
 70
     1
102
RTVSPropertyOp21
 70
     1
102
RTVSPropertyOp22
 70
     1
102
RTVSPropertyOp23
 70
     1
102
RTVSPropertyOp24
 70
     1
102
RTVSPropertyOp25
 70
     1
102
RTVSPropertyOp26
 70
     1
102
RTVSPropertyOp27
 70
     1
102
RTVSPropertyOp28
 70
     1
102
RTVSPropertyOp29
 70
     1
102
RTVSPropertyOp30
 70
     1
102
RTVSPropertyOp31
 70
     1
102
RTVSPropertyOp32
 70
     1
102
RTVSPropertyOp33
 70
     1
102
RTVSPropertyOp34
 70
     1
102
RTVSPropertyOp35
 70
     1
102
RTVSPropertyOp36
 70
     1
102
RTVSPropertyOp37
 70
     1
102
RTVSPropertyOp38
 70
     1
102
RTVSPropertyOp39
 70
     1
102
RTVSPropertyOp40
 70
     1
102
RTVSPropertyOp41
 70
     1
102
RTVSPropertyOp42
 70
     1
102
RTVSPropertyOp43
 70
     1
102
RTVSPropertyOp44
 70
     1
102
RTVSPropertyOp45
 70
     1
102
RTVSPropertyOp46
 70
     1
102
RTVSPropertyOp47
 70
     1
102
RTVSPropertyOp48
 70
     1
102
RTVSPropertyOp49
 70
     1
102
RTVSPropertyOp50
 70
     1
102
RTVSPropertyOp51
 70
     0
102
RTVSPropertyOp52
 70
     0
102
RTVSPropertyOp53
 70
     1
102
RTVSPropertyOp54
 70
     1
102
RTVSPropertyOp55
 70
     1
102
RTVSPropertyOp56
 70
     1
102
RTVSPropertyOp57
 70
     1
102
RTVSPropertyOp58
 70
     1
102
RTVSPropertyOp59
 70
     1
102
RTVSPropertyOp60
 70
     1
102
RTVSPropertyOp61
 70
     1
102
RTVSPropertyOp62
 70
     1
  0
XRECORD
  5
81F
102
{ACAD_REACTORS
330
81E
102
}
330
81E
100
AcDbXrecord
280
     1
102
RTVSPost2010Prop28
280
     0
102
RTVSPost2010PropOp28
 70
     1
102
RTVSPost2010Prop29
280
     1
102
RTVSPost2010PropOp29
 70
     1
102
RTVSPost2010Prop30
280
     1
102
RTVSPost2010PropOp30
 70
     1
102
RTVSPost2010Prop31
280
     0
102
RTVSPost2010PropOp31
 70
     1
102
RTVSPost2010Prop32
280
     0
102
RTVSPost2010PropOp32
 70
     1
102
RTVSPost2010Prop33
280
     0
102
RTVSPost2010PropOp33
 70
     1
102
RTVSPost2010Prop34
280
     0
102
RTVSPost2010PropOp34
 70
     1
102
RTVSPost2010Prop35
280
     0
102
RTVSPost2010PropOp35
 70
     1
102
RTVSPost2010Prop36
280
     0
102
RTVSPost2010PropOp36
 70
     1
102
RTVSPost2010Prop37
 90
       50
102
RTVSPost2010PropOp37
 70
     1
102
RTVSPost2010Prop38
140
0.0
102
RTVSPost2010PropOp38
 70
     1
102
RTVSPost2010Prop39
140
1.0
102
RTVSPost2010PropOp39
 70
     1
102
RTVSPost2010Prop40
 90
        0
102
RTVSPost2010PropOp40
 70
     1
102
RTVSPost2010Prop41ColorIndex
 90
       18
102
RTVSPost2010Prop41ColorRGB
 90
        0
102
RTVSPost2010PropOp41
 70
     1
102
RTVSPost2010Prop42
 90
       50
102
RTVSPost2010PropOp42
 70
     1
102
RTVSPost2010Prop43
 90
        3
102
RTVSPost2010PropOp43
 70
     1
102
RTVSPost2010Prop44ColorIndex
 90
        5
102
RTVSPost2010Prop44ColorRGB
 90
      255
102
RTVSPost2010PropOp44
 70
     1
102
RTVSPost2010Prop45
280
     0
102
RTVSPost2010PropOp45
 70
     1
102
RTVSPost2010Prop46
 90
       50
102
RTVSPost2010PropOp46
 70
     1
102
RTVSPost2010Prop47
 90
       50
102
RTVSPost2010PropOp47
 70
     1
102
RTVSPost2010Prop48
 90
       50
102
RTVSPost2010PropOp48
 70
     1
102
RTVSPost2010Prop49
280
     0
102
RTVSPost2010PropOp49
 70
     1
102
RTVSPost2010Prop50
 90
       50
102
RTVSPost2010PropOp50
 70
     1
102
RTVSPost2010Prop51ColorIndex
 90
      256
102
RTVSPost2010Prop51ColorRGB
 90
-16777216
102
RTVSPost2010PropOp51
 70
     0
102
RTVSPost2010Prop52
140
1.0
102
RTVSPost2010PropOp52
 70
     0
102
RTVSPost2010Prop53
 90
        2
102
RTVSPost2010PropOp53
 70
     1
102
RTVSPost2010Prop54
  1
strokes_ogs.tif
102
RTVSPost2010PropOp54
 70
     1
102
RTVSPost2010Prop55
280
     0
102
RTVSPost2010PropOp55
 70
     1
102
RTVSPost2010Prop56
140
1.0
102
RTVSPost2010PropOp56
 70
     1
102
RTVSPost2010Prop57
140
1.0
102
RTVSPost2010PropOp57
 70
     1
102
RTVSPropertyOp0
 70
     1
102
RTVSPropertyOp1
 70
     1
102
RTVSPropertyOp2
 70
     1
102
RTVSPropertyOp3
 70
     1
102
RTVSPropertyOp4
 70
     1
102
RTVSPropertyOp5
 70
     1
102
RTVSPropertyOp6
 70
     1
102
RTVSPropertyOp7
 70
     1
102
RTVSPropertyOp8
 70
     1
102
RTVSPropertyOp9
 70
     1
102
RTVSPropertyOp10
 70
     1
102
RTVSPropertyOp11
 70
     1
102
RTVSPropertyOp12
 70
     1
102
RTVSPropertyOp13
 70
     1
102
RTVSPropertyOp14
 70
     1
102
RTVSPropertyOp15
 70
     1
102
RTVSPropertyOp16
 70
     1
102
RTVSPropertyOp17
 70
     1
102
RTVSPropertyOp18
 70
     1
102
RTVSPropertyOp19
 70
     1
102
RTVSPropertyOp20
 70
     1
102
RTVSPropertyOp21
 70
     1
102
RTVSPropertyOp22
 70
     1
102
RTVSPropertyOp23
 70
     1
102
RTVSPropertyOp24
 70
     1
102
RTVSPropertyOp25
 70
     1
102
RTVSPropertyOp26
 70
     1
102
RTVSPropertyOp27
 70
     1
102
RTVSPropertyOp28
 70
     1
102
RTVSPropertyOp29
 70
     1
102
RTVSPropertyOp30
 70
     1
102
RTVSPropertyOp31
 70
     1
102
RTVSPropertyOp32
 70
     1
102
RTVSPropertyOp33
 70
     1
102
RTVSPropertyOp34
 70
     1
102
RTVSPropertyOp35
 70
     1
102
RTVSPropertyOp36
 70
     1
102
RTVSPropertyOp37
 70
     1
102
RTVSPropertyOp38
 70
     1
102
RTVSPropertyOp39
 70
     1
102
RTVSPropertyOp40
 70
     1
102
RTVSPropertyOp41
 70
     1
102
RTVSPropertyOp42
 70
     1
102
RTVSPropertyOp43
 70
     1
102
RTVSPropertyOp44
 70
     1
102
RTVSPropertyOp45
 70
     1
102
RTVSPropertyOp46
 70
     1
102
RTVSPropertyOp47
 70
     1
102
RTVSPropertyOp48
 70
     1
102
RTVSPropertyOp49
 70
     1
102
RTVSPropertyOp50
 70
     1
102
RTVSPropertyOp51
 70
     0
102
RTVSPropertyOp52
 70
     0
102
RTVSPropertyOp53
 70
     1
102
RTVSPropertyOp54
 70
     1
102
RTVSPropertyOp55
 70
     1
102
RTVSPropertyOp56
 70
     1
102
RTVSPropertyOp57
 70
     1
102
RTVSPropertyOp58
 70
     1
102
RTVSPropertyOp59
 70
     1
102
RTVSPropertyOp60
 70
     1
102
RTVSPropertyOp61
 70
     1
102
RTVSPropertyOp62
 70
     1
  0
XRECORD
  5
821
102
{ACAD_REACTORS
330
820
102
}
330
820
100
AcDbXrecord
280
     1
102
RTVSPost2010Prop28
280
     0
102
RTVSPost2010PropOp28
 70
     1
102
RTVSPost2010Prop29
280
     1
102
RTVSPost2010PropOp29
 70
     1
102
RTVSPost2010Prop30
280
     1
102
RTVSPost2010PropOp30
 70
     1
102
RTVSPost2010Prop31
280
     0
102
RTVSPost2010PropOp31
 70
     1
102
RTVSPost2010Prop32
280
     0
102
RTVSPost2010PropOp32
 70
     1
102
RTVSPost2010Prop33
280
     0
102
RTVSPost2010PropOp33
 70
     1
102
RTVSPost2010Prop34
280
     0
102
RTVSPost2010PropOp34
 70
     1
102
RTVSPost2010Prop35
280
     0
102
RTVSPost2010PropOp35
 70
     1
102
RTVSPost2010Prop36
280
     0
102
RTVSPost2010PropOp36
 70
     1
102
RTVSPost2010Prop37
 90
       50
102
RTVSPost2010PropOp37
 70
     1
102
RTVSPost2010Prop38
140
0.0
102
RTVSPost2010PropOp38
 70
     1
102
RTVSPost2010Prop39
140
1.0
102
RTVSPost2010PropOp39
 70
     1
102
RTVSPost2010Prop40
 90
        0
102
RTVSPost2010PropOp40
 70
     1
102
RTVSPost2010Prop41ColorIndex
 90
       18
102
RTVSPost2010Prop41ColorRGB
 90
        0
102
RTVSPost2010PropOp41
 70
     1
102
RTVSPost2010Prop42
 90
       50
102
RTVSPost2010PropOp42
 70
     1
102
RTVSPost2010Prop43
 90
        3
102
RTVSPost2010PropOp43
 70
     1
102
RTVSPost2010Prop44ColorIndex
 90
        5
102
RTVSPost2010Prop44ColorRGB
 90
      255
102
RTVSPost2010PropOp44
 70
     1
102
RTVSPost2010Prop45
280
     0
102
RTVSPost2010PropOp45
 70
     1
102
RTVSPost2010Prop46
 90
       50
102
RTVSPost2010PropOp46
 70
     1
102
RTVSPost2010Prop47
 90
       50
102
RTVSPost2010PropOp47
 70
     1
102
RTVSPost2010Prop48
 90
       50
102
RTVSPost2010PropOp48
 70
     1
102
RTVSPost2010Prop49
280
     0
102
RTVSPost2010PropOp49
 70
     1
102
RTVSPost2010Prop50
 90
       50
102
RTVSPost2010PropOp50
 70
     1
102
RTVSPost2010Prop51ColorIndex
 90
      256
102
RTVSPost2010Prop51ColorRGB
 90
-16777216
102
RTVSPost2010PropOp51
 70
     0
102
RTVSPost2010Prop52
140
1.0
102
RTVSPost2010PropOp52
 70
     0
102
RTVSPost2010Prop53
 90
        2
102
RTVSPost2010PropOp53
 70
     1
102
RTVSPost2010Prop54
  1
strokes_ogs.tif
102
RTVSPost2010PropOp54
 70
     1
102
RTVSPost2010Prop55
280
     0
102
RTVSPost2010PropOp55
 70
     1
102
RTVSPost2010Prop56
140
1.0
102
RTVSPost2010PropOp56
 70
     1
102
RTVSPost2010Prop57
140
1.0
102
RTVSPost2010PropOp57
 70
     1
102
RTVSPropertyOp0
 70
     1
102
RTVSPropertyOp1
 70
     1
102
RTVSPropertyOp2
 70
     1
102
RTVSPropertyOp3
 70
     1
102
RTVSPropertyOp4
 70
     1
102
RTVSPropertyOp5
 70
     1
102
RTVSPropertyOp6
 70
     1
102
RTVSPropertyOp7
 70
     1
102
RTVSPropertyOp8
 70
     1
102
RTVSPropertyOp9
 70
     1
102
RTVSPropertyOp10
 70
     1
102
RTVSPropertyOp11
 70
     1
102
RTVSPropertyOp12
 70
     1
102
RTVSPropertyOp13
 70
     1
102
RTVSPropertyOp14
 70
     1
102
RTVSPropertyOp15
 70
     1
102
RTVSPropertyOp16
 70
     1
102
RTVSPropertyOp17
 70
     1
102
RTVSPropertyOp18
 70
     1
102
RTVSPropertyOp19
 70
     1
102
RTVSPropertyOp20
 70
     1
102
RTVSPropertyOp21
 70
     1
102
RTVSPropertyOp22
 70
     1
102
RTVSPropertyOp23
 70
     1
102
RTVSPropertyOp24
 70
     1
102
RTVSPropertyOp25
 70
     1
102
RTVSPropertyOp26
 70
     1
102
RTVSPropertyOp27
 70
     1
102
RTVSPropertyOp28
 70
     1
102
RTVSPropertyOp29
 70
     1
102
RTVSPropertyOp30
 70
     1
102
RTVSPropertyOp31
 70
     1
102
RTVSPropertyOp32
 70
     1
102
RTVSPropertyOp33
 70
     1
102
RTVSPropertyOp34
 70
     1
102
RTVSPropertyOp35
 70
     1
102
RTVSPropertyOp36
 70
     1
102
RTVSPropertyOp37
 70
     1
102
RTVSPropertyOp38
 70
     1
102
RTVSPropertyOp39
 70
     1
102
RTVSPropertyOp40
 70
     1
102
RTVSPropertyOp41
 70
     1
102
RTVSPropertyOp42
 70
     1
102
RTVSPropertyOp43
 70
     1
102
RTVSPropertyOp44
 70
     1
102
RTVSPropertyOp45
 70
     1
102
RTVSPropertyOp46
 70
     1
102
RTVSPropertyOp47
 70
     1
102
RTVSPropertyOp48
 70
     1
102
RTVSPropertyOp49
 70
     1
102
RTVSPropertyOp50
 70
     1
102
RTVSPropertyOp51
 70
     0
102
RTVSPropertyOp52
 70
     0
102
RTVSPropertyOp53
 70
     1
102
RTVSPropertyOp54
 70
     1
102
RTVSPropertyOp55
 70
     1
102
RTVSPropertyOp56
 70
     1
102
RTVSPropertyOp57
 70
     1
102
RTVSPropertyOp58
 70
     1
102
RTVSPropertyOp59
 70
     1
102
RTVSPropertyOp60
 70
     1
102
RTVSPropertyOp61
 70
     1
102
RTVSPropertyOp62
 70
     1
  0
XRECORD
  5
831
102
{ACAD_REACTORS
330
830
102
}
330
830
100
AcDbXrecord
280
     1
102
RTVSPost2010Prop28
280
     0
102
RTVSPost2010PropOp28
 70
     0
102
RTVSPost2010Prop29
280
     1
102
RTVSPost2010PropOp29
 70
     0
102
RTVSPost2010Prop30
280
     1
102
RTVSPost2010PropOp30
 70
     0
102
RTVSPost2010Prop31
280
     0
102
RTVSPost2010PropOp31
 70
     0
102
RTVSPost2010Prop32
280
     0
102
RTVSPost2010PropOp32
 70
     0
102
RTVSPost2010Prop33
280
     0
102
RTVSPost2010PropOp33
 70
     0
102
RTVSPost2010Prop34
280
     0
102
RTVSPost2010PropOp34
 70
     0
102
RTVSPost2010Prop35
280
     0
102
RTVSPost2010PropOp35
 70
     0
102
RTVSPost2010Prop36
280
     0
102
RTVSPost2010PropOp36
 70
     0
102
RTVSPost2010Prop37
 90
       50
102
RTVSPost2010PropOp37
 70
     0
102
RTVSPost2010Prop38
140
0.0
102
RTVSPost2010PropOp38
 70
     0
102
RTVSPost2010Prop39
140
1.0
102
RTVSPost2010PropOp39
 70
     0
102
RTVSPost2010Prop40
 90
        0
102
RTVSPost2010PropOp40
 70
     0
102
RTVSPost2010Prop41ColorIndex
 90
       18
102
RTVSPost2010Prop41ColorRGB
 90
        0
102
RTVSPost2010PropOp41
 70
     0
102
RTVSPost2010Prop42
 90
       50
102
RTVSPost2010PropOp42
 70
     0
102
RTVSPost2010Prop43
 90
        3
102
RTVSPost2010PropOp43
 70
     0
102
RTVSPost2010Prop44ColorIndex
 90
        5
102
RTVSPost2010Prop44ColorRGB
 90
      255
102
RTVSPost2010PropOp44
 70
     0
102
RTVSPost2010Prop45
280
     0
102
RTVSPost2010PropOp45
 70
     0
102
RTVSPost2010Prop46
 90
       50
102
RTVSPost2010PropOp46
 70
     0
102
RTVSPost2010Prop47
 90
       50
102
RTVSPost2010PropOp47
 70
     0
102
RTVSPost2010Prop48
 90
       50
102
RTVSPost2010PropOp48
 70
     0
102
RTVSPost2010Prop49
280
     0
102
RTVSPost2010PropOp49
 70
     0
102
RTVSPost2010Prop50
 90
       50
102
RTVSPost2010PropOp50
 70
     0
102
RTVSPost2010Prop51ColorIndex
 90
      256
102
RTVSPost2010Prop51ColorRGB
 90
-16777216
102
RTVSPost2010PropOp51
 70
     0
102
RTVSPost2010Prop52
140
1.0
102
RTVSPost2010PropOp52
 70
     0
102
RTVSPost2010Prop53
 90
        2
102
RTVSPost2010PropOp53
 70
     0
102
RTVSPost2010Prop54
  1
strokes_ogs.tif
102
RTVSPost2010PropOp54
 70
     0
102
RTVSPost2010Prop55
280
     0
102
RTVSPost2010PropOp55
 70
     0
102
RTVSPost2010Prop56
140
1.0
102
RTVSPost2010PropOp56
 70
     0
102
RTVSPost2010Prop57
140
1.0
102
RTVSPost2010PropOp57
 70
     0
102
RTVSPropertyOp0
 70
     0
102
RTVSPropertyOp1
 70
     0
102
RTVSPropertyOp2
 70
     0
102
RTVSPropertyOp3
 70
     0
102
RTVSPropertyOp4
 70
     0
102
RTVSPropertyOp5
 70
     0
102
RTVSPropertyOp6
 70
     0
102
RTVSPropertyOp7
 70
     0
102
RTVSPropertyOp8
 70
     0
102
RTVSPropertyOp9
 70
     0
102
RTVSPropertyOp10
 70
     0
102
RTVSPropertyOp11
 70
     0
102
RTVSPropertyOp12
 70
     0
102
RTVSPropertyOp13
 70
     0
102
RTVSPropertyOp14
 70
     2
102
RTVSPropertyOp15
 70
     0
102
RTVSPropertyOp16
 70
     0
102
RTVSPropertyOp17
 70
     0
102
RTVSPropertyOp18
 70
     0
102
RTVSPropertyOp19
 70
     0
102
RTVSPropertyOp20
 70
     0
102
RTVSPropertyOp21
 70
     0
102
RTVSPropertyOp22
 70
     0
102
RTVSPropertyOp23
 70
     0
102
RTVSPropertyOp24
 70
     0
102
RTVSPropertyOp25
 70
     0
102
RTVSPropertyOp26
 70
     0
102
RTVSPropertyOp27
 70
     0
102
RTVSPropertyOp28
 70
     0
102
RTVSPropertyOp29
 70
     0
102
RTVSPropertyOp30
 70
     0
102
RTVSPropertyOp31
 70
     0
102
RTVSPropertyOp32
 70
     0
102
RTVSPropertyOp33
 70
     0
102
RTVSPropertyOp34
 70
     0
102
RTVSPropertyOp35
 70
     0
102
RTVSPropertyOp36
 70
     0
102
RTVSPropertyOp37
 70
     0
102
RTVSPropertyOp38
 70
     0
102
RTVSPropertyOp39
 70
     0
102
RTVSPropertyOp40
 70
     0
102
RTVSPropertyOp41
 70
     0
102
RTVSPropertyOp42
 70
     0
102
RTVSPropertyOp43
 70
     0
102
RTVSPropertyOp44
 70
     0
102
RTVSPropertyOp45
 70
     0
102
RTVSPropertyOp46
 70
     0
102
RTVSPropertyOp47
 70
     0
102
RTVSPropertyOp48
 70
     0
102
RTVSPropertyOp49
 70
     0
102
RTVSPropertyOp50
 70
     0
102
RTVSPropertyOp51
 70
     0
102
RTVSPropertyOp52
 70
     0
102
RTVSPropertyOp53
 70
     0
102
RTVSPropertyOp54
 70
     0
102
RTVSPropertyOp55
 70
     0
102
RTVSPropertyOp56
 70
     0
102
RTVSPropertyOp57
 70
     0
102
RTVSPropertyOp58
 70
     1
102
RTVSPropertyOp59
 70
     1
102
RTVSPropertyOp60
 70
     1
102
RTVSPropertyOp61
 70
     1
102
RTVSPropertyOp62
 70
     1
  0
XRECORD
  5
829
102
{ACAD_REACTORS
330
828
102
}
330
828
100
AcDbXrecord
280
     1
102
RTVSPost2010Prop28
280
     0
102
RTVSPost2010PropOp28
 70
     1
102
RTVSPost2010Prop29
280
     1
102
RTVSPost2010PropOp29
 70
     1
102
RTVSPost2010Prop30
280
     1
102
RTVSPost2010PropOp30
 70
     1
102
RTVSPost2010Prop31
280
     0
102
RTVSPost2010PropOp31
 70
     1
102
RTVSPost2010Prop32
280
     0
102
RTVSPost2010PropOp32
 70
     1
102
RTVSPost2010Prop33
280
     0
102
RTVSPost2010PropOp33
 70
     1
102
RTVSPost2010Prop34
280
     0
102
RTVSPost2010PropOp34
 70
     1
102
RTVSPost2010Prop35
280
     0
102
RTVSPost2010PropOp35
 70
     1
102
RTVSPost2010Prop36
280
     0
102
RTVSPost2010PropOp36
 70
     1
102
RTVSPost2010Prop37
 90
       50
102
RTVSPost2010PropOp37
 70
     1
102
RTVSPost2010Prop38
140
0.0
102
RTVSPost2010PropOp38
 70
     1
102
RTVSPost2010Prop39
140
1.0
102
RTVSPost2010PropOp39
 70
     1
102
RTVSPost2010Prop40
 90
        0
102
RTVSPost2010PropOp40
 70
     1
102
RTVSPost2010Prop41ColorIndex
 90
       18
102
RTVSPost2010Prop41ColorRGB
 90
        0
102
RTVSPost2010PropOp41
 70
     1
102
RTVSPost2010Prop42
 90
       50
102
RTVSPost2010PropOp42
 70
     1
102
RTVSPost2010Prop43
 90
        3
102
RTVSPost2010PropOp43
 70
     1
102
RTVSPost2010Prop44ColorIndex
 90
        5
102
RTVSPost2010Prop44ColorRGB
 90
      255
102
RTVSPost2010PropOp44
 70
     1
102
RTVSPost2010Prop45
280
     0
102
RTVSPost2010PropOp45
 70
     1
102
RTVSPost2010Prop46
 90
       50
102
RTVSPost2010PropOp46
 70
     1
102
RTVSPost2010Prop47
 90
       50
102
RTVSPost2010PropOp47
 70
     1
102
RTVSPost2010Prop48
 90
       50
102
RTVSPost2010PropOp48
 70
     1
102
RTVSPost2010Prop49
280
     0
102
RTVSPost2010PropOp49
 70
     1
102
RTVSPost2010Prop50
 90
       50
102
RTVSPost2010PropOp50
 70
     1
102
RTVSPost2010Prop51ColorIndex
 90
      256
102
RTVSPost2010Prop51ColorRGB
 90
-16777216
102
RTVSPost2010PropOp51
 70
     0
102
RTVSPost2010Prop52
140
1.0
102
RTVSPost2010PropOp52
 70
     0
102
RTVSPost2010Prop53
 90
        2
102
RTVSPost2010PropOp53
 70
     1
102
RTVSPost2010Prop54
  1
strokes_ogs.tif
102
RTVSPost2010PropOp54
 70
     1
102
RTVSPost2010Prop55
280
     0
102
RTVSPost2010PropOp55
 70
     1
102
RTVSPost2010Prop56
140
1.0
102
RTVSPost2010PropOp56
 70
     1
102
RTVSPost2010Prop57
140
1.0
102
RTVSPost2010PropOp57
 70
     1
102
RTVSPropertyOp0
 70
     1
102
RTVSPropertyOp1
 70
     1
102
RTVSPropertyOp2
 70
     1
102
RTVSPropertyOp3
 70
     1
102
RTVSPropertyOp4
 70
     1
102
RTVSPropertyOp5
 70
     1
102
RTVSPropertyOp6
 70
     1
102
RTVSPropertyOp7
 70
     1
102
RTVSPropertyOp8
 70
     1
102
RTVSPropertyOp9
 70
     1
102
RTVSPropertyOp10
 70
     1
102
RTVSPropertyOp11
 70
     1
102
RTVSPropertyOp12
 70
     1
102
RTVSPropertyOp13
 70
     1
102
RTVSPropertyOp14
 70
     1
102
RTVSPropertyOp15
 70
     1
102
RTVSPropertyOp16
 70
     1
102
RTVSPropertyOp17
 70
     1
102
RTVSPropertyOp18
 70
     1
102
RTVSPropertyOp19
 70
     1
102
RTVSPropertyOp20
 70
     1
102
RTVSPropertyOp21
 70
     1
102
RTVSPropertyOp22
 70
     1
102
RTVSPropertyOp23
 70
     1
102
RTVSPropertyOp24
 70
     1
102
RTVSPropertyOp25
 70
     1
102
RTVSPropertyOp26
 70
     1
102
RTVSPropertyOp27
 70
     1
102
RTVSPropertyOp28
 70
     1
102
RTVSPropertyOp29
 70
     1
102
RTVSPropertyOp30
 70
     1
102
RTVSPropertyOp31
 70
     1
102
RTVSPropertyOp32
 70
     1
102
RTVSPropertyOp33
 70
     1
102
RTVSPropertyOp34
 70
     1
102
RTVSPropertyOp35
 70
     1
102
RTVSPropertyOp36
 70
     1
102
RTVSPropertyOp37
 70
     1
102
RTVSPropertyOp38
 70
     1
102
RTVSPropertyOp39
 70
     1
102
RTVSPropertyOp40
 70
     1
102
RTVSPropertyOp41
 70
     1
102
RTVSPropertyOp42
 70
     1
102
RTVSPropertyOp43
 70
     1
102
RTVSPropertyOp44
 70
     1
102
RTVSPropertyOp45
 70
     1
102
RTVSPropertyOp46
 70
     1
102
RTVSPropertyOp47
 70
     1
102
RTVSPropertyOp48
 70
     1
102
RTVSPropertyOp49
 70
     1
102
RTVSPropertyOp50
 70
     1
102
RTVSPropertyOp51
 70
     0
102
RTVSPropertyOp52
 70
     0
102
RTVSPropertyOp53
 70
     1
102
RTVSPropertyOp54
 70
     1
102
RTVSPropertyOp55
 70
     1
102
RTVSPropertyOp56
 70
     1
102
RTVSPropertyOp57
 70
     1
102
RTVSPropertyOp58
 70
     1
102
RTVSPropertyOp59
 70
     1
102
RTVSPropertyOp60
 70
     1
102
RTVSPropertyOp61
 70
     1
102
RTVSPropertyOp62
 70
     1
  0
XRECORD
  5
80D
102
{ACAD_REACTORS
330
80C
102
}
330
80C
100
AcDbXrecord
280
     1
102
RTVSPost2010Prop28
280
     0
102
RTVSPost2010PropOp28
 70
     1
102
RTVSPost2010Prop29
280
     1
102
RTVSPost2010PropOp29
 70
     1
102
RTVSPost2010Prop30
280
     1
102
RTVSPost2010PropOp30
 70
     1
102
RTVSPost2010Prop31
280
     0
102
RTVSPost2010PropOp31
 70
     1
102
RTVSPost2010Prop32
280
     0
102
RTVSPost2010PropOp32
 70
     1
102
RTVSPost2010Prop33
280
     0
102
RTVSPost2010PropOp33
 70
     1
102
RTVSPost2010Prop34
280
     0
102
RTVSPost2010PropOp34
 70
     1
102
RTVSPost2010Prop35
280
     0
102
RTVSPost2010PropOp35
 70
     1
102
RTVSPost2010Prop36
280
     0
102
RTVSPost2010PropOp36
 70
     1
102
RTVSPost2010Prop37
 90
       50
102
RTVSPost2010PropOp37
 70
     1
102
RTVSPost2010Prop38
140
0.0
102
RTVSPost2010PropOp38
 70
     1
102
RTVSPost2010Prop39
140
1.0
102
RTVSPost2010PropOp39
 70
     1
102
RTVSPost2010Prop40
 90
        0
102
RTVSPost2010PropOp40
 70
     1
102
RTVSPost2010Prop41ColorIndex
 90
       18
102
RTVSPost2010Prop41ColorRGB
 90
        0
102
RTVSPost2010PropOp41
 70
     1
102
RTVSPost2010Prop42
 90
       50
102
RTVSPost2010PropOp42
 70
     1
102
RTVSPost2010Prop43
 90
        3
102
RTVSPost2010PropOp43
 70
     1
102
RTVSPost2010Prop44ColorIndex
 90
        5
102
RTVSPost2010Prop44ColorRGB
 90
      255
102
RTVSPost2010PropOp44
 70
     1
102
RTVSPost2010Prop45
280
     0
102
RTVSPost2010PropOp45
 70
     1
102
RTVSPost2010Prop46
 90
       50
102
RTVSPost2010PropOp46
 70
     1
102
RTVSPost2010Prop47
 90
       50
102
RTVSPost2010PropOp47
 70
     1
102
RTVSPost2010Prop48
 90
       50
102
RTVSPost2010PropOp48
 70
     1
102
RTVSPost2010Prop49
280
     0
102
RTVSPost2010PropOp49
 70
     1
102
RTVSPost2010Prop50
 90
       50
102
RTVSPost2010PropOp50
 70
     1
102
RTVSPost2010Prop51ColorIndex
 90
      256
102
RTVSPost2010Prop51ColorRGB
 90
-16777216
102
RTVSPost2010PropOp51
 70
     0
102
RTVSPost2010Prop52
140
1.0
102
RTVSPost2010PropOp52
 70
     0
102
RTVSPost2010Prop53
 90
        2
102
RTVSPost2010PropOp53
 70
     1
102
RTVSPost2010Prop54
  1
strokes_ogs.tif
102
RTVSPost2010PropOp54
 70
     1
102
RTVSPost2010Prop55
280
     0
102
RTVSPost2010PropOp55
 70
     1
102
RTVSPost2010Prop56
140
1.0
102
RTVSPost2010PropOp56
 70
     1
102
RTVSPost2010Prop57
140
1.0
102
RTVSPost2010PropOp57
 70
     1
102
RTVSPropertyOp0
 70
     1
102
RTVSPropertyOp1
 70
     1
102
RTVSPropertyOp2
 70
     1
102
RTVSPropertyOp3
 70
     1
102
RTVSPropertyOp4
 70
     1
102
RTVSPropertyOp5
 70
     1
102
RTVSPropertyOp6
 70
     1
102
RTVSPropertyOp7
 70
     1
102
RTVSPropertyOp8
 70
     1
102
RTVSPropertyOp9
 70
     1
102
RTVSPropertyOp10
 70
     1
102
RTVSPropertyOp11
 70
     1
102
RTVSPropertyOp12
 70
     1
102
RTVSPropertyOp13
 70
     1
102
RTVSPropertyOp14
 70
     1
102
RTVSPropertyOp15
 70
     1
102
RTVSPropertyOp16
 70
     1
102
RTVSPropertyOp17
 70
     1
102
RTVSPropertyOp18
 70
     1
102
RTVSPropertyOp19
 70
     1
102
RTVSPropertyOp20
 70
     1
102
RTVSPropertyOp21
 70
     1
102
RTVSPropertyOp22
 70
     1
102
RTVSPropertyOp23
 70
     1
102
RTVSPropertyOp24
 70
     1
102
RTVSPropertyOp25
 70
     1
102
RTVSPropertyOp26
 70
     1
102
RTVSPropertyOp27
 70
     1
102
RTVSPropertyOp28
 70
     1
102
RTVSPropertyOp29
 70
     1
102
RTVSPropertyOp30
 70
     1
102
RTVSPropertyOp31
 70
     1
102
RTVSPropertyOp32
 70
     1
102
RTVSPropertyOp33
 70
     1
102
RTVSPropertyOp34
 70
     1
102
RTVSPropertyOp35
 70
     1
102
RTVSPropertyOp36
 70
     1
102
RTVSPropertyOp37
 70
     1
102
RTVSPropertyOp38
 70
     1
102
RTVSPropertyOp39
 70
     1
102
RTVSPropertyOp40
 70
     1
102
RTVSPropertyOp41
 70
     1
102
RTVSPropertyOp42
 70
     1
102
RTVSPropertyOp43
 70
     1
102
RTVSPropertyOp44
 70
     1
102
RTVSPropertyOp45
 70
     1
102
RTVSPropertyOp46
 70
     1
102
RTVSPropertyOp47
 70
     1
102
RTVSPropertyOp48
 70
     1
102
RTVSPropertyOp49
 70
     1
102
RTVSPropertyOp50
 70
     1
102
RTVSPropertyOp51
 70
     0
102
RTVSPropertyOp52
 70
     0
102
RTVSPropertyOp53
 70
     1
102
RTVSPropertyOp54
 70
     1
102
RTVSPropertyOp55
 70
     1
102
RTVSPropertyOp56
 70
     1
102
RTVSPropertyOp57
 70
     1
102
RTVSPropertyOp58
 70
     1
102
RTVSPropertyOp59
 70
     1
102
RTVSPropertyOp60
 70
     1
102
RTVSPropertyOp61
 70
     1
102
RTVSPropertyOp62
 70
     1
  0
XRECORD
  5
80F
102
{ACAD_REACTORS
330
80E
102
}
330
80E
100
AcDbXrecord
280
     1
102
RTVSPost2010Prop28
280
     0
102
RTVSPost2010PropOp28
 70
     1
102
RTVSPost2010Prop29
280
     1
102
RTVSPost2010PropOp29
 70
     1
102
RTVSPost2010Prop30
280
     1
102
RTVSPost2010PropOp30
 70
     1
102
RTVSPost2010Prop31
280
     0
102
RTVSPost2010PropOp31
 70
     1
102
RTVSPost2010Prop32
280
     0
102
RTVSPost2010PropOp32
 70
     1
102
RTVSPost2010Prop33
280
     0
102
RTVSPost2010PropOp33
 70
     1
102
RTVSPost2010Prop34
280
     0
102
RTVSPost2010PropOp34
 70
     1
102
RTVSPost2010Prop35
280
     0
102
RTVSPost2010PropOp35
 70
     1
102
RTVSPost2010Prop36
280
     0
102
RTVSPost2010PropOp36
 70
     1
102
RTVSPost2010Prop37
 90
       50
102
RTVSPost2010PropOp37
 70
     1
102
RTVSPost2010Prop38
140
0.0
102
RTVSPost2010PropOp38
 70
     1
102
RTVSPost2010Prop39
140
1.0
102
RTVSPost2010PropOp39
 70
     1
102
RTVSPost2010Prop40
 90
        0
102
RTVSPost2010PropOp40
 70
     1
102
RTVSPost2010Prop41ColorIndex
 90
       18
102
RTVSPost2010Prop41ColorRGB
 90
        0
102
RTVSPost2010PropOp41
 70
     1
102
RTVSPost2010Prop42
 90
       50
102
RTVSPost2010PropOp42
 70
     1
102
RTVSPost2010Prop43
 90
        3
102
RTVSPost2010PropOp43
 70
     1
102
RTVSPost2010Prop44ColorIndex
 90
        5
102
RTVSPost2010Prop44ColorRGB
 90
      255
102
RTVSPost2010PropOp44
 70
     1
102
RTVSPost2010Prop45
280
     0
102
RTVSPost2010PropOp45
 70
     1
102
RTVSPost2010Prop46
 90
       50
102
RTVSPost2010PropOp46
 70
     1
102
RTVSPost2010Prop47
 90
       50
102
RTVSPost2010PropOp47
 70
     1
102
RTVSPost2010Prop48
 90
       50
102
RTVSPost2010PropOp48
 70
     1
102
RTVSPost2010Prop49
280
     0
102
RTVSPost2010PropOp49
 70
     1
102
RTVSPost2010Prop50
 90
       50
102
RTVSPost2010PropOp50
 70
     1
102
RTVSPost2010Prop51ColorIndex
 90
      256
102
RTVSPost2010Prop51ColorRGB
 90
-16777216
102
RTVSPost2010PropOp51
 70
     0
102
RTVSPost2010Prop52
140
1.0
102
RTVSPost2010PropOp52
 70
     0
102
RTVSPost2010Prop53
 90
        2
102
RTVSPost2010PropOp53
 70
     1
102
RTVSPost2010Prop54
  1
strokes_ogs.tif
102
RTVSPost2010PropOp54
 70
     1
102
RTVSPost2010Prop55
280
     0
102
RTVSPost2010PropOp55
 70
     1
102
RTVSPost2010Prop56
140
1.0
102
RTVSPost2010PropOp56
 70
     1
102
RTVSPost2010Prop57
140
1.0
102
RTVSPost2010PropOp57
 70
     1
102
RTVSPropertyOp0
 70
     1
102
RTVSPropertyOp1
 70
     1
102
RTVSPropertyOp2
 70
     1
102
RTVSPropertyOp3
 70
     1
102
RTVSPropertyOp4
 70
     1
102
RTVSPropertyOp5
 70
     1
102
RTVSPropertyOp6
 70
     1
102
RTVSPropertyOp7
 70
     1
102
RTVSPropertyOp8
 70
     1
102
RTVSPropertyOp9
 70
     1
102
RTVSPropertyOp10
 70
     1
102
RTVSPropertyOp11
 70
     1
102
RTVSPropertyOp12
 70
     1
102
RTVSPropertyOp13
 70
     1
102
RTVSPropertyOp14
 70
     1
102
RTVSPropertyOp15
 70
     1
102
RTVSPropertyOp16
 70
     1
102
RTVSPropertyOp17
 70
     1
102
RTVSPropertyOp18
 70
     1
102
RTVSPropertyOp19
 70
     1
102
RTVSPropertyOp20
 70
     1
102
RTVSPropertyOp21
 70
     1
102
RTVSPropertyOp22
 70
     1
102
RTVSPropertyOp23
 70
     1
102
RTVSPropertyOp24
 70
     1
102
RTVSPropertyOp25
 70
     1
102
RTVSPropertyOp26
 70
     1
102
RTVSPropertyOp27
 70
     1
102
RTVSPropertyOp28
 70
     1
102
RTVSPropertyOp29
 70
     1
102
RTVSPropertyOp30
 70
     1
102
RTVSPropertyOp31
 70
     1
102
RTVSPropertyOp32
 70
     1
102
RTVSPropertyOp33
 70
     1
102
RTVSPropertyOp34
 70
     1
102
RTVSPropertyOp35
 70
     1
102
RTVSPropertyOp36
 70
     1
102
RTVSPropertyOp37
 70
     1
102
RTVSPropertyOp38
 70
     1
102
RTVSPropertyOp39
 70
     1
102
RTVSPropertyOp40
 70
     1
102
RTVSPropertyOp41
 70
     1
102
RTVSPropertyOp42
 70
     1
102
RTVSPropertyOp43
 70
     1
102
RTVSPropertyOp44
 70
     1
102
RTVSPropertyOp45
 70
     1
102
RTVSPropertyOp46
 70
     1
102
RTVSPropertyOp47
 70
     1
102
RTVSPropertyOp48
 70
     1
102
RTVSPropertyOp49
 70
     1
102
RTVSPropertyOp50
 70
     1
102
RTVSPropertyOp51
 70
     0
102
RTVSPropertyOp52
 70
     0
102
RTVSPropertyOp53
 70
     1
102
RTVSPropertyOp54
 70
     1
102
RTVSPropertyOp55
 70
     1
102
RTVSPropertyOp56
 70
     1
102
RTVSPropertyOp57
 70
     1
102
RTVSPropertyOp58
 70
     1
102
RTVSPropertyOp59
 70
     1
102
RTVSPropertyOp60
 70
     1
102
RTVSPropertyOp61
 70
     1
102
RTVSPropertyOp62
 70
     1
  0
XRECORD
  5
811
102
{ACAD_REACTORS
330
810
102
}
330
810
100
AcDbXrecord
280
     1
102
RTVSPost2010Prop28
280
     0
102
RTVSPost2010PropOp28
 70
     1
102
RTVSPost2010Prop29
280
     1
102
RTVSPost2010PropOp29
 70
     1
102
RTVSPost2010Prop30
280
     1
102
RTVSPost2010PropOp30
 70
     1
102
RTVSPost2010Prop31
280
     0
102
RTVSPost2010PropOp31
 70
     1
102
RTVSPost2010Prop32
280
     0
102
RTVSPost2010PropOp32
 70
     1
102
RTVSPost2010Prop33
280
     0
102
RTVSPost2010PropOp33
 70
     1
102
RTVSPost2010Prop34
280
     0
102
RTVSPost2010PropOp34
 70
     1
102
RTVSPost2010Prop35
280
     0
102
RTVSPost2010PropOp35
 70
     1
102
RTVSPost2010Prop36
280
     0
102
RTVSPost2010PropOp36
 70
     1
102
RTVSPost2010Prop37
 90
       50
102
RTVSPost2010PropOp37
 70
     1
102
RTVSPost2010Prop38
140
0.0
102
RTVSPost2010PropOp38
 70
     1
102
RTVSPost2010Prop39
140
1.0
102
RTVSPost2010PropOp39
 70
     1
102
RTVSPost2010Prop40
 90
        0
102
RTVSPost2010PropOp40
 70
     1
102
RTVSPost2010Prop41ColorIndex
 90
       18
102
RTVSPost2010Prop41ColorRGB
 90
        0
102
RTVSPost2010PropOp41
 70
     1
102
RTVSPost2010Prop42
 90
       50
102
RTVSPost2010PropOp42
 70
     1
102
RTVSPost2010Prop43
 90
        3
102
RTVSPost2010PropOp43
 70
     1
102
RTVSPost2010Prop44ColorIndex
 90
        5
102
RTVSPost2010Prop44ColorRGB
 90
      255
102
RTVSPost2010PropOp44
 70
     1
102
RTVSPost2010Prop45
280
     0
102
RTVSPost2010PropOp45
 70
     1
102
RTVSPost2010Prop46
 90
       50
102
RTVSPost2010PropOp46
 70
     1
102
RTVSPost2010Prop47
 90
       50
102
RTVSPost2010PropOp47
 70
     1
102
RTVSPost2010Prop48
 90
       50
102
RTVSPost2010PropOp48
 70
     1
102
RTVSPost2010Prop49
280
     0
102
RTVSPost2010PropOp49
 70
     1
102
RTVSPost2010Prop50
 90
       50
102
RTVSPost2010PropOp50
 70
     1
102
RTVSPost2010Prop51ColorIndex
 90
      256
102
RTVSPost2010Prop51ColorRGB
 90
-16777216
102
RTVSPost2010PropOp51
 70
     0
102
RTVSPost2010Prop52
140
1.0
102
RTVSPost2010PropOp52
 70
     0
102
RTVSPost2010Prop53
 90
        2
102
RTVSPost2010PropOp53
 70
     1
102
RTVSPost2010Prop54
  1
strokes_ogs.tif
102
RTVSPost2010PropOp54
 70
     1
102
RTVSPost2010Prop55
280
     0
102
RTVSPost2010PropOp55
 70
     1
102
RTVSPost2010Prop56
140
1.0
102
RTVSPost2010PropOp56
 70
     1
102
RTVSPost2010Prop57
140
1.0
102
RTVSPost2010PropOp57
 70
     1
102
RTVSPropertyOp0
 70
     1
102
RTVSPropertyOp1
 70
     1
102
RTVSPropertyOp2
 70
     1
102
RTVSPropertyOp3
 70
     1
102
RTVSPropertyOp4
 70
     1
102
RTVSPropertyOp5
 70
     1
102
RTVSPropertyOp6
 70
     1
102
RTVSPropertyOp7
 70
     1
102
RTVSPropertyOp8
 70
     1
102
RTVSPropertyOp9
 70
     1
102
RTVSPropertyOp10
 70
     1
102
RTVSPropertyOp11
 70
     1
102
RTVSPropertyOp12
 70
     1
102
RTVSPropertyOp13
 70
     1
102
RTVSPropertyOp14
 70
     1
102
RTVSPropertyOp15
 70
     1
102
RTVSPropertyOp16
 70
     1
102
RTVSPropertyOp17
 70
     1
102
RTVSPropertyOp18
 70
     1
102
RTVSPropertyOp19
 70
     1
102
RTVSPropertyOp20
 70
     1
102
RTVSPropertyOp21
 70
     1
102
RTVSPropertyOp22
 70
     1
102
RTVSPropertyOp23
 70
     1
102
RTVSPropertyOp24
 70
     1
102
RTVSPropertyOp25
 70
     1
102
RTVSPropertyOp26
 70
     1
102
RTVSPropertyOp27
 70
     1
102
RTVSPropertyOp28
 70
     1
102
RTVSPropertyOp29
 70
     1
102
RTVSPropertyOp30
 70
     1
102
RTVSPropertyOp31
 70
     1
102
RTVSPropertyOp32
 70
     1
102
RTVSPropertyOp33
 70
     1
102
RTVSPropertyOp34
 70
     1
102
RTVSPropertyOp35
 70
     1
102
RTVSPropertyOp36
 70
     1
102
RTVSPropertyOp37
 70
     1
102
RTVSPropertyOp38
 70
     1
102
RTVSPropertyOp39
 70
     1
102
RTVSPropertyOp40
 70
     1
102
RTVSPropertyOp41
 70
     1
102
RTVSPropertyOp42
 70
     1
102
RTVSPropertyOp43
 70
     1
102
RTVSPropertyOp44
 70
     1
102
RTVSPropertyOp45
 70
     1
102
RTVSPropertyOp46
 70
     1
102
RTVSPropertyOp47
 70
     1
102
RTVSPropertyOp48
 70
     1
102
RTVSPropertyOp49
 70
     1
102
RTVSPropertyOp50
 70
     1
102
RTVSPropertyOp51
 70
     0
102
RTVSPropertyOp52
 70
     0
102
RTVSPropertyOp53
 70
     1
102
RTVSPropertyOp54
 70
     1
102
RTVSPropertyOp55
 70
     1
102
RTVSPropertyOp56
 70
     1
102
RTVSPropertyOp57
 70
     1
102
RTVSPropertyOp58
 70
     1
102
RTVSPropertyOp59
 70
     1
102
RTVSPropertyOp60
 70
     1
102
RTVSPropertyOp61
 70
     1
102
RTVSPropertyOp62
 70
     1
  0
XRECORD
  5
813
102
{ACAD_REACTORS
330
812
102
}
330
812
100
AcDbXrecord
280
     1
102
RTVSPost2010Prop28
280
     0
102
RTVSPost2010PropOp28
 70
     1
102
RTVSPost2010Prop29
280
     1
102
RTVSPost2010PropOp29
 70
     1
102
RTVSPost2010Prop30
280
     1
102
RTVSPost2010PropOp30
 70
     1
102
RTVSPost2010Prop31
280
     0
102
RTVSPost2010PropOp31
 70
     1
102
RTVSPost2010Prop32
280
     0
102
RTVSPost2010PropOp32
 70
     1
102
RTVSPost2010Prop33
280
     0
102
RTVSPost2010PropOp33
 70
     1
102
RTVSPost2010Prop34
280
     0
102
RTVSPost2010PropOp34
 70
     1
102
RTVSPost2010Prop35
280
     0
102
RTVSPost2010PropOp35
 70
     1
102
RTVSPost2010Prop36
280
     0
102
RTVSPost2010PropOp36
 70
     1
102
RTVSPost2010Prop37
 90
       50
102
RTVSPost2010PropOp37
 70
     1
102
RTVSPost2010Prop38
140
0.0
102
RTVSPost2010PropOp38
 70
     1
102
RTVSPost2010Prop39
140
1.0
102
RTVSPost2010PropOp39
 70
     1
102
RTVSPost2010Prop40
 90
        0
102
RTVSPost2010PropOp40
 70
     1
102
RTVSPost2010Prop41ColorIndex
 90
       18
102
RTVSPost2010Prop41ColorRGB
 90
        0
102
RTVSPost2010PropOp41
 70
     1
102
RTVSPost2010Prop42
 90
       50
102
RTVSPost2010PropOp42
 70
     1
102
RTVSPost2010Prop43
 90
        3
102
RTVSPost2010PropOp43
 70
     1
102
RTVSPost2010Prop44ColorIndex
 90
        5
102
RTVSPost2010Prop44ColorRGB
 90
      255
102
RTVSPost2010PropOp44
 70
     1
102
RTVSPost2010Prop45
280
     0
102
RTVSPost2010PropOp45
 70
     1
102
RTVSPost2010Prop46
 90
       50
102
RTVSPost2010PropOp46
 70
     1
102
RTVSPost2010Prop47
 90
       50
102
RTVSPost2010PropOp47
 70
     1
102
RTVSPost2010Prop48
 90
       50
102
RTVSPost2010PropOp48
 70
     1
102
RTVSPost2010Prop49
280
     0
102
RTVSPost2010PropOp49
 70
     1
102
RTVSPost2010Prop50
 90
       50
102
RTVSPost2010PropOp50
 70
     1
102
RTVSPost2010Prop51ColorIndex
 90
      256
102
RTVSPost2010Prop51ColorRGB
 90
-16777216
102
RTVSPost2010PropOp51
 70
     0
102
RTVSPost2010Prop52
140
1.0
102
RTVSPost2010PropOp52
 70
     0
102
RTVSPost2010Prop53
 90
        2
102
RTVSPost2010PropOp53
 70
     1
102
RTVSPost2010Prop54
  1
strokes_ogs.tif
102
RTVSPost2010PropOp54
 70
     1
102
RTVSPost2010Prop55
280
     0
102
RTVSPost2010PropOp55
 70
     1
102
RTVSPost2010Prop56
140
1.0
102
RTVSPost2010PropOp56
 70
     1
102
RTVSPost2010Prop57
140
1.0
102
RTVSPost2010PropOp57
 70
     1
102
RTVSPropertyOp0
 70
     1
102
RTVSPropertyOp1
 70
     1
102
RTVSPropertyOp2
 70
     1
102
RTVSPropertyOp3
 70
     1
102
RTVSPropertyOp4
 70
     1
102
RTVSPropertyOp5
 70
     1
102
RTVSPropertyOp6
 70
     1
102
RTVSPropertyOp7
 70
     1
102
RTVSPropertyOp8
 70
     1
102
RTVSPropertyOp9
 70
     1
102
RTVSPropertyOp10
 70
     1
102
RTVSPropertyOp11
 70
     1
102
RTVSPropertyOp12
 70
     1
102
RTVSPropertyOp13
 70
     1
102
RTVSPropertyOp14
 70
     1
102
RTVSPropertyOp15
 70
     1
102
RTVSPropertyOp16
 70
     1
102
RTVSPropertyOp17
 70
     1
102
RTVSPropertyOp18
 70
     1
102
RTVSPropertyOp19
 70
     1
102
RTVSPropertyOp20
 70
     1
102
RTVSPropertyOp21
 70
     1
102
RTVSPropertyOp22
 70
     1
102
RTVSPropertyOp23
 70
     1
102
RTVSPropertyOp24
 70
     1
102
RTVSPropertyOp25
 70
     1
102
RTVSPropertyOp26
 70
     1
102
RTVSPropertyOp27
 70
     1
102
RTVSPropertyOp28
 70
     1
102
RTVSPropertyOp29
 70
     1
102
RTVSPropertyOp30
 70
     1
102
RTVSPropertyOp31
 70
     1
102
RTVSPropertyOp32
 70
     1
102
RTVSPropertyOp33
 70
     1
102
RTVSPropertyOp34
 70
     1
102
RTVSPropertyOp35
 70
     1
102
RTVSPropertyOp36
 70
     1
102
RTVSPropertyOp37
 70
     1
102
RTVSPropertyOp38
 70
     1
102
RTVSPropertyOp39
 70
     1
102
RTVSPropertyOp40
 70
     1
102
RTVSPropertyOp41
 70
     1
102
RTVSPropertyOp42
 70
     1
102
RTVSPropertyOp43
 70
     1
102
RTVSPropertyOp44
 70
     1
102
RTVSPropertyOp45
 70
     1
102
RTVSPropertyOp46
 70
     1
102
RTVSPropertyOp47
 70
     1
102
RTVSPropertyOp48
 70
     1
102
RTVSPropertyOp49
 70
     1
102
RTVSPropertyOp50
 70
     1
102
RTVSPropertyOp51
 70
     0
102
RTVSPropertyOp52
 70
     0
102
RTVSPropertyOp53
 70
     1
102
RTVSPropertyOp54
 70
     1
102
RTVSPropertyOp55
 70
     1
102
RTVSPropertyOp56
 70
     1
102
RTVSPropertyOp57
 70
     1
102
RTVSPropertyOp58
 70
     1
102
RTVSPropertyOp59
 70
     1
102
RTVSPropertyOp60
 70
     1
102
RTVSPropertyOp61
 70
     1
102
RTVSPropertyOp62
 70
     1
  0
XRECORD
  5
819
102
{ACAD_REACTORS
330
818
102
}
330
818
100
AcDbXrecord
280
     1
102
RTVSPost2010Prop28
280
     0
102
RTVSPost2010PropOp28
 70
     1
102
RTVSPost2010Prop29
280
     1
102
RTVSPost2010PropOp29
 70
     1
102
RTVSPost2010Prop30
280
     1
102
RTVSPost2010PropOp30
 70
     1
102
RTVSPost2010Prop31
280
     0
102
RTVSPost2010PropOp31
 70
     1
102
RTVSPost2010Prop32
280
     0
102
RTVSPost2010PropOp32
 70
     1
102
RTVSPost2010Prop33
280
     0
102
RTVSPost2010PropOp33
 70
     1
102
RTVSPost2010Prop34
280
     0
102
RTVSPost2010PropOp34
 70
     1
102
RTVSPost2010Prop35
280
     0
102
RTVSPost2010PropOp35
 70
     1
102
RTVSPost2010Prop36
280
     0
102
RTVSPost2010PropOp36
 70
     1
102
RTVSPost2010Prop37
 90
       50
102
RTVSPost2010PropOp37
 70
     1
102
RTVSPost2010Prop38
140
0.0
102
RTVSPost2010PropOp38
 70
     1
102
RTVSPost2010Prop39
140
1.0
102
RTVSPost2010PropOp39
 70
     1
102
RTVSPost2010Prop40
 90
        0
102
RTVSPost2010PropOp40
 70
     1
102
RTVSPost2010Prop41ColorIndex
 90
       18
102
RTVSPost2010Prop41ColorRGB
 90
        0
102
RTVSPost2010PropOp41
 70
     1
102
RTVSPost2010Prop42
 90
       50
102
RTVSPost2010PropOp42
 70
     1
102
RTVSPost2010Prop43
 90
        3
102
RTVSPost2010PropOp43
 70
     1
102
RTVSPost2010Prop44ColorIndex
 90
        5
102
RTVSPost2010Prop44ColorRGB
 90
      255
102
RTVSPost2010PropOp44
 70
     1
102
RTVSPost2010Prop45
280
     0
102
RTVSPost2010PropOp45
 70
     1
102
RTVSPost2010Prop46
 90
       50
102
RTVSPost2010PropOp46
 70
     1
102
RTVSPost2010Prop47
 90
       50
102
RTVSPost2010PropOp47
 70
     1
102
RTVSPost2010Prop48
 90
       50
102
RTVSPost2010PropOp48
 70
     1
102
RTVSPost2010Prop49
280
     0
102
RTVSPost2010PropOp49
 70
     1
102
RTVSPost2010Prop50
 90
       50
102
RTVSPost2010PropOp50
 70
     1
102
RTVSPost2010Prop51ColorIndex
 90
      256
102
RTVSPost2010Prop51ColorRGB
 90
-16777216
102
RTVSPost2010PropOp51
 70
     0
102
RTVSPost2010Prop52
140
1.0
102
RTVSPost2010PropOp52
 70
     0
102
RTVSPost2010Prop53
 90
        2
102
RTVSPost2010PropOp53
 70
     1
102
RTVSPost2010Prop54
  1
strokes_ogs.tif
102
RTVSPost2010PropOp54
 70
     1
102
RTVSPost2010Prop55
280
     0
102
RTVSPost2010PropOp55
 70
     1
102
RTVSPost2010Prop56
140
1.0
102
RTVSPost2010PropOp56
 70
     1
102
RTVSPost2010Prop57
140
1.0
102
RTVSPost2010PropOp57
 70
     1
102
RTVSPropertyOp0
 70
     1
102
RTVSPropertyOp1
 70
     1
102
RTVSPropertyOp2
 70
     1
102
RTVSPropertyOp3
 70
     1
102
RTVSPropertyOp4
 70
     1
102
RTVSPropertyOp5
 70
     1
102
RTVSPropertyOp6
 70
     1
102
RTVSPropertyOp7
 70
     1
102
RTVSPropertyOp8
 70
     1
102
RTVSPropertyOp9
 70
     1
102
RTVSPropertyOp10
 70
     1
102
RTVSPropertyOp11
 70
     1
102
RTVSPropertyOp12
 70
     1
102
RTVSPropertyOp13
 70
     1
102
RTVSPropertyOp14
 70
     1
102
RTVSPropertyOp15
 70
     1
102
RTVSPropertyOp16
 70
     1
102
RTVSPropertyOp17
 70
     1
102
RTVSPropertyOp18
 70
     1
102
RTVSPropertyOp19
 70
     1
102
RTVSPropertyOp20
 70
     1
102
RTVSPropertyOp21
 70
     1
102
RTVSPropertyOp22
 70
     1
102
RTVSPropertyOp23
 70
     1
102
RTVSPropertyOp24
 70
     1
102
RTVSPropertyOp25
 70
     1
102
RTVSPropertyOp26
 70
     1
102
RTVSPropertyOp27
 70
     1
102
RTVSPropertyOp28
 70
     1
102
RTVSPropertyOp29
 70
     1
102
RTVSPropertyOp30
 70
     1
102
RTVSPropertyOp31
 70
     1
102
RTVSPropertyOp32
 70
     1
102
RTVSPropertyOp33
 70
     1
102
RTVSPropertyOp34
 70
     1
102
RTVSPropertyOp35
 70
     1
102
RTVSPropertyOp36
 70
     1
102
RTVSPropertyOp37
 70
     1
102
RTVSPropertyOp38
 70
     1
102
RTVSPropertyOp39
 70
     1
102
RTVSPropertyOp40
 70
     1
102
RTVSPropertyOp41
 70
     1
102
RTVSPropertyOp42
 70
     1
102
RTVSPropertyOp43
 70
     1
102
RTVSPropertyOp44
 70
     1
102
RTVSPropertyOp45
 70
     1
102
RTVSPropertyOp46
 70
     1
102
RTVSPropertyOp47
 70
     1
102
RTVSPropertyOp48
 70
     1
102
RTVSPropertyOp49
 70
     1
102
RTVSPropertyOp50
 70
     1
102
RTVSPropertyOp51
 70
     0
102
RTVSPropertyOp52
 70
     0
102
RTVSPropertyOp53
 70
     1
102
RTVSPropertyOp54
 70
     1
102
RTVSPropertyOp55
 70
     1
102
RTVSPropertyOp56
 70
     1
102
RTVSPropertyOp57
 70
     1
102
RTVSPropertyOp58
 70
     1
102
RTVSPropertyOp59
 70
     1
102
RTVSPropertyOp60
 70
     1
102
RTVSPropertyOp61
 70
     1
102
RTVSPropertyOp62
 70
     1
  0
XRECORD
  5
82D
102
{ACAD_REACTORS
330
82C
102
}
330
82C
100
AcDbXrecord
280
     1
102
RTVSPost2010Prop28
280
     0
102
RTVSPost2010PropOp28
 70
     0
102
RTVSPost2010Prop29
280
     1
102
RTVSPost2010PropOp29
 70
     0
102
RTVSPost2010Prop30
280
     1
102
RTVSPost2010PropOp30
 70
     0
102
RTVSPost2010Prop31
280
     0
102
RTVSPost2010PropOp31
 70
     0
102
RTVSPost2010Prop32
280
     0
102
RTVSPost2010PropOp32
 70
     0
102
RTVSPost2010Prop33
280
     0
102
RTVSPost2010PropOp33
 70
     0
102
RTVSPost2010Prop34
280
     0
102
RTVSPost2010PropOp34
 70
     0
102
RTVSPost2010Prop35
280
     0
102
RTVSPost2010PropOp35
 70
     0
102
RTVSPost2010Prop36
280
     0
102
RTVSPost2010PropOp36
 70
     0
102
RTVSPost2010Prop37
 90
       50
102
RTVSPost2010PropOp37
 70
     0
102
RTVSPost2010Prop38
140
0.0
102
RTVSPost2010PropOp38
 70
     0
102
RTVSPost2010Prop39
140
1.0
102
RTVSPost2010PropOp39
 70
     0
102
RTVSPost2010Prop40
 90
        0
102
RTVSPost2010PropOp40
 70
     0
102
RTVSPost2010Prop41ColorIndex
 90
       18
102
RTVSPost2010Prop41ColorRGB
 90
        0
102
RTVSPost2010PropOp41
 70
     0
102
RTVSPost2010Prop42
 90
       50
102
RTVSPost2010PropOp42
 70
     0
102
RTVSPost2010Prop43
 90
        3
102
RTVSPost2010PropOp43
 70
     0
102
RTVSPost2010Prop44ColorIndex
 90
        5
102
RTVSPost2010Prop44ColorRGB
 90
      255
102
RTVSPost2010PropOp44
 70
     0
102
RTVSPost2010Prop45
280
     0
102
RTVSPost2010PropOp45
 70
     0
102
RTVSPost2010Prop46
 90
       50
102
RTVSPost2010PropOp46
 70
     0
102
RTVSPost2010Prop47
 90
       50
102
RTVSPost2010PropOp47
 70
     0
102
RTVSPost2010Prop48
 90
       50
102
RTVSPost2010PropOp48
 70
     0
102
RTVSPost2010Prop49
280
     0
102
RTVSPost2010PropOp49
 70
     0
102
RTVSPost2010Prop50
 90
       50
102
RTVSPost2010PropOp50
 70
     0
102
RTVSPost2010Prop51ColorIndex
 90
      256
102
RTVSPost2010Prop51ColorRGB
 90
-16777216
102
RTVSPost2010PropOp51
 70
     0
102
RTVSPost2010Prop52
140
1.0
102
RTVSPost2010PropOp52
 70
     0
102
RTVSPost2010Prop53
 90
        2
102
RTVSPost2010PropOp53
 70
     0
102
RTVSPost2010Prop54
  1
strokes_ogs.tif
102
RTVSPost2010PropOp54
 70
     0
102
RTVSPost2010Prop55
280
     0
102
RTVSPost2010PropOp55
 70
     0
102
RTVSPost2010Prop56
140
1.0
102
RTVSPost2010PropOp56
 70
     0
102
RTVSPost2010Prop57
140
1.0
102
RTVSPost2010PropOp57
 70
     0
102
RTVSPropertyOp0
 70
     0
102
RTVSPropertyOp1
 70
     0
102
RTVSPropertyOp2
 70
     0
102
RTVSPropertyOp3
 70
     0
102
RTVSPropertyOp4
 70
     0
102
RTVSPropertyOp5
 70
     0
102
RTVSPropertyOp6
 70
     0
102
RTVSPropertyOp7
 70
     0
102
RTVSPropertyOp8
 70
     0
102
RTVSPropertyOp9
 70
     0
102
RTVSPropertyOp10
 70
     0
102
RTVSPropertyOp11
 70
     0
102
RTVSPropertyOp12
 70
     0
102
RTVSPropertyOp13
 70
     0
102
RTVSPropertyOp14
 70
     2
102
RTVSPropertyOp15
 70
     0
102
RTVSPropertyOp16
 70
     0
102
RTVSPropertyOp17
 70
     0
102
RTVSPropertyOp18
 70
     0
102
RTVSPropertyOp19
 70
     0
102
RTVSPropertyOp20
 70
     0
102
RTVSPropertyOp21
 70
     0
102
RTVSPropertyOp22
 70
     0
102
RTVSPropertyOp23
 70
     0
102
RTVSPropertyOp24
 70
     0
102
RTVSPropertyOp25
 70
     0
102
RTVSPropertyOp26
 70
     0
102
RTVSPropertyOp27
 70
     0
102
RTVSPropertyOp28
 70
     0
102
RTVSPropertyOp29
 70
     0
102
RTVSPropertyOp30
 70
     0
102
RTVSPropertyOp31
 70
     0
102
RTVSPropertyOp32
 70
     0
102
RTVSPropertyOp33
 70
     0
102
RTVSPropertyOp34
 70
     0
102
RTVSPropertyOp35
 70
     0
102
RTVSPropertyOp36
 70
     0
102
RTVSPropertyOp37
 70
     0
102
RTVSPropertyOp38
 70
     0
102
RTVSPropertyOp39
 70
     0
102
RTVSPropertyOp40
 70
     0
102
RTVSPropertyOp41
 70
     0
102
RTVSPropertyOp42
 70
     0
102
RTVSPropertyOp43
 70
     0
102
RTVSPropertyOp44
 70
     0
102
RTVSPropertyOp45
 70
     0
102
RTVSPropertyOp46
 70
     0
102
RTVSPropertyOp47
 70
     0
102
RTVSPropertyOp48
 70
     0
102
RTVSPropertyOp49
 70
     0
102
RTVSPropertyOp50
 70
     0
102
RTVSPropertyOp51
 70
     0
102
RTVSPropertyOp52
 70
     0
102
RTVSPropertyOp53
 70
     0
102
RTVSPropertyOp54
 70
     0
102
RTVSPropertyOp55
 70
     0
102
RTVSPropertyOp56
 70
     0
102
RTVSPropertyOp57
 70
     0
102
RTVSPropertyOp58
 70
     1
102
RTVSPropertyOp59
 70
     1
102
RTVSPropertyOp60
 70
     1
102
RTVSPropertyOp61
 70
     1
102
RTVSPropertyOp62
 70
     1
  0
XRECORD
  5
827
102
{ACAD_REACTORS
330
826
102
}
330
826
100
AcDbXrecord
280
     1
102
RTVSPost2010Prop28
280
     0
102
RTVSPost2010PropOp28
 70
     1
102
RTVSPost2010Prop29
280
     1
102
RTVSPost2010PropOp29
 70
     1
102
RTVSPost2010Prop30
280
     1
102
RTVSPost2010PropOp30
 70
     1
102
RTVSPost2010Prop31
280
     0
102
RTVSPost2010PropOp31
 70
     1
102
RTVSPost2010Prop32
280
     0
102
RTVSPost2010PropOp32
 70
     1
102
RTVSPost2010Prop33
280
     0
102
RTVSPost2010PropOp33
 70
     1
102
RTVSPost2010Prop34
280
     0
102
RTVSPost2010PropOp34
 70
     1
102
RTVSPost2010Prop35
280
     0
102
RTVSPost2010PropOp35
 70
     1
102
RTVSPost2010Prop36
280
     0
102
RTVSPost2010PropOp36
 70
     1
102
RTVSPost2010Prop37
 90
       50
102
RTVSPost2010PropOp37
 70
     1
102
RTVSPost2010Prop38
140
0.0
102
RTVSPost2010PropOp38
 70
     1
102
RTVSPost2010Prop39
140
1.0
102
RTVSPost2010PropOp39
 70
     1
102
RTVSPost2010Prop40
 90
        0
102
RTVSPost2010PropOp40
 70
     1
102
RTVSPost2010Prop41ColorIndex
 90
       18
102
RTVSPost2010Prop41ColorRGB
 90
        0
102
RTVSPost2010PropOp41
 70
     1
102
RTVSPost2010Prop42
 90
       50
102
RTVSPost2010PropOp42
 70
     1
102
RTVSPost2010Prop43
 90
        3
102
RTVSPost2010PropOp43
 70
     1
102
RTVSPost2010Prop44ColorIndex
 90
        5
102
RTVSPost2010Prop44ColorRGB
 90
      255
102
RTVSPost2010PropOp44
 70
     1
102
RTVSPost2010Prop45
280
     0
102
RTVSPost2010PropOp45
 70
     1
102
RTVSPost2010Prop46
 90
       50
102
RTVSPost2010PropOp46
 70
     1
102
RTVSPost2010Prop47
 90
       50
102
RTVSPost2010PropOp47
 70
     1
102
RTVSPost2010Prop48
 90
       50
102
RTVSPost2010PropOp48
 70
     1
102
RTVSPost2010Prop49
280
     0
102
RTVSPost2010PropOp49
 70
     1
102
RTVSPost2010Prop50
 90
       50
102
RTVSPost2010PropOp50
 70
     1
102
RTVSPost2010Prop51ColorIndex
 90
      256
102
RTVSPost2010Prop51ColorRGB
 90
-16777216
102
RTVSPost2010PropOp51
 70
     0
102
RTVSPost2010Prop52
140
1.0
102
RTVSPost2010PropOp52
 70
     0
102
RTVSPost2010Prop53
 90
        2
102
RTVSPost2010PropOp53
 70
     1
102
RTVSPost2010Prop54
  1
strokes_ogs.tif
102
RTVSPost2010PropOp54
 70
     1
102
RTVSPost2010Prop55
280
     0
102
RTVSPost2010PropOp55
 70
     1
102
RTVSPost2010Prop56
140
1.0
102
RTVSPost2010PropOp56
 70
     1
102
RTVSPost2010Prop57
140
1.0
102
RTVSPost2010PropOp57
 70
     1
102
RTVSPropertyOp0
 70
     1
102
RTVSPropertyOp1
 70
     1
102
RTVSPropertyOp2
 70
     1
102
RTVSPropertyOp3
 70
     1
102
RTVSPropertyOp4
 70
     1
102
RTVSPropertyOp5
 70
     1
102
RTVSPropertyOp6
 70
     1
102
RTVSPropertyOp7
 70
     1
102
RTVSPropertyOp8
 70
     1
102
RTVSPropertyOp9
 70
     1
102
RTVSPropertyOp10
 70
     1
102
RTVSPropertyOp11
 70
     1
102
RTVSPropertyOp12
 70
     1
102
RTVSPropertyOp13
 70
     1
102
RTVSPropertyOp14
 70
     1
102
RTVSPropertyOp15
 70
     1
102
RTVSPropertyOp16
 70
     1
102
RTVSPropertyOp17
 70
     1
102
RTVSPropertyOp18
 70
     1
102
RTVSPropertyOp19
 70
     1
102
RTVSPropertyOp20
 70
     1
102
RTVSPropertyOp21
 70
     1
102
RTVSPropertyOp22
 70
     1
102
RTVSPropertyOp23
 70
     1
102
RTVSPropertyOp24
 70
     1
102
RTVSPropertyOp25
 70
     1
102
RTVSPropertyOp26
 70
     1
102
RTVSPropertyOp27
 70
     1
102
RTVSPropertyOp28
 70
     1
102
RTVSPropertyOp29
 70
     1
102
RTVSPropertyOp30
 70
     1
102
RTVSPropertyOp31
 70
     1
102
RTVSPropertyOp32
 70
     1
102
RTVSPropertyOp33
 70
     1
102
RTVSPropertyOp34
 70
     1
102
RTVSPropertyOp35
 70
     1
102
RTVSPropertyOp36
 70
     1
102
RTVSPropertyOp37
 70
     1
102
RTVSPropertyOp38
 70
     1
102
RTVSPropertyOp39
 70
     1
102
RTVSPropertyOp40
 70
     1
102
RTVSPropertyOp41
 70
     1
102
RTVSPropertyOp42
 70
     1
102
RTVSPropertyOp43
 70
     1
102
RTVSPropertyOp44
 70
     1
102
RTVSPropertyOp45
 70
     1
102
RTVSPropertyOp46
 70
     1
102
RTVSPropertyOp47
 70
     1
102
RTVSPropertyOp48
 70
     1
102
RTVSPropertyOp49
 70
     1
102
RTVSPropertyOp50
 70
     1
102
RTVSPropertyOp51
 70
     0
102
RTVSPropertyOp52
 70
     0
102
RTVSPropertyOp53
 70
     1
102
RTVSPropertyOp54
 70
     1
102
RTVSPropertyOp55
 70
     1
102
RTVSPropertyOp56
 70
     1
102
RTVSPropertyOp57
 70
     1
102
RTVSPropertyOp58
 70
     1
102
RTVSPropertyOp59
 70
     1
102
RTVSPropertyOp60
 70
     1
102
RTVSPropertyOp61
 70
     1
102
RTVSPropertyOp62
 70
     1
  0
XRECORD
  5
82F
102
{ACAD_REACTORS
330
82E
102
}
330
82E
100
AcDbXrecord
280
     1
102
RTVSPost2010Prop28
280
     0
102
RTVSPost2010PropOp28
 70
     0
102
RTVSPost2010Prop29
280
     1
102
RTVSPost2010PropOp29
 70
     0
102
RTVSPost2010Prop30
280
     1
102
RTVSPost2010PropOp30
 70
     0
102
RTVSPost2010Prop31
280
     0
102
RTVSPost2010PropOp31
 70
     0
102
RTVSPost2010Prop32
280
     0
102
RTVSPost2010PropOp32
 70
     0
102
RTVSPost2010Prop33
280
     0
102
RTVSPost2010PropOp33
 70
     0
102
RTVSPost2010Prop34
280
     0
102
RTVSPost2010PropOp34
 70
     0
102
RTVSPost2010Prop35
280
     0
102
RTVSPost2010PropOp35
 70
     0
102
RTVSPost2010Prop36
280
     0
102
RTVSPost2010PropOp36
 70
     0
102
RTVSPost2010Prop37
 90
       50
102
RTVSPost2010PropOp37
 70
     0
102
RTVSPost2010Prop38
140
0.0
102
RTVSPost2010PropOp38
 70
     0
102
RTVSPost2010Prop39
140
1.0
102
RTVSPost2010PropOp39
 70
     0
102
RTVSPost2010Prop40
 90
        0
102
RTVSPost2010PropOp40
 70
     0
102
RTVSPost2010Prop41ColorIndex
 90
       18
102
RTVSPost2010Prop41ColorRGB
 90
        0
102
RTVSPost2010PropOp41
 70
     0
102
RTVSPost2010Prop42
 90
       50
102
RTVSPost2010PropOp42
 70
     0
102
RTVSPost2010Prop43
 90
        3
102
RTVSPost2010PropOp43
 70
     0
102
RTVSPost2010Prop44ColorIndex
 90
        5
102
RTVSPost2010Prop44ColorRGB
 90
      255
102
RTVSPost2010PropOp44
 70
     0
102
RTVSPost2010Prop45
280
     0
102
RTVSPost2010PropOp45
 70
     0
102
RTVSPost2010Prop46
 90
       50
102
RTVSPost2010PropOp46
 70
     0
102
RTVSPost2010Prop47
 90
       50
102
RTVSPost2010PropOp47
 70
     0
102
RTVSPost2010Prop48
 90
       50
102
RTVSPost2010PropOp48
 70
     0
102
RTVSPost2010Prop49
280
     0
102
RTVSPost2010PropOp49
 70
     0
102
RTVSPost2010Prop50
 90
       50
102
RTVSPost2010PropOp50
 70
     0
102
RTVSPost2010Prop51ColorIndex
 90
      256
102
RTVSPost2010Prop51ColorRGB
 90
-16777216
102
RTVSPost2010PropOp51
 70
     0
102
RTVSPost2010Prop52
140
1.0
102
RTVSPost2010PropOp52
 70
     0
102
RTVSPost2010Prop53
 90
        2
102
RTVSPost2010PropOp53
 70
     0
102
RTVSPost2010Prop54
  1
strokes_ogs.tif
102
RTVSPost2010PropOp54
 70
     0
102
RTVSPost2010Prop55
280
     0
102
RTVSPost2010PropOp55
 70
     0
102
RTVSPost2010Prop56
140
1.0
102
RTVSPost2010PropOp56
 70
     0
102
RTVSPost2010Prop57
140
1.0
102
RTVSPost2010PropOp57
 70
     0
102
RTVSPropertyOp0
 70
     0
102
RTVSPropertyOp1
 70
     0
102
RTVSPropertyOp2
 70
     0
102
RTVSPropertyOp3
 70
     0
102
RTVSPropertyOp4
 70
     0
102
RTVSPropertyOp5
 70
     0
102
RTVSPropertyOp6
 70
     0
102
RTVSPropertyOp7
 70
     0
102
RTVSPropertyOp8
 70
     0
102
RTVSPropertyOp9
 70
     0
102
RTVSPropertyOp10
 70
     0
102
RTVSPropertyOp11
 70
     0
102
RTVSPropertyOp12
 70
     0
102
RTVSPropertyOp13
 70
     0
102
RTVSPropertyOp14
 70
     2
102
RTVSPropertyOp15
 70
     0
102
RTVSPropertyOp16
 70
     0
102
RTVSPropertyOp17
 70
     0
102
RTVSPropertyOp18
 70
     0
102
RTVSPropertyOp19
 70
     0
102
RTVSPropertyOp20
 70
     0
102
RTVSPropertyOp21
 70
     0
102
RTVSPropertyOp22
 70
     0
102
RTVSPropertyOp23
 70
     0
102
RTVSPropertyOp24
 70
     0
102
RTVSPropertyOp25
 70
     0
102
RTVSPropertyOp26
 70
     0
102
RTVSPropertyOp27
 70
     0
102
RTVSPropertyOp28
 70
     0
102
RTVSPropertyOp29
 70
     0
102
RTVSPropertyOp30
 70
     0
102
RTVSPropertyOp31
 70
     0
102
RTVSPropertyOp32
 70
     0
102
RTVSPropertyOp33
 70
     0
102
RTVSPropertyOp34
 70
     0
102
RTVSPropertyOp35
 70
     0
102
RTVSPropertyOp36
 70
     0
102
RTVSPropertyOp37
 70
     0
102
RTVSPropertyOp38
 70
     0
102
RTVSPropertyOp39
 70
     0
102
RTVSPropertyOp40
 70
     0
102
RTVSPropertyOp41
 70
     0
102
RTVSPropertyOp42
 70
     0
102
RTVSPropertyOp43
 70
     0
102
RTVSPropertyOp44
 70
     0
102
RTVSPropertyOp45
 70
     0
102
RTVSPropertyOp46
 70
     0
102
RTVSPropertyOp47
 70
     0
102
RTVSPropertyOp48
 70
     0
102
RTVSPropertyOp49
 70
     0
102
RTVSPropertyOp50
 70
     0
102
RTVSPropertyOp51
 70
     0
102
RTVSPropertyOp52
 70
     0
102
RTVSPropertyOp53
 70
     0
102
RTVSPropertyOp54
 70
     0
102
RTVSPropertyOp55
 70
     0
102
RTVSPropertyOp56
 70
     0
102
RTVSPropertyOp57
 70
     0
102
RTVSPropertyOp58
 70
     1
102
RTVSPropertyOp59
 70
     1
102
RTVSPropertyOp60
 70
     1
102
RTVSPropertyOp61
 70
     1
102
RTVSPropertyOp62
 70
     1
  0
XRECORD
  5
81D
102
{ACAD_REACTORS
330
81C
102
}
330
81C
100
AcDbXrecord
280
     1
102
RTVSPost2010Prop28
280
     0
102
RTVSPost2010PropOp28
 70
     1
102
RTVSPost2010Prop29
280
     1
102
RTVSPost2010PropOp29
 70
     1
102
RTVSPost2010Prop30
280
     1
102
RTVSPost2010PropOp30
 70
     1
102
RTVSPost2010Prop31
280
     0
102
RTVSPost2010PropOp31
 70
     1
102
RTVSPost2010Prop32
280
     0
102
RTVSPost2010PropOp32
 70
     1
102
RTVSPost2010Prop33
280
     0
102
RTVSPost2010PropOp33
 70
     1
102
RTVSPost2010Prop34
280
     0
102
RTVSPost2010PropOp34
 70
     1
102
RTVSPost2010Prop35
280
     0
102
RTVSPost2010PropOp35
 70
     1
102
RTVSPost2010Prop36
280
     0
102
RTVSPost2010PropOp36
 70
     1
102
RTVSPost2010Prop37
 90
       50
102
RTVSPost2010PropOp37
 70
     1
102
RTVSPost2010Prop38
140
0.0
102
RTVSPost2010PropOp38
 70
     1
102
RTVSPost2010Prop39
140
1.0
102
RTVSPost2010PropOp39
 70
     1
102
RTVSPost2010Prop40
 90
        0
102
RTVSPost2010PropOp40
 70
     1
102
RTVSPost2010Prop41ColorIndex
 90
       18
102
RTVSPost2010Prop41ColorRGB
 90
        0
102
RTVSPost2010PropOp41
 70
     1
102
RTVSPost2010Prop42
 90
       50
102
RTVSPost2010PropOp42
 70
     1
102
RTVSPost2010Prop43
 90
        3
102
RTVSPost2010PropOp43
 70
     1
102
RTVSPost2010Prop44ColorIndex
 90
        5
102
RTVSPost2010Prop44ColorRGB
 90
      255
102
RTVSPost2010PropOp44
 70
     1
102
RTVSPost2010Prop45
280
     0
102
RTVSPost2010PropOp45
 70
     1
102
RTVSPost2010Prop46
 90
       50
102
RTVSPost2010PropOp46
 70
     1
102
RTVSPost2010Prop47
 90
       50
102
RTVSPost2010PropOp47
 70
     1
102
RTVSPost2010Prop48
 90
       50
102
RTVSPost2010PropOp48
 70
     1
102
RTVSPost2010Prop49
280
     0
102
RTVSPost2010PropOp49
 70
     1
102
RTVSPost2010Prop50
 90
       50
102
RTVSPost2010PropOp50
 70
     1
102
RTVSPost2010Prop51ColorIndex
 90
      256
102
RTVSPost2010Prop51ColorRGB
 90
-16777216
102
RTVSPost2010PropOp51
 70
     0
102
RTVSPost2010Prop52
140
1.0
102
RTVSPost2010PropOp52
 70
     0
102
RTVSPost2010Prop53
 90
        2
102
RTVSPost2010PropOp53
 70
     1
102
RTVSPost2010Prop54
  1
strokes_ogs.tif
102
RTVSPost2010PropOp54
 70
     1
102
RTVSPost2010Prop55
280
     0
102
RTVSPost2010PropOp55
 70
     1
102
RTVSPost2010Prop56
140
1.0
102
RTVSPost2010PropOp56
 70
     1
102
RTVSPost2010Prop57
140
1.0
102
RTVSPost2010PropOp57
 70
     1
102
RTVSPropertyOp0
 70
     1
102
RTVSPropertyOp1
 70
     1
102
RTVSPropertyOp2
 70
     1
102
RTVSPropertyOp3
 70
     1
102
RTVSPropertyOp4
 70
     1
102
RTVSPropertyOp5
 70
     1
102
RTVSPropertyOp6
 70
     1
102
RTVSPropertyOp7
 70
     1
102
RTVSPropertyOp8
 70
     1
102
RTVSPropertyOp9
 70
     1
102
RTVSPropertyOp10
 70
     1
102
RTVSPropertyOp11
 70
     1
102
RTVSPropertyOp12
 70
     1
102
RTVSPropertyOp13
 70
     1
102
RTVSPropertyOp14
 70
     1
102
RTVSPropertyOp15
 70
     1
102
RTVSPropertyOp16
 70
     1
102
RTVSPropertyOp17
 70
     1
102
RTVSPropertyOp18
 70
     1
102
RTVSPropertyOp19
 70
     1
102
RTVSPropertyOp20
 70
     1
102
RTVSPropertyOp21
 70
     1
102
RTVSPropertyOp22
 70
     1
102
RTVSPropertyOp23
 70
     1
102
RTVSPropertyOp24
 70
     1
102
RTVSPropertyOp25
 70
     1
102
RTVSPropertyOp26
 70
     1
102
RTVSPropertyOp27
 70
     1
102
RTVSPropertyOp28
 70
     1
102
RTVSPropertyOp29
 70
     1
102
RTVSPropertyOp30
 70
     1
102
RTVSPropertyOp31
 70
     1
102
RTVSPropertyOp32
 70
     1
102
RTVSPropertyOp33
 70
     1
102
RTVSPropertyOp34
 70
     1
102
RTVSPropertyOp35
 70
     1
102
RTVSPropertyOp36
 70
     1
102
RTVSPropertyOp37
 70
     1
102
RTVSPropertyOp38
 70
     1
102
RTVSPropertyOp39
 70
     1
102
RTVSPropertyOp40
 70
     1
102
RTVSPropertyOp41
 70
     1
102
RTVSPropertyOp42
 70
     1
102
RTVSPropertyOp43
 70
     1
102
RTVSPropertyOp44
 70
     1
102
RTVSPropertyOp45
 70
     1
102
RTVSPropertyOp46
 70
     1
102
RTVSPropertyOp47
 70
     1
102
RTVSPropertyOp48
 70
     1
102
RTVSPropertyOp49
 70
     1
102
RTVSPropertyOp50
 70
     1
102
RTVSPropertyOp51
 70
     0
102
RTVSPropertyOp52
 70
     0
102
RTVSPropertyOp53
 70
     1
102
RTVSPropertyOp54
 70
     1
102
RTVSPropertyOp55
 70
     1
102
RTVSPropertyOp56
 70
     1
102
RTVSPropertyOp57
 70
     1
102
RTVSPropertyOp58
 70
     1
102
RTVSPropertyOp59
 70
     1
102
RTVSPropertyOp60
 70
     1
102
RTVSPropertyOp61
 70
     1
102
RTVSPropertyOp62
 70
     1
  0
XRECORD
  5
83B
102
{ACAD_REACTORS
330
83A
102
}
330
83A
100
AcDbXrecord
280
     1
102
RTVSPost2010Prop28
280
     0
102
RTVSPost2010PropOp28
 70
     1
102
RTVSPost2010Prop29
280
     1
102
RTVSPost2010PropOp29
 70
     1
102
RTVSPost2010Prop30
280
     1
102
RTVSPost2010PropOp30
 70
     1
102
RTVSPost2010Prop31
280
     0
102
RTVSPost2010PropOp31
 70
     1
102
RTVSPost2010Prop32
280
     0
102
RTVSPost2010PropOp32
 70
     1
102
RTVSPost2010Prop33
280
     0
102
RTVSPost2010PropOp33
 70
     1
102
RTVSPost2010Prop34
280
     0
102
RTVSPost2010PropOp34
 70
     1
102
RTVSPost2010Prop35
280
     0
102
RTVSPost2010PropOp35
 70
     1
102
RTVSPost2010Prop36
280
     0
102
RTVSPost2010PropOp36
 70
     1
102
RTVSPost2010Prop37
 90
       50
102
RTVSPost2010PropOp37
 70
     1
102
RTVSPost2010Prop38
140
0.0
102
RTVSPost2010PropOp38
 70
     1
102
RTVSPost2010Prop39
140
1.0
102
RTVSPost2010PropOp39
 70
     1
102
RTVSPost2010Prop40
 90
        0
102
RTVSPost2010PropOp40
 70
     1
102
RTVSPost2010Prop41ColorIndex
 90
       18
102
RTVSPost2010Prop41ColorRGB
 90
        0
102
RTVSPost2010PropOp41
 70
     1
102
RTVSPost2010Prop42
 90
       50
102
RTVSPost2010PropOp42
 70
     1
102
RTVSPost2010Prop43
 90
        3
102
RTVSPost2010PropOp43
 70
     1
102
RTVSPost2010Prop44ColorIndex
 90
        5
102
RTVSPost2010Prop44ColorRGB
 90
      255
102
RTVSPost2010PropOp44
 70
     1
102
RTVSPost2010Prop45
280
     0
102
RTVSPost2010PropOp45
 70
     1
102
RTVSPost2010Prop46
 90
       50
102
RTVSPost2010PropOp46
 70
     1
102
RTVSPost2010Prop47
 90
       50
102
RTVSPost2010PropOp47
 70
     1
102
RTVSPost2010Prop48
 90
       50
102
RTVSPost2010PropOp48
 70
     1
102
RTVSPost2010Prop49
280
     0
102
RTVSPost2010PropOp49
 70
     1
102
RTVSPost2010Prop50
 90
       50
102
RTVSPost2010PropOp50
 70
     1
102
RTVSPost2010Prop51ColorIndex
 90
      256
102
RTVSPost2010Prop51ColorRGB
 90
-16777216
102
RTVSPost2010PropOp51
 70
     0
102
RTVSPost2010Prop52
140
1.0
102
RTVSPost2010PropOp52
 70
     0
102
RTVSPost2010Prop53
 90
        2
102
RTVSPost2010PropOp53
 70
     1
102
RTVSPost2010Prop54
  1
strokes_ogs.tif
102
RTVSPost2010PropOp54
 70
     1
102
RTVSPost2010Prop55
280
     0
102
RTVSPost2010PropOp55
 70
     1
102
RTVSPost2010Prop56
140
1.0
102
RTVSPost2010PropOp56
 70
     1
102
RTVSPost2010Prop57
140
1.0
102
RTVSPost2010PropOp57
 70
     1
102
RTVSPropertyOp0
 70
     1
102
RTVSPropertyOp1
 70
     1
102
RTVSPropertyOp2
 70
     1
102
RTVSPropertyOp3
 70
     1
102
RTVSPropertyOp4
 70
     1
102
RTVSPropertyOp5
 70
     1
102
RTVSPropertyOp6
 70
     1
102
RTVSPropertyOp7
 70
     1
102
RTVSPropertyOp8
 70
     1
102
RTVSPropertyOp9
 70
     1
102
RTVSPropertyOp10
 70
     1
102
RTVSPropertyOp11
 70
     1
102
RTVSPropertyOp12
 70
     1
102
RTVSPropertyOp13
 70
     1
102
RTVSPropertyOp14
 70
     1
102
RTVSPropertyOp15
 70
     1
102
RTVSPropertyOp16
 70
     1
102
RTVSPropertyOp17
 70
     1
102
RTVSPropertyOp18
 70
     1
102
RTVSPropertyOp19
 70
     1
102
RTVSPropertyOp20
 70
     1
102
RTVSPropertyOp21
 70
     1
102
RTVSPropertyOp22
 70
     1
102
RTVSPropertyOp23
 70
     1
102
RTVSPropertyOp24
 70
     1
102
RTVSPropertyOp25
 70
     1
102
RTVSPropertyOp26
 70
     1
102
RTVSPropertyOp27
 70
     1
102
RTVSPropertyOp28
 70
     1
102
RTVSPropertyOp29
 70
     1
102
RTVSPropertyOp30
 70
     1
102
RTVSPropertyOp31
 70
     1
102
RTVSPropertyOp32
 70
     1
102
RTVSPropertyOp33
 70
     1
102
RTVSPropertyOp34
 70
     1
102
RTVSPropertyOp35
 70
     1
102
RTVSPropertyOp36
 70
     1
102
RTVSPropertyOp37
 70
     1
102
RTVSPropertyOp38
 70
     1
102
RTVSPropertyOp39
 70
     1
102
RTVSPropertyOp40
 70
     1
102
RTVSPropertyOp41
 70
     1
102
RTVSPropertyOp42
 70
     1
102
RTVSPropertyOp43
 70
     1
102
RTVSPropertyOp44
 70
     1
102
RTVSPropertyOp45
 70
     1
102
RTVSPropertyOp46
 70
     1
102
RTVSPropertyOp47
 70
     1
102
RTVSPropertyOp48
 70
     1
102
RTVSPropertyOp49
 70
     1
102
RTVSPropertyOp50
 70
     1
102
RTVSPropertyOp51
 70
     0
102
RTVSPropertyOp52
 70
     0
102
RTVSPropertyOp53
 70
     1
102
RTVSPropertyOp54
 70
     1
102
RTVSPropertyOp55
 70
     1
102
RTVSPropertyOp56
 70
     1
102
RTVSPropertyOp57
 70
     1
102
RTVSPropertyOp58
 70
     1
102
RTVSPropertyOp59
 70
     1
102
RTVSPropertyOp60
 70
     1
102
RTVSPropertyOp61
 70
     1
102
RTVSPropertyOp62
 70
     1
  0
XRECORD
  5
839
102
{ACAD_REACTORS
330
838
102
}
330
838
100
AcDbXrecord
280
     1
102
RTVSPost2010Prop28
280
     0
102
RTVSPost2010PropOp28
 70
     1
102
RTVSPost2010Prop29
280
     1
102
RTVSPost2010PropOp29
 70
     1
102
RTVSPost2010Prop30
280
     1
102
RTVSPost2010PropOp30
 70
     1
102
RTVSPost2010Prop31
280
     0
102
RTVSPost2010PropOp31
 70
     1
102
RTVSPost2010Prop32
280
     0
102
RTVSPost2010PropOp32
 70
     1
102
RTVSPost2010Prop33
280
     0
102
RTVSPost2010PropOp33
 70
     1
102
RTVSPost2010Prop34
280
     0
102
RTVSPost2010PropOp34
 70
     1
102
RTVSPost2010Prop35
280
     0
102
RTVSPost2010PropOp35
 70
     1
102
RTVSPost2010Prop36
280
     0
102
RTVSPost2010PropOp36
 70
     1
102
RTVSPost2010Prop37
 90
       50
102
RTVSPost2010PropOp37
 70
     1
102
RTVSPost2010Prop38
140
0.0
102
RTVSPost2010PropOp38
 70
     1
102
RTVSPost2010Prop39
140
1.0
102
RTVSPost2010PropOp39
 70
     1
102
RTVSPost2010Prop40
 90
        0
102
RTVSPost2010PropOp40
 70
     1
102
RTVSPost2010Prop41ColorIndex
 90
       18
102
RTVSPost2010Prop41ColorRGB
 90
        0
102
RTVSPost2010PropOp41
 70
     1
102
RTVSPost2010Prop42
 90
       50
102
RTVSPost2010PropOp42
 70
     1
102
RTVSPost2010Prop43
 90
        3
102
RTVSPost2010PropOp43
 70
     1
102
RTVSPost2010Prop44ColorIndex
 90
        5
102
RTVSPost2010Prop44ColorRGB
 90
      255
102
RTVSPost2010PropOp44
 70
     1
102
RTVSPost2010Prop45
280
     0
102
RTVSPost2010PropOp45
 70
     1
102
RTVSPost2010Prop46
 90
       50
102
RTVSPost2010PropOp46
 70
     1
102
RTVSPost2010Prop47
 90
       50
102
RTVSPost2010PropOp47
 70
     1
102
RTVSPost2010Prop48
 90
       50
102
RTVSPost2010PropOp48
 70
     1
102
RTVSPost2010Prop49
280
     0
102
RTVSPost2010PropOp49
 70
     1
102
RTVSPost2010Prop50
 90
       50
102
RTVSPost2010PropOp50
 70
     1
102
RTVSPost2010Prop51ColorIndex
 90
      256
102
RTVSPost2010Prop51ColorRGB
 90
-16777216
102
RTVSPost2010PropOp51
 70
     0
102
RTVSPost2010Prop52
140
1.0
102
RTVSPost2010PropOp52
 70
     0
102
RTVSPost2010Prop53
 90
        2
102
RTVSPost2010PropOp53
 70
     1
102
RTVSPost2010Prop54
  1
strokes_ogs.tif
102
RTVSPost2010PropOp54
 70
     1
102
RTVSPost2010Prop55
280
     0
102
RTVSPost2010PropOp55
 70
     1
102
RTVSPost2010Prop56
140
1.0
102
RTVSPost2010PropOp56
 70
     1
102
RTVSPost2010Prop57
140
1.0
102
RTVSPost2010PropOp57
 70
     1
102
RTVSPropertyOp0
 70
     1
102
RTVSPropertyOp1
 70
     1
102
RTVSPropertyOp2
 70
     1
102
RTVSPropertyOp3
 70
     1
102
RTVSPropertyOp4
 70
     1
102
RTVSPropertyOp5
 70
     1
102
RTVSPropertyOp6
 70
     1
102
RTVSPropertyOp7
 70
     1
102
RTVSPropertyOp8
 70
     1
102
RTVSPropertyOp9
 70
     1
102
RTVSPropertyOp10
 70
     1
102
RTVSPropertyOp11
 70
     1
102
RTVSPropertyOp12
 70
     1
102
RTVSPropertyOp13
 70
     1
102
RTVSPropertyOp14
 70
     1
102
RTVSPropertyOp15
 70
     1
102
RTVSPropertyOp16
 70
     1
102
RTVSPropertyOp17
 70
     1
102
RTVSPropertyOp18
 70
     1
102
RTVSPropertyOp19
 70
     1
102
RTVSPropertyOp20
 70
     1
102
RTVSPropertyOp21
 70
     1
102
RTVSPropertyOp22
 70
     1
102
RTVSPropertyOp23
 70
     1
102
RTVSPropertyOp24
 70
     1
102
RTVSPropertyOp25
 70
     1
102
RTVSPropertyOp26
 70
     1
102
RTVSPropertyOp27
 70
     1
102
RTVSPropertyOp28
 70
     1
102
RTVSPropertyOp29
 70
     1
102
RTVSPropertyOp30
 70
     1
102
RTVSPropertyOp31
 70
     1
102
RTVSPropertyOp32
 70
     1
102
RTVSPropertyOp33
 70
     1
102
RTVSPropertyOp34
 70
     1
102
RTVSPropertyOp35
 70
     1
102
RTVSPropertyOp36
 70
     1
102
RTVSPropertyOp37
 70
     1
102
RTVSPropertyOp38
 70
     1
102
RTVSPropertyOp39
 70
     1
102
RTVSPropertyOp40
 70
     1
102
RTVSPropertyOp41
 70
     1
102
RTVSPropertyOp42
 70
     1
102
RTVSPropertyOp43
 70
     1
102
RTVSPropertyOp44
 70
     1
102
RTVSPropertyOp45
 70
     1
102
RTVSPropertyOp46
 70
     1
102
RTVSPropertyOp47
 70
     1
102
RTVSPropertyOp48
 70
     1
102
RTVSPropertyOp49
 70
     1
102
RTVSPropertyOp50
 70
     1
102
RTVSPropertyOp51
 70
     0
102
RTVSPropertyOp52
 70
     0
102
RTVSPropertyOp53
 70
     1
102
RTVSPropertyOp54
 70
     1
102
RTVSPropertyOp55
 70
     1
102
RTVSPropertyOp56
 70
     1
102
RTVSPropertyOp57
 70
     1
102
RTVSPropertyOp58
 70
     1
102
RTVSPropertyOp59
 70
     1
102
RTVSPropertyOp60
 70
     1
102
RTVSPropertyOp61
 70
     1
102
RTVSPropertyOp62
 70
     1
  0
XRECORD
  5
833
102
{ACAD_REACTORS
330
832
102
}
330
832
100
AcDbXrecord
280
     1
102
RTVSPost2010Prop28
280
     0
102
RTVSPost2010PropOp28
 70
     1
102
RTVSPost2010Prop29
280
     1
102
RTVSPost2010PropOp29
 70
     1
102
RTVSPost2010Prop30
280
     1
102
RTVSPost2010PropOp30
 70
     1
102
RTVSPost2010Prop31
280
     0
102
RTVSPost2010PropOp31
 70
     1
102
RTVSPost2010Prop32
280
     0
102
RTVSPost2010PropOp32
 70
     1
102
RTVSPost2010Prop33
280
     0
102
RTVSPost2010PropOp33
 70
     1
102
RTVSPost2010Prop34
280
     0
102
RTVSPost2010PropOp34
 70
     1
102
RTVSPost2010Prop35
280
     0
102
RTVSPost2010PropOp35
 70
     1
102
RTVSPost2010Prop36
280
     0
102
RTVSPost2010PropOp36
 70
     1
102
RTVSPost2010Prop37
 90
       50
102
RTVSPost2010PropOp37
 70
     1
102
RTVSPost2010Prop38
140
0.0
102
RTVSPost2010PropOp38
 70
     1
102
RTVSPost2010Prop39
140
1.0
102
RTVSPost2010PropOp39
 70
     1
102
RTVSPost2010Prop40
 90
        0
102
RTVSPost2010PropOp40
 70
     1
102
RTVSPost2010Prop41ColorIndex
 90
       18
102
RTVSPost2010Prop41ColorRGB
 90
        0
102
RTVSPost2010PropOp41
 70
     1
102
RTVSPost2010Prop42
 90
       50
102
RTVSPost2010PropOp42
 70
     1
102
RTVSPost2010Prop43
 90
        3
102
RTVSPost2010PropOp43
 70
     1
102
RTVSPost2010Prop44ColorIndex
 90
        5
102
RTVSPost2010Prop44ColorRGB
 90
      255
102
RTVSPost2010PropOp44
 70
     1
102
RTVSPost2010Prop45
280
     0
102
RTVSPost2010PropOp45
 70
     1
102
RTVSPost2010Prop46
 90
       50
102
RTVSPost2010PropOp46
 70
     1
102
RTVSPost2010Prop47
 90
       50
102
RTVSPost2010PropOp47
 70
     1
102
RTVSPost2010Prop48
 90
       50
102
RTVSPost2010PropOp48
 70
     1
102
RTVSPost2010Prop49
280
     0
102
RTVSPost2010PropOp49
 70
     1
102
RTVSPost2010Prop50
 90
       50
102
RTVSPost2010PropOp50
 70
     1
102
RTVSPost2010Prop51ColorIndex
 90
      256
102
RTVSPost2010Prop51ColorRGB
 90
-16777216
102
RTVSPost2010PropOp51
 70
     0
102
RTVSPost2010Prop52
140
1.0
102
RTVSPost2010PropOp52
 70
     0
102
RTVSPost2010Prop53
 90
        2
102
RTVSPost2010PropOp53
 70
     1
102
RTVSPost2010Prop54
  1
strokes_ogs.tif
102
RTVSPost2010PropOp54
 70
     1
102
RTVSPost2010Prop55
280
     0
102
RTVSPost2010PropOp55
 70
     1
102
RTVSPost2010Prop56
140
1.0
102
RTVSPost2010PropOp56
 70
     1
102
RTVSPost2010Prop57
140
1.0
102
RTVSPost2010PropOp57
 70
     1
102
RTVSPropertyOp0
 70
     1
102
RTVSPropertyOp1
 70
     1
102
RTVSPropertyOp2
 70
     1
102
RTVSPropertyOp3
 70
     1
102
RTVSPropertyOp4
 70
     1
102
RTVSPropertyOp5
 70
     1
102
RTVSPropertyOp6
 70
     1
102
RTVSPropertyOp7
 70
     1
102
RTVSPropertyOp8
 70
     1
102
RTVSPropertyOp9
 70
     1
102
RTVSPropertyOp10
 70
     1
102
RTVSPropertyOp11
 70
     1
102
RTVSPropertyOp12
 70
     1
102
RTVSPropertyOp13
 70
     1
102
RTVSPropertyOp14
 70
     1
102
RTVSPropertyOp15
 70
     1
102
RTVSPropertyOp16
 70
     1
102
RTVSPropertyOp17
 70
     1
102
RTVSPropertyOp18
 70
     1
102
RTVSPropertyOp19
 70
     1
102
RTVSPropertyOp20
 70
     1
102
RTVSPropertyOp21
 70
     1
102
RTVSPropertyOp22
 70
     1
102
RTVSPropertyOp23
 70
     1
102
RTVSPropertyOp24
 70
     1
102
RTVSPropertyOp25
 70
     1
102
RTVSPropertyOp26
 70
     1
102
RTVSPropertyOp27
 70
     1
102
RTVSPropertyOp28
 70
     1
102
RTVSPropertyOp29
 70
     1
102
RTVSPropertyOp30
 70
     1
102
RTVSPropertyOp31
 70
     1
102
RTVSPropertyOp32
 70
     1
102
RTVSPropertyOp33
 70
     1
102
RTVSPropertyOp34
 70
     1
102
RTVSPropertyOp35
 70
     1
102
RTVSPropertyOp36
 70
     1
102
RTVSPropertyOp37
 70
     1
102
RTVSPropertyOp38
 70
     1
102
RTVSPropertyOp39
 70
     1
102
RTVSPropertyOp40
 70
     1
102
RTVSPropertyOp41
 70
     1
102
RTVSPropertyOp42
 70
     1
102
RTVSPropertyOp43
 70
     1
102
RTVSPropertyOp44
 70
     1
102
RTVSPropertyOp45
 70
     1
102
RTVSPropertyOp46
 70
     1
102
RTVSPropertyOp47
 70
     1
102
RTVSPropertyOp48
 70
     1
102
RTVSPropertyOp49
 70
     1
102
RTVSPropertyOp50
 70
     1
102
RTVSPropertyOp51
 70
     0
102
RTVSPropertyOp52
 70
     0
102
RTVSPropertyOp53
 70
     1
102
RTVSPropertyOp54
 70
     1
102
RTVSPropertyOp55
 70
     1
102
RTVSPropertyOp56
 70
     1
102
RTVSPropertyOp57
 70
     1
102
RTVSPropertyOp58
 70
     1
102
RTVSPropertyOp59
 70
     1
102
RTVSPropertyOp60
 70
     1
102
RTVSPropertyOp61
 70
     1
102
RTVSPropertyOp62
 70
     1
  0
XRECORD
  5
835
102
{ACAD_REACTORS
330
834
102
}
330
834
100
AcDbXrecord
280
     1
102
RTVSPost2010Prop28
280
     0
102
RTVSPost2010PropOp28
 70
     1
102
RTVSPost2010Prop29
280
     1
102
RTVSPost2010PropOp29
 70
     1
102
RTVSPost2010Prop30
280
     1
102
RTVSPost2010PropOp30
 70
     1
102
RTVSPost2010Prop31
280
     0
102
RTVSPost2010PropOp31
 70
     1
102
RTVSPost2010Prop32
280
     0
102
RTVSPost2010PropOp32
 70
     1
102
RTVSPost2010Prop33
280
     0
102
RTVSPost2010PropOp33
 70
     1
102
RTVSPost2010Prop34
280
     0
102
RTVSPost2010PropOp34
 70
     1
102
RTVSPost2010Prop35
280
     0
102
RTVSPost2010PropOp35
 70
     1
102
RTVSPost2010Prop36
280
     0
102
RTVSPost2010PropOp36
 70
     1
102
RTVSPost2010Prop37
 90
       50
102
RTVSPost2010PropOp37
 70
     1
102
RTVSPost2010Prop38
140
0.0
102
RTVSPost2010PropOp38
 70
     1
102
RTVSPost2010Prop39
140
1.0
102
RTVSPost2010PropOp39
 70
     1
102
RTVSPost2010Prop40
 90
        0
102
RTVSPost2010PropOp40
 70
     1
102
RTVSPost2010Prop41ColorIndex
 90
       18
102
RTVSPost2010Prop41ColorRGB
 90
        0
102
RTVSPost2010PropOp41
 70
     1
102
RTVSPost2010Prop42
 90
       50
102
RTVSPost2010PropOp42
 70
     1
102
RTVSPost2010Prop43
 90
        3
102
RTVSPost2010PropOp43
 70
     1
102
RTVSPost2010Prop44ColorIndex
 90
        5
102
RTVSPost2010Prop44ColorRGB
 90
      255
102
RTVSPost2010PropOp44
 70
     1
102
RTVSPost2010Prop45
280
     0
102
RTVSPost2010PropOp45
 70
     1
102
RTVSPost2010Prop46
 90
       50
102
RTVSPost2010PropOp46
 70
     1
102
RTVSPost2010Prop47
 90
       50
102
RTVSPost2010PropOp47
 70
     1
102
RTVSPost2010Prop48
 90
       50
102
RTVSPost2010PropOp48
 70
     1
102
RTVSPost2010Prop49
280
     0
102
RTVSPost2010PropOp49
 70
     1
102
RTVSPost2010Prop50
 90
       50
102
RTVSPost2010PropOp50
 70
     1
102
RTVSPost2010Prop51ColorIndex
 90
      256
102
RTVSPost2010Prop51ColorRGB
 90
-16777216
102
RTVSPost2010PropOp51
 70
     0
102
RTVSPost2010Prop52
140
1.0
102
RTVSPost2010PropOp52
 70
     0
102
RTVSPost2010Prop53
 90
        2
102
RTVSPost2010PropOp53
 70
     1
102
RTVSPost2010Prop54
  1
strokes_ogs.tif
102
RTVSPost2010PropOp54
 70
     1
102
RTVSPost2010Prop55
280
     0
102
RTVSPost2010PropOp55
 70
     1
102
RTVSPost2010Prop56
140
1.0
102
RTVSPost2010PropOp56
 70
     1
102
RTVSPost2010Prop57
140
1.0
102
RTVSPost2010PropOp57
 70
     1
102
RTVSPropertyOp0
 70
     1
102
RTVSPropertyOp1
 70
     1
102
RTVSPropertyOp2
 70
     1
102
RTVSPropertyOp3
 70
     1
102
RTVSPropertyOp4
 70
     1
102
RTVSPropertyOp5
 70
     1
102
RTVSPropertyOp6
 70
     1
102
RTVSPropertyOp7
 70
     1
102
RTVSPropertyOp8
 70
     1
102
RTVSPropertyOp9
 70
     1
102
RTVSPropertyOp10
 70
     1
102
RTVSPropertyOp11
 70
     1
102
RTVSPropertyOp12
 70
     1
102
RTVSPropertyOp13
 70
     1
102
RTVSPropertyOp14
 70
     1
102
RTVSPropertyOp15
 70
     1
102
RTVSPropertyOp16
 70
     1
102
RTVSPropertyOp17
 70
     1
102
RTVSPropertyOp18
 70
     1
102
RTVSPropertyOp19
 70
     1
102
RTVSPropertyOp20
 70
     1
102
RTVSPropertyOp21
 70
     1
102
RTVSPropertyOp22
 70
     1
102
RTVSPropertyOp23
 70
     1
102
RTVSPropertyOp24
 70
     1
102
RTVSPropertyOp25
 70
     1
102
RTVSPropertyOp26
 70
     1
102
RTVSPropertyOp27
 70
     1
102
RTVSPropertyOp28
 70
     1
102
RTVSPropertyOp29
 70
     1
102
RTVSPropertyOp30
 70
     1
102
RTVSPropertyOp31
 70
     1
102
RTVSPropertyOp32
 70
     1
102
RTVSPropertyOp33
 70
     1
102
RTVSPropertyOp34
 70
     1
102
RTVSPropertyOp35
 70
     1
102
RTVSPropertyOp36
 70
     1
102
RTVSPropertyOp37
 70
     1
102
RTVSPropertyOp38
 70
     1
102
RTVSPropertyOp39
 70
     1
102
RTVSPropertyOp40
 70
     1
102
RTVSPropertyOp41
 70
     1
102
RTVSPropertyOp42
 70
     1
102
RTVSPropertyOp43
 70
     1
102
RTVSPropertyOp44
 70
     1
102
RTVSPropertyOp45
 70
     1
102
RTVSPropertyOp46
 70
     1
102
RTVSPropertyOp47
 70
     1
102
RTVSPropertyOp48
 70
     1
102
RTVSPropertyOp49
 70
     1
102
RTVSPropertyOp50
 70
     1
102
RTVSPropertyOp51
 70
     0
102
RTVSPropertyOp52
 70
     0
102
RTVSPropertyOp53
 70
     1
102
RTVSPropertyOp54
 70
     1
102
RTVSPropertyOp55
 70
     1
102
RTVSPropertyOp56
 70
     1
102
RTVSPropertyOp57
 70
     1
102
RTVSPropertyOp58
 70
     1
102
RTVSPropertyOp59
 70
     1
102
RTVSPropertyOp60
 70
     1
102
RTVSPropertyOp61
 70
     1
102
RTVSPropertyOp62
 70
     1
  0
XRECORD
  5
825
102
{ACAD_REACTORS
330
824
102
}
330
824
100
AcDbXrecord
280
     1
102
RTVSPost2010Prop28
280
     0
102
RTVSPost2010PropOp28
 70
     1
102
RTVSPost2010Prop29
280
     1
102
RTVSPost2010PropOp29
 70
     1
102
RTVSPost2010Prop30
280
     1
102
RTVSPost2010PropOp30
 70
     1
102
RTVSPost2010Prop31
280
     0
102
RTVSPost2010PropOp31
 70
     1
102
RTVSPost2010Prop32
280
     0
102
RTVSPost2010PropOp32
 70
     1
102
RTVSPost2010Prop33
280
     0
102
RTVSPost2010PropOp33
 70
     1
102
RTVSPost2010Prop34
280
     0
102
RTVSPost2010PropOp34
 70
     1
102
RTVSPost2010Prop35
280
     0
102
RTVSPost2010PropOp35
 70
     1
102
RTVSPost2010Prop36
280
     0
102
RTVSPost2010PropOp36
 70
     1
102
RTVSPost2010Prop37
 90
       50
102
RTVSPost2010PropOp37
 70
     1
102
RTVSPost2010Prop38
140
0.0
102
RTVSPost2010PropOp38
 70
     1
102
RTVSPost2010Prop39
140
1.0
102
RTVSPost2010PropOp39
 70
     1
102
RTVSPost2010Prop40
 90
        0
102
RTVSPost2010PropOp40
 70
     1
102
RTVSPost2010Prop41ColorIndex
 90
       18
102
RTVSPost2010Prop41ColorRGB
 90
        0
102
RTVSPost2010PropOp41
 70
     1
102
RTVSPost2010Prop42
 90
       50
102
RTVSPost2010PropOp42
 70
     1
102
RTVSPost2010Prop43
 90
        3
102
RTVSPost2010PropOp43
 70
     1
102
RTVSPost2010Prop44ColorIndex
 90
        5
102
RTVSPost2010Prop44ColorRGB
 90
      255
102
RTVSPost2010PropOp44
 70
     1
102
RTVSPost2010Prop45
280
     0
102
RTVSPost2010PropOp45
 70
     1
102
RTVSPost2010Prop46
 90
       50
102
RTVSPost2010PropOp46
 70
     1
102
RTVSPost2010Prop47
 90
       50
102
RTVSPost2010PropOp47
 70
     1
102
RTVSPost2010Prop48
 90
       50
102
RTVSPost2010PropOp48
 70
     1
102
RTVSPost2010Prop49
280
     0
102
RTVSPost2010PropOp49
 70
     1
102
RTVSPost2010Prop50
 90
       50
102
RTVSPost2010PropOp50
 70
     1
102
RTVSPost2010Prop51ColorIndex
 90
      256
102
RTVSPost2010Prop51ColorRGB
 90
-16777216
102
RTVSPost2010PropOp51
 70
     0
102
RTVSPost2010Prop52
140
1.0
102
RTVSPost2010PropOp52
 70
     0
102
RTVSPost2010Prop53
 90
        2
102
RTVSPost2010PropOp53
 70
     1
102
RTVSPost2010Prop54
  1
strokes_ogs.tif
102
RTVSPost2010PropOp54
 70
     1
102
RTVSPost2010Prop55
280
     0
102
RTVSPost2010PropOp55
 70
     1
102
RTVSPost2010Prop56
140
1.0
102
RTVSPost2010PropOp56
 70
     1
102
RTVSPost2010Prop57
140
1.0
102
RTVSPost2010PropOp57
 70
     1
102
RTVSPropertyOp0
 70
     1
102
RTVSPropertyOp1
 70
     1
102
RTVSPropertyOp2
 70
     1
102
RTVSPropertyOp3
 70
     1
102
RTVSPropertyOp4
 70
     1
102
RTVSPropertyOp5
 70
     1
102
RTVSPropertyOp6
 70
     1
102
RTVSPropertyOp7
 70
     1
102
RTVSPropertyOp8
 70
     1
102
RTVSPropertyOp9
 70
     1
102
RTVSPropertyOp10
 70
     1
102
RTVSPropertyOp11
 70
     1
102
RTVSPropertyOp12
 70
     1
102
RTVSPropertyOp13
 70
     1
102
RTVSPropertyOp14
 70
     1
102
RTVSPropertyOp15
 70
     1
102
RTVSPropertyOp16
 70
     1
102
RTVSPropertyOp17
 70
     1
102
RTVSPropertyOp18
 70
     1
102
RTVSPropertyOp19
 70
     1
102
RTVSPropertyOp20
 70
     1
102
RTVSPropertyOp21
 70
     1
102
RTVSPropertyOp22
 70
     1
102
RTVSPropertyOp23
 70
     1
102
RTVSPropertyOp24
 70
     1
102
RTVSPropertyOp25
 70
     1
102
RTVSPropertyOp26
 70
     1
102
RTVSPropertyOp27
 70
     1
102
RTVSPropertyOp28
 70
     1
102
RTVSPropertyOp29
 70
     1
102
RTVSPropertyOp30
 70
     1
102
RTVSPropertyOp31
 70
     1
102
RTVSPropertyOp32
 70
     1
102
RTVSPropertyOp33
 70
     1
102
RTVSPropertyOp34
 70
     1
102
RTVSPropertyOp35
 70
     1
102
RTVSPropertyOp36
 70
     1
102
RTVSPropertyOp37
 70
     1
102
RTVSPropertyOp38
 70
     1
102
RTVSPropertyOp39
 70
     1
102
RTVSPropertyOp40
 70
     1
102
RTVSPropertyOp41
 70
     1
102
RTVSPropertyOp42
 70
     1
102
RTVSPropertyOp43
 70
     1
102
RTVSPropertyOp44
 70
     1
102
RTVSPropertyOp45
 70
     1
102
RTVSPropertyOp46
 70
     1
102
RTVSPropertyOp47
 70
     1
102
RTVSPropertyOp48
 70
     1
102
RTVSPropertyOp49
 70
     1
102
RTVSPropertyOp50
 70
     1
102
RTVSPropertyOp51
 70
     0
102
RTVSPropertyOp52
 70
     0
102
RTVSPropertyOp53
 70
     1
102
RTVSPropertyOp54
 70
     1
102
RTVSPropertyOp55
 70
     1
102
RTVSPropertyOp56
 70
     1
102
RTVSPropertyOp57
 70
     1
102
RTVSPropertyOp58
 70
     1
102
RTVSPropertyOp59
 70
     1
102
RTVSPropertyOp60
 70
     1
102
RTVSPropertyOp61
 70
     1
102
RTVSPropertyOp62
 70
     1
  0
XRECORD
  5
817
102
{ACAD_REACTORS
330
816
102
}
330
816
100
AcDbXrecord
280
     1
102
RTVSPost2010Prop28
280
     0
102
RTVSPost2010PropOp28
 70
     1
102
RTVSPost2010Prop29
280
     1
102
RTVSPost2010PropOp29
 70
     1
102
RTVSPost2010Prop30
280
     1
102
RTVSPost2010PropOp30
 70
     1
102
RTVSPost2010Prop31
280
     0
102
RTVSPost2010PropOp31
 70
     1
102
RTVSPost2010Prop32
280
     0
102
RTVSPost2010PropOp32
 70
     1
102
RTVSPost2010Prop33
280
     0
102
RTVSPost2010PropOp33
 70
     1
102
RTVSPost2010Prop34
280
     0
102
RTVSPost2010PropOp34
 70
     1
102
RTVSPost2010Prop35
280
     0
102
RTVSPost2010PropOp35
 70
     1
102
RTVSPost2010Prop36
280
     0
102
RTVSPost2010PropOp36
 70
     1
102
RTVSPost2010Prop37
 90
       50
102
RTVSPost2010PropOp37
 70
     1
102
RTVSPost2010Prop38
140
0.0
102
RTVSPost2010PropOp38
 70
     1
102
RTVSPost2010Prop39
140
1.0
102
RTVSPost2010PropOp39
 70
     1
102
RTVSPost2010Prop40
 90
        0
102
RTVSPost2010PropOp40
 70
     1
102
RTVSPost2010Prop41ColorIndex
 90
       18
102
RTVSPost2010Prop41ColorRGB
 90
        0
102
RTVSPost2010PropOp41
 70
     1
102
RTVSPost2010Prop42
 90
       50
102
RTVSPost2010PropOp42
 70
     1
102
RTVSPost2010Prop43
 90
        3
102
RTVSPost2010PropOp43
 70
     1
102
RTVSPost2010Prop44ColorIndex
 90
        5
102
RTVSPost2010Prop44ColorRGB
 90
      255
102
RTVSPost2010PropOp44
 70
     1
102
RTVSPost2010Prop45
280
     0
102
RTVSPost2010PropOp45
 70
     1
102
RTVSPost2010Prop46
 90
       50
102
RTVSPost2010PropOp46
 70
     1
102
RTVSPost2010Prop47
 90
       50
102
RTVSPost2010PropOp47
 70
     1
102
RTVSPost2010Prop48
 90
       50
102
RTVSPost2010PropOp48
 70
     1
102
RTVSPost2010Prop49
280
     0
102
RTVSPost2010PropOp49
 70
     1
102
RTVSPost2010Prop50
 90
       50
102
RTVSPost2010PropOp50
 70
     1
102
RTVSPost2010Prop51ColorIndex
 90
      256
102
RTVSPost2010Prop51ColorRGB
 90
-16777216
102
RTVSPost2010PropOp51
 70
     0
102
RTVSPost2010Prop52
140
1.0
102
RTVSPost2010PropOp52
 70
     0
102
RTVSPost2010Prop53
 90
        2
102
RTVSPost2010PropOp53
 70
     1
102
RTVSPost2010Prop54
  1
strokes_ogs.tif
102
RTVSPost2010PropOp54
 70
     1
102
RTVSPost2010Prop55
280
     0
102
RTVSPost2010PropOp55
 70
     1
102
RTVSPost2010Prop56
140
1.0
102
RTVSPost2010PropOp56
 70
     1
102
RTVSPost2010Prop57
140
1.0
102
RTVSPost2010PropOp57
 70
     1
102
RTVSPropertyOp0
 70
     1
102
RTVSPropertyOp1
 70
     1
102
RTVSPropertyOp2
 70
     1
102
RTVSPropertyOp3
 70
     1
102
RTVSPropertyOp4
 70
     1
102
RTVSPropertyOp5
 70
     1
102
RTVSPropertyOp6
 70
     1
102
RTVSPropertyOp7
 70
     1
102
RTVSPropertyOp8
 70
     1
102
RTVSPropertyOp9
 70
     1
102
RTVSPropertyOp10
 70
     1
102
RTVSPropertyOp11
 70
     1
102
RTVSPropertyOp12
 70
     1
102
RTVSPropertyOp13
 70
     1
102
RTVSPropertyOp14
 70
     1
102
RTVSPropertyOp15
 70
     1
102
RTVSPropertyOp16
 70
     1
102
RTVSPropertyOp17
 70
     1
102
RTVSPropertyOp18
 70
     1
102
RTVSPropertyOp19
 70
     1
102
RTVSPropertyOp20
 70
     1
102
RTVSPropertyOp21
 70
     1
102
RTVSPropertyOp22
 70
     1
102
RTVSPropertyOp23
 70
     1
102
RTVSPropertyOp24
 70
     1
102
RTVSPropertyOp25
 70
     1
102
RTVSPropertyOp26
 70
     1
102
RTVSPropertyOp27
 70
     1
102
RTVSPropertyOp28
 70
     1
102
RTVSPropertyOp29
 70
     1
102
RTVSPropertyOp30
 70
     1
102
RTVSPropertyOp31
 70
     1
102
RTVSPropertyOp32
 70
     1
102
RTVSPropertyOp33
 70
     1
102
RTVSPropertyOp34
 70
     1
102
RTVSPropertyOp35
 70
     1
102
RTVSPropertyOp36
 70
     1
102
RTVSPropertyOp37
 70
     1
102
RTVSPropertyOp38
 70
     1
102
RTVSPropertyOp39
 70
     1
102
RTVSPropertyOp40
 70
     1
102
RTVSPropertyOp41
 70
     1
102
RTVSPropertyOp42
 70
     1
102
RTVSPropertyOp43
 70
     1
102
RTVSPropertyOp44
 70
     1
102
RTVSPropertyOp45
 70
     1
102
RTVSPropertyOp46
 70
     1
102
RTVSPropertyOp47
 70
     1
102
RTVSPropertyOp48
 70
     1
102
RTVSPropertyOp49
 70
     1
102
RTVSPropertyOp50
 70
     1
102
RTVSPropertyOp51
 70
     0
102
RTVSPropertyOp52
 70
     0
102
RTVSPropertyOp53
 70
     1
102
RTVSPropertyOp54
 70
     1
102
RTVSPropertyOp55
 70
     1
102
RTVSPropertyOp56
 70
     1
102
RTVSPropertyOp57
 70
     1
102
RTVSPropertyOp58
 70
     1
102
RTVSPropertyOp59
 70
     1
102
RTVSPropertyOp60
 70
     1
102
RTVSPropertyOp61
 70
     1
102
RTVSPropertyOp62
 70
     1
  0
XRECORD
  5
837
102
{ACAD_REACTORS
330
836
102
}
330
836
100
AcDbXrecord
280
     1
102
RTVSPost2010Prop28
280
     0
102
RTVSPost2010PropOp28
 70
     1
102
RTVSPost2010Prop29
280
     1
102
RTVSPost2010PropOp29
 70
     1
102
RTVSPost2010Prop30
280
     1
102
RTVSPost2010PropOp30
 70
     1
102
RTVSPost2010Prop31
280
     0
102
RTVSPost2010PropOp31
 70
     1
102
RTVSPost2010Prop32
280
     0
102
RTVSPost2010PropOp32
 70
     1
102
RTVSPost2010Prop33
280
     0
102
RTVSPost2010PropOp33
 70
     1
102
RTVSPost2010Prop34
280
     0
102
RTVSPost2010PropOp34
 70
     1
102
RTVSPost2010Prop35
280
     0
102
RTVSPost2010PropOp35
 70
     1
102
RTVSPost2010Prop36
280
     0
102
RTVSPost2010PropOp36
 70
     1
102
RTVSPost2010Prop37
 90
       50
102
RTVSPost2010PropOp37
 70
     1
102
RTVSPost2010Prop38
140
0.0
102
RTVSPost2010PropOp38
 70
     1
102
RTVSPost2010Prop39
140
1.0
102
RTVSPost2010PropOp39
 70
     1
102
RTVSPost2010Prop40
 90
        0
102
RTVSPost2010PropOp40
 70
     1
102
RTVSPost2010Prop41ColorIndex
 90
       18
102
RTVSPost2010Prop41ColorRGB
 90
        0
102
RTVSPost2010PropOp41
 70
     1
102
RTVSPost2010Prop42
 90
       50
102
RTVSPost2010PropOp42
 70
     1
102
RTVSPost2010Prop43
 90
        3
102
RTVSPost2010PropOp43
 70
     1
102
RTVSPost2010Prop44ColorIndex
 90
        5
102
RTVSPost2010Prop44ColorRGB
 90
      255
102
RTVSPost2010PropOp44
 70
     1
102
RTVSPost2010Prop45
280
     0
102
RTVSPost2010PropOp45
 70
     1
102
RTVSPost2010Prop46
 90
       50
102
RTVSPost2010PropOp46
 70
     1
102
RTVSPost2010Prop47
 90
       50
102
RTVSPost2010PropOp47
 70
     1
102
RTVSPost2010Prop48
 90
       50
102
RTVSPost2010PropOp48
 70
     1
102
RTVSPost2010Prop49
280
     0
102
RTVSPost2010PropOp49
 70
     1
102
RTVSPost2010Prop50
 90
       50
102
RTVSPost2010PropOp50
 70
     1
102
RTVSPost2010Prop51ColorIndex
 90
      256
102
RTVSPost2010Prop51ColorRGB
 90
-16777216
102
RTVSPost2010PropOp51
 70
     0
102
RTVSPost2010Prop52
140
1.0
102
RTVSPost2010PropOp52
 70
     0
102
RTVSPost2010Prop53
 90
        2
102
RTVSPost2010PropOp53
 70
     1
102
RTVSPost2010Prop54
  1
strokes_ogs.tif
102
RTVSPost2010PropOp54
 70
     1
102
RTVSPost2010Prop55
280
     0
102
RTVSPost2010PropOp55
 70
     1
102
RTVSPost2010Prop56
140
1.0
102
RTVSPost2010PropOp56
 70
     1
102
RTVSPost2010Prop57
140
1.0
102
RTVSPost2010PropOp57
 70
     1
102
RTVSPropertyOp0
 70
     1
102
RTVSPropertyOp1
 70
     1
102
RTVSPropertyOp2
 70
     1
102
RTVSPropertyOp3
 70
     1
102
RTVSPropertyOp4
 70
     1
102
RTVSPropertyOp5
 70
     1
102
RTVSPropertyOp6
 70
     1
102
RTVSPropertyOp7
 70
     1
102
RTVSPropertyOp8
 70
     1
102
RTVSPropertyOp9
 70
     1
102
RTVSPropertyOp10
 70
     1
102
RTVSPropertyOp11
 70
     1
102
RTVSPropertyOp12
 70
     1
102
RTVSPropertyOp13
 70
     1
102
RTVSPropertyOp14
 70
     1
102
RTVSPropertyOp15
 70
     1
102
RTVSPropertyOp16
 70
     1
102
RTVSPropertyOp17
 70
     1
102
RTVSPropertyOp18
 70
     1
102
RTVSPropertyOp19
 70
     1
102
RTVSPropertyOp20
 70
     1
102
RTVSPropertyOp21
 70
     1
102
RTVSPropertyOp22
 70
     1
102
RTVSPropertyOp23
 70
     1
102
RTVSPropertyOp24
 70
     1
102
RTVSPropertyOp25
 70
     1
102
RTVSPropertyOp26
 70
     1
102
RTVSPropertyOp27
 70
     1
102
RTVSPropertyOp28
 70
     1
102
RTVSPropertyOp29
 70
     1
102
RTVSPropertyOp30
 70
     1
102
RTVSPropertyOp31
 70
     1
102
RTVSPropertyOp32
 70
     1
102
RTVSPropertyOp33
 70
     1
102
RTVSPropertyOp34
 70
     1
102
RTVSPropertyOp35
 70
     1
102
RTVSPropertyOp36
 70
     1
102
RTVSPropertyOp37
 70
     1
102
RTVSPropertyOp38
 70
     1
102
RTVSPropertyOp39
 70
     1
102
RTVSPropertyOp40
 70
     1
102
RTVSPropertyOp41
 70
     1
102
RTVSPropertyOp42
 70
     1
102
RTVSPropertyOp43
 70
     1
102
RTVSPropertyOp44
 70
     1
102
RTVSPropertyOp45
 70
     1
102
RTVSPropertyOp46
 70
     1
102
RTVSPropertyOp47
 70
     1
102
RTVSPropertyOp48
 70
     1
102
RTVSPropertyOp49
 70
     1
102
RTVSPropertyOp50
 70
     1
102
RTVSPropertyOp51
 70
     0
102
RTVSPropertyOp52
 70
     0
102
RTVSPropertyOp53
 70
     1
102
RTVSPropertyOp54
 70
     1
102
RTVSPropertyOp55
 70
     1
102
RTVSPropertyOp56
 70
     1
102
RTVSPropertyOp57
 70
     1
102
RTVSPropertyOp58
 70
     1
102
RTVSPropertyOp59
 70
     1
102
RTVSPropertyOp60
 70
     1
102
RTVSPropertyOp61
 70
     1
102
RTVSPropertyOp62
 70
     1
  0
ENDSEC
  0
EOF
