  0
SECTION
  2
HEADER
  9
$ACADVER
  1
AC1015
  9
$ACADMAINTVER
 70
    20
  9
$DWGCODEPAGE
  3
ANSI_932
  9
$INSBASE
 10
0.0
 20
0.0
 30
0.0
  9
$EXTMIN
 10
24.17515938084563
 20
28.44732196575183
 30
0.0
  9
$EXTMAX
 10
1546.057465561039
 20
892.3808578381549
 30
0.0
  9
$LIMMIN
 10
-238.4185371398938
 20
-284.0063524246224
  9
$LIMMAX
 10
651.5582580566407
 20
499.4922409057626
  9
$ORTHOMODE
 70
     0
  9
$REGENMODE
 70
     1
  9
$FILLMODE
 70
     1
  9
$QTEXTMODE
 70
     0
  9
$MIRRTEXT
 70
     1
  9
$LTSCALE
 40
0.0980001134196606
  9
$ATTMODE
 70
     1
  9
$TEXTSIZE
 40
2.5
  9
$TRACEWID
 40
1.0
  9
$TEXTSTYLE
  7
Standard
  9
$CLAYER
  8
0
  9
$CELTYPE
  6
ByLayer
  9
$CECOLOR
 62
   256
  9
$CELTSCALE
 40
1.0
  9
$DISPSILH
 70
     0
  9
$DIMSCALE
 40
1.0
  9
$DIMASZ
 40
2.5
  9
$DIMEXO
 40
0.625
  9
$DIMDLI
 40
3.75
  9
$DIMRND
 40
0.0
  9
$DIMDLE
 40
0.0
  9
$DIMEXE
 40
1.25
  9
$DIMTP
 40
0.0
  9
$DIMTM
 40
0.0
  9
$DIMTXT
 40
2.5
  9
$DIMCEN
 40
2.5
  9
$DIMTSZ
 40
0.0
  9
$DIMTOL
 70
     0
  9
$DIMLIM
 70
     0
  9
$DIMTIH
 70
     0
  9
$DIMTOH
 70
     0
  9
$DIMSE1
 70
     0
  9
$DIMSE2
 70
     0
  9
$DIMTAD
 70
     1
  9
$DIMZIN
 70
     0
  9
$DIMBLK
  1

  9
$DIMASO
 70
     1
  9
$DIMSHO
 70
     1
  9
$DIMPOST
  1

  9
$DIMAPOST
  1

  9
$DIMALT
 70
     0
  9
$DIMALTD
 70
     3
  9
$DIMALTF
 40
0.03937007874016
  9
$DIMLFAC
 40
1.0
  9
$DIMTOFL
 70
     1
  9
$DIMTVP
 40
0.0
  9
$DIMTIX
 70
     0
  9
$DIMSOXD
 70
     0
  9
$DIMSAH
 70
     0
  9
$DIMBLK1
  1

  9
$DIMBLK2
  1

  9
$DIMSTYLE
  2
Standard
  9
$DIMCLRD
 70
     0
  9
$DIMCLRE
 70
     0
  9
$DIMCLRT
 70
     0
  9
$DIMTFAC
 40
0.75
  9
$DIMGAP
 40
0.625
  9
$DIMJUST
 70
     0
  9
$DIMSD1
 70
     0
  9
$DIMSD2
 70
     0
  9
$DIMTOLJ
 70
     0
  9
$DIMTZIN
 70
     8
  9
$DIMALTZ
 70
     0
  9
$DIMALTTZ
 70
     0
  9
$DIMUPT
 70
     0
  9
$DIMDEC
 70
     2
  9
$DIMTDEC
 70
     2
  9
$DIMALTU
 70
     2
  9
$DIMALTTD
 70
     3
  9
$DIMTXSTY
  7
Standard
  9
$DIMAUNIT
 70
     0
  9
$DIMADEC
 70
     0
  9
$DIMALTRND
 40
0.0
  9
$DIMAZIN
 70
     0
  9
$DIMDSEP
 70
    46
  9
$DIMATFIT
 70
     3
  9
$DIMFRAC
 70
     0
  9
$DIMLDRBLK
  1

  9
$DIMLUNIT
 70
     2
  9
$DIMLWD
 70
    -2
  9
$DIMLWE
 70
    -2
  9
$DIMTMOVE
 70
     0
  9
$LUNITS
 70
     2
  9
$LUPREC
 70
     4
  9
$SKETCHINC
 40
1.0
  9
$FILLETRAD
 40
0.0
  9
$AUNITS
 70
     0
  9
$AUPREC
 70
     0
  9
$MENU
  1
.
  9
$ELEVATION
 40
0.0
  9
$PELEVATION
 40
0.0
  9
$THICKNESS
 40
0.0
  9
$LIMCHECK
 70
     0
  9
$CHAMFERA
 40
10.0
  9
$CHAMFERB
 40
10.0
  9
$CHAMFERC
 40
20.0
  9
$CHAMFERD
 40
0.0
  9
$SKPOLY
 70
     0
  9
$TDCREATE
 40
2455188.750000000
  9
$TDUCREATE
 40
2455188.375000000
  9
$TDUPDATE
 40
2459747.382773195
  9
$TDUUPDATE
 40
2459747.007773195
  9
$TDINDWG
 40
0.0166112269
  9
$TDUSRTIMER
 40
0.0166110648
  9
$USRTIMER
 70
     1
  9
$ANGBASE
 50
0.0
  9
$ANGDIR
 70
     0
  9
$PDMODE
 70
     0
  9
$PDSIZE
 40
0.0
  9
$PLINEWID
 40
0.0
  9
$SPLFRAME
 70
     0
  9
$SPLINETYPE
 70
     6
  9
$SPLINESEGS
 70
     8
  9
$HANDSEED
  5
970
  9
$SURFTAB1
 70
     6
  9
$SURFTAB2
 70
     6
  9
$SURFTYPE
 70
     6
  9
$SURFU
 70
     6
  9
$SURFV
 70
     6
  9
$UCSBASE
  2

  9
$UCSNAME
  2

  9
$UCSORG
 10
0.0
 20
0.0
 30
0.0
  9
$UCSXDIR
 10
1.0
 20
0.0
 30
0.0
  9
$UCSYDIR
 10
0.0
 20
1.0
 30
0.0
  9
$UCSORTHOREF
  2

  9
$UCSORTHOVIEW
 70
     0
  9
$UCSORGTOP
 10
0.0
 20
0.0
 30
0.0
  9
$UCSORGBOTTOM
 10
0.0
 20
0.0
 30
0.0
  9
$UCSORGLEFT
 10
0.0
 20
0.0
 30
0.0
  9
$UCSORGRIGHT
 10
0.0
 20
0.0
 30
0.0
  9
$UCSORGFRONT
 10
0.0
 20
0.0
 30
0.0
  9
$UCSORGBACK
 10
0.0
 20
0.0
 30
0.0
  9
$PUCSBASE
  2

  9
$PUCSNAME
  2

  9
$PUCSORG
 10
0.0
 20
0.0
 30
0.0
  9
$PUCSXDIR
 10
1.0
 20
0.0
 30
0.0
  9
$PUCSYDIR
 10
0.0
 20
1.0
 30
0.0
  9
$PUCSORTHOREF
  2

  9
$PUCSORTHOVIEW
 70
     0
  9
$PUCSORGTOP
 10
0.0
 20
0.0
 30
0.0
  9
$PUCSORGBOTTOM
 10
0.0
 20
0.0
 30
0.0
  9
$PUCSORGLEFT
 10
0.0
 20
0.0
 30
0.0
  9
$PUCSORGRIGHT
 10
0.0
 20
0.0
 30
0.0
  9
$PUCSORGFRONT
 10
0.0
 20
0.0
 30
0.0
  9
$PUCSORGBACK
 10
0.0
 20
0.0
 30
0.0
  9
$USERI1
 70
     0
  9
$USERI2
 70
     0
  9
$USERI3
 70
     0
  9
$USERI4
 70
     0
  9
$USERI5
 70
     0
  9
$USERR1
 40
0.0
  9
$USERR2
 40
0.0
  9
$USERR3
 40
0.0
  9
$USERR4
 40
0.0
  9
$USERR5
 40
0.0
  9
$WORLDVIEW
 70
     1
  9
$SHADEDGE
 70
     3
  9
$SHADEDIF
 70
    70
  9
$TILEMODE
 70
     1
  9
$MAXACTVP
 70
    64
  9
$PINSBASE
 10
0.0
 20
0.0
 30
0.0
  9
$PLIMCHECK
 70
     0
  9
$PEXTMIN
 10
1.000000000000000E+20
 20
1.000000000000000E+20
 30
1.000000000000000E+20
  9
$PEXTMAX
 10
-1.000000000000000E+20
 20
-1.000000000000000E+20
 30
-1.000000000000000E+20
  9
$PLIMMIN
 10
0.0
 20
0.0
  9
$PLIMMAX
 10
420.0
 20
297.0
  9
$UNITMODE
 70
     0
  9
$VISRETAIN
 70
     1
  9
$PLINEGEN
 70
     0
  9
$PSLTSCALE
 70
     1
  9
$TREEDEPTH
 70
  3020
  9
$CMLSTYLE
  2
Standard
  9
$CMLJUST
 70
     0
  9
$CMLSCALE
 40
20.0
  9
$PROXYGRAPHICS
 70
     1
  9
$MEASUREMENT
 70
     1
  9
$CELWEIGHT
370
    -1
  9
$ENDCAPS
280
     0
  9
$JOINSTYLE
280
     0
  9
$LWDISPLAY
290
     0
  9
$INSUNITS
 70
     4
  9
$HYPERLINKBASE
  1

  9
$STYLESHEET
  1

  9
$XEDIT
290
     1
  9
$CEPSNTYPE
380
     0
  9
$PSTYLEMODE
290
     1
  9
$FINGERPRINTGUID
  2
{6B987049-904B-4CEC-9F78-2C5369636441}
  9
$VERSIONGUID
  2
{80EE59F0-4C03-40CC-A1F1-A1CF54B7FAB4}
  9
$EXTNAMES
290
     1
  9
$PSVPSCALE
 40
0.0
  9
$OLESTARTUP
290
     0
  0
ENDSEC
  0
SECTION
  2
CLASSES
  0
CLASS
  1
ACDBDICTIONARYWDFLT
  2
AcDbDictionaryWithDefault
  3
ObjectDBX Classes
 90
        0
280
     0
281
     0
  0
CLASS
  1
VISUALSTYLE
  2
AcDbVisualStyle
  3
ObjectDBX Classes
 90
     4095
280
     0
281
     0
  0
CLASS
  1
MATERIAL
  2
AcDbMaterial
  3
ObjectDBX Classes
 90
     1153
280
     0
281
     0
  0
CLASS
  1
SCALE
  2
AcDbScale
  3
ObjectDBX Classes
 90
     1153
280
     0
281
     0
  0
CLASS
  1
TABLESTYLE
  2
AcDbTableStyle
  3
ObjectDBX Classes
 90
     4095
280
     0
281
     0
  0
CLASS
  1
MLEADERSTYLE
  2
AcDbMLeaderStyle
  3
ACDB_MLEADERSTYLE_CLASS
 90
     4095
280
     0
281
     0
  0
CLASS
  1
SUN
  2
AcDbSun
  3
SCENEOE
 90
    33921
280
     0
281
     0
  0
CLASS
  1
DICTIONARYVAR
  2
AcDbDictionaryVar
  3
ObjectDBX Classes
 90
        0
280
     0
281
     0
  0
CLASS
  1
ACDBSECTIONVIEWSTYLE
  2
AcDbSectionViewStyle
  3
ObjectDBX Classes
 90
     1025
280
     0
281
     0
  0
CLASS
  1
ACDBDETAILVIEWSTYLE
  2
AcDbDetailViewStyle
  3
ObjectDBX Classes
 90
     1025
280
     0
281
     0
  0
CLASS
  1
SORTENTSTABLE
  2
AcDbSortentsTable
  3
ObjectDBX Classes
 90
        0
280
     0
281
     0
  0
CLASS
  1
CELLSTYLEMAP
  2
AcDbCellStyleMap
  3
ObjectDBX Classes
 90
     1152
280
     0
281
     0
  0
CLASS
  1
ACDBPLACEHOLDER
  2
AcDbPlaceHolder
  3
ObjectDBX Classes
 90
        0
280
     0
281
     0
  0
CLASS
  1
LAYOUT
  2
AcDbLayout
  3
ObjectDBX Classes
 90
        0
280
     0
281
     0
  0
ENDSEC
  0
SECTION
  2
TABLES
  0
TABLE
  2
VPORT
  5
8
330
0
100
AcDbSymbolTable
 70
     1
  0
VPORT
  5
29
330
8
100
AcDbSymbolTableRecord
100
AcDbViewportTableRecord
  2
*Active
 70
     0
 10
0.0
 20
0.0
 11
1.0
 21
1.0
 12
688.6017444229665
 22
485.4127448079102
 13
0.0
 23
0.0
 14
10.0
 24
10.0
 15
10.0
 25
10.0
 16
0.0
 26
0.0
 36
1.0
 17
0.0
 27
0.0
 37
0.0
 40
2050.630474139137
 41
2.204301075268817
 42
50.0
 43
0.0
 44
0.0
 50
0.0
 51
0.0
 71
     0
 72
 20000
 73
     1
 74
     3
 75
     0
 76
     0
 77
     0
 78
     0
281
     0
 65
     1
110
0.0
120
0.0
130
0.0
111
1.0
121
0.0
131
0.0
112
0.0
122
1.0
132
0.0
 79
     0
146
0.0
1001
ACAD_NAV_VCDISPLAY
1070
     3
  0
ENDTAB
  0
TABLE
  2
LTYPE
  5
5
330
0
100
AcDbSymbolTable
 70
     2
  0
LTYPE
  5
14
330
5
100
AcDbSymbolTableRecord
100
AcDbLinetypeTableRecord
  2
ByBlock
 70
     0
  3

 72
    65
 73
     0
 40
0.0
  0
LTYPE
  5
15
330
5
100
AcDbSymbolTableRecord
100
AcDbLinetypeTableRecord
  2
ByLayer
 70
     0
  3

 72
    65
 73
     0
 40
0.0
  0
LTYPE
  5
16
330
5
100
AcDbSymbolTableRecord
100
AcDbLinetypeTableRecord
  2
Continuous
 70
     0
  3
Solid line
 72
    65
 73
     0
 40
0.0
  0
LTYPE
  5
4D9
330
5
100
AcDbSymbolTableRecord
100
AcDbLinetypeTableRecord
  2
CENTER2
 70
     0
  3
Center (.5x) ___ _ ___ _ ___ _ ___ _ ___ _ ___
 72
    65
 73
     4
 40
28.575
 49
19.05
 74
     0
 49
-3.174999999999998
 74
     0
 49
3.174999999999998
 74
     0
 49
-3.174999999999998
 74
     0
  0
ENDTAB
  0
TABLE
  2
LAYER
  5
2
102
{ACAD_XDICTIONARY
360
4DF
102
}
330
0
100
AcDbSymbolTable
 70
     4
  0
LAYER
  5
10
102
{ACAD_XDICTIONARY
360
89D
102
}
330
2
100
AcDbSymbolTableRecord
100
AcDbLayerTableRecord
  2
0
 70
     0
 62
     7
  6
Continuous
370
    -3
390
F
  0
LAYER
  5
66
330
2
100
AcDbSymbolTableRecord
100
AcDbLayerTableRecord
  2
Defpoints
 70
     0
 62
     7
  6
Continuous
290
     0
370
    -3
390
F
  0
LAYER
  5
4DA
102
{ACAD_XDICTIONARY
360
4DB
102
}
330
2
100
AcDbSymbolTableRecord
100
AcDbLayerTableRecord
  2
中心線
 70
     0
 62
     3
  6
CENTER2
370
    -3
390
F
  0
LAYER
  5
4DC
102
{ACAD_XDICTIONARY
360
4DD
102
}
330
2
100
AcDbSymbolTableRecord
100
AcDbLayerTableRecord
  2
実線
 70
     0
 62
     7
  6
Continuous
370
    -3
390
F
  0
ENDTAB
  0
TABLE
  2
STYLE
  5
3
330
0
100
AcDbSymbolTable
 70
     1
  0
STYLE
  5
11
330
3
100
AcDbSymbolTableRecord
100
AcDbTextStyleTableRecord
  2
Standard
 70
     0
 40
0.0
 41
1.0
 50
0.0
 71
     0
 42
2.5
  3
txt
  4
extfont2
  0
ENDTAB
  0
TABLE
  2
VIEW
  5
6
330
0
100
AcDbSymbolTable
 70
     0
  0
ENDTAB
  0
TABLE
  2
UCS
  5
7
330
0
100
AcDbSymbolTable
 70
     0
  0
ENDTAB
  0
TABLE
  2
APPID
  5
9
330
0
100
AcDbSymbolTable
 70
     4
  0
APPID
  5
12
330
9
100
AcDbSymbolTableRecord
100
AcDbRegAppTableRecord
  2
ACAD
 70
     0
  0
APPID
  5
2C6
330
9
100
AcDbSymbolTableRecord
100
AcDbRegAppTableRecord
  2
ACAD_MLEADERVER
 70
     0
  0
APPID
  5
4DE
330
9
100
AcDbSymbolTableRecord
100
AcDbRegAppTableRecord
  2
ACAD_NAV_VCDISPLAY
 70
     0
  0
APPID
  5
87D
330
9
100
AcDbSymbolTableRecord
100
AcDbRegAppTableRecord
  2
ACAD_EXEMPT_FROM_CAD_STANDARDS
 70
     0
  0
ENDTAB
  0
TABLE
  2
DIMSTYLE
  5
A
330
0
100
AcDbSymbolTable
 70
     1
100
AcDbDimStyleTable
 71
     1
340
27
  0
DIMSTYLE
105
27
330
A
100
AcDbSymbolTableRecord
100
AcDbDimStyleTableRecord
  2
Standard
 70
     0
 41
2.5
 42
0.625
 43
3.75
 44
1.25
 73
     0
 74
     0
 77
     1
140
2.5
141
2.5
143
0.03937007874016
146
0.75
147
0.625
171
     3
172
     1
271
     2
272
     2
274
     3
283
     0
284
     8
340
11
  0
ENDTAB
  0
TABLE
  2
BLOCK_RECORD
  5
1
330
0
100
AcDbSymbolTable
 70
     1
  0
BLOCK_RECORD
  5
1F
102
{ACAD_XDICTIONARY
360
320
102
}
330
1
100
AcDbSymbolTableRecord
100
AcDbBlockTableRecord
  2
*Model_Space
340
22
  0
BLOCK_RECORD
  5
1B
330
1
100
AcDbSymbolTableRecord
100
AcDbBlockTableRecord
  2
*Paper_Space
340
1E
  0
BLOCK_RECORD
  5
23
330
1
100
AcDbSymbolTableRecord
100
AcDbBlockTableRecord
  2
*Paper_Space0
340
2D0
  0
ENDTAB
  0
ENDSEC
  0
SECTION
  2
BLOCKS
  0
BLOCK
  5
20
330
1F
100
AcDbEntity
  8
0
100
AcDbBlockBegin
  2
*Model_Space
 70
     0
 10
0.0
 20
0.0
 30
0.0
  3
*Model_Space
  1

  0
ENDBLK
  5
21
330
1F
100
AcDbEntity
  8
0
100
AcDbBlockEnd
  0
BLOCK
  5
1C
330
1B
100
AcDbEntity
 67
     1
  8
0
100
AcDbBlockBegin
  2
*Paper_Space
 70
     0
 10
0.0
 20
0.0
 30
0.0
  3
*Paper_Space
  1

  0
ENDBLK
  5
1D
330
1B
100
AcDbEntity
 67
     1
  8
0
100
AcDbBlockEnd
  0
BLOCK
  5
24
330
23
100
AcDbEntity
 67
     1
  8
0
100
AcDbBlockBegin
  2
*Paper_Space0
 70
     0
 10
0.0
 20
0.0
 30
0.0
  3
*Paper_Space0
  1

  0
ENDBLK
  5
25
330
23
100
AcDbEntity
 67
     1
  8
0
100
AcDbBlockEnd
  0
ENDSEC
  0
SECTION
  2
ENTITIES
  0
CIRCLE
  5
2D6
102
{ACAD_REACTORS
330
89B
102
}
330
1F
100
AcDbEntity
  8
実線
100
AcDbCircle
 10
336.1751593808486
 20
640.4473219657518
 30
0.0
 40
12.5
  0
LINE
  5
2D7
102
{ACAD_REACTORS
330
89B
102
}
330
1F
100
AcDbEntity
  8
実線
100
AcDbLine
 10
401.0751593808477
 20
659.4973219657525
 30
0.0
 11
382.4039112567102
 21
659.4973219657525
 31
0.0
  0
LINE
  5
2D8
102
{ACAD_REACTORS
330
89B
102
}
330
1F
100
AcDbEntity
  8
実線
100
AcDbLine
 10
382.4039112567109
 20
621.3973219657527
 30
0.0
 11
401.0751593808477
 21
621.3973219657527
 31
0.0
  0
LINE
  5
2D9
102
{ACAD_REACTORS
330
89B
102
}
330
1F
100
AcDbEntity
  8
実線
100
AcDbLine
 10
401.0751593808477
 20
621.3973219657527
 30
0.0
 11
403.4251593808479
 21
615.1973219657526
 31
0.0
  0
LINE
  5
2DA
102
{ACAD_REACTORS
330
89B
102
}
330
1F
100
AcDbEntity
  8
実線
100
AcDbLine
 10
403.4251593808479
 20
665.6973219657526
 30
0.0
 11
401.0751593808477
 21
659.4973219657525
 31
0.0
  0
LINE
  5
2DB
102
{ACAD_REACTORS
330
89B
102
}
330
1F
100
AcDbEntity
  8
実線
100
AcDbLine
 10
401.0751593808477
 20
621.3973219657527
 30
0.0
 11
401.0751593808477
 21
659.4973219657525
 31
0.0
  0
LINE
  5
2DC
102
{ACAD_REACTORS
330
89B
102
}
330
1F
100
AcDbEntity
  8
実線
100
AcDbLine
 10
406.1751593808478
 20
665.6973219657526
 30
0.0
 11
403.4251593808479
 21
665.6973219657526
 31
0.0
  0
LINE
  5
2DD
102
{ACAD_REACTORS
330
89B
102
}
330
1F
100
AcDbEntity
  8
実線
100
AcDbLine
 10
403.4251593808479
 20
615.1973219657526
 30
0.0
 11
406.1751593808478
 21
615.1973219657526
 31
0.0
  0
LINE
  5
2DE
102
{ACAD_REACTORS
330
89B
102
}
330
1F
100
AcDbEntity
  8
実線
100
AcDbLine
 10
406.1751593808478
 20
615.1973219657526
 30
0.0
 11
406.1751593808478
 21
665.6973219657526
 31
0.0
  0
LINE
  5
2DF
102
{ACAD_REACTORS
330
89B
102
}
330
1F
100
AcDbEntity
  8
実線
100
AcDbLine
 10
403.4251593808479
 20
615.1973219657526
 30
0.0
 11
403.4251593808479
 21
665.6973219657526
 31
0.0
  0
LINE
  5
2E0
102
{ACAD_REACTORS
330
89B
102
}
330
1F
100
AcDbEntity
  8
実線
100
AcDbLine
 10
271.2751593808479
 20
621.3973219657527
 30
0.0
 11
289.9464075049866
 21
621.3973219657527
 31
0.0
  0
LINE
  5
2E1
102
{ACAD_REACTORS
330
89B
102
}
330
1F
100
AcDbEntity
  8
実線
100
AcDbLine
 10
289.9464075049872
 20
659.4973219657525
 30
0.0
 11
271.2751593808479
 21
659.4973219657525
 31
0.0
  0
LINE
  5
2E2
102
{ACAD_REACTORS
330
89B
102
}
330
1F
100
AcDbEntity
  8
実線
100
AcDbLine
 10
271.2751593808479
 20
659.4973219657525
 30
0.0
 11
268.925159380848
 21
665.6973219657526
 31
0.0
  0
LINE
  5
2E3
102
{ACAD_REACTORS
330
89B
102
}
330
1F
100
AcDbEntity
  8
実線
100
AcDbLine
 10
268.925159380848
 20
615.1973219657526
 30
0.0
 11
271.2751593808479
 21
621.3973219657527
 31
0.0
  0
LINE
  5
2E4
102
{ACAD_REACTORS
330
89B
102
}
330
1F
100
AcDbEntity
  8
実線
100
AcDbLine
 10
271.2751593808479
 20
659.4973219657525
 30
0.0
 11
271.2751593808479
 21
621.3973219657527
 31
0.0
  0
LINE
  5
2E5
102
{ACAD_REACTORS
330
89B
102
}
330
1F
100
AcDbEntity
  8
実線
100
AcDbLine
 10
266.1751593808479
 20
615.1973219657526
 30
0.0
 11
268.925159380848
 21
615.1973219657526
 31
0.0
  0
LINE
  5
2E6
102
{ACAD_REACTORS
330
89B
102
}
330
1F
100
AcDbEntity
  8
実線
100
AcDbLine
 10
268.925159380848
 20
665.6973219657526
 30
0.0
 11
266.1751593808479
 21
665.6973219657526
 31
0.0
  0
LINE
  5
2E7
102
{ACAD_REACTORS
330
89B
102
}
330
1F
100
AcDbEntity
  8
実線
100
AcDbLine
 10
266.1751593808479
 20
665.6973219657526
 30
0.0
 11
266.1751593808479
 21
615.1973219657526
 31
0.0
  0
LINE
  5
2E8
102
{ACAD_REACTORS
330
89B
102
}
330
1F
100
AcDbEntity
  8
実線
100
AcDbLine
 10
268.925159380848
 20
665.6973219657526
 30
0.0
 11
268.925159380848
 21
615.1973219657526
 31
0.0
  0
CIRCLE
  5
2E9
102
{ACAD_REACTORS
330
89B
102
}
330
1F
100
AcDbEntity
  8
実線
100
AcDbCircle
 10
336.1751593808486
 20
640.4473219657518
 30
0.0
 40
35.0
  0
ARC
  5
2EA
102
{ACAD_REACTORS
330
89B
102
}
330
1F
100
AcDbEntity
  8
実線
100
AcDbCircle
 10
336.1751593808486
 20
640.4473219657518
 30
0.0
 40
25.0
100
AcDbArc
 50
233.1301023541584
 51
293.0739180656313
  0
CIRCLE
  5
2EB
102
{ACAD_REACTORS
330
89B
102
}
330
1F
100
AcDbEntity
  8
実線
100
AcDbCircle
 10
336.1751593808486
 20
640.4473219657518
 30
0.0
 40
7.5
  0
LINE
  5
2EC
102
{ACAD_REACTORS
330
89B
102
}
330
1F
100
AcDbEntity
  8
実線
100
AcDbLine
 10
331.1751593808486
 20
627.347321965752
 30
0.0
 11
331.1751593808486
 21
619.4473219657518
 31
0.0
  0
LINE
  5
2ED
102
{ACAD_REACTORS
330
89B
102
}
330
1F
100
AcDbEntity
  8
実線
100
AcDbLine
 10
351.1751593808487
 20
619.4473219657518
 30
0.0
 11
356.1751593808486
 21
619.4473219657518
 31
0.0
  0
LINE
  5
2EE
102
{ACAD_REACTORS
330
89B
102
}
330
1F
100
AcDbEntity
  8
実線
100
AcDbLine
 10
356.1751593808486
 20
619.4473219657518
 30
0.0
 11
356.1751593808486
 21
627.347321965752
 31
0.0
  0
LINE
  5
2EF
102
{ACAD_REACTORS
330
89B
102
}
330
1F
100
AcDbEntity
  8
実線
100
AcDbLine
 10
331.1751593808486
 20
627.347321965752
 30
0.0
 11
356.1751593808486
 21
627.347321965752
 31
0.0
  0
LINE
  5
2F0
102
{ACAD_REACTORS
330
89B
102
}
330
1F
100
AcDbEntity
  8
実線
100
AcDbLine
 10
362.6751593808486
 20
621.8973219657518
 30
0.0
 11
362.6751593808486
 21
624.8973219657519
 31
0.0
  0
LINE
  5
2F1
102
{ACAD_REACTORS
330
89B
102
}
330
1F
100
AcDbEntity
  8
実線
100
AcDbLine
 10
356.1751593808486
 20
621.8973219657518
 30
0.0
 11
362.6751593808486
 21
621.8973219657518
 31
0.0
  0
LINE
  5
2F2
102
{ACAD_REACTORS
330
89B
102
}
330
1F
100
AcDbEntity
  8
実線
100
AcDbLine
 10
362.6751593808486
 20
624.8973219657519
 30
0.0
 11
356.1751593808486
 21
624.8973219657519
 31
0.0
  0
LINE
  5
2F3
102
{ACAD_REACTORS
330
89B
102
}
330
1F
100
AcDbEntity
  8
実線
100
AcDbLine
 10
317.1251593808479
 20
594.2185700898904
 30
0.0
 11
317.1251593808479
 21
575.5473219657526
 31
0.0
  0
LINE
  5
2F4
102
{ACAD_REACTORS
330
89B
102
}
330
1F
100
AcDbEntity
  8
実線
100
AcDbLine
 10
317.1251593808479
 20
705.3473219657526
 30
0.0
 11
317.1251593808479
 21
686.6760738416133
 31
0.0
  0
LINE
  5
2F5
102
{ACAD_REACTORS
330
89B
102
}
330
1F
100
AcDbEntity
  8
実線
100
AcDbLine
 10
355.2251593808479
 20
686.6760738416139
 30
0.0
 11
355.2251593808479
 21
705.3473219657526
 31
0.0
  0
LINE
  5
2F6
102
{ACAD_REACTORS
330
89B
102
}
330
1F
100
AcDbEntity
  8
実線
100
AcDbLine
 10
355.2251593808479
 20
575.5473219657526
 30
0.0
 11
355.2251593808479
 21
594.2185700898895
 31
0.0
  0
LINE
  5
2F7
102
{ACAD_REACTORS
330
89B
102
}
330
1F
100
AcDbEntity
  8
実線
100
AcDbLine
 10
310.925159380848
 20
710.4473219657526
 30
0.0
 11
310.925159380848
 21
707.6973219657526
 31
0.0
  0
LINE
  5
2F8
102
{ACAD_REACTORS
330
89B
102
}
330
1F
100
AcDbEntity
  8
実線
100
AcDbLine
 10
361.425159380848
 20
707.6973219657526
 30
0.0
 11
361.425159380848
 21
710.4473219657526
 31
0.0
  0
LINE
  5
2F9
102
{ACAD_REACTORS
330
89B
102
}
330
1F
100
AcDbEntity
  8
実線
100
AcDbLine
 10
361.425159380848
 20
710.4473219657526
 30
0.0
 11
310.925159380848
 21
710.4473219657526
 31
0.0
  0
LINE
  5
2FA
102
{ACAD_REACTORS
330
89B
102
}
330
1F
100
AcDbEntity
  8
実線
100
AcDbLine
 10
355.2251593808479
 20
705.3473219657526
 30
0.0
 11
361.425159380848
 21
707.6973219657526
 31
0.0
  0
LINE
  5
2FB
102
{ACAD_REACTORS
330
89B
102
}
330
1F
100
AcDbEntity
  8
実線
100
AcDbLine
 10
310.925159380848
 20
707.6973219657526
 30
0.0
 11
317.1251593808479
 21
705.3473219657526
 31
0.0
  0
LINE
  5
2FC
102
{ACAD_REACTORS
330
89B
102
}
330
1F
100
AcDbEntity
  8
実線
100
AcDbLine
 10
361.425159380848
 20
707.6973219657526
 30
0.0
 11
310.925159380848
 21
707.6973219657526
 31
0.0
  0
LINE
  5
2FD
102
{ACAD_REACTORS
330
89B
102
}
330
1F
100
AcDbEntity
  8
実線
100
AcDbLine
 10
355.2251593808479
 20
705.3473219657526
 30
0.0
 11
317.1251593808479
 21
705.3473219657526
 31
0.0
  0
LINE
  5
2FE
102
{ACAD_REACTORS
330
89B
102
}
330
1F
100
AcDbEntity
  8
実線
100
AcDbLine
 10
317.1251593808479
 20
575.5473219657526
 30
0.0
 11
310.925159380848
 21
573.1973219657525
 31
0.0
  0
LINE
  5
2FF
102
{ACAD_REACTORS
330
89B
102
}
330
1F
100
AcDbEntity
  8
実線
100
AcDbLine
 10
361.425159380848
 20
573.1973219657525
 30
0.0
 11
355.2251593808479
 21
575.5473219657526
 31
0.0
  0
LINE
  5
300
102
{ACAD_REACTORS
330
89B
102
}
330
1F
100
AcDbEntity
  8
実線
100
AcDbLine
 10
317.1251593808479
 20
575.5473219657526
 30
0.0
 11
355.2251593808479
 21
575.5473219657526
 31
0.0
  0
LINE
  5
301
102
{ACAD_REACTORS
330
89B
102
}
330
1F
100
AcDbEntity
  8
実線
100
AcDbLine
 10
361.425159380848
 20
570.4473219657526
 30
0.0
 11
361.425159380848
 21
573.1973219657525
 31
0.0
  0
LINE
  5
302
102
{ACAD_REACTORS
330
89B
102
}
330
1F
100
AcDbEntity
  8
実線
100
AcDbLine
 10
310.925159380848
 20
573.1973219657525
 30
0.0
 11
310.925159380848
 21
570.4473219657526
 31
0.0
  0
LINE
  5
303
102
{ACAD_REACTORS
330
89B
102
}
330
1F
100
AcDbEntity
  8
実線
100
AcDbLine
 10
310.925159380848
 20
570.4473219657526
 30
0.0
 11
361.425159380848
 21
570.4473219657526
 31
0.0
  0
LINE
  5
304
102
{ACAD_REACTORS
330
89B
102
}
330
1F
100
AcDbEntity
  8
実線
100
AcDbLine
 10
310.925159380848
 20
573.1973219657525
 30
0.0
 11
361.425159380848
 21
573.1973219657525
 31
0.0
  0
ARC
  5
305
102
{ACAD_REACTORS
330
89B
102
}
330
1F
100
AcDbEntity
  8
実線
100
AcDbCircle
 10
336.1751593808486
 20
640.4473219657518
 30
0.0
 40
25.0
100
AcDbArc
 50
323.130102354156
 51
233.1301023541584
  0
LINE
  5
306
102
{ACAD_REACTORS
330
89B
102
}
330
1F
100
AcDbEntity
  8
実線
100
AcDbLine
 10
321.1751593808486
 20
620.4473219657518
 30
0.0
 11
331.1751593808486
 21
620.4473219657518
 31
0.0
  0
LINE
  5
307
102
{ACAD_REACTORS
330
89B
102
}
330
1F
100
AcDbEntity
  8
実線
100
AcDbLine
 10
351.1751593808487
 20
619.4473219657518
 30
0.0
 11
351.1751593808487
 21
617.4473219657518
 31
0.0
  0
LINE
  5
308
102
{ACAD_REACTORS
330
89B
102
}
330
1F
100
AcDbEntity
  8
実線
100
AcDbLine
 10
331.1751593808486
 20
619.4473219657518
 30
0.0
 11
351.1751593808487
 21
619.4473219657518
 31
0.0
  0
LINE
  5
309
102
{ACAD_REACTORS
330
89B
102
}
330
1F
100
AcDbEntity
  8
実線
100
AcDbLine
 10
331.1751593808486
 20
617.4473219657518
 30
0.0
 11
331.1751593808486
 21
619.4473219657518
 31
0.0
  0
LINE
  5
30A
102
{ACAD_REACTORS
330
89B
102
}
330
1F
100
AcDbEntity
  8
実線
100
AcDbLine
 10
351.1751593808487
 20
617.4473219657518
 30
0.0
 11
331.1751593808486
 21
617.4473219657518
 31
0.0
  0
LINE
  5
30B
102
{ACAD_REACTORS
330
89B
102
}
330
1F
100
AcDbEntity
  8
実線
100
AcDbLine
 10
304.116393928585
 20
594.9169358425558
 30
0.0
 11
309.1043837066701
 21
598.4095638856839
 31
0.0
  0
LINE
  5
30C
102
{ACAD_REACTORS
330
89B
102
}
330
1F
100
AcDbEntity
  8
実線
100
AcDbLine
 10
363.2459350550273
 20
598.4095638856839
 30
0.0
 11
368.2339248331124
 21
594.9169358425558
 31
0.0
  0
ARC
  5
30D
102
{ACAD_REACTORS
330
89B
102
}
330
1F
100
AcDbEntity
  8
実線
100
AcDbCircle
 10
372.8225363239206
 20
601.4701521968678
 30
0.0
 40
7.999999999999986
100
AcDbArc
 50
234.999999999999
 51
313.2354262571133
  0
ARC
  5
30E
102
{ACAD_REACTORS
330
89B
102
}
330
1F
100
AcDbEntity
  8
実線
100
AcDbCircle
 10
299.5277824377767
 20
601.4701521968678
 30
0.0
 40
8.000000000000021
100
AcDbArc
 50
226.7645737428867
 51
305.0000000000005
  0
ARC
  5
30F
102
{ACAD_REACTORS
330
89B
102
}
330
1F
100
AcDbEntity
  8
実線
100
AcDbCircle
 10
372.8225363239206
 20
679.4244917346356
 30
0.0
 40
8.000000000000008
100
AcDbArc
 50
46.76457374288665
 51
125.0000000000005
  0
LINE
  5
310
102
{ACAD_REACTORS
330
89B
102
}
330
1F
100
AcDbEntity
  8
実線
100
AcDbLine
 10
309.1043837066702
 20
682.4850800458194
 30
0.0
 11
304.116393928585
 21
685.9777080889475
 31
0.0
  0
ARC
  5
311
102
{ACAD_REACTORS
330
89B
102
}
330
1F
100
AcDbEntity
  8
実線
100
AcDbCircle
 10
299.5277824377767
 20
679.4244917346356
 30
0.0
 40
8.000000000000008
100
AcDbArc
 50
54.9999999999995
 51
133.2354262571133
  0
ARC
  5
312
102
{ACAD_REACTORS
330
89B
102
}
330
1F
100
AcDbEntity
  8
実線
100
AcDbCircle
 10
336.1751593808496
 20
640.4473219657511
 30
0.0
 40
61.50000000000114
100
AcDbArc
 50
133.2354262571133
 51
136.7645737428866
  0
ARC
  5
313
102
{ACAD_REACTORS
330
89B
102
}
330
1F
100
AcDbEntity
  8
実線
100
AcDbCircle
 10
297.1979896119649
 20
677.0946989088237
 30
0.0
 40
8.000000000000008
100
AcDbArc
 50
136.7645737428866
 51
214.9999999999994
  0
LINE
  5
314
102
{ACAD_REACTORS
330
89B
102
}
330
1F
100
AcDbEntity
  8
実線
100
AcDbLine
 10
290.6447732576531
 20
672.5060874180154
 30
0.0
 11
294.1374013007809
 21
667.5180976399304
 31
0.0
  0
LINE
  5
315
102
{ACAD_REACTORS
330
89B
102
}
330
1F
100
AcDbEntity
  8
実線
100
AcDbLine
 10
294.1374013007809
 20
613.3765462915733
 30
0.0
 11
290.6447732576531
 21
608.388556513488
 31
0.0
  0
ARC
  5
316
102
{ACAD_REACTORS
330
89B
102
}
330
1F
100
AcDbEntity
  8
実線
100
AcDbCircle
 10
297.1979896119649
 20
603.7999450226798
 30
0.0
 40
7.999999999999996
100
AcDbArc
 50
145.0000000000006
 51
223.2354262571134
  0
ARC
  5
317
102
{ACAD_REACTORS
330
89B
102
}
330
1F
100
AcDbEntity
  8
実線
100
AcDbCircle
 10
336.175159380849
 20
640.4473219657516
 30
0.0
 40
61.50000000000008
100
AcDbArc
 50
223.2354262571134
 51
226.7645737428867
  0
ARC
  5
318
102
{ACAD_REACTORS
330
89B
102
}
330
1F
100
AcDbEntity
  8
実線
100
AcDbCircle
 10
336.1751593808494
 20
640.4473219657508
 30
0.0
 40
61.49999999999885
100
AcDbArc
 50
313.2354262571133
 51
316.7645737428866
  0
ARC
  5
319
102
{ACAD_REACTORS
330
89B
102
}
330
1F
100
AcDbEntity
  8
実線
100
AcDbCircle
 10
375.1523291497326
 20
603.7999450226798
 30
0.0
 40
8.000000000000023
100
AcDbArc
 50
316.7645737428866
 51
34.99999999999936
  0
LINE
  5
31A
102
{ACAD_REACTORS
330
89B
102
}
330
1F
100
AcDbEntity
  8
実線
100
AcDbLine
 10
381.7055455040447
 20
608.388556513488
 30
0.0
 11
378.2129174609165
 21
613.376546291573
 31
0.0
  0
LINE
  5
31B
102
{ACAD_REACTORS
330
89B
102
}
330
1F
100
AcDbEntity
  8
実線
100
AcDbLine
 10
378.2129174609165
 20
667.5180976399304
 30
0.0
 11
381.7055455040447
 21
672.5060874180154
 31
0.0
  0
ARC
  5
31C
102
{ACAD_REACTORS
330
89B
102
}
330
1F
100
AcDbEntity
  8
実線
100
AcDbCircle
 10
375.1523291497326
 20
677.0946989088237
 30
0.0
 40
7.999999999999995
100
AcDbArc
 50
325.0000000000006
 51
43.23542625711335
  0
ARC
  5
31D
102
{ACAD_REACTORS
330
89B
102
}
330
1F
100
AcDbEntity
  8
実線
100
AcDbCircle
 10
336.1751593808488
 20
640.4473219657516
 30
0.0
 40
61.50000000000009
100
AcDbArc
 50
43.23542625711335
 51
46.76457374288665
  0
LINE
  5
31E
102
{ACAD_REACTORS
330
89B
102
}
330
1F
100
AcDbEntity
  8
実線
100
AcDbLine
 10
368.2339248331124
 20
685.9777080889475
 30
0.0
 11
363.2459350550273
 21
682.4850800458194
 31
0.0
  0
CIRCLE
  5
31F
102
{ACAD_REACTORS
330
89B
102
}
330
1F
100
AcDbEntity
  8
実線
100
AcDbCircle
 10
336.1751593808486
 20
640.4473219657518
 30
0.0
 40
50.0
  0
LINE
  5
322
102
{ACAD_REACTORS
330
899
102
}
330
1F
100
AcDbEntity
  8
実線
100
AcDbLine
 10
401.0751593808485
 20
119.4973219657507
 30
0.0
 11
371.3475562283766
 21
119.4973219657507
 31
0.0
  0
LINE
  5
323
102
{ACAD_REACTORS
330
899
102
}
330
1F
100
AcDbEntity
  8
実線
100
AcDbLine
 10
371.3475562283766
 20
81.39732196575073
 30
0.0
 11
401.0751593808485
 21
81.39732196575073
 31
0.0
  0
LINE
  5
324
102
{ACAD_REACTORS
330
899
102
}
330
1F
100
AcDbEntity
  8
実線
100
AcDbLine
 10
406.1751593808485
 20
125.6973219657507
 30
0.0
 11
406.1751593808485
 21
75.19732196575074
 31
0.0
  0
LINE
  5
325
102
{ACAD_REACTORS
330
899
102
}
330
1F
100
AcDbEntity
  8
実線
100
AcDbLine
 10
406.1751593808485
 20
125.6973219657507
 30
0.0
 11
403.4251593808486
 21
125.6973219657507
 31
0.0
  0
LINE
  5
326
102
{ACAD_REACTORS
330
899
102
}
330
1F
100
AcDbEntity
  8
実線
100
AcDbLine
 10
403.4251593808486
 20
75.19732196575074
 30
0.0
 11
406.1751593808485
 21
75.19732196575074
 31
0.0
  0
LINE
  5
327
102
{ACAD_REACTORS
330
899
102
}
330
1F
100
AcDbEntity
  8
実線
100
AcDbLine
 10
403.4251593808486
 20
125.6973219657507
 30
0.0
 11
403.4251593808486
 21
75.19732196575086
 31
0.0
  0
LINE
  5
328
102
{ACAD_REACTORS
330
899
102
}
330
1F
100
AcDbEntity
  8
実線
100
AcDbLine
 10
401.0751593808485
 20
119.4973219657507
 30
0.0
 11
401.0751593808485
 21
81.39732196575073
 31
0.0
  0
LINE
  5
329
102
{ACAD_REACTORS
330
899
102
}
330
1F
100
AcDbEntity
  8
実線
100
AcDbLine
 10
401.0751593808485
 20
81.39732196575073
 30
0.0
 11
403.4251593808486
 21
75.19732196575086
 31
0.0
  0
LINE
  5
32A
102
{ACAD_REACTORS
330
899
102
}
330
1F
100
AcDbEntity
  8
実線
100
AcDbLine
 10
403.4251593808486
 20
125.6973219657507
 30
0.0
 11
401.0751593808485
 21
119.4973219657507
 31
0.0
  0
LINE
  5
32B
102
{ACAD_REACTORS
330
899
102
}
330
1F
100
AcDbEntity
  8
実線
100
AcDbLine
 10
271.2751593808485
 20
81.39732196575073
 30
0.0
 11
301.0027625333205
 21
81.39732196575073
 31
0.0
  0
LINE
  5
32C
102
{ACAD_REACTORS
330
899
102
}
330
1F
100
AcDbEntity
  8
実線
100
AcDbLine
 10
301.0027625333205
 20
119.4973219657507
 30
0.0
 11
271.2751593808485
 21
119.4973219657507
 31
0.0
  0
LINE
  5
32D
102
{ACAD_REACTORS
330
899
102
}
330
1F
100
AcDbEntity
  8
実線
100
AcDbLine
 10
271.2751593808485
 20
81.39732196575073
 30
0.0
 11
271.2751593808485
 21
119.4973219657507
 31
0.0
  0
LINE
  5
32E
102
{ACAD_REACTORS
330
899
102
}
330
1F
100
AcDbEntity
  8
実線
100
AcDbLine
 10
271.2751593808485
 20
119.4973219657507
 30
0.0
 11
268.9251593808486
 21
125.6973219657507
 31
0.0
  0
LINE
  5
32F
102
{ACAD_REACTORS
330
899
102
}
330
1F
100
AcDbEntity
  8
実線
100
AcDbLine
 10
268.9251593808486
 20
75.19732196575074
 30
0.0
 11
271.2751593808485
 21
81.39732196575073
 31
0.0
  0
LINE
  5
330
102
{ACAD_REACTORS
330
899
102
}
330
1F
100
AcDbEntity
  8
実線
100
AcDbLine
 10
266.1751593808487
 20
75.19732196575074
 30
0.0
 11
266.1751593808487
 21
125.6973219657507
 31
0.0
  0
LINE
  5
331
102
{ACAD_REACTORS
330
899
102
}
330
1F
100
AcDbEntity
  8
実線
100
AcDbLine
 10
268.9251593808486
 20
75.19732196575074
 30
0.0
 11
268.9251593808486
 21
125.6973219657507
 31
0.0
  0
LINE
  5
332
102
{ACAD_REACTORS
330
899
102
}
330
1F
100
AcDbEntity
  8
実線
100
AcDbLine
 10
266.1751593808487
 20
75.19732196575074
 30
0.0
 11
268.9251593808486
 21
75.19732196575074
 31
0.0
  0
LINE
  5
333
102
{ACAD_REACTORS
330
899
102
}
330
1F
100
AcDbEntity
  8
実線
100
AcDbLine
 10
268.9251593808486
 20
125.6973219657507
 30
0.0
 11
266.1751593808487
 21
125.6973219657507
 31
0.0
  0
ARC
  5
334
102
{ACAD_REACTORS
330
899
102
}
330
1F
100
AcDbEntity
  8
実線
100
AcDbCircle
 10
336.1751593808493
 20
100.4473219657516
 30
0.0
 40
50.0
100
AcDbArc
 50
112.3956387194892
 51
122.7800510628626
  0
ARC
  5
335
102
{ACAD_REACTORS
330
899
102
}
330
1F
100
AcDbEntity
  8
実線
100
AcDbCircle
 10
336.1751593808493
 20
100.4473219657516
 30
0.0
 40
50.0
100
AcDbArc
 50
147.2199489371374
 51
157.6043612805137
  0
ARC
  5
336
102
{ACAD_REACTORS
330
899
102
}
330
1F
100
AcDbEntity
  8
実線
100
AcDbCircle
 10
336.1751593808493
 20
100.4473219657516
 30
0.0
 40
50.0
100
AcDbArc
 50
202.3956387194893
 51
212.7800510628626
  0
ARC
  5
337
102
{ACAD_REACTORS
330
899
102
}
330
1F
100
AcDbEntity
  8
実線
100
AcDbCircle
 10
336.1751593808493
 20
100.4473219657516
 30
0.0
 40
50.0
100
AcDbArc
 50
237.2199489371374
 51
247.6043612805107
  0
ARC
  5
338
102
{ACAD_REACTORS
330
899
102
}
330
1F
100
AcDbEntity
  8
実線
100
AcDbCircle
 10
336.1751593808493
 20
100.4473219657516
 30
0.0
 40
50.0
100
AcDbArc
 50
292.395638719486
 51
302.7800510628626
  0
ARC
  5
339
102
{ACAD_REACTORS
330
899
102
}
330
1F
100
AcDbEntity
  8
実線
100
AcDbCircle
 10
336.1751593808493
 20
100.4473219657516
 30
0.0
 40
50.0
100
AcDbArc
 50
327.2199489371374
 51
337.6043612805107
  0
ARC
  5
33A
102
{ACAD_REACTORS
330
899
102
}
330
1F
100
AcDbEntity
  8
実線
100
AcDbCircle
 10
336.1751593808493
 20
100.4473219657516
 30
0.0
 40
50.0
100
AcDbArc
 50
22.39563871948627
 51
32.78005106286261
  0
ARC
  5
33B
102
{ACAD_REACTORS
330
899
102
}
330
1F
100
AcDbEntity
  8
実線
100
AcDbCircle
 10
336.1751593808493
 20
100.4473219657516
 30
0.0
 40
50.0
100
AcDbArc
 50
57.2199489371374
 51
67.60436128051404
  0
LINE
  5
33C
102
{ACAD_REACTORS
330
899
102
}
330
1F
100
AcDbEntity
  8
実線
100
AcDbLine
 10
355.2251593808486
 20
122.4671903811078
 30
0.0
 11
355.2251593808486
 21
165.3473219657508
 31
0.0
  0
LINE
  5
33D
102
{ACAD_REACTORS
330
899
102
}
330
1F
100
AcDbEntity
  8
実線
100
AcDbLine
 10
355.2251593808486
 20
35.54732196575078
 30
0.0
 11
355.2251593808486
 21
78.42745355039375
 31
0.0
  0
LINE
  5
33E
102
{ACAD_REACTORS
330
899
102
}
330
1F
100
AcDbEntity
  8
実線
100
AcDbLine
 10
317.1251593808486
 20
78.42745355039375
 30
0.0
 11
317.1251593808486
 21
35.54732196575078
 31
0.0
  0
LINE
  5
33F
102
{ACAD_REACTORS
330
899
102
}
330
1F
100
AcDbEntity
  8
実線
100
AcDbLine
 10
317.1251593808486
 20
165.3473219657508
 30
0.0
 11
317.1251593808486
 21
122.4671903811078
 31
0.0
  0
LINE
  5
340
102
{ACAD_REACTORS
330
899
102
}
330
1F
100
AcDbEntity
  8
実線
100
AcDbLine
 10
310.9251593808486
 20
170.4473219657508
 30
0.0
 11
361.4251593808486
 21
170.4473219657508
 31
0.0
  0
LINE
  5
341
102
{ACAD_REACTORS
330
899
102
}
330
1F
100
AcDbEntity
  8
実線
100
AcDbLine
 10
310.9251593808486
 20
170.4473219657508
 30
0.0
 11
310.9251593808486
 21
167.6973219657508
 31
0.0
  0
LINE
  5
342
102
{ACAD_REACTORS
330
899
102
}
330
1F
100
AcDbEntity
  8
実線
100
AcDbLine
 10
361.4251593808486
 20
167.6973219657508
 30
0.0
 11
361.4251593808486
 21
170.4473219657508
 31
0.0
  0
LINE
  5
343
102
{ACAD_REACTORS
330
899
102
}
330
1F
100
AcDbEntity
  8
実線
100
AcDbLine
 10
310.9251593808486
 20
167.6973219657508
 30
0.0
 11
361.4251593808486
 21
167.6973219657508
 31
0.0
  0
LINE
  5
344
102
{ACAD_REACTORS
330
899
102
}
330
1F
100
AcDbEntity
  8
実線
100
AcDbLine
 10
317.1251593808486
 20
165.3473219657508
 30
0.0
 11
355.2251593808486
 21
165.3473219657508
 31
0.0
  0
LINE
  5
345
102
{ACAD_REACTORS
330
899
102
}
330
1F
100
AcDbEntity
  8
実線
100
AcDbLine
 10
355.2251593808486
 20
165.3473219657508
 30
0.0
 11
361.4251593808486
 21
167.6973219657508
 31
0.0
  0
LINE
  5
346
102
{ACAD_REACTORS
330
899
102
}
330
1F
100
AcDbEntity
  8
実線
100
AcDbLine
 10
310.9251593808486
 20
167.6973219657508
 30
0.0
 11
317.1251593808486
 21
165.3473219657508
 31
0.0
  0
LINE
  5
347
102
{ACAD_REACTORS
330
899
102
}
330
1F
100
AcDbEntity
  8
実線
100
AcDbLine
 10
361.4251593808486
 20
30.44732196575079
 30
0.0
 11
310.9251593808486
 21
30.44732196575079
 31
0.0
  0
LINE
  5
348
102
{ACAD_REACTORS
330
899
102
}
330
1F
100
AcDbEntity
  8
実線
100
AcDbLine
 10
361.4251593808486
 20
30.44732196575079
 30
0.0
 11
361.4251593808486
 21
33.19732196575075
 31
0.0
  0
LINE
  5
349
102
{ACAD_REACTORS
330
899
102
}
330
1F
100
AcDbEntity
  8
実線
100
AcDbLine
 10
310.9251593808486
 20
33.19732196575075
 30
0.0
 11
310.9251593808486
 21
30.44732196575079
 31
0.0
  0
LINE
  5
34A
102
{ACAD_REACTORS
330
899
102
}
330
1F
100
AcDbEntity
  8
実線
100
AcDbLine
 10
361.4251593808486
 20
33.19732196575075
 30
0.0
 11
310.9251593808486
 21
33.19732196575075
 31
0.0
  0
LINE
  5
34B
102
{ACAD_REACTORS
330
899
102
}
330
1F
100
AcDbEntity
  8
実線
100
AcDbLine
 10
355.2251593808486
 20
35.54732196575078
 30
0.0
 11
317.1251593808486
 21
35.54732196575078
 31
0.0
  0
LINE
  5
34C
102
{ACAD_REACTORS
330
899
102
}
330
1F
100
AcDbEntity
  8
実線
100
AcDbLine
 10
317.1251593808486
 20
35.54732196575078
 30
0.0
 11
310.9251593808486
 21
33.19732196575075
 31
0.0
  0
LINE
  5
34D
102
{ACAD_REACTORS
330
899
102
}
330
1F
100
AcDbEntity
  8
実線
100
AcDbLine
 10
361.4251593808486
 20
33.19732196575075
 30
0.0
 11
355.2251593808486
 21
35.54732196575078
 31
0.0
  0
LINE
  5
34E
102
{ACAD_REACTORS
330
899
102
}
330
1F
100
AcDbEntity
  8
実線
100
AcDbLine
 10
302.8251593808485
 20
79.94732196575075
 30
0.0
 11
302.8251593808485
 21
120.9473219657507
 31
0.0
  0
ARC
  5
34F
102
{ACAD_REACTORS
330
899
102
}
330
1F
100
AcDbEntity
  8
実線
100
AcDbCircle
 10
304.8251593808486
 20
120.9473219657507
 30
0.0
 40
2.0
100
AcDbArc
 50
90.0
 51
180.0
  0
ARC
  5
350
102
{ACAD_REACTORS
330
899
102
}
330
1F
100
AcDbEntity
  8
実線
100
AcDbCircle
 10
304.8251593808486
 20
79.94732196575075
 30
0.0
 40
2.0
100
AcDbArc
 50
180.0
 51
270.0
  0
ARC
  5
351
102
{ACAD_REACTORS
330
899
102
}
330
1F
100
AcDbEntity
  8
実線
100
AcDbCircle
 10
315.8251593808485
 20
79.94732196575075
 30
0.0
 40
2.0
100
AcDbArc
 50
270.0
 51
0.0
  0
ARC
  5
352
102
{ACAD_REACTORS
330
899
102
}
330
1F
100
AcDbEntity
  8
実線
100
AcDbCircle
 10
315.8251593808485
 20
120.9473219657507
 30
0.0
 40
2.0
100
AcDbArc
 50
0.0
 51
90.0
  0
LINE
  5
353
102
{ACAD_REACTORS
330
899
102
}
330
1F
100
AcDbEntity
  8
実線
100
AcDbLine
 10
317.8251593808486
 20
120.9473219657507
 30
0.0
 11
317.8251593808486
 21
79.94732196575075
 31
0.0
  0
LINE
  5
354
102
{ACAD_REACTORS
330
899
102
}
330
1F
100
AcDbEntity
  8
実線
100
AcDbLine
 10
304.8251593808486
 20
122.9473219657507
 30
0.0
 11
315.8251593808485
 21
122.9473219657507
 31
0.0
  0
LINE
  5
355
102
{ACAD_REACTORS
330
899
102
}
330
1F
100
AcDbEntity
  8
実線
100
AcDbLine
 10
315.8251593808485
 20
77.94732196575075
 30
0.0
 11
304.8251593808486
 21
77.94732196575075
 31
0.0
  0
ARC
  5
356
102
{ACAD_REACTORS
330
899
102
}
330
1F
100
AcDbEntity
  8
実線
100
AcDbCircle
 10
356.5251593808485
 20
79.94732196575075
 30
0.0
 40
2.0
100
AcDbArc
 50
180.0
 51
270.0
  0
LINE
  5
357
102
{ACAD_REACTORS
330
899
102
}
330
1F
100
AcDbEntity
  8
実線
100
AcDbLine
 10
367.5251593808486
 20
77.94732196575075
 30
0.0
 11
356.5251593808485
 21
77.94732196575075
 31
0.0
  0
ARC
  5
358
102
{ACAD_REACTORS
330
899
102
}
330
1F
100
AcDbEntity
  8
実線
100
AcDbCircle
 10
367.5251593808486
 20
79.94732196575075
 30
0.0
 40
2.0
100
AcDbArc
 50
270.0
 51
0.0
  0
LINE
  5
359
102
{ACAD_REACTORS
330
899
102
}
330
1F
100
AcDbEntity
  8
実線
100
AcDbLine
 10
369.5251593808487
 20
120.9473219657507
 30
0.0
 11
369.5251593808487
 21
79.94732196575075
 31
0.0
  0
ARC
  5
35A
102
{ACAD_REACTORS
330
899
102
}
330
1F
100
AcDbEntity
  8
実線
100
AcDbCircle
 10
367.5251593808486
 20
120.9473219657507
 30
0.0
 40
2.0
100
AcDbArc
 50
0.0
 51
90.0
  0
LINE
  5
35B
102
{ACAD_REACTORS
330
899
102
}
330
1F
100
AcDbEntity
  8
実線
100
AcDbLine
 10
356.5251593808485
 20
122.9473219657507
 30
0.0
 11
367.5251593808486
 21
122.9473219657507
 31
0.0
  0
ARC
  5
35C
102
{ACAD_REACTORS
330
899
102
}
330
1F
100
AcDbEntity
  8
実線
100
AcDbCircle
 10
356.5251593808485
 20
120.9473219657507
 30
0.0
 40
2.0
100
AcDbArc
 50
90.0
 51
180.0
  0
LINE
  5
35D
102
{ACAD_REACTORS
330
899
102
}
330
1F
100
AcDbEntity
  8
実線
100
AcDbLine
 10
354.5251593808485
 20
79.94732196575075
 30
0.0
 11
354.5251593808485
 21
120.9473219657507
 31
0.0
  0
LINE
  5
35E
102
{ACAD_REACTORS
330
899
102
}
330
1F
100
AcDbEntity
  8
実線
100
AcDbLine
 10
299.7536088901297
 20
119.4973219657507
 30
0.0
 11
290.6447732576527
 21
132.5060874180144
 31
0.0
  0
LINE
  5
35F
102
{ACAD_REACTORS
330
899
102
}
330
1F
100
AcDbEntity
  8
実線
100
AcDbLine
 10
304.1163939285849
 20
145.9777080889465
 30
0.0
 11
317.1251593808486
 21
136.8688724564694
 31
0.0
  0
ARC
  5
360
102
{ACAD_REACTORS
330
899
102
}
330
1F
100
AcDbEntity
  8
実線
100
AcDbCircle
 10
297.1979896119648
 20
137.0946989088228
 30
0.0
 40
7.999999999999996
100
AcDbArc
 50
136.7645737428866
 51
214.9999999999994
  0
ARC
  5
361
102
{ACAD_REACTORS
330
899
102
}
330
1F
100
AcDbEntity
  8
実線
100
AcDbCircle
 10
336.1751593808488
 20
100.4473219657508
 30
0.0
 40
61.50000000000008
100
AcDbArc
 50
133.2354262571133
 51
136.7645737428866
  0
ARC
  5
362
102
{ACAD_REACTORS
330
899
102
}
330
1F
100
AcDbEntity
  8
実線
100
AcDbCircle
 10
299.5277824377766
 20
139.4244917346346
 30
0.0
 40
8.000000000000021
100
AcDbArc
 50
54.9999999999995
 51
133.2354262571133
  0
ARC
  5
363
102
{ACAD_REACTORS
330
899
102
}
330
1F
100
AcDbEntity
  8
実線
100
AcDbCircle
 10
299.5277824377766
 20
61.47015219686682
 30
0.0
 40
8.000000000000008
100
AcDbArc
 50
226.7645737428867
 51
305.0000000000005
  0
ARC
  5
364
102
{ACAD_REACTORS
330
899
102
}
330
1F
100
AcDbEntity
  8
実線
100
AcDbCircle
 10
297.1979896119648
 20
63.79994502267874
 30
0.0
 40
8.000000000000008
100
AcDbArc
 50
145.0000000000006
 51
223.2354262571134
  0
LINE
  5
365
102
{ACAD_REACTORS
330
899
102
}
330
1F
100
AcDbEntity
  8
実線
100
AcDbLine
 10
290.6447732576527
 20
68.38855651348715
 30
0.0
 11
299.7536088901299
 21
81.39732196575073
 31
0.0
  0
LINE
  5
366
102
{ACAD_REACTORS
330
899
102
}
330
1F
100
AcDbEntity
  8
実線
100
AcDbLine
 10
317.1251593808486
 20
64.02577147503203
 30
0.0
 11
304.1163939285849
 21
54.91693584255492
 31
0.0
  0
ARC
  5
367
102
{ACAD_REACTORS
330
899
102
}
330
1F
100
AcDbEntity
  8
実線
100
AcDbCircle
 10
336.1751593808496
 20
100.4473219657514
 30
0.0
 40
61.50000000000114
100
AcDbArc
 50
223.2354262571134
 51
226.7645737428867
  0
ARC
  5
368
102
{ACAD_REACTORS
330
899
102
}
330
1F
100
AcDbEntity
  8
実線
100
AcDbCircle
 10
372.8225363239205
 20
139.4244917346347
 30
0.0
 40
7.999999999999986
100
AcDbArc
 50
46.76457374288665
 51
125.0000000000005
  0
LINE
  5
369
102
{ACAD_REACTORS
330
899
102
}
330
1F
100
AcDbEntity
  8
実線
100
AcDbLine
 10
381.7055455040445
 20
132.5060874180144
 30
0.0
 11
372.5967098715673
 21
119.4973219657507
 31
0.0
  0
ARC
  5
36A
102
{ACAD_REACTORS
330
899
102
}
330
1F
100
AcDbEntity
  8
実線
100
AcDbCircle
 10
375.1523291497324
 20
137.0946989088228
 30
0.0
 40
8.000000000000023
100
AcDbArc
 50
325.0000000000006
 51
43.23542625711335
  0
ARC
  5
36B
102
{ACAD_REACTORS
330
899
102
}
330
1F
100
AcDbEntity
  8
実線
100
AcDbCircle
 10
336.1751593808493
 20
100.4473219657516
 30
0.0
 40
61.49999999999885
100
AcDbArc
 50
43.23542625711335
 51
46.76457374288665
  0
LINE
  5
36C
102
{ACAD_REACTORS
330
899
102
}
330
1F
100
AcDbEntity
  8
実線
100
AcDbLine
 10
355.2251593808486
 20
136.8688724564696
 30
0.0
 11
368.2339248331123
 21
145.9777080889465
 31
0.0
  0
LINE
  5
36D
102
{ACAD_REACTORS
330
899
102
}
330
1F
100
AcDbEntity
  8
実線
100
AcDbLine
 10
368.2339248331123
 20
54.91693584255504
 30
0.0
 11
355.2251593808486
 21
64.02577147503191
 31
0.0
  0
ARC
  5
36E
102
{ACAD_REACTORS
330
899
102
}
330
1F
100
AcDbEntity
  8
実線
100
AcDbCircle
 10
372.8225363239205
 20
61.47015219686682
 30
0.0
 40
8.000000000000008
100
AcDbArc
 50
234.999999999999
 51
313.2354262571133
  0
ARC
  5
36F
102
{ACAD_REACTORS
330
899
102
}
330
1F
100
AcDbEntity
  8
実線
100
AcDbCircle
 10
336.1751593808488
 20
100.4473219657509
 30
0.0
 40
61.50000000000009
100
AcDbArc
 50
313.2354262571133
 51
316.7645737428866
  0
ARC
  5
370
102
{ACAD_REACTORS
330
899
102
}
330
1F
100
AcDbEntity
  8
実線
100
AcDbCircle
 10
375.1523291497326
 20
63.79994502267874
 30
0.0
 40
7.999999999999995
100
AcDbArc
 50
316.7645737428866
 51
34.99999999999936
  0
LINE
  5
371
102
{ACAD_REACTORS
330
899
102
}
330
1F
100
AcDbEntity
  8
実線
100
AcDbLine
 10
372.5967098715673
 20
81.39732196575073
 30
0.0
 11
381.7055455040445
 21
68.38855651348715
 31
0.0
  0
ARC
  5
372
102
{ACAD_REACTORS
330
899
102
}
330
1F
100
AcDbEntity
  8
実線
100
AcDbCircle
 10
336.1751593808485
 20
100.4473219657507
 30
0.0
 40
40.0
100
AcDbArc
 50
118.4407686454668
 51
241.5592313545332
  0
ARC
  5
373
102
{ACAD_REACTORS
330
899
102
}
330
1F
100
AcDbEntity
  8
実線
100
AcDbCircle
 10
336.1751593808485
 20
100.4473219657507
 30
0.0
 40
40.0
100
AcDbArc
 50
298.4407686454669
 51
61.55923135453316
  0
LINE
  5
374
102
{ACAD_REACTORS
330
897
102
}
330
1F
100
AcDbEntity
  8
実線
100
AcDbLine
 10
803.6751593808451
 20
516.847321965751
 30
0.0
 11
828.675159380846
 21
516.847321965751
 31
0.0
  0
LINE
  5
375
102
{ACAD_REACTORS
330
897
102
}
330
1F
100
AcDbEntity
  8
実線
100
AcDbLine
 10
828.675159380846
 20
511.8473219657511
 30
0.0
 11
828.675159380846
 21
516.847321965751
 31
0.0
  0
LINE
  5
376
102
{ACAD_REACTORS
330
897
102
}
330
1F
100
AcDbEntity
  8
実線
100
AcDbLine
 10
803.6751593808451
 20
516.847321965751
 30
0.0
 11
803.6751593808451
 21
511.8473219657511
 31
0.0
  0
LINE
  5
377
102
{ACAD_REACTORS
330
897
102
}
330
1F
100
AcDbEntity
  8
実線
100
AcDbLine
 10
828.675159380846
 20
511.8473219657511
 30
0.0
 11
803.6751593808451
 21
511.8473219657511
 31
0.0
  0
LINE
  5
378
102
{ACAD_REACTORS
330
897
102
}
330
1F
100
AcDbEntity
  8
実線
100
AcDbLine
 10
751.2751593808461
 20
261.3973219657511
 30
0.0
 11
776.175159380846
 21
261.3973219657511
 31
0.0
  0
LINE
  5
379
102
{ACAD_REACTORS
330
897
102
}
330
1F
100
AcDbEntity
  8
実線
100
AcDbLine
 10
769.1979896119621
 20
299.4973219657511
 30
0.0
 11
751.2751593808461
 21
299.4973219657511
 31
0.0
  0
LINE
  5
37A
102
{ACAD_REACTORS
330
897
102
}
330
1F
100
AcDbEntity
  8
実線
100
AcDbLine
 10
751.2751593808461
 20
299.4973219657511
 30
0.0
 11
748.925159380846
 21
305.6973219657511
 31
0.0
  0
LINE
  5
37B
102
{ACAD_REACTORS
330
897
102
}
330
1F
100
AcDbEntity
  8
実線
100
AcDbLine
 10
748.925159380846
 20
255.1973219657511
 30
0.0
 11
751.2751593808461
 21
261.3973219657511
 31
0.0
  0
LINE
  5
37C
102
{ACAD_REACTORS
330
897
102
}
330
1F
100
AcDbEntity
  8
実線
100
AcDbLine
 10
751.2751593808461
 20
299.4973219657511
 30
0.0
 11
751.2751593808461
 21
261.3973219657511
 31
0.0
  0
LINE
  5
37D
102
{ACAD_REACTORS
330
897
102
}
330
1F
100
AcDbEntity
  8
実線
100
AcDbLine
 10
746.175159380846
 20
255.1973219657511
 30
0.0
 11
748.925159380846
 21
255.1973219657511
 31
0.0
  0
LINE
  5
37E
102
{ACAD_REACTORS
330
897
102
}
330
1F
100
AcDbEntity
  8
実線
100
AcDbLine
 10
748.925159380846
 20
305.6973219657511
 30
0.0
 11
746.175159380846
 21
305.6973219657511
 31
0.0
  0
LINE
  5
37F
102
{ACAD_REACTORS
330
897
102
}
330
1F
100
AcDbEntity
  8
実線
100
AcDbLine
 10
746.175159380846
 20
255.1973219657511
 30
0.0
 11
746.175159380846
 21
305.6973219657511
 31
0.0
  0
LINE
  5
380
102
{ACAD_REACTORS
330
897
102
}
330
1F
100
AcDbEntity
  8
実線
100
AcDbLine
 10
748.925159380846
 20
255.1973219657511
 30
0.0
 11
748.925159380846
 21
305.6973219657511
 31
0.0
  0
LINE
  5
381
102
{ACAD_REACTORS
330
897
102
}
330
1F
100
AcDbEntity
  8
実線
100
AcDbLine
 10
881.0751593808461
 20
299.4973219657511
 30
0.0
 11
863.15232914973
 21
299.4973219657511
 31
0.0
  0
LINE
  5
382
102
{ACAD_REACTORS
330
897
102
}
330
1F
100
AcDbEntity
  8
実線
100
AcDbLine
 10
856.1751593808461
 20
261.3973219657511
 30
0.0
 11
881.0751593808461
 21
261.3973219657511
 31
0.0
  0
LINE
  5
383
102
{ACAD_REACTORS
330
897
102
}
330
1F
100
AcDbEntity
  8
実線
100
AcDbLine
 10
881.0751593808461
 20
261.3973219657511
 30
0.0
 11
881.0751593808461
 21
299.4973219657511
 31
0.0
  0
LINE
  5
384
102
{ACAD_REACTORS
330
897
102
}
330
1F
100
AcDbEntity
  8
実線
100
AcDbLine
 10
881.0751593808461
 20
261.3973219657511
 30
0.0
 11
883.425159380846
 21
255.1973219657511
 31
0.0
  0
LINE
  5
385
102
{ACAD_REACTORS
330
897
102
}
330
1F
100
AcDbEntity
  8
実線
100
AcDbLine
 10
883.425159380846
 20
305.6973219657511
 30
0.0
 11
881.0751593808461
 21
299.4973219657511
 31
0.0
  0
LINE
  5
386
102
{ACAD_REACTORS
330
897
102
}
330
1F
100
AcDbEntity
  8
実線
100
AcDbLine
 10
886.175159380846
 20
255.1973219657511
 30
0.0
 11
886.175159380846
 21
305.6973219657511
 31
0.0
  0
LINE
  5
387
102
{ACAD_REACTORS
330
897
102
}
330
1F
100
AcDbEntity
  8
実線
100
AcDbLine
 10
883.425159380846
 20
255.1973219657511
 30
0.0
 11
883.425159380846
 21
305.6973219657511
 31
0.0
  0
LINE
  5
388
102
{ACAD_REACTORS
330
897
102
}
330
1F
100
AcDbEntity
  8
実線
100
AcDbLine
 10
886.175159380846
 20
305.6973219657511
 30
0.0
 11
883.425159380846
 21
305.6973219657511
 31
0.0
  0
LINE
  5
389
102
{ACAD_REACTORS
330
897
102
}
330
1F
100
AcDbEntity
  8
実線
100
AcDbLine
 10
883.425159380846
 20
255.1973219657511
 30
0.0
 11
886.175159380846
 21
255.1973219657511
 31
0.0
  0
LINE
  5
38A
102
{ACAD_REACTORS
330
897
102
}
330
1F
100
AcDbEntity
  8
実線
100
AcDbLine
 10
822.175159380845
 20
321.847321965751
 30
0.0
 11
822.175159380845
 21
348.8473219657511
 31
0.0
  0
LINE
  5
38B
102
{ACAD_REACTORS
330
897
102
}
330
1F
100
AcDbEntity
  8
実線
100
AcDbLine
 10
810.1751593808451
 20
348.8473219657511
 30
0.0
 11
810.1751593808451
 21
321.847321965751
 31
0.0
  0
LINE
  5
38C
102
{ACAD_REACTORS
330
897
102
}
330
1F
100
AcDbEntity
  8
実線
100
AcDbLine
 10
766.175159380846
 20
468.347321965751
 30
0.0
 11
866.1751593808451
 21
468.347321965751
 31
0.0
  0
LINE
  5
38D
102
{ACAD_REACTORS
330
897
102
}
330
1F
100
AcDbEntity
  8
実線
100
AcDbLine
 10
866.1751593808451
 20
392.347321965751
 30
0.0
 11
866.1751593808451
 21
468.347321965751
 31
0.0
  0
LINE
  5
38E
102
{ACAD_REACTORS
330
897
102
}
330
1F
100
AcDbEntity
  8
実線
100
AcDbLine
 10
766.1751593808451
 20
468.347321965751
 30
0.0
 11
766.1751593808451
 21
392.347321965751
 31
0.0
  0
LINE
  5
38F
102
{ACAD_REACTORS
330
897
102
}
330
1F
100
AcDbEntity
  8
実線
100
AcDbLine
 10
766.175159380846
 20
392.347321965751
 30
0.0
 11
866.1751593808451
 21
392.347321965751
 31
0.0
  0
LINE
  5
390
102
{ACAD_REACTORS
330
897
102
}
330
1F
100
AcDbEntity
  8
実線
100
AcDbLine
 10
781.1751593808451
 20
483.347321965751
 30
0.0
 11
851.175159380846
 21
483.347321965751
 31
0.0
  0
LINE
  5
391
102
{ACAD_REACTORS
330
897
102
}
330
1F
100
AcDbEntity
  8
実線
100
AcDbLine
 10
851.175159380846
 20
472.847321965751
 30
0.0
 11
851.175159380846
 21
483.347321965751
 31
0.0
  0
LINE
  5
392
102
{ACAD_REACTORS
330
897
102
}
330
1F
100
AcDbEntity
  8
実線
100
AcDbLine
 10
781.1751593808451
 20
483.347321965751
 30
0.0
 11
781.1751593808451
 21
472.847321965751
 31
0.0
  0
LINE
  5
393
102
{ACAD_REACTORS
330
897
102
}
330
1F
100
AcDbEntity
  8
実線
100
AcDbLine
 10
822.175159380845
 20
490.3473219657511
 30
0.0
 11
822.175159380845
 21
511.8473219657511
 31
0.0
  0
LINE
  5
394
102
{ACAD_REACTORS
330
897
102
}
330
1F
100
AcDbEntity
  8
実線
100
AcDbLine
 10
810.1751593808451
 20
511.8473219657511
 30
0.0
 11
810.1751593808451
 21
490.3473219657511
 31
0.0
  0
LINE
  5
395
102
{ACAD_REACTORS
330
897
102
}
330
1F
100
AcDbEntity
  8
実線
100
AcDbLine
 10
841.175159380846
 20
483.347321965751
 30
0.0
 11
841.175159380846
 21
488.347321965751
 31
0.0
  0
LINE
  5
396
102
{ACAD_REACTORS
330
897
102
}
330
1F
100
AcDbEntity
  8
実線
100
AcDbLine
 10
791.1751593808451
 20
488.347321965751
 30
0.0
 11
791.1751593808451
 21
483.347321965751
 31
0.0
  0
LINE
  5
397
102
{ACAD_REACTORS
330
897
102
}
330
1F
100
AcDbEntity
  8
実線
100
AcDbLine
 10
808.675159380845
 20
522.1473219657509
 30
0.0
 11
823.6751593808451
 21
522.1473219657509
 31
0.0
  0
LINE
  5
398
102
{ACAD_REACTORS
330
897
102
}
330
1F
100
AcDbEntity
  8
実線
100
AcDbLine
 10
823.6751593808451
 20
516.847321965751
 30
0.0
 11
823.6751593808451
 21
522.147321965751
 31
0.0
  0
LINE
  5
399
102
{ACAD_REACTORS
330
897
102
}
330
1F
100
AcDbEntity
  8
実線
100
AcDbLine
 10
808.675159380845
 20
522.1473219657509
 30
0.0
 11
808.675159380845
 21
516.847321965751
 31
0.0
  0
LINE
  5
39A
102
{ACAD_REACTORS
330
897
102
}
330
1F
100
AcDbEntity
  8
実線
100
AcDbLine
 10
808.675159380845
 20
518.2973219657509
 30
0.0
 11
796.1751593808451
 21
518.2973219657509
 31
0.0
  0
LINE
  5
39B
102
{ACAD_REACTORS
330
897
102
}
330
1F
100
AcDbEntity
  8
実線
100
AcDbLine
 10
810.1751593808451
 20
510.3973219657509
 30
0.0
 11
796.1751593808451
 21
510.3973219657509
 31
0.0
  0
LINE
  5
39C
102
{ACAD_REACTORS
330
897
102
}
330
1F
100
AcDbEntity
  8
実線
100
AcDbLine
 10
796.1751593808451
 20
518.297321965751
 30
0.0
 11
796.1751593808451
 21
510.3973219657509
 31
0.0
  0
LINE
  5
39D
102
{ACAD_REACTORS
330
897
102
}
330
1F
100
AcDbEntity
  8
実線
100
AcDbLine
 10
796.1751593808451
 20
504.347321965751
 30
0.0
 11
789.6751593808451
 21
504.347321965751
 31
0.0
  0
LINE
  5
39E
102
{ACAD_REACTORS
330
897
102
}
330
1F
100
AcDbEntity
  8
実線
100
AcDbLine
 10
789.6751593808451
 20
501.347321965751
 30
0.0
 11
796.1751593808451
 21
501.347321965751
 31
0.0
  0
LINE
  5
39F
102
{ACAD_REACTORS
330
897
102
}
330
1F
100
AcDbEntity
  8
実線
100
AcDbLine
 10
789.6751593808451
 20
504.347321965751
 30
0.0
 11
789.6751593808451
 21
501.347321965751
 31
0.0
  0
LINE
  5
3A0
102
{ACAD_REACTORS
330
897
102
}
330
1F
100
AcDbEntity
  8
実線
100
AcDbLine
 10
810.1751593808451
 20
498.897321965751
 30
0.0
 11
796.1751593808451
 21
498.897321965751
 31
0.0
  0
LINE
  5
3A1
102
{ACAD_REACTORS
330
897
102
}
330
1F
100
AcDbEntity
  8
実線
100
AcDbLine
 10
810.1751593808451
 20
506.797321965751
 30
0.0
 11
796.1751593808451
 21
506.797321965751
 31
0.0
  0
LINE
  5
3A2
102
{ACAD_REACTORS
330
897
102
}
330
1F
100
AcDbEntity
  8
実線
100
AcDbLine
 10
796.1751593808451
 20
506.797321965751
 30
0.0
 11
796.1751593808451
 21
498.897321965751
 31
0.0
  0
LINE
  5
3A3
102
{ACAD_REACTORS
330
897
102
}
330
1F
100
AcDbEntity
  8
実線
100
AcDbLine
 10
796.1751593808451
 20
515.8473219657511
 30
0.0
 11
789.6751593808451
 21
515.8473219657511
 31
0.0
  0
LINE
  5
3A4
102
{ACAD_REACTORS
330
897
102
}
330
1F
100
AcDbEntity
  8
実線
100
AcDbLine
 10
789.6751593808451
 20
512.847321965751
 30
0.0
 11
796.1751593808451
 21
512.847321965751
 31
0.0
  0
LINE
  5
3A5
102
{ACAD_REACTORS
330
897
102
}
330
1F
100
AcDbEntity
  8
実線
100
AcDbLine
 10
789.6751593808451
 20
515.8473219657511
 30
0.0
 11
789.6751593808451
 21
512.847321965751
 31
0.0
  0
CIRCLE
  5
3A6
102
{ACAD_REACTORS
330
897
102
}
330
1F
100
AcDbEntity
  8
実線
100
AcDbCircle
 10
816.175159380846
 20
242.4473219657511
 30
0.0
 40
25.25
  0
LINE
  5
3A7
102
{ACAD_REACTORS
330
897
102
}
330
1F
100
AcDbEntity
  8
実線
100
AcDbLine
 10
834.5251593808461
 20
221.0973219657511
 30
0.0
 11
849.5251593808461
 21
221.0973219657511
 31
0.0
  0
LINE
  5
3A8
102
{ACAD_REACTORS
330
897
102
}
330
1F
100
AcDbEntity
  8
実線
100
AcDbLine
 10
834.5251593808461
 20
221.0973219657511
 30
0.0
 11
834.5251593808461
 21
225.1025821291321
 31
0.0
  0
LINE
  5
3A9
102
{ACAD_REACTORS
330
897
102
}
330
1F
100
AcDbEntity
  8
実線
100
AcDbLine
 10
849.5251593808461
 20
258.3736106222694
 30
0.0
 11
849.5251593808461
 21
221.0973219657511
 31
0.0
  0
LINE
  5
3AA
102
{ACAD_REACTORS
330
897
102
}
330
1F
100
AcDbEntity
  8
実線
100
AcDbLine
 10
801.175159380846
 20
518.297321965751
 30
0.0
 11
801.175159380846
 21
519.3473219657511
 31
0.0
  0
LINE
  5
3AB
102
{ACAD_REACTORS
330
897
102
}
330
1F
100
AcDbEntity
  8
実線
100
AcDbLine
 10
801.175159380846
 20
506.797321965751
 30
0.0
 11
801.175159380846
 21
510.3973219657513
 31
0.0
  0
LINE
  5
3AC
102
{ACAD_REACTORS
330
897
102
}
330
1F
100
AcDbEntity
  8
実線
100
AcDbLine
 10
801.175159380846
 20
490.3473219657037
 30
0.0
 11
801.175159380846
 21
498.8973219657509
 31
0.0
  0
LINE
  5
3AD
102
{ACAD_REACTORS
330
897
102
}
330
1F
100
AcDbEntity
  8
実線
100
AcDbLine
 10
808.675159380845
 20
519.3473219657511
 30
0.0
 11
801.175159380846
 21
519.3473219657511
 31
0.0
  0
LINE
  5
3AE
102
{ACAD_REACTORS
330
897
102
}
330
1F
100
AcDbEntity
  8
実線
100
AcDbLine
 10
841.175159380846
 20
488.347321965751
 30
0.0
 11
841.175159380846
 21
490.3473219657511
 31
0.0
  0
LINE
  5
3AF
102
{ACAD_REACTORS
330
897
102
}
330
1F
100
AcDbEntity
  8
実線
100
AcDbLine
 10
791.1751593808451
 20
490.3473219657511
 30
0.0
 11
791.1751593808451
 21
488.347321965751
 31
0.0
  0
LINE
  5
3B0
102
{ACAD_REACTORS
330
897
102
}
330
1F
100
AcDbEntity
  8
実線
100
AcDbLine
 10
841.175159380846
 20
490.3473219657511
 30
0.0
 11
791.1751593808451
 21
490.3473219657511
 31
0.0
  0
LINE
  5
3B1
102
{ACAD_REACTORS
330
897
102
}
330
1F
100
AcDbEntity
  8
実線
100
AcDbLine
 10
841.175159380846
 20
488.347321965751
 30
0.0
 11
791.1751593808451
 21
488.347321965751
 31
0.0
  0
LINE
  5
3B2
102
{ACAD_REACTORS
330
897
102
}
330
1F
100
AcDbEntity
  8
実線
100
AcDbLine
 10
782.825159380846
 20
221.0973219657511
 30
0.0
 11
797.8251593808461
 21
221.0973219657511
 31
0.0
  0
LINE
  5
3B3
102
{ACAD_REACTORS
330
897
102
}
330
1F
100
AcDbEntity
  8
実線
100
AcDbLine
 10
782.825159380846
 20
221.0973219657511
 30
0.0
 11
782.825159380846
 21
258.3736106222694
 31
0.0
  0
LINE
  5
3B4
102
{ACAD_REACTORS
330
897
102
}
330
1F
100
AcDbEntity
  8
実線
100
AcDbLine
 10
797.8251593808461
 20
225.1025821291321
 30
0.0
 11
797.8251593808461
 21
221.0973219657511
 31
0.0
  0
LINE
  5
3B5
102
{ACAD_REACTORS
330
897
102
}
330
1F
100
AcDbEntity
  8
実線
100
AcDbLine
 10
769.1979896119613
 20
321.847321965751
 30
0.0
 11
863.1523291497291
 21
321.847321965751
 31
0.0
  0
LINE
  5
3B6
102
{ACAD_REACTORS
330
897
102
}
330
1F
100
AcDbEntity
  8
実線
100
AcDbLine
 10
769.1979896119613
 20
308.3473219657511
 30
0.0
 11
863.1523291497291
 21
308.3473219657511
 31
0.0
  0
LINE
  5
3B7
102
{ACAD_REACTORS
330
897
102
}
330
1F
100
AcDbEntity
  8
実線
100
AcDbLine
 10
863.1523291497291
 20
308.3473219657511
 30
0.0
 11
863.1523291497291
 21
321.847321965751
 31
0.0
  0
LINE
  5
3B8
102
{ACAD_REACTORS
330
897
102
}
330
1F
100
AcDbEntity
  8
実線
100
AcDbLine
 10
769.1979896119613
 20
321.847321965751
 30
0.0
 11
769.1979896119613
 21
308.3473219657511
 31
0.0
  0
LINE
  5
3B9
102
{ACAD_REACTORS
330
897
102
}
330
1F
100
AcDbEntity
  8
実線
100
AcDbLine
 10
798.1462625704223
 20
321.847321965751
 30
0.0
 11
798.1462625704223
 21
308.3473219657511
 31
0.0
  0
LINE
  5
3BA
102
{ACAD_REACTORS
330
897
102
}
330
1F
100
AcDbEntity
  8
実線
100
AcDbLine
 10
834.2040561912703
 20
321.847321965751
 30
0.0
 11
834.2040561912703
 21
308.3473219657511
 31
0.0
  0
LINE
  5
3BB
102
{ACAD_REACTORS
330
897
102
}
330
1F
100
AcDbEntity
  8
実線
100
AcDbLine
 10
849.5251593808461
 20
251.4221605749996
 30
0.0
 11
855.005381596441
 21
257.9532350886494
 31
0.0
  0
LINE
  5
3BC
102
{ACAD_REACTORS
330
897
102
}
330
1F
100
AcDbEntity
  8
実線
100
AcDbLine
 10
777.3449371652514
 20
257.9532350886494
 30
0.0
 11
782.825159380846
 21
251.4221605749996
 31
0.0
  0
LINE
  5
3BD
102
{ACAD_REACTORS
330
897
102
}
330
1F
100
AcDbEntity
  8
実線
100
AcDbLine
 10
856.1751593808461
 20
261.1671731370821
 30
0.0
 11
856.1751593808461
 21
261.3973219657511
 31
0.0
  0
LINE
  5
3BE
102
{ACAD_REACTORS
330
897
102
}
330
1F
100
AcDbEntity
  8
実線
100
AcDbLine
 10
776.175159380846
 20
261.3973219657511
 30
0.0
 11
776.175159380846
 21
261.1671731370821
 31
0.0
  0
ARC
  5
3BF
102
{ACAD_REACTORS
330
897
102
}
330
1F
100
AcDbEntity
  8
実線
100
AcDbCircle
 10
781.175159380846
 20
261.1671731370821
 30
0.0
 40
5.0
100
AcDbArc
 50
180.0
 51
220.0000000000007
  0
ARC
  5
3C0
102
{ACAD_REACTORS
330
897
102
}
330
1F
100
AcDbEntity
  8
実線
100
AcDbCircle
 10
851.175159380846
 20
261.1671731370821
 30
0.0
 40
5.0
100
AcDbArc
 50
319.9999999999993
 51
0.0
  0
LINE
  5
3C1
102
{ACAD_REACTORS
330
897
102
}
330
1F
100
AcDbEntity
  8
実線
100
AcDbLine
 10
863.15232914973
 20
298.3473219657511
 30
0.0
 11
834.2040561912703
 21
298.3473219657511
 31
0.0
  0
LINE
  5
3C2
102
{ACAD_REACTORS
330
897
102
}
330
1F
100
AcDbEntity
  8
実線
100
AcDbLine
 10
863.15232914973
 20
298.3473219657511
 30
0.0
 11
863.15232914973
 21
308.3473219657511
 31
0.0
  0
LINE
  5
3C3
102
{ACAD_REACTORS
330
897
102
}
330
1F
100
AcDbEntity
  8
実線
100
AcDbLine
 10
769.1979896119621
 20
308.3473219657511
 30
0.0
 11
769.1979896119621
 21
298.3473219657511
 31
0.0
  0
LINE
  5
3C4
102
{ACAD_REACTORS
330
897
102
}
330
1F
100
AcDbEntity
  8
実線
100
AcDbLine
 10
769.1979896119621
 20
298.3473219657511
 30
0.0
 11
798.1462625704223
 21
298.3473219657511
 31
0.0
  0
LINE
  5
3C5
102
{ACAD_REACTORS
330
897
102
}
330
1F
100
AcDbEntity
  8
実線
100
AcDbLine
 10
798.1462625704223
 20
308.3473219657511
 30
0.0
 11
798.1462625704223
 21
298.3473219657511
 31
0.0
  0
LINE
  5
3C6
102
{ACAD_REACTORS
330
897
102
}
330
1F
100
AcDbEntity
  8
実線
100
AcDbLine
 10
834.2040561912703
 20
308.3473219657511
 30
0.0
 11
834.2040561912703
 21
298.3473219657511
 31
0.0
  0
ARC
  5
3C7
102
{ACAD_REACTORS
330
897
102
}
330
1F
100
AcDbEntity
  8
実線
100
AcDbCircle
 10
790.4751593808453
 20
362.847321965751
 30
0.0
 40
70.00000000000003
100
AcDbArc
 50
324.146532936532
 51
0.0
  0
LINE
  5
3C8
102
{ACAD_REACTORS
330
897
102
}
330
1F
100
AcDbEntity
  8
実線
100
AcDbLine
 10
860.4751593808453
 20
392.347321965751
 30
0.0
 11
860.4751593808453
 21
362.847321965751
 31
0.0
  0
ARC
  5
3C9
102
{ACAD_REACTORS
330
897
102
}
330
1F
100
AcDbEntity
  8
実線
100
AcDbCircle
 10
792.4751593808452
 20
362.847321965751
 30
0.0
 40
57.99999999999997
100
AcDbArc
 50
315.0170320400941
 51
346.0320373253493
  0
ARC
  5
3CA
102
{ACAD_REACTORS
330
897
102
}
330
1F
100
AcDbEntity
  8
実線
100
AcDbCircle
 10
841.8751593808451
 20
362.847321965751
 30
0.0
 40
70.00000000000003
100
AcDbArc
 50
180.0
 51
215.8534670634654
  0
LINE
  5
3CB
102
{ACAD_REACTORS
330
897
102
}
330
1F
100
AcDbEntity
  8
実線
100
AcDbLine
 10
771.8751593808461
 20
392.347321965751
 30
0.0
 11
771.8751593808461
 21
362.847321965751
 31
0.0
  0
ARC
  5
3CC
102
{ACAD_REACTORS
330
897
102
}
330
1F
100
AcDbEntity
  8
実線
100
AcDbCircle
 10
839.8751593808452
 20
362.847321965751
 30
0.0
 40
57.99999999999997
100
AcDbArc
 50
193.9679626746499
 51
224.9829679599007
  0
LINE
  5
3CD
102
{ACAD_REACTORS
330
897
102
}
330
1F
100
AcDbEntity
  8
実線
100
AcDbLine
 10
777.7897780488849
 20
348.8473219657511
 30
0.0
 11
854.5605407128062
 21
348.8473219657511
 31
0.0
  0
LINE
  5
3CE
102
{ACAD_REACTORS
330
897
102
}
330
1F
100
AcDbEntity
  8
実線
100
AcDbLine
 10
854.5605407128062
 20
392.347321965751
 30
0.0
 11
854.5605407128062
 21
348.8473219657511
 31
0.0
  0
LINE
  5
3CF
102
{ACAD_REACTORS
330
897
102
}
330
1F
100
AcDbEntity
  8
実線
100
AcDbLine
 10
777.7897780488849
 20
392.347321965751
 30
0.0
 11
777.7897780488849
 21
348.8473219657511
 31
0.0
  0
LINE
  5
3D0
102
{ACAD_REACTORS
330
897
102
}
330
1F
100
AcDbEntity
  8
実線
100
AcDbLine
 10
866.1751593808451
 20
468.347321965751
 30
0.0
 11
866.1751593808451
 21
469.8473219657511
 31
0.0
  0
LINE
  5
3D1
102
{ACAD_REACTORS
330
897
102
}
330
1F
100
AcDbEntity
  8
実線
100
AcDbLine
 10
766.1751593808451
 20
469.8473219657511
 30
0.0
 11
766.1751593808451
 21
468.347321965751
 31
0.0
  0
LINE
  5
3D2
102
{ACAD_REACTORS
330
897
102
}
330
1F
100
AcDbEntity
  8
実線
100
AcDbLine
 10
863.175159380845
 20
472.847321965751
 30
0.0
 11
769.175159380846
 21
472.847321965751
 31
0.0
  0
ARC
  5
3D3
102
{ACAD_REACTORS
330
897
102
}
330
1F
100
AcDbEntity
  8
実線
100
AcDbCircle
 10
863.175159380845
 20
469.8473219657511
 30
0.0
 40
3.0
100
AcDbArc
 50
0.0
 51
90.0
  0
ARC
  5
3D4
102
{ACAD_REACTORS
330
897
102
}
330
1F
100
AcDbEntity
  8
実線
100
AcDbCircle
 10
769.175159380846
 20
469.8473219657511
 30
0.0
 40
3.0
100
AcDbArc
 50
90.0
 51
180.0
  0
LINE
  5
3D5
102
{ACAD_REACTORS
330
898
102
}
330
1F
100
AcDbEntity
  8
実線
100
AcDbLine
 10
588.6751593808453
 20
516.847321965751
 30
0.0
 11
563.6751593808453
 21
516.847321965751
 31
0.0
  0
LINE
  5
3D6
102
{ACAD_REACTORS
330
898
102
}
330
1F
100
AcDbEntity
  8
実線
100
AcDbLine
 10
563.6751593808453
 20
511.8473219657511
 30
0.0
 11
588.6751593808453
 21
511.8473219657511
 31
0.0
  0
LINE
  5
3D7
102
{ACAD_REACTORS
330
898
102
}
330
1F
100
AcDbEntity
  8
実線
100
AcDbLine
 10
588.6751593808453
 20
511.8473219657511
 30
0.0
 11
588.6751593808453
 21
516.847321965751
 31
0.0
  0
LINE
  5
3D8
102
{ACAD_REACTORS
330
898
102
}
330
1F
100
AcDbEntity
  8
実線
100
AcDbLine
 10
563.6751593808453
 20
516.847321965751
 30
0.0
 11
563.6751593808453
 21
511.8473219657511
 31
0.0
  0
CIRCLE
  5
3D9
102
{ACAD_REACTORS
330
898
102
}
330
1F
100
AcDbEntity
  8
実線
100
AcDbCircle
 10
576.1751593808462
 20
280.4473219657511
 30
0.0
 40
25.25
  0
LINE
  5
3DA
102
{ACAD_REACTORS
330
898
102
}
330
1F
100
AcDbEntity
  8
実線
100
AcDbLine
 10
626.1751593808453
 20
468.347321965751
 30
0.0
 11
526.1751593808453
 21
468.347321965751
 31
0.0
  0
LINE
  5
3DB
102
{ACAD_REACTORS
330
898
102
}
330
1F
100
AcDbEntity
  8
実線
100
AcDbLine
 10
526.1751593808453
 20
392.347321965751
 30
0.0
 11
626.1751593808453
 21
392.347321965751
 31
0.0
  0
LINE
  5
3DC
102
{ACAD_REACTORS
330
898
102
}
330
1F
100
AcDbEntity
  8
実線
100
AcDbLine
 10
626.1751593808453
 20
392.347321965751
 30
0.0
 11
626.1751593808453
 21
468.347321965751
 31
0.0
  0
LINE
  5
3DD
102
{ACAD_REACTORS
330
898
102
}
330
1F
100
AcDbEntity
  8
実線
100
AcDbLine
 10
526.1751593808453
 20
468.347321965751
 30
0.0
 11
526.1751593808453
 21
392.347321965751
 31
0.0
  0
LINE
  5
3DE
102
{ACAD_REACTORS
330
898
102
}
330
1F
100
AcDbEntity
  8
実線
100
AcDbLine
 10
611.1751593808453
 20
483.347321965751
 30
0.0
 11
541.1751593808442
 21
483.347321965751
 31
0.0
  0
LINE
  5
3DF
102
{ACAD_REACTORS
330
898
102
}
330
1F
100
AcDbEntity
  8
実線
100
AcDbLine
 10
611.1751593808453
 20
472.847321965751
 30
0.0
 11
611.1751593808453
 21
483.347321965751
 31
0.0
  0
LINE
  5
3E0
102
{ACAD_REACTORS
330
898
102
}
330
1F
100
AcDbEntity
  8
実線
100
AcDbLine
 10
541.1751593808442
 20
483.347321965751
 30
0.0
 11
541.1751593808442
 21
472.847321965751
 31
0.0
  0
LINE
  5
3E1
102
{ACAD_REACTORS
330
898
102
}
330
1F
100
AcDbEntity
  8
実線
100
AcDbLine
 10
582.1751593808442
 20
490.3473219657511
 30
0.0
 11
582.1751593808442
 21
511.8473219657511
 31
0.0
  0
LINE
  5
3E2
102
{ACAD_REACTORS
330
898
102
}
330
1F
100
AcDbEntity
  8
実線
100
AcDbLine
 10
570.1751593808453
 20
511.8473219657511
 30
0.0
 11
570.1751593808453
 21
490.3473219657511
 31
0.0
  0
LINE
  5
3E3
102
{ACAD_REACTORS
330
898
102
}
330
1F
100
AcDbEntity
  8
実線
100
AcDbLine
 10
553.1751593808453
 20
488.347321965751
 30
0.0
 11
551.1751593808453
 21
488.347321965751
 31
0.0
  0
LINE
  5
3E4
102
{ACAD_REACTORS
330
898
102
}
330
1F
100
AcDbEntity
  8
実線
100
AcDbLine
 10
601.1751593808453
 20
483.347321965751
 30
0.0
 11
601.1751593808453
 21
488.347321965751
 31
0.0
  0
LINE
  5
3E5
102
{ACAD_REACTORS
330
898
102
}
330
1F
100
AcDbEntity
  8
実線
100
AcDbLine
 10
551.1751593808453
 20
488.347321965751
 30
0.0
 11
551.1751593808453
 21
483.347321965751
 31
0.0
  0
LINE
  5
3E6
102
{ACAD_REACTORS
330
898
102
}
330
1F
100
AcDbEntity
  8
実線
100
AcDbLine
 10
583.6751593808441
 20
522.1473219657509
 30
0.0
 11
568.6751593808453
 21
522.1473219657509
 31
0.0
  0
LINE
  5
3E7
102
{ACAD_REACTORS
330
898
102
}
330
1F
100
AcDbEntity
  8
実線
100
AcDbLine
 10
583.6751593808441
 20
516.847321965751
 30
0.0
 11
583.6751593808441
 21
522.147321965751
 31
0.0
  0
LINE
  5
3E8
102
{ACAD_REACTORS
330
898
102
}
330
1F
100
AcDbEntity
  8
実線
100
AcDbLine
 10
568.6751593808453
 20
522.1473219657509
 30
0.0
 11
568.6751593808453
 21
516.847321965751
 31
0.0
  0
LINE
  5
3E9
102
{ACAD_REACTORS
330
898
102
}
330
1F
100
AcDbEntity
  8
実線
100
AcDbLine
 10
555.1751593808453
 20
518.297321965751
 30
0.0
 11
563.0751593808454
 21
518.297321965751
 31
0.0
  0
LINE
  5
3EA
102
{ACAD_REACTORS
330
898
102
}
330
1F
100
AcDbEntity
  8
実線
100
AcDbLine
 10
563.0751593808454
 20
518.297321965751
 30
0.0
 11
563.0751593808454
 21
510.3973219657509
 31
0.0
  0
LINE
  5
3EB
102
{ACAD_REACTORS
330
898
102
}
330
1F
100
AcDbEntity
  8
実線
100
AcDbLine
 10
563.0751593808454
 20
510.3973219657509
 30
0.0
 11
555.1751593808453
 21
510.3973219657509
 31
0.0
  0
LINE
  5
3EC
102
{ACAD_REACTORS
330
898
102
}
330
1F
100
AcDbEntity
  8
実線
100
AcDbLine
 10
555.1751593808453
 20
510.3973219657509
 30
0.0
 11
555.1751593808453
 21
518.2973219657509
 31
0.0
  0
CIRCLE
  5
3ED
102
{ACAD_REACTORS
330
898
102
}
330
1F
100
AcDbEntity
  8
実線
100
AcDbCircle
 10
559.1251593808453
 20
502.8473219657511
 30
0.0
 40
1.5
  0
LINE
  5
3EE
102
{ACAD_REACTORS
330
898
102
}
330
1F
100
AcDbEntity
  8
実線
100
AcDbLine
 10
563.0751593808454
 20
498.897321965751
 30
0.0
 11
555.1751593808453
 21
498.897321965751
 31
0.0
  0
LINE
  5
3EF
102
{ACAD_REACTORS
330
898
102
}
330
1F
100
AcDbEntity
  8
実線
100
AcDbLine
 10
563.0751593808454
 20
506.797321965751
 30
0.0
 11
563.0751593808454
 21
498.897321965751
 31
0.0
  0
LINE
  5
3F0
102
{ACAD_REACTORS
330
898
102
}
330
1F
100
AcDbEntity
  8
実線
100
AcDbLine
 10
555.1751593808453
 20
506.797321965751
 30
0.0
 11
563.0751593808454
 21
506.797321965751
 31
0.0
  0
LINE
  5
3F1
102
{ACAD_REACTORS
330
898
102
}
330
1F
100
AcDbEntity
  8
実線
100
AcDbLine
 10
555.1751593808453
 20
498.897321965751
 30
0.0
 11
555.1751593808453
 21
506.797321965751
 31
0.0
  0
CIRCLE
  5
3F2
102
{ACAD_REACTORS
330
898
102
}
330
1F
100
AcDbEntity
  8
実線
100
AcDbCircle
 10
559.1251593808453
 20
514.347321965751
 30
0.0
 40
1.5
  0
LINE
  5
3F3
102
{ACAD_REACTORS
330
898
102
}
330
1F
100
AcDbEntity
  8
実線
100
AcDbLine
 10
536.1751593808453
 20
261.4973219657511
 30
0.0
 11
511.2751593808453
 21
261.4973219657511
 31
0.0
  0
LINE
  5
3F4
102
{ACAD_REACTORS
330
898
102
}
330
1F
100
AcDbEntity
  8
実線
100
AcDbLine
 10
641.0751593808454
 20
261.4973219657511
 30
0.0
 11
616.1751593808462
 21
261.4973219657511
 31
0.0
  0
LINE
  5
3F5
102
{ACAD_REACTORS
330
898
102
}
330
1F
100
AcDbEntity
  8
実線
100
AcDbLine
 10
598.6751593808453
 20
223.3973219657511
 30
0.0
 11
641.0751593808454
 21
223.3973219657511
 31
0.0
  0
LINE
  5
3F6
102
{ACAD_REACTORS
330
898
102
}
330
1F
100
AcDbEntity
  8
実線
100
AcDbLine
 10
511.2751593808453
 20
223.3973219657511
 30
0.0
 11
553.6751593808462
 21
223.3973219657511
 31
0.0
  0
LINE
  5
3F7
102
{ACAD_REACTORS
330
898
102
}
330
1F
100
AcDbEntity
  8
実線
100
AcDbLine
 10
506.175159380846
 20
217.1973219657511
 30
0.0
 11
508.9251593808453
 21
217.1973219657511
 31
0.0
  0
LINE
  5
3F8
102
{ACAD_REACTORS
330
898
102
}
330
1F
100
AcDbEntity
  8
実線
100
AcDbLine
 10
508.9251593808453
 20
267.6973219657511
 30
0.0
 11
506.175159380846
 21
267.6973219657511
 31
0.0
  0
LINE
  5
3F9
102
{ACAD_REACTORS
330
898
102
}
330
1F
100
AcDbEntity
  8
実線
100
AcDbLine
 10
506.175159380846
 20
267.6973219657511
 30
0.0
 11
506.175159380846
 21
217.1973219657511
 31
0.0
  0
LINE
  5
3FA
102
{ACAD_REACTORS
330
898
102
}
330
1F
100
AcDbEntity
  8
実線
100
AcDbLine
 10
646.1751593808453
 20
217.1973219657511
 30
0.0
 11
646.1751593808453
 21
267.6973219657511
 31
0.0
  0
LINE
  5
3FB
102
{ACAD_REACTORS
330
898
102
}
330
1F
100
AcDbEntity
  8
実線
100
AcDbLine
 10
646.1751593808453
 20
267.6973219657511
 30
0.0
 11
643.4251593808462
 21
267.6973219657511
 31
0.0
  0
LINE
  5
3FC
102
{ACAD_REACTORS
330
898
102
}
330
1F
100
AcDbEntity
  8
実線
100
AcDbLine
 10
643.4251593808462
 20
217.1973219657511
 30
0.0
 11
646.1751593808453
 21
217.1973219657511
 31
0.0
  0
LINE
  5
3FD
102
{ACAD_REACTORS
330
898
102
}
330
1F
100
AcDbEntity
  8
実線
100
AcDbLine
 10
643.4251593808462
 20
217.1973219657511
 30
0.0
 11
643.4251593808462
 21
267.6973219657511
 31
0.0
  0
LINE
  5
3FE
102
{ACAD_REACTORS
330
898
102
}
330
1F
100
AcDbEntity
  8
実線
100
AcDbLine
 10
641.0751593808454
 20
223.3973219657511
 30
0.0
 11
641.0751593808454
 21
261.4973219657511
 31
0.0
  0
LINE
  5
3FF
102
{ACAD_REACTORS
330
898
102
}
330
1F
100
AcDbEntity
  8
実線
100
AcDbLine
 10
641.0751593808454
 20
223.3973219657511
 30
0.0
 11
643.4251593808462
 21
217.1973219657511
 31
0.0
  0
LINE
  5
400
102
{ACAD_REACTORS
330
898
102
}
330
1F
100
AcDbEntity
  8
実線
100
AcDbLine
 10
643.4251593808462
 20
267.6973219657511
 30
0.0
 11
641.0751593808454
 21
261.4973219657511
 31
0.0
  0
LINE
  5
401
102
{ACAD_REACTORS
330
898
102
}
330
1F
100
AcDbEntity
  8
実線
100
AcDbLine
 10
511.2751593808453
 20
261.4973219657511
 30
0.0
 11
508.9251593808453
 21
267.6973219657511
 31
0.0
  0
LINE
  5
402
102
{ACAD_REACTORS
330
898
102
}
330
1F
100
AcDbEntity
  8
実線
100
AcDbLine
 10
508.9251593808453
 20
217.1973219657511
 30
0.0
 11
511.2751593808453
 21
223.3973219657511
 31
0.0
  0
LINE
  5
403
102
{ACAD_REACTORS
330
898
102
}
330
1F
100
AcDbEntity
  8
実線
100
AcDbLine
 10
508.9251593808453
 20
267.6973219657511
 30
0.0
 11
508.9251593808453
 21
217.1973219657511
 31
0.0
  0
LINE
  5
404
102
{ACAD_REACTORS
330
898
102
}
330
1F
100
AcDbEntity
  8
実線
100
AcDbLine
 10
511.2751593808453
 20
261.4973219657511
 30
0.0
 11
511.2751593808453
 21
223.3973219657511
 31
0.0
  0
LINE
  5
405
102
{ACAD_REACTORS
330
898
102
}
330
1F
100
AcDbEntity
  8
実線
100
AcDbLine
 10
553.1751593808453
 20
488.347321965751
 30
0.0
 11
601.1751593808453
 21
488.347321965751
 31
0.0
  0
LINE
  5
406
102
{ACAD_REACTORS
330
898
102
}
330
1F
100
AcDbEntity
  8
実線
100
AcDbLine
 10
555.1751593808453
 20
490.3473219657037
 30
0.0
 11
601.1751593808453
 21
490.3473219657037
 31
0.0
  0
LINE
  5
407
102
{ACAD_REACTORS
330
898
102
}
330
1F
100
AcDbEntity
  8
実線
100
AcDbLine
 10
555.1751593808453
 20
518.297321965751
 30
0.0
 11
555.1751593808453
 21
519.3473219657511
 31
0.0
  0
LINE
  5
408
102
{ACAD_REACTORS
330
898
102
}
330
1F
100
AcDbEntity
  8
実線
100
AcDbLine
 10
555.1751593808453
 20
506.797321965751
 30
0.0
 11
555.1751593808453
 21
510.3973219657513
 31
0.0
  0
LINE
  5
409
102
{ACAD_REACTORS
330
898
102
}
330
1F
100
AcDbEntity
  8
実線
100
AcDbLine
 10
555.1751593808453
 20
490.3473219657037
 30
0.0
 11
555.1751593808453
 21
498.897321965751
 31
0.0
  0
LINE
  5
40A
102
{ACAD_REACTORS
330
898
102
}
330
1F
100
AcDbEntity
  8
実線
100
AcDbLine
 10
555.1751593808453
 20
519.3473219657511
 30
0.0
 11
553.1751593808453
 21
519.3473219657511
 31
0.0
  0
LINE
  5
40B
102
{ACAD_REACTORS
330
898
102
}
330
1F
100
AcDbEntity
  8
実線
100
AcDbLine
 10
553.1751593808453
 20
488.347321965751
 30
0.0
 11
553.1751593808453
 21
519.3473219657511
 31
0.0
  0
LINE
  5
40C
102
{ACAD_REACTORS
330
898
102
}
330
1F
100
AcDbEntity
  8
実線
100
AcDbLine
 10
556.1751593808633
 20
488.347321965751
 30
0.0
 11
556.1751593808633
 21
490.3473219657037
 31
0.0
  0
LINE
  5
40D
102
{ACAD_REACTORS
330
898
102
}
330
1F
100
AcDbEntity
  8
実線
100
AcDbLine
 10
601.1751593808453
 20
488.347321965751
 30
0.0
 11
601.1751593808453
 21
490.3473219657511
 31
0.0
  0
LINE
  5
40E
102
{ACAD_REACTORS
330
898
102
}
330
1F
100
AcDbEntity
  8
実線
100
AcDbLine
 10
598.6751593808453
 20
221.0973219657511
 30
0.0
 11
553.6751593808462
 21
221.0973219657511
 31
0.0
  0
LINE
  5
40F
102
{ACAD_REACTORS
330
898
102
}
330
1F
100
AcDbEntity
  8
実線
100
AcDbLine
 10
553.6751593808462
 20
221.0973219657511
 30
0.0
 11
553.6751593808462
 21
257.6651643601702
 31
0.0
  0
LINE
  5
410
102
{ACAD_REACTORS
330
898
102
}
330
1F
100
AcDbEntity
  8
実線
100
AcDbLine
 10
598.6751593808453
 20
257.6651643601702
 30
0.0
 11
598.6751593808453
 21
221.0973219657511
 31
0.0
  0
LINE
  5
411
102
{ACAD_REACTORS
330
898
102
}
330
1F
100
AcDbEntity
  8
実線
100
AcDbLine
 10
623.1523291497294
 20
321.847321965751
 30
0.0
 11
529.1979896119613
 21
321.847321965751
 31
0.0
  0
LINE
  5
412
102
{ACAD_REACTORS
330
898
102
}
330
1F
100
AcDbEntity
  8
実線
100
AcDbLine
 10
623.1523291497294
 20
308.3473219657511
 30
0.0
 11
529.1979896119613
 21
308.3473219657511
 31
0.0
  0
LINE
  5
413
102
{ACAD_REACTORS
330
898
102
}
330
1F
100
AcDbEntity
  8
実線
100
AcDbLine
 10
529.1979896119613
 20
321.847321965751
 30
0.0
 11
529.1979896119613
 21
308.3473219657511
 31
0.0
  0
LINE
  5
414
102
{ACAD_REACTORS
330
898
102
}
330
1F
100
AcDbEntity
  8
実線
100
AcDbLine
 10
623.1523291497294
 20
308.3473219657511
 30
0.0
 11
623.1523291497294
 21
321.847321965751
 31
0.0
  0
LINE
  5
415
102
{ACAD_REACTORS
330
898
102
}
330
1F
100
AcDbEntity
  8
実線
100
AcDbLine
 10
558.1462625704213
 20
321.847321965751
 30
0.0
 11
558.1462625704213
 21
308.3473219657511
 31
0.0
  0
LINE
  5
416
102
{ACAD_REACTORS
330
898
102
}
330
1F
100
AcDbEntity
  8
実線
100
AcDbLine
 10
594.2040561912683
 20
321.847321965751
 30
0.0
 11
594.2040561912683
 21
308.3473219657511
 31
0.0
  0
LINE
  5
417
102
{ACAD_REACTORS
330
898
102
}
330
1F
100
AcDbEntity
  8
実線
100
AcDbLine
 10
616.1751593808462
 20
261.4973219657511
 30
0.0
 11
616.1751593808462
 21
298.3473219657511
 31
0.0
  0
LINE
  5
418
102
{ACAD_REACTORS
330
898
102
}
330
1F
100
AcDbEntity
  8
実線
100
AcDbLine
 10
536.1751593808453
 20
298.3473219657511
 30
0.0
 11
536.1751593808453
 21
261.4973219657511
 31
0.0
  0
LINE
  5
419
102
{ACAD_REACTORS
330
898
102
}
330
1F
100
AcDbEntity
  8
実線
100
AcDbLine
 10
529.1979896119622
 20
308.3473219657511
 30
0.0
 11
529.1979896119622
 21
298.3473219657511
 31
0.0
  0
LINE
  5
41A
102
{ACAD_REACTORS
330
898
102
}
330
1F
100
AcDbEntity
  8
実線
100
AcDbLine
 10
529.1979896119622
 20
298.3473219657511
 30
0.0
 11
558.1462625704213
 21
298.3473219657511
 31
0.0
  0
LINE
  5
41B
102
{ACAD_REACTORS
330
898
102
}
330
1F
100
AcDbEntity
  8
実線
100
AcDbLine
 10
623.1523291497294
 20
298.3473219657511
 30
0.0
 11
594.2040561912692
 21
298.3473219657511
 31
0.0
  0
LINE
  5
41C
102
{ACAD_REACTORS
330
898
102
}
330
1F
100
AcDbEntity
  8
実線
100
AcDbLine
 10
623.1523291497294
 20
298.3473219657511
 30
0.0
 11
623.1523291497294
 21
308.3473219657511
 31
0.0
  0
LINE
  5
41D
102
{ACAD_REACTORS
330
898
102
}
330
1F
100
AcDbEntity
  8
実線
100
AcDbLine
 10
558.1462625704213
 20
308.3473219657511
 30
0.0
 11
558.1462625704213
 21
298.3473219657511
 31
0.0
  0
LINE
  5
41E
102
{ACAD_REACTORS
330
898
102
}
330
1F
100
AcDbEntity
  8
実線
100
AcDbLine
 10
594.2040561912692
 20
308.3473219657511
 30
0.0
 11
594.2040561912692
 21
298.3473219657511
 31
0.0
  0
LINE
  5
41F
102
{ACAD_REACTORS
330
898
102
}
330
1F
100
AcDbEntity
  8
実線
100
AcDbLine
 10
536.1751593808453
 20
392.347321965751
 30
0.0
 11
536.1751593808453
 21
348.8473219657511
 31
0.0
  0
LINE
  5
420
102
{ACAD_REACTORS
330
898
102
}
330
1F
100
AcDbEntity
  8
実線
100
AcDbLine
 10
536.1751593808453
 20
348.8473219657511
 30
0.0
 11
564.9251593808453
 21
348.8473219657511
 31
0.0
  0
LINE
  5
421
102
{ACAD_REACTORS
330
898
102
}
330
1F
100
AcDbEntity
  8
実線
100
AcDbLine
 10
587.4251593808453
 20
348.8473219657511
 30
0.0
 11
616.1751593808442
 21
348.8473219657511
 31
0.0
  0
LINE
  5
422
102
{ACAD_REACTORS
330
898
102
}
330
1F
100
AcDbEntity
  8
実線
100
AcDbLine
 10
616.1751593808442
 20
348.8473219657511
 30
0.0
 11
616.1751593808442
 21
392.347321965751
 31
0.0
  0
LINE
  5
423
102
{ACAD_REACTORS
330
898
102
}
330
1F
100
AcDbEntity
  8
実線
100
AcDbLine
 10
564.9251593808453
 20
321.847321965751
 30
0.0
 11
564.9251593808453
 21
392.347321965751
 31
0.0
  0
LINE
  5
424
102
{ACAD_REACTORS
330
898
102
}
330
1F
100
AcDbEntity
  8
実線
100
AcDbLine
 10
587.4251593808453
 20
321.847321965751
 30
0.0
 11
587.4251593808453
 21
392.347321965751
 31
0.0
  0
LINE
  5
425
102
{ACAD_REACTORS
330
898
102
}
330
1F
100
AcDbEntity
  8
実線
100
AcDbLine
 10
623.1751593808454
 20
472.847321965751
 30
0.0
 11
529.1751593808442
 21
472.847321965751
 31
0.0
  0
ARC
  5
426
102
{ACAD_REACTORS
330
898
102
}
330
1F
100
AcDbEntity
  8
実線
100
AcDbCircle
 10
623.1751593808454
 20
469.8473219657511
 30
0.0
 40
3.0
100
AcDbArc
 50
0.0
 51
90.0
  0
ARC
  5
427
102
{ACAD_REACTORS
330
898
102
}
330
1F
100
AcDbEntity
  8
実線
100
AcDbCircle
 10
529.1751593808442
 20
469.8473219657511
 30
0.0
 40
3.0
100
AcDbArc
 50
90.0
 51
180.0
  0
LINE
  5
428
102
{ACAD_REACTORS
330
898
102
}
330
1F
100
AcDbEntity
  8
実線
100
AcDbLine
 10
626.1751593808453
 20
468.347321965751
 30
0.0
 11
626.1751593808453
 21
469.8473219657511
 31
0.0
  0
LINE
  5
429
102
{ACAD_REACTORS
330
898
102
}
330
1F
100
AcDbEntity
  8
実線
100
AcDbLine
 10
526.1751593808453
 20
469.8473219657511
 30
0.0
 11
526.1751593808453
 21
468.347321965751
 31
0.0
  0
LINE
  5
42A
102
{ACAD_REACTORS
330
89C
102
}
330
1F
100
AcDbEntity
  8
実線
100
AcDbLine
 10
108.6751593808457
 20
511.8473219657511
 30
0.0
 11
108.6751593808457
 21
516.847321965751
 31
0.0
  0
LINE
  5
42B
102
{ACAD_REACTORS
330
89C
102
}
330
1F
100
AcDbEntity
  8
実線
100
AcDbLine
 10
83.67515938084569
 20
516.847321965751
 30
0.0
 11
83.67515938084569
 21
511.8473219657511
 31
0.0
  0
LINE
  5
42C
102
{ACAD_REACTORS
330
89C
102
}
330
1F
100
AcDbEntity
  8
実線
100
AcDbLine
 10
108.6751593808457
 20
516.847321965751
 30
0.0
 11
83.67515938084569
 21
516.847321965751
 31
0.0
  0
LINE
  5
42D
102
{ACAD_REACTORS
330
89C
102
}
330
1F
100
AcDbEntity
  8
実線
100
AcDbLine
 10
83.67515938084569
 20
511.8473219657511
 30
0.0
 11
108.6751593808457
 21
511.8473219657511
 31
0.0
  0
CIRCLE
  5
42E
102
{ACAD_REACTORS
330
89C
102
}
330
1F
100
AcDbEntity
  8
実線
100
AcDbCircle
 10
96.17515938084489
 20
280.4473219657511
 30
0.0
 40
25.25
  0
LINE
  5
42F
102
{ACAD_REACTORS
330
89C
102
}
330
1F
100
AcDbEntity
  8
実線
100
AcDbLine
 10
146.1751593808457
 20
392.347321965751
 30
0.0
 11
146.1751593808457
 21
468.347321965751
 31
0.0
  0
LINE
  5
430
102
{ACAD_REACTORS
330
89C
102
}
330
1F
100
AcDbEntity
  8
実線
100
AcDbLine
 10
46.17515938084568
 20
468.347321965751
 30
0.0
 11
46.17515938084568
 21
392.347321965751
 31
0.0
  0
LINE
  5
431
102
{ACAD_REACTORS
330
89C
102
}
330
1F
100
AcDbEntity
  8
実線
100
AcDbLine
 10
146.1751593808457
 20
468.347321965751
 30
0.0
 11
46.17515938084568
 21
468.347321965751
 31
0.0
  0
LINE
  5
432
102
{ACAD_REACTORS
330
89C
102
}
330
1F
100
AcDbEntity
  8
実線
100
AcDbLine
 10
46.17515938084568
 20
392.347321965751
 30
0.0
 11
146.1751593808457
 21
392.347321965751
 31
0.0
  0
LINE
  5
433
102
{ACAD_REACTORS
330
89C
102
}
330
1F
100
AcDbEntity
  8
実線
100
AcDbLine
 10
131.1751593808457
 20
472.847321965751
 30
0.0
 11
131.1751593808457
 21
483.347321965751
 31
0.0
  0
LINE
  5
434
102
{ACAD_REACTORS
330
89C
102
}
330
1F
100
AcDbEntity
  8
実線
100
AcDbLine
 10
61.17515938084569
 20
483.347321965751
 30
0.0
 11
61.17515938084569
 21
472.847321965751
 31
0.0
  0
LINE
  5
435
102
{ACAD_REACTORS
330
89C
102
}
330
1F
100
AcDbEntity
  8
実線
100
AcDbLine
 10
131.1751593808457
 20
483.347321965751
 30
0.0
 11
61.17515938084569
 21
483.347321965751
 31
0.0
  0
LINE
  5
436
102
{ACAD_REACTORS
330
89C
102
}
330
1F
100
AcDbEntity
  8
実線
100
AcDbLine
 10
102.1751593808457
 20
490.3473219657511
 30
0.0
 11
102.1751593808457
 21
511.8473219657511
 31
0.0
  0
LINE
  5
437
102
{ACAD_REACTORS
330
89C
102
}
330
1F
100
AcDbEntity
  8
実線
100
AcDbLine
 10
90.17515938084569
 20
511.8473219657511
 30
0.0
 11
90.17515938084569
 21
490.3473219657511
 31
0.0
  0
LINE
  5
438
102
{ACAD_REACTORS
330
89C
102
}
330
1F
100
AcDbEntity
  8
実線
100
AcDbLine
 10
121.1751593808457
 20
483.347321965751
 30
0.0
 11
121.1751593808457
 21
488.347321965751
 31
0.0
  0
LINE
  5
439
102
{ACAD_REACTORS
330
89C
102
}
330
1F
100
AcDbEntity
  8
実線
100
AcDbLine
 10
71.17515938084569
 20
488.347321965751
 30
0.0
 11
71.17515938084569
 21
483.347321965751
 31
0.0
  0
LINE
  5
43A
102
{ACAD_REACTORS
330
89C
102
}
330
1F
100
AcDbEntity
  8
実線
100
AcDbLine
 10
71.17515938084569
 20
488.347321965751
 30
0.0
 11
121.1751593808457
 21
488.347321965751
 31
0.0
  0
LINE
  5
43B
102
{ACAD_REACTORS
330
89C
102
}
330
1F
100
AcDbEntity
  8
実線
100
AcDbLine
 10
103.6751593808457
 20
516.847321965751
 30
0.0
 11
103.6751593808457
 21
522.147321965751
 31
0.0
  0
LINE
  5
43C
102
{ACAD_REACTORS
330
89C
102
}
330
1F
100
AcDbEntity
  8
実線
100
AcDbLine
 10
88.67515938084569
 20
522.1473219657509
 30
0.0
 11
88.67515938084569
 21
516.847321965751
 31
0.0
  0
LINE
  5
43D
102
{ACAD_REACTORS
330
89C
102
}
330
1F
100
AcDbEntity
  8
実線
100
AcDbLine
 10
103.6751593808457
 20
522.1473219657509
 30
0.0
 11
88.67515938084569
 21
522.1473219657509
 31
0.0
  0
LINE
  5
43E
102
{ACAD_REACTORS
330
89C
102
}
330
1F
100
AcDbEntity
  8
実線
100
AcDbLine
 10
109.2751593808457
 20
518.297321965751
 30
0.0
 11
117.1751593808457
 21
518.297321965751
 31
0.0
  0
LINE
  5
43F
102
{ACAD_REACTORS
330
89C
102
}
330
1F
100
AcDbEntity
  8
実線
100
AcDbLine
 10
109.2751593808457
 20
510.3973219657509
 30
0.0
 11
109.2751593808457
 21
518.2973219657509
 31
0.0
  0
LINE
  5
440
102
{ACAD_REACTORS
330
89C
102
}
330
1F
100
AcDbEntity
  8
実線
100
AcDbLine
 10
117.1751593808457
 20
510.3973219657509
 30
0.0
 11
109.2751593808457
 21
510.3973219657509
 31
0.0
  0
LINE
  5
441
102
{ACAD_REACTORS
330
89C
102
}
330
1F
100
AcDbEntity
  8
実線
100
AcDbLine
 10
109.2751593808457
 20
498.897321965751
 30
0.0
 11
109.2751593808457
 21
506.797321965751
 31
0.0
  0
LINE
  5
442
102
{ACAD_REACTORS
330
89C
102
}
330
1F
100
AcDbEntity
  8
実線
100
AcDbLine
 10
109.2751593808457
 20
506.797321965751
 30
0.0
 11
117.1751593808457
 21
506.797321965751
 31
0.0
  0
LINE
  5
443
102
{ACAD_REACTORS
330
89C
102
}
330
1F
100
AcDbEntity
  8
実線
100
AcDbLine
 10
117.1751593808457
 20
498.897321965751
 30
0.0
 11
109.2751593808457
 21
498.897321965751
 31
0.0
  0
LINE
  5
444
102
{ACAD_REACTORS
330
89C
102
}
330
1F
100
AcDbEntity
  8
実線
100
AcDbLine
 10
118.6751593808449
 20
223.3973219657511
 30
0.0
 11
161.075159380845
 21
223.3973219657511
 31
0.0
  0
LINE
  5
445
102
{ACAD_REACTORS
330
89C
102
}
330
1F
100
AcDbEntity
  8
実線
100
AcDbLine
 10
31.27515938084491
 20
223.3973219657511
 30
0.0
 11
73.67515938084489
 21
223.3973219657511
 31
0.0
  0
LINE
  5
446
102
{ACAD_REACTORS
330
89C
102
}
330
1F
100
AcDbEntity
  8
実線
100
AcDbLine
 10
56.17515938084489
 20
261.4973219657511
 30
0.0
 11
31.27515938084491
 21
261.4973219657511
 31
0.0
  0
LINE
  5
447
102
{ACAD_REACTORS
330
89C
102
}
330
1F
100
AcDbEntity
  8
実線
100
AcDbLine
 10
161.075159380845
 20
261.4973219657511
 30
0.0
 11
136.175159380845
 21
261.4973219657511
 31
0.0
  0
LINE
  5
448
102
{ACAD_REACTORS
330
89C
102
}
330
1F
100
AcDbEntity
  8
実線
100
AcDbLine
 10
31.27515938084491
 20
261.4973219657511
 30
0.0
 11
28.92515938084489
 21
267.6973219657511
 31
0.0
  0
LINE
  5
449
102
{ACAD_REACTORS
330
89C
102
}
330
1F
100
AcDbEntity
  8
実線
100
AcDbLine
 10
28.92515938084489
 20
217.1973219657511
 30
0.0
 11
31.27515938084491
 21
223.3973219657511
 31
0.0
  0
LINE
  5
44A
102
{ACAD_REACTORS
330
89C
102
}
330
1F
100
AcDbEntity
  8
実線
100
AcDbLine
 10
31.27515938084491
 20
261.4973219657511
 30
0.0
 11
31.27515938084491
 21
223.3973219657511
 31
0.0
  0
LINE
  5
44B
102
{ACAD_REACTORS
330
89C
102
}
330
1F
100
AcDbEntity
  8
実線
100
AcDbLine
 10
26.17515938084489
 20
217.1973219657511
 30
0.0
 11
28.92515938084489
 21
217.1973219657511
 31
0.0
  0
LINE
  5
44C
102
{ACAD_REACTORS
330
89C
102
}
330
1F
100
AcDbEntity
  8
実線
100
AcDbLine
 10
28.92515938084489
 20
267.6973219657511
 30
0.0
 11
26.17515938084489
 21
267.6973219657511
 31
0.0
  0
LINE
  5
44D
102
{ACAD_REACTORS
330
89C
102
}
330
1F
100
AcDbEntity
  8
実線
100
AcDbLine
 10
26.17515938084489
 20
267.6973219657511
 30
0.0
 11
26.17515938084489
 21
217.1973219657511
 31
0.0
  0
LINE
  5
44E
102
{ACAD_REACTORS
330
89C
102
}
330
1F
100
AcDbEntity
  8
実線
100
AcDbLine
 10
28.92515938084489
 20
267.6973219657511
 30
0.0
 11
28.92515938084489
 21
217.1973219657511
 31
0.0
  0
LINE
  5
44F
102
{ACAD_REACTORS
330
89C
102
}
330
1F
100
AcDbEntity
  8
実線
100
AcDbLine
 10
166.175159380845
 20
217.1973219657511
 30
0.0
 11
166.175159380845
 21
267.6973219657511
 31
0.0
  0
LINE
  5
450
102
{ACAD_REACTORS
330
89C
102
}
330
1F
100
AcDbEntity
  8
実線
100
AcDbLine
 10
166.175159380845
 20
267.6973219657511
 30
0.0
 11
163.425159380845
 21
267.6973219657511
 31
0.0
  0
LINE
  5
451
102
{ACAD_REACTORS
330
89C
102
}
330
1F
100
AcDbEntity
  8
実線
100
AcDbLine
 10
163.425159380845
 20
217.1973219657511
 30
0.0
 11
166.175159380845
 21
217.1973219657511
 31
0.0
  0
LINE
  5
452
102
{ACAD_REACTORS
330
89C
102
}
330
1F
100
AcDbEntity
  8
実線
100
AcDbLine
 10
163.425159380845
 20
217.1973219657511
 30
0.0
 11
163.425159380845
 21
267.6973219657511
 31
0.0
  0
LINE
  5
453
102
{ACAD_REACTORS
330
89C
102
}
330
1F
100
AcDbEntity
  8
実線
100
AcDbLine
 10
161.075159380845
 20
223.3973219657511
 30
0.0
 11
161.075159380845
 21
261.4973219657511
 31
0.0
  0
LINE
  5
454
102
{ACAD_REACTORS
330
89C
102
}
330
1F
100
AcDbEntity
  8
実線
100
AcDbLine
 10
161.075159380845
 20
223.3973219657511
 30
0.0
 11
163.425159380845
 21
217.1973219657511
 31
0.0
  0
LINE
  5
455
102
{ACAD_REACTORS
330
89C
102
}
330
1F
100
AcDbEntity
  8
実線
100
AcDbLine
 10
163.425159380845
 20
267.6973219657511
 30
0.0
 11
161.075159380845
 21
261.4973219657511
 31
0.0
  0
LINE
  5
456
102
{ACAD_REACTORS
330
89C
102
}
330
1F
100
AcDbEntity
  8
実線
100
AcDbLine
 10
73.67515938084489
 20
221.0973219657511
 30
0.0
 11
118.6751593808449
 21
221.0973219657511
 31
0.0
  0
LINE
  5
457
102
{ACAD_REACTORS
330
89C
102
}
330
1F
100
AcDbEntity
  8
実線
100
AcDbLine
 10
73.67515938084489
 20
221.0973219657511
 30
0.0
 11
73.67515938084489
 21
257.6651643601702
 31
0.0
  0
LINE
  5
458
102
{ACAD_REACTORS
330
89C
102
}
330
1F
100
AcDbEntity
  8
実線
100
AcDbLine
 10
118.6751593808449
 20
257.6651643601702
 30
0.0
 11
118.6751593808449
 21
221.0973219657511
 31
0.0
  0
LINE
  5
459
102
{ACAD_REACTORS
330
89C
102
}
330
1F
100
AcDbEntity
  8
実線
100
AcDbLine
 10
117.1751593808457
 20
490.3473219657037
 30
0.0
 11
71.17515938084569
 21
490.3473219657037
 31
0.0
  0
LINE
  5
45A
102
{ACAD_REACTORS
330
89C
102
}
330
1F
100
AcDbEntity
  8
実線
100
AcDbLine
 10
119.1751593808457
 20
488.347321965751
 30
0.0
 11
119.1751593808457
 21
519.3473219657511
 31
0.0
  0
LINE
  5
45B
102
{ACAD_REACTORS
330
89C
102
}
330
1F
100
AcDbEntity
  8
実線
100
AcDbLine
 10
119.1751593808457
 20
519.3473219657511
 30
0.0
 11
117.1751593808457
 21
519.3473219657511
 31
0.0
  0
LINE
  5
45C
102
{ACAD_REACTORS
330
89C
102
}
330
1F
100
AcDbEntity
  8
実線
100
AcDbLine
 10
117.1751593808457
 20
519.3473219657511
 30
0.0
 11
117.1751593808457
 21
490.3473219657037
 31
0.0
  0
LINE
  5
45D
102
{ACAD_REACTORS
330
89C
102
}
330
1F
100
AcDbEntity
  8
実線
100
AcDbLine
 10
116.1751593808458
 20
490.3473219657511
 30
0.0
 11
116.1751593808458
 21
488.347321965751
 31
0.0
  0
LINE
  5
45E
102
{ACAD_REACTORS
330
89C
102
}
330
1F
100
AcDbEntity
  8
実線
100
AcDbLine
 10
71.17515938084569
 20
490.3473219657511
 30
0.0
 11
71.17515938084569
 21
488.347321965751
 31
0.0
  0
LINE
  5
45F
102
{ACAD_REACTORS
330
89C
102
}
330
1F
100
AcDbEntity
  8
実線
100
AcDbLine
 10
143.1523291497295
 20
321.847321965751
 30
0.0
 11
49.19798961196182
 21
321.847321965751
 31
0.0
  0
LINE
  5
460
102
{ACAD_REACTORS
330
89C
102
}
330
1F
100
AcDbEntity
  8
実線
100
AcDbLine
 10
143.1523291497295
 20
308.3473219657511
 30
0.0
 11
49.19798961196182
 21
308.3473219657511
 31
0.0
  0
LINE
  5
461
102
{ACAD_REACTORS
330
89C
102
}
330
1F
100
AcDbEntity
  8
実線
100
AcDbLine
 10
49.19798961196182
 20
321.847321965751
 30
0.0
 11
49.19798961196182
 21
308.3473219657511
 31
0.0
  0
LINE
  5
462
102
{ACAD_REACTORS
330
89C
102
}
330
1F
100
AcDbEntity
  8
実線
100
AcDbLine
 10
143.1523291497295
 20
308.3473219657511
 30
0.0
 11
143.1523291497295
 21
321.847321965751
 31
0.0
  0
LINE
  5
463
102
{ACAD_REACTORS
330
89C
102
}
330
1F
100
AcDbEntity
  8
実線
100
AcDbLine
 10
78.1462625704217
 20
321.847321965751
 30
0.0
 11
78.1462625704217
 21
308.3473219657511
 31
0.0
  0
LINE
  5
464
102
{ACAD_REACTORS
330
89C
102
}
330
1F
100
AcDbEntity
  8
実線
100
AcDbLine
 10
114.2040561912697
 20
321.847321965751
 30
0.0
 11
114.2040561912697
 21
308.3473219657511
 31
0.0
  0
LINE
  5
465
102
{ACAD_REACTORS
330
89C
102
}
330
1F
100
AcDbEntity
  8
実線
100
AcDbLine
 10
136.175159380845
 20
261.4973219657511
 30
0.0
 11
136.175159380845
 21
298.3473219657511
 31
0.0
  0
LINE
  5
466
102
{ACAD_REACTORS
330
89C
102
}
330
1F
100
AcDbEntity
  8
実線
100
AcDbLine
 10
56.17515938084489
 20
298.3473219657511
 30
0.0
 11
56.17515938084489
 21
261.4973219657511
 31
0.0
  0
LINE
  5
467
102
{ACAD_REACTORS
330
89C
102
}
330
1F
100
AcDbEntity
  8
実線
100
AcDbLine
 10
49.19798961196102
 20
308.3473219657511
 30
0.0
 11
49.19798961196102
 21
298.3473219657511
 31
0.0
  0
LINE
  5
468
102
{ACAD_REACTORS
330
89C
102
}
330
1F
100
AcDbEntity
  8
実線
100
AcDbLine
 10
49.19798961196102
 20
298.3473219657511
 30
0.0
 11
78.1462625704209
 21
298.3473219657511
 31
0.0
  0
LINE
  5
469
102
{ACAD_REACTORS
330
89C
102
}
330
1F
100
AcDbEntity
  8
実線
100
AcDbLine
 10
143.1523291497288
 20
298.3473219657511
 30
0.0
 11
114.2040561912689
 21
298.3473219657511
 31
0.0
  0
LINE
  5
46A
102
{ACAD_REACTORS
330
89C
102
}
330
1F
100
AcDbEntity
  8
実線
100
AcDbLine
 10
143.1523291497288
 20
298.3473219657511
 30
0.0
 11
143.1523291497288
 21
308.3473219657511
 31
0.0
  0
LINE
  5
46B
102
{ACAD_REACTORS
330
89C
102
}
330
1F
100
AcDbEntity
  8
実線
100
AcDbLine
 10
78.1462625704209
 20
308.3473219657511
 30
0.0
 11
78.1462625704209
 21
298.3473219657511
 31
0.0
  0
LINE
  5
46C
102
{ACAD_REACTORS
330
89C
102
}
330
1F
100
AcDbEntity
  8
実線
100
AcDbLine
 10
114.2040561912689
 20
308.3473219657511
 30
0.0
 11
114.2040561912689
 21
298.3473219657511
 31
0.0
  0
LINE
  5
46D
102
{ACAD_REACTORS
330
89C
102
}
330
1F
100
AcDbEntity
  8
実線
100
AcDbLine
 10
107.4251593808457
 20
348.8473219657511
 30
0.0
 11
136.1751593808457
 21
348.8473219657511
 31
0.0
  0
LINE
  5
46E
102
{ACAD_REACTORS
330
89C
102
}
330
1F
100
AcDbEntity
  8
実線
100
AcDbLine
 10
136.1751593808457
 20
348.8473219657511
 30
0.0
 11
136.1751593808457
 21
392.347321965751
 31
0.0
  0
LINE
  5
46F
102
{ACAD_REACTORS
330
89C
102
}
330
1F
100
AcDbEntity
  8
実線
100
AcDbLine
 10
56.17515938084569
 20
392.347321965751
 30
0.0
 11
56.17515938084569
 21
348.8473219657511
 31
0.0
  0
LINE
  5
470
102
{ACAD_REACTORS
330
89C
102
}
330
1F
100
AcDbEntity
  8
実線
100
AcDbLine
 10
56.17515938084569
 20
348.8473219657511
 30
0.0
 11
84.92515938084569
 21
348.8473219657511
 31
0.0
  0
LINE
  5
471
102
{ACAD_REACTORS
330
89C
102
}
330
1F
100
AcDbEntity
  8
実線
100
AcDbLine
 10
84.92515938084569
 20
392.347321965751
 30
0.0
 11
84.92515938084569
 21
321.847321965751
 31
0.0
  0
LINE
  5
472
102
{ACAD_REACTORS
330
89C
102
}
330
1F
100
AcDbEntity
  8
実線
100
AcDbLine
 10
107.4251593808457
 20
392.347321965751
 30
0.0
 11
107.4251593808457
 21
321.847321965751
 31
0.0
  0
LINE
  5
473
102
{ACAD_REACTORS
330
89C
102
}
330
1F
100
AcDbEntity
  8
実線
100
AcDbLine
 10
49.17515938084568
 20
472.847321965751
 30
0.0
 11
143.1751593796003
 21
472.847321965751
 31
0.0
  0
ARC
  5
474
102
{ACAD_REACTORS
330
89C
102
}
330
1F
100
AcDbEntity
  8
実線
100
AcDbCircle
 10
143.1751593808457
 20
469.8473219657511
 30
0.0
 40
3.0
100
AcDbArc
 50
0.0
 51
90.0
  0
ARC
  5
475
102
{ACAD_REACTORS
330
89C
102
}
330
1F
100
AcDbEntity
  8
実線
100
AcDbCircle
 10
49.17515938084568
 20
469.8473219657511
 30
0.0
 40
3.0
100
AcDbArc
 50
90.0
 51
180.0
  0
LINE
  5
476
102
{ACAD_REACTORS
330
89C
102
}
330
1F
100
AcDbEntity
  8
実線
100
AcDbLine
 10
146.1751593808457
 20
468.347321965751
 30
0.0
 11
146.1751593808457
 21
469.8473219657511
 31
0.0
  0
LINE
  5
477
102
{ACAD_REACTORS
330
89C
102
}
330
1F
100
AcDbEntity
  8
実線
100
AcDbLine
 10
46.17515938084568
 20
469.8473219657511
 30
0.0
 11
46.17515938084568
 21
468.347321965751
 31
0.0
  0
LINE
  5
478
102
{ACAD_REACTORS
330
89A
102
}
330
1F
100
AcDbEntity
  8
実線
100
AcDbLine
 10
323.6751593808493
 20
516.847321965751
 30
0.0
 11
323.6751593808493
 21
511.8473219657511
 31
0.0
  0
LINE
  5
479
102
{ACAD_REACTORS
330
89A
102
}
330
1F
100
AcDbEntity
  8
実線
100
AcDbLine
 10
331.1751593808493
 20
516.847321965751
 30
0.0
 11
323.6751593808493
 21
516.847321965751
 31
0.0
  0
LINE
  5
47A
102
{ACAD_REACTORS
330
89A
102
}
330
1F
100
AcDbEntity
  8
実線
100
AcDbLine
 10
331.1751593808493
 20
511.8473219657511
 30
0.0
 11
323.6751593808493
 21
511.8473219657511
 31
0.0
  0
LINE
  5
47B
102
{ACAD_REACTORS
330
89A
102
}
330
1F
100
AcDbEntity
  8
実線
100
AcDbLine
 10
401.0751593808485
 20
299.4973219657511
 30
0.0
 11
383.1523291497326
 21
299.4973219657511
 31
0.0
  0
LINE
  5
47C
102
{ACAD_REACTORS
330
89A
102
}
330
1F
100
AcDbEntity
  8
実線
100
AcDbLine
 10
376.1751593808487
 20
261.3973219657511
 30
0.0
 11
401.0751593808485
 21
261.3973219657511
 31
0.0
  0
LINE
  5
47D
102
{ACAD_REACTORS
330
89A
102
}
330
1F
100
AcDbEntity
  8
実線
100
AcDbLine
 10
401.0751593808485
 20
261.3973219657511
 30
0.0
 11
401.0751593808485
 21
299.4973219657511
 31
0.0
  0
LINE
  5
47E
102
{ACAD_REACTORS
330
89A
102
}
330
1F
100
AcDbEntity
  8
実線
100
AcDbLine
 10
401.0751593808485
 20
261.3973219657511
 30
0.0
 11
403.4251593808486
 21
255.1973219657511
 31
0.0
  0
LINE
  5
47F
102
{ACAD_REACTORS
330
89A
102
}
330
1F
100
AcDbEntity
  8
実線
100
AcDbLine
 10
403.4251593808486
 20
305.6973219657511
 30
0.0
 11
401.0751593808485
 21
299.4973219657511
 31
0.0
  0
LINE
  5
480
102
{ACAD_REACTORS
330
89A
102
}
330
1F
100
AcDbEntity
  8
実線
100
AcDbLine
 10
406.1751593808485
 20
255.1973219657511
 30
0.0
 11
406.1751593808485
 21
305.6973219657511
 31
0.0
  0
LINE
  5
481
102
{ACAD_REACTORS
330
89A
102
}
330
1F
100
AcDbEntity
  8
実線
100
AcDbLine
 10
403.4251593808486
 20
255.1973219657511
 30
0.0
 11
403.4251593808486
 21
305.6973219657511
 31
0.0
  0
LINE
  5
482
102
{ACAD_REACTORS
330
89A
102
}
330
1F
100
AcDbEntity
  8
実線
100
AcDbLine
 10
406.1751593808485
 20
305.6973219657511
 30
0.0
 11
403.4251593808486
 21
305.6973219657511
 31
0.0
  0
LINE
  5
483
102
{ACAD_REACTORS
330
89A
102
}
330
1F
100
AcDbEntity
  8
実線
100
AcDbLine
 10
403.4251593808486
 20
255.1973219657511
 30
0.0
 11
406.1751593808485
 21
255.1973219657511
 31
0.0
  0
LINE
  5
484
102
{ACAD_REACTORS
330
89A
102
}
330
1F
100
AcDbEntity
  8
実線
100
AcDbLine
 10
271.2751593808485
 20
261.3973219657511
 30
0.0
 11
296.1751593808486
 21
261.3973219657511
 31
0.0
  0
LINE
  5
485
102
{ACAD_REACTORS
330
89A
102
}
330
1F
100
AcDbEntity
  8
実線
100
AcDbLine
 10
289.1979896119648
 20
299.4973219657511
 30
0.0
 11
271.2751593808485
 21
299.4973219657511
 31
0.0
  0
LINE
  5
486
102
{ACAD_REACTORS
330
89A
102
}
330
1F
100
AcDbEntity
  8
実線
100
AcDbLine
 10
266.1751593808487
 20
255.1973219657511
 30
0.0
 11
268.9251593808486
 21
255.1973219657511
 31
0.0
  0
LINE
  5
487
102
{ACAD_REACTORS
330
89A
102
}
330
1F
100
AcDbEntity
  8
実線
100
AcDbLine
 10
268.9251593808486
 20
305.6973219657511
 30
0.0
 11
266.1751593808487
 21
305.6973219657511
 31
0.0
  0
LINE
  5
488
102
{ACAD_REACTORS
330
89A
102
}
330
1F
100
AcDbEntity
  8
実線
100
AcDbLine
 10
266.1751593808487
 20
255.1973219657511
 30
0.0
 11
266.1751593808487
 21
305.6973219657511
 31
0.0
  0
LINE
  5
489
102
{ACAD_REACTORS
330
89A
102
}
330
1F
100
AcDbEntity
  8
実線
100
AcDbLine
 10
271.2751593808485
 20
299.4973219657511
 30
0.0
 11
268.9251593808486
 21
305.6973219657511
 31
0.0
  0
LINE
  5
48A
102
{ACAD_REACTORS
330
89A
102
}
330
1F
100
AcDbEntity
  8
実線
100
AcDbLine
 10
268.9251593808486
 20
255.1973219657511
 30
0.0
 11
271.2751593808485
 21
261.3973219657511
 31
0.0
  0
LINE
  5
48B
102
{ACAD_REACTORS
330
89A
102
}
330
1F
100
AcDbEntity
  8
実線
100
AcDbLine
 10
268.9251593808486
 20
305.6973219657511
 30
0.0
 11
268.9251593808486
 21
255.1973219657511
 31
0.0
  0
LINE
  5
48C
102
{ACAD_REACTORS
330
89A
102
}
330
1F
100
AcDbEntity
  8
実線
100
AcDbLine
 10
271.2751593808485
 20
299.4973219657511
 30
0.0
 11
271.2751593808485
 21
261.3973219657511
 31
0.0
  0
LINE
  5
48D
102
{ACAD_REACTORS
330
89A
102
}
330
1F
100
AcDbEntity
  8
実線
100
AcDbLine
 10
342.1751593808493
 20
321.847321965751
 30
0.0
 11
342.1751593808493
 21
348.8473219657511
 31
0.0
  0
LINE
  5
48E
102
{ACAD_REACTORS
330
89A
102
}
330
1F
100
AcDbEntity
  8
実線
100
AcDbLine
 10
330.1751593808493
 20
348.8473219657511
 30
0.0
 11
330.1751593808493
 21
321.847321965751
 31
0.0
  0
LINE
  5
48F
102
{ACAD_REACTORS
330
89A
102
}
330
1F
100
AcDbEntity
  8
実線
100
AcDbLine
 10
386.1751593808494
 20
392.347321965751
 30
0.0
 11
286.1751593808493
 21
392.347321965751
 31
0.0
  0
LINE
  5
490
102
{ACAD_REACTORS
330
89A
102
}
330
1F
100
AcDbEntity
  8
実線
100
AcDbLine
 10
386.1751593808494
 20
392.347321965751
 30
0.0
 11
386.1751593808494
 21
468.347321965751
 31
0.0
  0
LINE
  5
491
102
{ACAD_REACTORS
330
89A
102
}
330
1F
100
AcDbEntity
  8
実線
100
AcDbLine
 10
286.1751593808493
 20
468.347321965751
 30
0.0
 11
286.1751593808493
 21
392.347321965751
 31
0.0
  0
LINE
  5
492
102
{ACAD_REACTORS
330
89A
102
}
330
1F
100
AcDbEntity
  8
実線
100
AcDbLine
 10
386.1751593808494
 20
468.347321965751
 30
0.0
 11
286.1751593808493
 21
468.347321965751
 31
0.0
  0
LINE
  5
493
102
{ACAD_REACTORS
330
89A
102
}
330
1F
100
AcDbEntity
  8
実線
100
AcDbLine
 10
371.1751593808494
 20
472.847321965751
 30
0.0
 11
371.1751593808494
 21
483.347321965751
 31
0.0
  0
LINE
  5
494
102
{ACAD_REACTORS
330
89A
102
}
330
1F
100
AcDbEntity
  8
実線
100
AcDbLine
 10
301.1751593808493
 20
483.347321965751
 30
0.0
 11
301.1751593808493
 21
472.847321965751
 31
0.0
  0
LINE
  5
495
102
{ACAD_REACTORS
330
89A
102
}
330
1F
100
AcDbEntity
  8
実線
100
AcDbLine
 10
371.1751593808494
 20
483.347321965751
 30
0.0
 11
301.1751593808493
 21
483.347321965751
 31
0.0
  0
LINE
  5
496
102
{ACAD_REACTORS
330
89A
102
}
330
1F
100
AcDbEntity
  8
実線
100
AcDbLine
 10
330.1751593808493
 20
511.8473219657511
 30
0.0
 11
330.1751593808493
 21
490.3473219657511
 31
0.0
  0
LINE
  5
497
102
{ACAD_REACTORS
330
89A
102
}
330
1F
100
AcDbEntity
  8
実線
100
AcDbLine
 10
361.1751593808493
 20
483.347321965751
 30
0.0
 11
361.1751593808493
 21
488.347321965751
 31
0.0
  0
LINE
  5
498
102
{ACAD_REACTORS
330
89A
102
}
330
1F
100
AcDbEntity
  8
実線
100
AcDbLine
 10
311.1751593808493
 20
488.347321965751
 30
0.0
 11
311.1751593808493
 21
483.347321965751
 31
0.0
  0
LINE
  5
499
102
{ACAD_REACTORS
330
89A
102
}
330
1F
100
AcDbEntity
  8
実線
100
AcDbLine
 10
311.1751593808493
 20
488.347321965751
 30
0.0
 11
345.9731183519821
 21
488.347321965751
 31
0.0
  0
LINE
  5
49A
102
{ACAD_REACTORS
330
89A
102
}
330
1F
100
AcDbEntity
  8
実線
100
AcDbLine
 10
343.6751593808493
 20
519.3473219657511
 30
0.0
 11
343.6751593808493
 21
522.147321965751
 31
0.0
  0
LINE
  5
49B
102
{ACAD_REACTORS
330
89A
102
}
330
1F
100
AcDbEntity
  8
実線
100
AcDbLine
 10
328.6751593808493
 20
522.1473219657509
 30
0.0
 11
328.6751593808493
 21
516.847321965751
 31
0.0
  0
LINE
  5
49C
102
{ACAD_REACTORS
330
89A
102
}
330
1F
100
AcDbEntity
  8
実線
100
AcDbLine
 10
343.6751593808493
 20
522.1473219657509
 30
0.0
 11
328.6751593808493
 21
522.1473219657509
 31
0.0
  0
LINE
  5
49D
102
{ACAD_REACTORS
330
89A
102
}
330
1F
100
AcDbEntity
  8
実線
100
AcDbLine
 10
351.1751593808493
 20
510.3973219657509
 30
0.0
 11
356.1751593808493
 21
510.3973219657509
 31
0.0
  0
LINE
  5
49E
102
{ACAD_REACTORS
330
89A
102
}
330
1F
100
AcDbEntity
  8
実線
100
AcDbLine
 10
356.1751593808493
 20
510.3973219657509
 30
0.0
 11
356.1751593808493
 21
518.2973219657509
 31
0.0
  0
LINE
  5
49F
102
{ACAD_REACTORS
330
89A
102
}
330
1F
100
AcDbEntity
  8
実線
100
AcDbLine
 10
351.1751593808493
 20
518.297321965751
 30
0.0
 11
356.1751593808493
 21
518.297321965751
 31
0.0
  0
LINE
  5
4A0
102
{ACAD_REACTORS
330
89A
102
}
330
1F
100
AcDbEntity
  8
実線
100
AcDbLine
 10
362.6751593808493
 20
504.347321965751
 30
0.0
 11
362.6751593808493
 21
501.347321965751
 31
0.0
  0
LINE
  5
4A1
102
{ACAD_REACTORS
330
89A
102
}
330
1F
100
AcDbEntity
  8
実線
100
AcDbLine
 10
356.1751593808493
 20
501.347321965751
 30
0.0
 11
362.6751593808493
 21
501.347321965751
 31
0.0
  0
LINE
  5
4A2
102
{ACAD_REACTORS
330
89A
102
}
330
1F
100
AcDbEntity
  8
実線
100
AcDbLine
 10
362.6751593808493
 20
504.347321965751
 30
0.0
 11
356.1751593808493
 21
504.347321965751
 31
0.0
  0
LINE
  5
4A3
102
{ACAD_REACTORS
330
89A
102
}
330
1F
100
AcDbEntity
  8
実線
100
AcDbLine
 10
351.1751593808493
 20
498.897321965751
 30
0.0
 11
356.1751593808493
 21
498.897321965751
 31
0.0
  0
LINE
  5
4A4
102
{ACAD_REACTORS
330
89A
102
}
330
1F
100
AcDbEntity
  8
実線
100
AcDbLine
 10
356.1751593808493
 20
498.897321965751
 30
0.0
 11
356.1751593808493
 21
506.797321965751
 31
0.0
  0
LINE
  5
4A5
102
{ACAD_REACTORS
330
89A
102
}
330
1F
100
AcDbEntity
  8
実線
100
AcDbLine
 10
351.1751593808493
 20
506.797321965751
 30
0.0
 11
356.1751593808493
 21
506.797321965751
 31
0.0
  0
LINE
  5
4A6
102
{ACAD_REACTORS
330
89A
102
}
330
1F
100
AcDbEntity
  8
実線
100
AcDbLine
 10
362.6751593808493
 20
515.8473219657511
 30
0.0
 11
362.6751593808493
 21
512.847321965751
 31
0.0
  0
LINE
  5
4A7
102
{ACAD_REACTORS
330
89A
102
}
330
1F
100
AcDbEntity
  8
実線
100
AcDbLine
 10
356.1751593808493
 20
512.847321965751
 30
0.0
 11
362.6751593808493
 21
512.847321965751
 31
0.0
  0
LINE
  5
4A8
102
{ACAD_REACTORS
330
89A
102
}
330
1F
100
AcDbEntity
  8
実線
100
AcDbLine
 10
362.6751593808493
 20
515.8473219657511
 30
0.0
 11
356.1751593808493
 21
515.8473219657511
 31
0.0
  0
CIRCLE
  5
4A9
102
{ACAD_REACTORS
330
89A
102
}
330
1F
100
AcDbEntity
  8
実線
100
AcDbCircle
 10
336.1751593808485
 20
242.4473219657511
 30
0.0
 40
25.25
  0
LINE
  5
4AA
102
{ACAD_REACTORS
330
89A
102
}
330
1F
100
AcDbEntity
  8
実線
100
AcDbLine
 10
317.8251593808486
 20
221.0973219657511
 30
0.0
 11
302.8251593808485
 21
221.0973219657511
 31
0.0
  0
LINE
  5
4AB
102
{ACAD_REACTORS
330
89A
102
}
330
1F
100
AcDbEntity
  8
実線
100
AcDbLine
 10
317.8251593808486
 20
225.1025821291321
 30
0.0
 11
317.8251593808486
 21
221.0973219657511
 31
0.0
  0
LINE
  5
4AC
102
{ACAD_REACTORS
330
89A
102
}
330
1F
100
AcDbEntity
  8
実線
100
AcDbLine
 10
302.8251593808485
 20
221.0973219657511
 30
0.0
 11
302.8251593808485
 21
258.3736106222694
 31
0.0
  0
LINE
  5
4AD
102
{ACAD_REACTORS
330
89A
102
}
330
1F
100
AcDbEntity
  8
実線
100
AcDbLine
 10
331.1751593808493
 20
490.3473219657511
 30
0.0
 11
311.1751593808493
 21
490.3473219657511
 31
0.0
  0
LINE
  5
4AE
102
{ACAD_REACTORS
330
89A
102
}
330
1F
100
AcDbEntity
  8
実線
100
AcDbLine
 10
361.1751593808493
 20
488.347321965751
 30
0.0
 11
345.9731183519821
 21
488.347321965751
 31
0.0
  0
LINE
  5
4AF
102
{ACAD_REACTORS
330
89A
102
}
330
1F
100
AcDbEntity
  8
実線
100
AcDbLine
 10
321.1751593808493
 20
490.3473219657511
 30
0.0
 11
321.1751593808493
 21
488.347321965751
 31
0.0
  0
LINE
  5
4B0
102
{ACAD_REACTORS
330
89A
102
}
330
1F
100
AcDbEntity
  8
実線
100
AcDbLine
 10
361.1751593808493
 20
488.347321965751
 30
0.0
 11
361.1751593808493
 21
490.3473219657511
 31
0.0
  0
LINE
  5
4B1
102
{ACAD_REACTORS
330
89A
102
}
330
1F
100
AcDbEntity
  8
実線
100
AcDbLine
 10
311.1751593808493
 20
490.3473219657511
 30
0.0
 11
311.1751593808493
 21
488.347321965751
 31
0.0
  0
LINE
  5
4B2
102
{ACAD_REACTORS
330
89A
102
}
330
1F
100
AcDbEntity
  8
実線
100
AcDbLine
 10
361.1751593808493
 20
490.3473219657511
 30
0.0
 11
351.1751593808493
 21
490.3473219657037
 31
0.0
  0
LINE
  5
4B3
102
{ACAD_REACTORS
330
89A
102
}
330
1F
100
AcDbEntity
  8
実線
100
AcDbLine
 10
351.1751593808493
 20
488.347321965751
 30
0.0
 11
351.1751593808493
 21
519.3473219657511
 31
0.0
  0
LINE
  5
4B4
102
{ACAD_REACTORS
330
89A
102
}
330
1F
100
AcDbEntity
  8
実線
100
AcDbLine
 10
351.1751593808493
 20
519.3473219657511
 30
0.0
 11
331.1751593808493
 21
519.3473219657511
 31
0.0
  0
LINE
  5
4B5
102
{ACAD_REACTORS
330
89A
102
}
330
1F
100
AcDbEntity
  8
実線
100
AcDbLine
 10
331.1751593808493
 20
488.347321965751
 30
0.0
 11
331.1751593808493
 21
519.3473219657511
 31
0.0
  0
LINE
  5
4B6
102
{ACAD_REACTORS
330
89A
102
}
330
1F
100
AcDbEntity
  8
実線
100
AcDbLine
 10
354.5251593808485
 20
221.0973219657511
 30
0.0
 11
369.5251593808487
 21
221.0973219657511
 31
0.0
  0
LINE
  5
4B7
102
{ACAD_REACTORS
330
89A
102
}
330
1F
100
AcDbEntity
  8
実線
100
AcDbLine
 10
369.5251593808487
 20
258.3736106222694
 30
0.0
 11
369.5251593808487
 21
221.0973219657511
 31
0.0
  0
LINE
  5
4B8
102
{ACAD_REACTORS
330
89A
102
}
330
1F
100
AcDbEntity
  8
実線
100
AcDbLine
 10
354.5251593808485
 20
221.0973219657511
 30
0.0
 11
354.5251593808485
 21
225.1025821291321
 31
0.0
  0
LINE
  5
4B9
102
{ACAD_REACTORS
330
89A
102
}
330
1F
100
AcDbEntity
  8
実線
100
AcDbLine
 10
383.1523291497333
 20
321.847321965751
 30
0.0
 11
289.1979896119656
 21
321.847321965751
 31
0.0
  0
LINE
  5
4BA
102
{ACAD_REACTORS
330
89A
102
}
330
1F
100
AcDbEntity
  8
実線
100
AcDbLine
 10
289.1979896119656
 20
321.847321965751
 30
0.0
 11
289.1979896119656
 21
308.3473219657511
 31
0.0
  0
LINE
  5
4BB
102
{ACAD_REACTORS
330
89A
102
}
330
1F
100
AcDbEntity
  8
実線
100
AcDbLine
 10
383.1523291497333
 20
308.3473219657511
 30
0.0
 11
383.1523291497333
 21
321.847321965751
 31
0.0
  0
LINE
  5
4BC
102
{ACAD_REACTORS
330
89A
102
}
330
1F
100
AcDbEntity
  8
実線
100
AcDbLine
 10
354.2040561912734
 20
321.847321965751
 30
0.0
 11
354.2040561912734
 21
308.3473219657511
 31
0.0
  0
LINE
  5
4BD
102
{ACAD_REACTORS
330
89A
102
}
330
1F
100
AcDbEntity
  8
実線
100
AcDbLine
 10
318.1462625704255
 20
321.847321965751
 30
0.0
 11
318.1462625704255
 21
308.3473219657511
 31
0.0
  0
LINE
  5
4BE
102
{ACAD_REACTORS
330
89A
102
}
330
1F
100
AcDbEntity
  8
実線
100
AcDbLine
 10
369.5251593808487
 20
251.4221605749996
 30
0.0
 11
375.0053815964435
 21
257.9532350886494
 31
0.0
  0
LINE
  5
4BF
102
{ACAD_REACTORS
330
89A
102
}
330
1F
100
AcDbEntity
  8
実線
100
AcDbLine
 10
297.3449371652538
 20
257.9532350886494
 30
0.0
 11
302.8251593808485
 21
251.4221605749996
 31
0.0
  0
ARC
  5
4C0
102
{ACAD_REACTORS
330
89A
102
}
330
1F
100
AcDbEntity
  8
実線
100
AcDbCircle
 10
301.1751593808487
 20
261.1671731370821
 30
0.0
 40
5.0
100
AcDbArc
 50
180.0
 51
220.0000000000007
  0
ARC
  5
4C1
102
{ACAD_REACTORS
330
89A
102
}
330
1F
100
AcDbEntity
  8
実線
100
AcDbCircle
 10
371.1751593808486
 20
261.1671731370821
 30
0.0
 40
5.0
100
AcDbArc
 50
319.9999999999999
 51
0.0
  0
LINE
  5
4C2
102
{ACAD_REACTORS
330
89A
102
}
330
1F
100
AcDbEntity
  8
実線
100
AcDbLine
 10
383.1523291497326
 20
308.3473219657511
 30
0.0
 11
289.1979896119648
 21
308.3473219657511
 31
0.0
  0
LINE
  5
4C3
102
{ACAD_REACTORS
330
89A
102
}
330
1F
100
AcDbEntity
  8
実線
100
AcDbLine
 10
376.1751593808487
 20
261.1671731370821
 30
0.0
 11
376.1751593808487
 21
261.3973219657511
 31
0.0
  0
LINE
  5
4C4
102
{ACAD_REACTORS
330
89A
102
}
330
1F
100
AcDbEntity
  8
実線
100
AcDbLine
 10
296.1751593808486
 20
261.3973219657511
 30
0.0
 11
296.1751593808486
 21
261.1671731370821
 31
0.0
  0
LINE
  5
4C5
102
{ACAD_REACTORS
330
89A
102
}
330
1F
100
AcDbEntity
  8
実線
100
AcDbLine
 10
289.1979896119648
 20
308.3473219657511
 30
0.0
 11
289.1979896119648
 21
298.3473219657511
 31
0.0
  0
LINE
  5
4C6
102
{ACAD_REACTORS
330
89A
102
}
330
1F
100
AcDbEntity
  8
実線
100
AcDbLine
 10
289.1979896119648
 20
298.3473219657511
 30
0.0
 11
318.1462625704245
 21
298.3473219657511
 31
0.0
  0
LINE
  5
4C7
102
{ACAD_REACTORS
330
89A
102
}
330
1F
100
AcDbEntity
  8
実線
100
AcDbLine
 10
383.1523291497326
 20
298.3473219657511
 30
0.0
 11
354.2040561912727
 21
298.3473219657511
 31
0.0
  0
LINE
  5
4C8
102
{ACAD_REACTORS
330
89A
102
}
330
1F
100
AcDbEntity
  8
実線
100
AcDbLine
 10
383.1523291497326
 20
298.3473219657511
 30
0.0
 11
383.1523291497326
 21
308.3473219657511
 31
0.0
  0
LINE
  5
4C9
102
{ACAD_REACTORS
330
89A
102
}
330
1F
100
AcDbEntity
  8
実線
100
AcDbLine
 10
354.2040561912727
 20
308.3473219657511
 30
0.0
 11
354.2040561912727
 21
298.3473219657511
 31
0.0
  0
LINE
  5
4CA
102
{ACAD_REACTORS
330
89A
102
}
330
1F
100
AcDbEntity
  8
実線
100
AcDbLine
 10
318.1462625704245
 20
308.3473219657511
 30
0.0
 11
318.1462625704245
 21
298.3473219657511
 31
0.0
  0
ARC
  5
4CB
102
{ACAD_REACTORS
330
89A
102
}
330
1F
100
AcDbEntity
  8
実線
100
AcDbCircle
 10
310.4751593808494
 20
362.847321965751
 30
0.0
 40
70.00000000000003
100
AcDbArc
 50
324.1465329365346
 51
0.0
  0
LINE
  5
4CC
102
{ACAD_REACTORS
330
89A
102
}
330
1F
100
AcDbEntity
  8
実線
100
AcDbLine
 10
380.4751593808494
 20
392.347321965751
 30
0.0
 11
380.4751593808494
 21
362.847321965751
 31
0.0
  0
ARC
  5
4CD
102
{ACAD_REACTORS
330
89A
102
}
330
1F
100
AcDbEntity
  8
実線
100
AcDbCircle
 10
312.4751593808494
 20
362.847321965751
 30
0.0
 40
57.99999999999997
100
AcDbArc
 50
315.0170320400987
 51
346.0320373253493
  0
LINE
  5
4CE
102
{ACAD_REACTORS
330
89A
102
}
330
1F
100
AcDbEntity
  8
実線
100
AcDbLine
 10
291.8751593808495
 20
392.347321965751
 30
0.0
 11
291.8751593808495
 21
362.847321965751
 31
0.0
  0
ARC
  5
4CF
102
{ACAD_REACTORS
330
89A
102
}
330
1F
100
AcDbEntity
  8
実線
100
AcDbCircle
 10
359.8751593808494
 20
362.847321965751
 30
0.0
 40
57.99999999999997
100
AcDbArc
 50
193.9679626746507
 51
224.9829679599013
  0
ARC
  5
4D0
102
{ACAD_REACTORS
330
89A
102
}
330
1F
100
AcDbEntity
  8
実線
100
AcDbCircle
 10
361.8751593808493
 20
362.847321965751
 30
0.0
 40
70.00000000000003
100
AcDbArc
 50
180.0
 51
215.8534670634654
  0
LINE
  5
4D1
102
{ACAD_REACTORS
330
89A
102
}
330
1F
100
AcDbEntity
  8
実線
100
AcDbLine
 10
297.7897780488893
 20
348.8473219657511
 30
0.0
 11
374.5605407128096
 21
348.8473219657511
 31
0.0
  0
LINE
  5
4D2
102
{ACAD_REACTORS
330
89A
102
}
330
1F
100
AcDbEntity
  8
実線
100
AcDbLine
 10
297.7897780488893
 20
392.347321965751
 30
0.0
 11
297.7897780488893
 21
348.8473219657511
 31
0.0
  0
LINE
  5
4D3
102
{ACAD_REACTORS
330
89A
102
}
330
1F
100
AcDbEntity
  8
実線
100
AcDbLine
 10
374.5605407128096
 20
392.347321965751
 30
0.0
 11
374.5605407128096
 21
348.8473219657511
 31
0.0
  0
LINE
  5
4D4
102
{ACAD_REACTORS
330
89A
102
}
330
1F
100
AcDbEntity
  8
実線
100
AcDbLine
 10
289.1751593808493
 20
472.847321965751
 30
0.0
 11
383.1751593808494
 21
472.847321965751
 31
0.0
  0
ARC
  5
4D5
102
{ACAD_REACTORS
330
89A
102
}
330
1F
100
AcDbEntity
  8
実線
100
AcDbCircle
 10
383.1751593808494
 20
469.8473219657511
 30
0.0
 40
3.0
100
AcDbArc
 50
0.0
 51
90.0
  0
ARC
  5
4D6
102
{ACAD_REACTORS
330
89A
102
}
330
1F
100
AcDbEntity
  8
実線
100
AcDbCircle
 10
289.1751593808493
 20
469.8473219657511
 30
0.0
 40
3.0
100
AcDbArc
 50
90.0
 51
180.0
  0
LINE
  5
4D7
102
{ACAD_REACTORS
330
89A
102
}
330
1F
100
AcDbEntity
  8
実線
100
AcDbLine
 10
386.1751593808494
 20
468.347321965751
 30
0.0
 11
386.1751593808494
 21
469.8473219657511
 31
0.0
  0
LINE
  5
4D8
102
{ACAD_REACTORS
330
89A
102
}
330
1F
100
AcDbEntity
  8
実線
100
AcDbLine
 10
286.1751593808493
 20
469.8473219657511
 30
0.0
 11
286.1751593808493
 21
468.347321965751
 31
0.0
  0
LINE
  5
86D
102
{ACAD_REACTORS
330
89B
102
}
330
1F
100
AcDbEntity
  8
中心線
100
AcDbLine
 10
264.1751593808487
 20
640.4473219657508
 30
0.0
 11
408.1751593808486
 21
640.4473219657508
 31
0.0
  0
LINE
  5
86E
102
{ACAD_REACTORS
330
89B
102
}
330
1F
100
AcDbEntity
  8
中心線
100
AcDbLine
 10
336.1751593808486
 20
568.4473219657518
 30
0.0
 11
336.1751593808486
 21
712.4473219657518
 31
0.0
  0
LINE
  5
86F
102
{ACAD_REACTORS
330
899
102
}
330
1F
100
AcDbEntity
  8
中心線
100
AcDbLine
 10
264.1751593808487
 20
100.4473219657507
 30
0.0
 11
408.1751593808486
 21
100.4473219657507
 31
0.0
  0
LINE
  5
870
102
{ACAD_REACTORS
330
899
102
}
330
1F
100
AcDbEntity
  8
中心線
100
AcDbLine
 10
336.1751593808484
 20
28.44732196575183
 30
0.0
 11
336.1751593808484
 21
172.4473219657518
 31
0.0
  0
LINE
  5
871
102
{ACAD_REACTORS
330
89C
102
}
330
1F
100
AcDbEntity
  8
中心線
100
AcDbLine
 10
41.17515938084494
 20
280.4473219657507
 30
0.0
 11
151.1751593808449
 21
280.4473219657507
 31
0.0
  0
LINE
  5
872
102
{ACAD_REACTORS
330
89C
102
}
330
1F
100
AcDbEntity
  8
中心線
100
AcDbLine
 10
96.17515938084569
 20
208.4473219657519
 30
0.0
 11
96.17515938084569
 21
540.7603563952816
 31
0.0
  0
LINE
  5
873
102
{ACAD_REACTORS
330
89C
102
}
330
1F
100
AcDbEntity
  8
中心線
100
AcDbLine
 10
24.17515938084563
 20
242.4473219657512
 30
0.0
 11
168.1751593808456
 21
242.4473219657512
 31
0.0
  0
LINE
  5
884
102
{ACAD_REACTORS
330
89A
102
}
330
1F
100
AcDbEntity
  8
中心線
100
AcDbLine
 10
264.1751593808487
 20
280.4473219657507
 30
0.0
 11
408.1751593808486
 21
280.4473219657507
 31
0.0
  0
LINE
  5
885
102
{ACAD_REACTORS
330
89A
102
}
330
1F
100
AcDbEntity
  8
中心線
100
AcDbLine
 10
336.1751593808493
 20
208.4473219657517
 30
0.0
 11
336.1751593808493
 21
540.7603563952816
 31
0.0
  0
LINE
  5
886
102
{ACAD_REACTORS
330
89A
102
}
330
1F
100
AcDbEntity
  8
中心線
100
AcDbLine
 10
281.1751593808493
 20
242.4473219657512
 30
0.0
 11
391.1751593808493
 21
242.4473219657512
 31
0.0
  0
LINE
  5
887
102
{ACAD_REACTORS
330
898
102
}
330
1F
100
AcDbEntity
  8
中心線
100
AcDbLine
 10
521.1751593808482
 20
280.4473219657507
 30
0.0
 11
631.1751593808483
 21
280.4473219657507
 31
0.0
  0
LINE
  5
888
102
{ACAD_REACTORS
330
898
102
}
330
1F
100
AcDbEntity
  8
中心線
100
AcDbLine
 10
576.1751593808454
 20
208.4473219657519
 30
0.0
 11
576.1751593808453
 21
540.7603563952816
 31
0.0
  0
LINE
  5
889
102
{ACAD_REACTORS
330
898
102
}
330
1F
100
AcDbEntity
  8
中心線
100
AcDbLine
 10
504.175159380849
 20
242.4473219657512
 30
0.0
 11
648.1751593808489
 21
242.4473219657512
 31
0.0
  0
LINE
  5
88A
102
{ACAD_REACTORS
330
897
102
}
330
1F
100
AcDbEntity
  8
中心線
100
AcDbLine
 10
744.1751593808494
 20
280.4473219657507
 30
0.0
 11
888.1751593808495
 21
280.4473219657508
 31
0.0
  0
LINE
  5
88B
102
{ACAD_REACTORS
330
897
102
}
330
1F
100
AcDbEntity
  8
中心線
100
AcDbLine
 10
816.175159380846
 20
208.4473219657518
 30
0.0
 11
816.175159380846
 21
540.7603563952816
 31
0.0
  0
LINE
  5
88C
102
{ACAD_REACTORS
330
897
102
}
330
1F
100
AcDbEntity
  8
中心線
100
AcDbLine
 10
761.17515938085
 20
242.4473219657512
 30
0.0
 11
871.17515938085
 21
242.4473219657512
 31
0.0
  0
ENDSEC
  0
SECTION
  2
OBJECTS
  0
DICTIONARY
  5
C
330
0
100
AcDbDictionary
281
     1
  3
ACAD_CIP_PREVIOUS_PRODUCT_INFO
350
2D5
  3
ACAD_COLOR
350
2CB
  3
ACAD_DETAILVIEWSTYLE
350
2CE
  3
ACAD_GROUP
350
D
  3
ACAD_LAYOUT
350
1A
  3
ACAD_MATERIAL
350
43
  3
ACAD_MLEADERSTYLE
350
5B
  3
ACAD_MLINESTYLE
350
17
  3
ACAD_PLOTSETTINGS
350
19
  3
ACAD_PLOTSTYLENAME
350
E
  3
ACAD_SCALELIST
350
47
  3
ACAD_SECTIONVIEWSTYLE
350
2CC
  3
ACAD_TABLESTYLE
350
59
  3
ACAD_VISUALSTYLE
350
2A
  3
ACDB_RECOMPOSE_DATA
350
933
  3
AcDbVariableDictionary
350
280
  3
DWGPROPS
350
934
  0
DICTIONARY
  5
4DF
330
2
100
AcDbDictionary
280
     1
281
     1
  3
ACAD_LAYERSTATES
360
4E0
  0
DICTIONARY
  5
89D
330
10
100
AcDbDictionary
280
     1
281
     1
  3
ADSK_XREC_LAYER_RECONCILED
360
89E
  0
DICTIONARY
  5
4DB
330
4DA
100
AcDbDictionary
280
     1
281
     1
  3
ADSK_XREC_LAYER_RECONCILED
360
89F
  0
DICTIONARY
  5
4DD
330
4DC
100
AcDbDictionary
280
     1
281
     1
  3
ADSK_XREC_LAYER_RECONCILED
360
8A0
  0
DICTIONARY
  5
320
330
1F
100
AcDbDictionary
280
     1
281
     1
  3
ACAD_SORTENTS
360
321
  0
XRECORD
  5
2D5
102
{ACAD_REACTORS
330
C
102
}
330
C
100
AcDbXrecord
280
     1
300
ACDLT
300
2016
300
ACDLT_F_S
  0
DICTIONARY
  5
2CB
102
{ACAD_REACTORS
330
C
102
}
330
C
100
AcDbDictionary
281
     1
  0
DICTIONARY
  5
2CE
102
{ACAD_REACTORS
330
C
102
}
330
C
100
AcDbDictionary
281
     1
  3
Metric50
350
2CF
  0
DICTIONARY
  5
D
102
{ACAD_REACTORS
330
C
102
}
330
C
100
AcDbDictionary
281
     1
  3
*A1
350
897
  3
*A2
350
898
  3
*A3
350
899
  3
*A4
350
89A
  3
*A5
350
89B
  3
*A6
350
89C
  0
DICTIONARY
  5
1A
102
{ACAD_REACTORS
330
C
102
}
330
C
100
AcDbDictionary
281
     1
  3
Layout1
350
1E
  3
Model
350
22
  3
レイアウト1
350
2D0
  0
DICTIONARY
  5
43
102
{ACAD_REACTORS
330
C
102
}
330
C
100
AcDbDictionary
281
     1
  3
ByBlock
350
45
  3
ByLayer
350
44
  3
Global
350
46
  0
DICTIONARY
  5
5B
102
{ACAD_REACTORS
330
C
102
}
330
C
100
AcDbDictionary
281
     1
  3
Standard
350
5C
  0
DICTIONARY
  5
17
102
{ACAD_REACTORS
330
C
102
}
330
C
100
AcDbDictionary
281
     1
  3
Standard
350
18
  0
DICTIONARY
  5
19
102
{ACAD_REACTORS
330
C
102
}
330
C
100
AcDbDictionary
281
     1
  0
ACDBDICTIONARYWDFLT
  5
E
102
{ACAD_REACTORS
330
C
102
}
330
C
100
AcDbDictionary
281
     1
  3
Normal
350
F
100
AcDbDictionaryWithDefault
340
F
  0
DICTIONARY
  5
47
102
{ACAD_REACTORS
330
C
102
}
330
C
100
AcDbDictionary
281
     1
  3
A0
350
48
  3
A1
350
49
  3
A2
350
4A
  3
A3
350
4B
  3
A4
350
4C
  3
A5
350
4D
  3
A6
350
4E
  3
A7
350
4F
  3
A8
350
50
  3
A9
350
51
  3
B0
350
52
  3
B1
350
53
  3
B2
350
54
  3
B3
350
55
  3
B4
350
56
  3
B5
350
57
  3
B6
350
58
  0
DICTIONARY
  5
2CC
102
{ACAD_REACTORS
330
C
102
}
330
C
100
AcDbDictionary
281
     1
  3
Metric50
350
2CD
  0
DICTIONARY
  5
59
102
{ACAD_REACTORS
330
C
102
}
330
C
100
AcDbDictionary
281
     1
  3
Standard
350
5A
  0
DICTIONARY
  5
2A
102
{ACAD_REACTORS
330
C
102
}
330
C
100
AcDbDictionary
281
     1
  3
2dWireframe
350
2F
  3
Basic
350
32
  3
Brighten
350
36
  3
ColorChange
350
3A
  3
Conceptual
350
34
  3
Dim
350
35
  3
EdgeColorOff
350
3D
  3
Facepattern
350
39
  3
Flat
350
2B
  3
FlatWithEdges
350
2C
  3
Gouraud
350
2D
  3
GouraudWithEdges
350
2E
  3
Hidden
350
31
  3
JitterOff
350
3B
  3
Linepattern
350
38
  3
OverhangOff
350
3C
  3
Realistic
350
33
  3
Shaded
350
42
  3
Shaded with edges
350
41
  3
Shades of Gray
350
3E
  3
Sketchy
350
3F
  3
Thicken
350
37
  3
Wireframe
350
30
  3
X-Ray
350
40
  0
XRECORD
  5
933
102
{ACAD_REACTORS
330
C
102
}
330
C
100
AcDbXrecord
280
     1
 90
        1
330
5A
  0
DICTIONARY
  5
280
102
{ACAD_REACTORS
330
C
102
}
330
C
100
AcDbDictionary
281
     1
  3
CANNOSCALE
350
28E
  3
CENTEREXE
350
287
  3
CENTERLTYPEFILE
350
288
  3
CMLEADERSTYLE
350
282
  3
CTABLESTYLE
350
281
  3
CVIEWDETAILSTYLE
350
8A1
  3
CVIEWSECTIONSTYLE
350
8A2
  3
DIMASSOC
350
289
  3
HIDETEXT
350
28A
  3
INDEXCTL
350
8ED
  3
LAYEREVAL
350
8A4
  3
LAYERNOTIFY
350
8A5
  3
LIGHTINGUNITS
350
8A3
  3
LOFTANG1
350
8F0
  3
LOFTANG2
350
8F1
  3
LONGITUDE
350
8F2
  3
MSLTSCALE
350
28F
  3
PSOLHEIGHT
350
8EF
  3
PSOLWIDTH
350
8EE
  3
SORTENTS
350
8EC
  3
XCLIPFRAME
350
8F3
  0
XRECORD
  5
934
102
{ACAD_REACTORS
330
C
102
}
330
C
100
AcDbXrecord
280
     1
  1
DWGPROPS COOKIE
  2

  3

  4

  6
File was created by TR2_DExp
  7

  8
fujino
  9

300
=
301
=
302
=
303
=
304
=
305
=
306
=
307
=
308
=
309
=
 40
0.0166104050925926
 41
2455188.75
 42
2459747.382773195
  1

 90
        0
  0
DICTIONARY
  5
4E0
102
{ACAD_REACTORS
330
4DF
102
}
330
4DF
100
AcDbDictionary
281
     1
  0
XRECORD
  5
89E
102
{ACAD_REACTORS
330
89D
102
}
330
89D
100
AcDbXrecord
280
     1
290
     1
  0
XRECORD
  5
89F
102
{ACAD_REACTORS
330
4DB
102
}
330
4DB
100
AcDbXrecord
280
     1
290
     1
  0
XRECORD
  5
8A0
102
{ACAD_REACTORS
330
4DD
102
}
330
4DD
100
AcDbXrecord
280
     1
290
     1
  0
SORTENTSTABLE
  5
321
102
{ACAD_REACTORS
330
320
102
}
330
320
100
AcDbSortentsTable
330
1F
331
362
  5
47D
331
389
  5
3F1
331
3C8
  5
430
331
2F4
  5
4AD
331
31B
  5
4D4
331
2F0
  5
4A9
331
46F
  5
37E
331
4AE
  5
30C
331
46B
  5
37A
331
4AA
  5
308
331
4A6
  5
304
331
871
  5
871
331
467
  5
376
331
86D
  5
86D
331
463
  5
372
331
4A2
  5
300
331
3F7
  5
3A9
331
436
  5
345
331
3C4
  5
42C
331
3F3
  5
3A5
331
432
  5
341
331
317
  5
4D0
331
35E
  5
479
331
385
  5
3ED
331
3C0
  5
428
331
3EF
  5
3A1
331
42E
  5
33D
331
2EC
  5
4A5
331
313
  5
4CC
331
35A
  5
475
331
381
  5
3E9
331
42A
  5
339
331
37D
  5
3E5
331
3BC
  5
424
331
3EB
  5
39D
331
2E8
  5
4A1
331
30F
  5
4C8
331
356
  5
471
331
352
  5
46D
331
379
  5
3E1
331
3B8
  5
420
331
2E4
  5
49D
331
30B
  5
4C4
331
2E0
  5
499
331
45F
  5
36E
331
49E
  5
2FC
331
45B
  5
36A
331
49A
  5
2F8
331
4D5
  5
335
331
496
  5
2F4
331
4D1
  5
331
331
457
  5
366
331
492
  5
2F0
331
4CD
  5
32D
331
453
  5
362
331
4C9
  5
329
331
3E7
  5
399
331
426
  5
3D8
331
3E3
  5
395
331
422
  5
3D4
331
307
  5
4C0
331
34E
  5
469
331
3B4
  5
41C
331
3B0
  5
418
331
3DF
  5
391
331
2DC
  5
495
331
303
  5
4BC
331
34A
  5
465
331
41E
  5
3D0
331
41A
  5
3CC
331
375
  5
3DD
331
3AC
  5
414
331
3DB
  5
38D
331
2D8
  5
491
331
2FF
  5
4B8
331
346
  5
461
331
342
  5
45D
331
371
  5
48C
331
3A8
  5
410
331
2FB
  5
4B4
331
44F
  5
35E
331
48E
  5
2EC
331
44B
  5
35A
331
48A
  5
2E8
331
4C5
  5
325
331
4C1
  5
31F
331
447
  5
356
331
486
  5
2E4
331
482
  5
2E0
331
4BD
  5
31B
331
443
  5
352
331
4B9
  5
317
331
416
  5
3C8
331
3D7
  5
389
331
3D3
  5
43B
331
412
  5
3C4
331
33E
  5
459
331
36D
  5
488
331
3A4
  5
40C
331
3A0
  5
408
331
40E
  5
3C0
331
33A
  5
455
331
369
  5
484
331
39C
  5
404
331
336
  5
451
331
40A
  5
3BC
331
332
  5
44D
331
324
  5
43F
331
398
  5
400
331
47E
  5
2DC
331
88C
  5
88C
331
47A
  5
2D8
331
4B5
  5
313
331
888
  5
888
331
476
  5
385
331
884
  5
884
331
472
  5
381
331
4B1
  5
30F
331
406
  5
3B8
331
402
  5
3B4
331
32E
  5
449
331
394
  5
3FC
331
390
  5
3F8
331
3CF
  5
437
331
32A
  5
445
331
3FE
  5
3B0
331
43D
  5
34C
331
439
  5
348
331
365
  5
480
331
38C
  5
3F4
331
3CB
  5
433
331
2F7
  5
4B0
331
31E
  5
4D7
331
3FA
  5
3AC
331
361
  5
47C
331
388
  5
3F0
331
2F3
  5
4AC
331
31A
  5
4D3
331
46E
  5
37D
331
4AD
  5
30B
331
46A
  5
379
331
4A9
  5
307
331
4A5
  5
303
331
870
  5
870
331
466
  5
375
331
462
  5
371
331
4A1
  5
2FF
331
3F6
  5
3A8
331
435
  5
344
331
3C7
  5
42F
331
3C3
  5
42B
331
3F2
  5
3A4
331
431
  5
340
331
316
  5
4CF
331
35D
  5
478
331
384
  5
3EC
331
2EF
  5
4A8
331
380
  5
3E8
331
3BF
  5
427
331
3EE
  5
3A0
331
2EB
  5
4A4
331
312
  5
4CB
331
359
  5
474
331
42D
  5
33C
331
429
  5
3DB
331
37C
  5
3E4
331
3BB
  5
423
331
3EA
  5
39C
331
2E7
  5
4A0
331
30E
  5
4C7
331
355
  5
470
331
351
  5
46C
331
378
  5
3E0
331
2E3
  5
49C
331
30A
  5
4C3
331
45E
  5
36D
331
49D
  5
2FB
331
45A
  5
369
331
499
  5
2F7
331
4D4
  5
334
331
495
  5
2F3
331
4D0
  5
330
331
456
  5
365
331
452
  5
361
331
491
  5
2EF
331
4CC
  5
32C
331
4C8
  5
328
331
3E6
  5
398
331
425
  5
3D7
331
3B7
  5
41F
331
3B3
  5
41B
331
3E2
  5
394
331
306
  5
4BF
331
34D
  5
468
331
421
  5
3D3
331
2DF
  5
498
331
3AF
  5
417
331
3DE
  5
390
331
2DB
  5
494
331
302
  5
4BB
331
349
  5
464
331
41D
  5
3CF
331
419
  5
3CB
331
374
  5
3DC
331
3AB
  5
413
331
3DA
  5
38C
331
2D7
  5
490
331
2FE
  5
4B7
331
345
  5
460
331
341
  5
45C
331
370
  5
48B
331
2FA
  5
4B3
331
44E
  5
35D
331
48D
  5
2EB
331
44A
  5
359
331
489
  5
2E7
331
4C4
  5
324
331
485
  5
2E3
331
4C0
  5
31E
331
446
  5
355
331
481
  5
2DF
331
4BC
  5
31A
331
442
  5
351
331
4B8
  5
316
331
3D6
  5
388
331
415
  5
3C7
331
3A7
  5
40F
331
3D2
  5
43A
331
411
  5
3C3
331
33D
  5
458
331
36C
  5
487
331
3A3
  5
40B
331
39F
  5
407
331
40D
  5
3BF
331
339
  5
454
331
368
  5
483
331
409
  5
3BB
331
39B
  5
403
331
327
  5
442
331
335
  5
450
331
4D8
  5
338
331
331
  5
44C
331
323
  5
43E
331
47D
  5
2DB
331
88B
  5
88B
331
479
  5
2D7
331
4B4
  5
312
331
887
  5
887
331
475
  5
384
331
471
  5
380
331
4B0
  5
30E
331
405
  5
3B7
331
397
  5
3FF
331
401
  5
3B3
331
32D
  5
448
331
393
  5
3FB
331
43C
  5
34B
331
38F
  5
3F7
331
3CE
  5
436
331
329
  5
444
331
3FD
  5
3AF
331
438
  5
347
331
364
  5
47F
331
38B
  5
3F3
331
3CA
  5
432
331
2F6
  5
4AF
331
31D
  5
4D6
331
3F9
  5
3AB
331
319
  5
4D2
331
360
  5
47B
331
2F2
  5
4AB
331
46D
  5
37C
331
4AC
  5
30A
331
873
  5
873
331
469
  5
378
331
4A8
  5
306
331
4A4
  5
302
331
86F
  5
86F
331
465
  5
374
331
461
  5
370
331
4A0
  5
2FE
331
3F5
  5
3A7
331
434
  5
343
331
387
  5
3EF
331
3C6
  5
42E
331
3C2
  5
42A
331
3F1
  5
3A3
331
430
  5
33F
331
315
  5
4CE
331
35C
  5
477
331
383
  5
3EB
331
2EE
  5
4A7
331
37F
  5
3E7
331
3BE
  5
426
331
3ED
  5
39F
331
2EA
  5
4A3
331
311
  5
4CA
331
358
  5
473
331
42C
  5
33B
331
428
  5
3DA
331
354
  5
46F
331
37B
  5
3E3
331
3BA
  5
422
331
2E6
  5
49F
331
30D
  5
4C6
331
3E9
  5
39B
331
350
  5
46B
331
2E2
  5
49B
331
309
  5
4C2
331
45D
  5
36C
331
49C
  5
2FA
331
4D7
  5
337
331
4D3
  5
333
331
459
  5
368
331
498
  5
2F6
331
494
  5
2F2
331
4CF
  5
32F
331
455
  5
364
331
451
  5
360
331
490
  5
2EE
331
4CB
  5
32B
331
3E5
  5
397
331
424
  5
3D6
331
3B6
  5
41E
331
3B2
  5
41A
331
3E1
  5
393
331
305
  5
4BE
331
34C
  5
467
331
420
  5
3D2
331
2DE
  5
497
331
377
  5
3DF
331
3AE
  5
416
331
3DD
  5
38F
331
2DA
  5
493
331
301
  5
4BA
331
348
  5
463
331
41C
  5
3CE
331
418
  5
3CA
331
373
  5
48E
331
3AA
  5
412
331
3D9
  5
38B
331
2D6
  5
48F
331
2FD
  5
4B6
331
344
  5
45F
331
340
  5
45B
331
2F9
  5
4B2
331
44D
  5
35C
331
48C
  5
2EA
331
4C7
  5
327
331
449
  5
358
331
488
  5
2E6
331
4C3
  5
323
331
484
  5
2E2
331
4BF
  5
31D
331
445
  5
354
331
441
  5
350
331
480
  5
2DE
331
4BB
  5
319
331
3D5
  5
387
331
414
  5
3C6
331
36F
  5
48A
331
3A6
  5
40E
331
3A2
  5
40A
331
3D1
  5
439
331
410
  5
3C2
331
33C
  5
457
331
36B
  5
486
331
39E
  5
406
331
338
  5
453
331
40C
  5
3BE
331
408
  5
3BA
331
39A
  5
402
331
326
  5
441
331
334
  5
44F
331
330
  5
44B
331
322
  5
43D
331
47C
  5
2DA
331
4B7
  5
315
331
88A
  5
88A
331
478
  5
2D6
331
886
  5
886
331
474
  5
383
331
4B3
  5
311
331
470
  5
37F
331
404
  5
3B6
331
396
  5
3FE
331
400
  5
3B2
331
43F
  5
34E
331
32C
  5
447
331
392
  5
3FA
331
43B
  5
34A
331
38E
  5
3F6
331
3CD
  5
435
331
3FC
  5
3AE
331
328
  5
443
331
367
  5
482
331
3F8
  5
3AA
331
363
  5
47E
331
38A
  5
3F2
331
3C9
  5
431
331
2F5
  5
4AE
331
31C
  5
4D5
331
318
  5
4D1
331
2F1
  5
4AA
331
4AF
  5
30D
331
46C
  5
37B
331
4AB
  5
309
331
4A7
  5
305
331
872
  5
872
331
468
  5
377
331
4A3
  5
301
331
86E
  5
86E
331
464
  5
373
331
460
  5
36F
331
437
  5
346
331
3F4
  5
3A6
331
433
  5
342
331
35F
  5
47A
331
386
  5
3EE
331
3C5
  5
42D
331
3C1
  5
429
331
3F0
  5
3A2
331
42F
  5
33E
331
2ED
  5
4A6
331
314
  5
4CD
331
35B
  5
476
331
382
  5
3EA
331
42B
  5
33A
331
37E
  5
3E6
331
3BD
  5
425
331
3EC
  5
39E
331
2E9
  5
4A2
331
310
  5
4C9
331
357
  5
472
331
353
  5
46E
331
37A
  5
3E2
331
3B9
  5
421
331
2E5
  5
49E
331
30C
  5
4C5
331
3E8
  5
39A
331
308
  5
4C1
331
2E1
  5
49A
331
49F
  5
2FD
331
45C
  5
36B
331
49B
  5
2F9
331
4D6
  5
336
331
4D2
  5
332
331
458
  5
367
331
497
  5
2F5
331
493
  5
2F1
331
4CE
  5
32E
331
454
  5
363
331
450
  5
35F
331
4CA
  5
32A
331
427
  5
3D9
331
3E4
  5
396
331
423
  5
3D5
331
34F
  5
46A
331
3B5
  5
41D
331
3B1
  5
419
331
3E0
  5
392
331
304
  5
4BD
331
34B
  5
466
331
41F
  5
3D1
331
2DD
  5
496
331
376
  5
3DE
331
3AD
  5
415
331
3DC
  5
38E
331
2D9
  5
492
331
300
  5
4B9
331
347
  5
462
331
41B
  5
3CD
331
343
  5
45E
331
372
  5
48D
331
3A9
  5
411
331
2FC
  5
4B5
331
3D8
  5
38A
331
2F8
  5
4B1
331
48F
  5
2ED
331
44C
  5
35B
331
48B
  5
2E9
331
4C6
  5
326
331
4C2
  5
322
331
448
  5
357
331
487
  5
2E5
331
483
  5
2E1
331
4BE
  5
31C
331
444
  5
353
331
440
  5
34F
331
4BA
  5
318
331
417
  5
3C9
331
3D4
  5
43C
331
413
  5
3C5
331
33F
  5
45A
331
36E
  5
489
331
3A5
  5
40D
331
3A1
  5
409
331
3D0
  5
438
331
40F
  5
3C1
331
33B
  5
456
331
36A
  5
485
331
39D
  5
405
331
337
  5
452
331
40B
  5
3BD
331
399
  5
401
331
325
  5
440
331
333
  5
44E
331
47F
  5
2DD
331
47B
  5
2D9
331
4B6
  5
314
331
889
  5
889
331
477
  5
386
331
885
  5
885
331
473
  5
382
331
4B2
  5
310
331
407
  5
3B9
331
403
  5
3B5
331
32F
  5
44A
331
395
  5
3FD
331
391
  5
3F9
331
32B
  5
446
331
3FF
  5
3B1
331
43E
  5
34D
331
43A
  5
349
331
38D
  5
3F5
331
3CC
  5
434
331
3FB
  5
3AD
331
31F
  5
4D8
331
366
  5
481
  0
ACDBDETAILVIEWSTYLE
  5
2CF
102
{ACAD_XDICTIONARY
360
96C
102
}
102
{ACAD_REACTORS
330
2CE
102
}
330
2CE
100
AcDbModelDocViewStyle
 70
     0
  3
Metric50
290
     0
100
AcDbDetailViewStyle
 70
     0
 71
     0
 90
        3
 71
     1
340
11
 40
5.0
340
0
 40
5.0
300

 40
0.0
280
     1
 71
     2
340
16
 90
       25
 71
     3
340
11
 40
5.0
 90
        0
 40
15.0
 90
        1
300
%<\AcVar ViewDetailId>% (%<\AcVar ViewScale \f "%sn">%)
 71
     4
340
16
 90
       25
340
16
 90
       25
280
     0
  0
GROUP
  5
897
102
{ACAD_REACTORS
330
D
102
}
330
D
100
AcDbGroup
300

 70
     1
 71
     1
340
88C
340
88B
340
88A
340
3D4
340
3D3
340
3D2
340
3D1
340
3D0
340
3CF
340
3CE
340
3CD
340
3CC
340
3CB
340
3CA
340
3C9
340
3C8
340
3C7
340
3C6
340
3C5
340
3C4
340
3C3
340
3C2
340
3C1
340
3C0
340
3BF
340
3BE
340
3BD
340
3BC
340
3BB
340
3BA
340
3B9
340
3B8
340
3B7
340
3B6
340
3B5
340
3B4
340
3B3
340
3B2
340
3B1
340
3B0
340
3AF
340
3AE
340
3AD
340
3AC
340
3AB
340
3AA
340
3A9
340
3A8
340
3A7
340
3A6
340
3A5
340
3A4
340
3A3
340
3A2
340
3A1
340
3A0
340
39F
340
39E
340
39D
340
39C
340
39B
340
39A
340
399
340
398
340
397
340
396
340
395
340
394
340
393
340
392
340
391
340
390
340
38F
340
38E
340
38D
340
38C
340
38B
340
38A
340
389
340
388
340
387
340
386
340
385
340
384
340
383
340
382
340
381
340
380
340
37F
340
37E
340
37D
340
37C
340
37B
340
37A
340
379
340
378
340
377
340
376
340
375
340
374
  0
GROUP
  5
898
102
{ACAD_REACTORS
330
D
102
}
330
D
100
AcDbGroup
300

 70
     1
 71
     1
340
889
340
888
340
887
340
429
340
428
340
427
340
426
340
425
340
424
340
423
340
422
340
421
340
420
340
41F
340
41E
340
41D
340
41C
340
41B
340
41A
340
419
340
418
340
417
340
416
340
415
340
414
340
413
340
412
340
411
340
410
340
40F
340
40E
340
40D
340
40C
340
40B
340
40A
340
409
340
408
340
407
340
406
340
405
340
404
340
403
340
402
340
401
340
400
340
3FF
340
3FE
340
3FD
340
3FC
340
3FB
340
3FA
340
3F9
340
3F8
340
3F7
340
3F6
340
3F5
340
3F4
340
3F3
340
3F2
340
3F1
340
3F0
340
3EF
340
3EE
340
3ED
340
3EC
340
3EB
340
3EA
340
3E9
340
3E8
340
3E7
340
3E6
340
3E5
340
3E4
340
3E3
340
3E2
340
3E1
340
3E0
340
3DF
340
3DE
340
3DD
340
3DC
340
3DB
340
3DA
340
3D9
340
3D8
340
3D7
340
3D6
340
3D5
  0
GROUP
  5
899
102
{ACAD_REACTORS
330
D
102
}
330
D
100
AcDbGroup
300

 70
     1
 71
     1
340
870
340
86F
340
373
340
372
340
371
340
370
340
36F
340
36E
340
36D
340
36C
340
36B
340
36A
340
369
340
368
340
367
340
366
340
365
340
364
340
363
340
362
340
361
340
360
340
35F
340
35E
340
35D
340
35C
340
35B
340
35A
340
359
340
358
340
357
340
356
340
355
340
354
340
353
340
352
340
351
340
350
340
34F
340
34E
340
34D
340
34C
340
34B
340
34A
340
349
340
348
340
347
340
346
340
345
340
344
340
343
340
342
340
341
340
340
340
33F
340
33E
340
33D
340
33C
340
33B
340
33A
340
339
340
338
340
337
340
336
340
335
340
334
340
333
340
332
340
331
340
330
340
32F
340
32E
340
32D
340
32C
340
32B
340
32A
340
329
340
328
340
327
340
326
340
325
340
324
340
323
340
322
  0
GROUP
  5
89A
102
{ACAD_REACTORS
330
D
102
}
330
D
100
AcDbGroup
300

 70
     1
 71
     1
340
886
340
885
340
884
340
4D8
340
4D7
340
4D6
340
4D5
340
4D4
340
4D3
340
4D2
340
4D1
340
4D0
340
4CF
340
4CE
340
4CD
340
4CC
340
4CB
340
4CA
340
4C9
340
4C8
340
4C7
340
4C6
340
4C5
340
4C4
340
4C3
340
4C2
340
4C1
340
4C0
340
4BF
340
4BE
340
4BD
340
4BC
340
4BB
340
4BA
340
4B9
340
4B8
340
4B7
340
4B6
340
4B5
340
4B4
340
4B3
340
4B2
340
4B1
340
4B0
340
4AF
340
4AE
340
4AD
340
4AC
340
4AB
340
4AA
340
4A9
340
4A8
340
4A7
340
4A6
340
4A5
340
4A4
340
4A3
340
4A2
340
4A1
340
4A0
340
49F
340
49E
340
49D
340
49C
340
49B
340
49A
340
499
340
498
340
497
340
496
340
495
340
494
340
493
340
492
340
491
340
490
340
48F
340
48E
340
48D
340
48C
340
48B
340
48A
340
489
340
488
340
487
340
486
340
485
340
484
340
483
340
482
340
481
340
480
340
47F
340
47E
340
47D
340
47C
340
47B
340
47A
340
479
340
478
  0
GROUP
  5
89B
102
{ACAD_REACTORS
330
D
102
}
330
D
100
AcDbGroup
300

 70
     1
 71
     1
340
86E
340
86D
340
31F
340
31E
340
31D
340
31C
340
31B
340
31A
340
319
340
318
340
317
340
316
340
315
340
314
340
313
340
312
340
311
340
310
340
30F
340
30E
340
30D
340
30C
340
30B
340
30A
340
309
340
308
340
307
340
306
340
305
340
304
340
303
340
302
340
301
340
300
340
2FF
340
2FE
340
2FD
340
2FC
340
2FB
340
2FA
340
2F9
340
2F8
340
2F7
340
2F6
340
2F5
340
2F4
340
2F3
340
2F2
340
2F1
340
2F0
340
2EF
340
2EE
340
2ED
340
2EC
340
2EB
340
2EA
340
2E9
340
2E8
340
2E7
340
2E6
340
2E5
340
2E4
340
2E3
340
2E2
340
2E1
340
2E0
340
2DF
340
2DE
340
2DD
340
2DC
340
2DB
340
2DA
340
2D9
340
2D8
340
2D7
340
2D6
  0
GROUP
  5
89C
102
{ACAD_REACTORS
330
D
102
}
330
D
100
AcDbGroup
300

 70
     1
 71
     1
340
873
340
872
340
871
340
477
340
476
340
475
340
474
340
473
340
472
340
471
340
470
340
46F
340
46E
340
46D
340
46C
340
46B
340
46A
340
469
340
468
340
467
340
466
340
465
340
464
340
463
340
462
340
461
340
460
340
45F
340
45E
340
45D
340
45C
340
45B
340
45A
340
459
340
458
340
457
340
456
340
455
340
454
340
453
340
452
340
451
340
450
340
44F
340
44E
340
44D
340
44C
340
44B
340
44A
340
449
340
448
340
447
340
446
340
445
340
444
340
443
340
442
340
441
340
440
340
43F
340
43E
340
43D
340
43C
340
43B
340
43A
340
439
340
438
340
437
340
436
340
435
340
434
340
433
340
432
340
431
340
430
340
42F
340
42E
340
42D
340
42C
340
42B
340
42A
  0
LAYOUT
  5
1E
102
{ACAD_XDICTIONARY
360
935
102
}
102
{ACAD_REACTORS
330
1A
102
}
330
1A
100
AcDbPlotSettings
  1

  2
none_device
  4

  6

 40
0.0
 41
0.0
 42
0.0
 43
0.0
 44
0.0
 45
0.0
 46
0.0
 47
0.0
 48
0.0
 49
0.0
140
0.0
141
0.0
142
1.0
143
1.0
 70
   688
 72
     1
 73
     0
 74
     5
  7

 75
    16
147
1.0
148
0.0
149
0.0
100
AcDbLayout
  1
Layout1
 70
     1
 71
     1
 10
0.0
 20
0.0
 11
420.0
 21
297.0
 12
0.0
 22
0.0
 32
0.0
 14
1.000000000000000E+20
 24
1.000000000000000E+20
 34
1.000000000000000E+20
 15
-1.000000000000000E+20
 25
-1.000000000000000E+20
 35
-1.000000000000000E+20
146
0.0
 13
0.0
 23
0.0
 33
0.0
 16
1.0
 26
0.0
 36
0.0
 17
0.0
 27
1.0
 37
0.0
 76
     0
330
1B
  0
LAYOUT
  5
22
102
{ACAD_XDICTIONARY
360
937
102
}
102
{ACAD_REACTORS
330
1A
102
}
330
1A
100
AcDbPlotSettings
  1

  2
none_device
  4
Letter_(8.50_x_11.00_Inches)
  6

 40
6.349999999999998
 41
6.349999999999998
 42
6.350005079999998
 43
6.350005079999998
 44
215.9
 45
279.4
 46
0.0
 47
0.0
 48
0.0
 49
0.0
140
0.0
141
0.0
142
1.0
143
1.0
 70
  1712
 72
     1
 73
     0
 74
     0
  7

 75
     0
147
1.0
148
0.0
149
0.0
100
AcDbLayout
  1
Model
 70
     1
 71
     0
 10
-238.4185371398938
 20
-284.0063524246224
 11
651.5582580566407
 21
499.4922409057626
 12
0.0
 22
0.0
 32
0.0
 14
-238.4185371398938
 24
-284.0063524246224
 34
0.0
 15
651.5582580566407
 25
499.4922409057626
 35
0.0
146
0.0
 13
0.0
 23
0.0
 33
0.0
 16
1.0
 26
0.0
 36
0.0
 17
0.0
 27
1.0
 37
0.0
 76
     0
330
1F
331
29
  0
LAYOUT
  5
2D0
102
{ACAD_XDICTIONARY
360
96E
102
}
102
{ACAD_REACTORS
330
1A
102
}
330
1A
100
AcDbPlotSettings
  1

  2
青梅 FX DocuCentre-V C2275 T2
  4

  6

 40
0.0
 41
0.0
 42
0.0
 43
0.0
 44
0.0
 45
0.0
 46
0.0
 47
0.0
 48
0.0
 49
0.0
140
0.0
141
0.0
142
1.0
143
1.0
 70
   688
 72
     0
 73
     0
 74
     5
  7
AutoCAD_PEN.ctb
 75
    16
147
1.0
148
0.0
149
0.0
100
AcDbLayout
  1
レイアウト1
 70
     1
 71
     2
 10
0.0
 20
0.0
 11
12.0
 21
9.0
 12
0.0
 22
0.0
 32
0.0
 14
0.0
 24
0.0
 34
0.0
 15
0.0
 25
0.0
 35
0.0
146
0.0
 13
0.0
 23
0.0
 33
0.0
 16
1.0
 26
0.0
 36
0.0
 17
0.0
 27
1.0
 37
0.0
 76
     0
330
23
  0
MATERIAL
  5
45
102
{ACAD_XDICTIONARY
360
2C2
102
}
102
{ACAD_REACTORS
330
43
102
}
330
43
100
AcDbMaterial
  1
ByBlock
  0
MATERIAL
  5
44
102
{ACAD_XDICTIONARY
360
2C0
102
}
102
{ACAD_REACTORS
330
43
102
}
330
43
100
AcDbMaterial
  1
ByLayer
  0
MATERIAL
  5
46
102
{ACAD_XDICTIONARY
360
2C4
102
}
102
{ACAD_REACTORS
330
43
102
}
330
43
100
AcDbMaterial
  1
Global
  0
MLEADERSTYLE
  5
5C
102
{ACAD_REACTORS
330
5B
102
}
330
5B
100
AcDbMLeaderStyle
170
     2
171
     1
172
     0
 90
        2
 40
0.0
 41
0.0
173
     1
 91
-1056964608
340
14
 92
       -2
290
     1
 42
2.0
291
     1
 43
8.0
  3
Standard
 44
4.0
300

342
11
174
     1
178
     6
175
     1
176
     0
 93
-1056964608
 45
4.0
292
     0
297
     0
 46
4.0
 94
-1056964608
 47
1.0
 49
1.0
140
1.0
293
     1
141
0.0
294
     1
177
     0
142
1.0
295
     0
296
     0
143
3.75
1001
ACAD_MLEADERVER
1070
     2
  0
MLINESTYLE
  5
18
102
{ACAD_REACTORS
330
17
102
}
330
17
100
AcDbMlineStyle
  2
STANDARD
 70
     0
  3

 62
   256
 51
90.0
 52
90.0
 71
     2
 49
0.5
 62
   256
  6
BYLAYER
 49
-0.5
 62
   256
  6
BYLAYER
  0
ACDBPLACEHOLDER
  5
F
102
{ACAD_REACTORS
330
E
102
}
330
E
  0
SCALE
  5
48
102
{ACAD_REACTORS
330
47
102
}
330
47
100
AcDbScale
 70
     0
300
1:1
140
1.0
141
1.0
290
     1
  0
SCALE
  5
49
102
{ACAD_REACTORS
330
47
102
}
330
47
100
AcDbScale
 70
     0
300
1:2
140
1.0
141
2.0
290
     0
  0
SCALE
  5
4A
102
{ACAD_REACTORS
330
47
102
}
330
47
100
AcDbScale
 70
     0
300
1:4
140
1.0
141
4.0
290
     0
  0
SCALE
  5
4B
102
{ACAD_REACTORS
330
47
102
}
330
47
100
AcDbScale
 70
     0
300
1:5
140
1.0
141
5.0
290
     0
  0
SCALE
  5
4C
102
{ACAD_REACTORS
330
47
102
}
330
47
100
AcDbScale
 70
     0
300
1:8
140
1.0
141
8.0
290
     0
  0
SCALE
  5
4D
102
{ACAD_REACTORS
330
47
102
}
330
47
100
AcDbScale
 70
     0
300
1:10
140
1.0
141
10.0
290
     0
  0
SCALE
  5
4E
102
{ACAD_REACTORS
330
47
102
}
330
47
100
AcDbScale
 70
     0
300
1:16
140
1.0
141
16.0
290
     0
  0
SCALE
  5
4F
102
{ACAD_REACTORS
330
47
102
}
330
47
100
AcDbScale
 70
     0
300
1:20
140
1.0
141
20.0
290
     0
  0
SCALE
  5
50
102
{ACAD_REACTORS
330
47
102
}
330
47
100
AcDbScale
 70
     0
300
1:30
140
1.0
141
30.0
290
     0
  0
SCALE
  5
51
102
{ACAD_REACTORS
330
47
102
}
330
47
100
AcDbScale
 70
     0
300
1:40
140
1.0
141
40.0
290
     0
  0
SCALE
  5
52
102
{ACAD_REACTORS
330
47
102
}
330
47
100
AcDbScale
 70
     0
300
1:50
140
1.0
141
50.0
290
     0
  0
SCALE
  5
53
102
{ACAD_REACTORS
330
47
102
}
330
47
100
AcDbScale
 70
     0
300
1:100
140
1.0
141
100.0
290
     0
  0
SCALE
  5
54
102
{ACAD_REACTORS
330
47
102
}
330
47
100
AcDbScale
 70
     0
300
2:1
140
2.0
141
1.0
290
     0
  0
SCALE
  5
55
102
{ACAD_REACTORS
330
47
102
}
330
47
100
AcDbScale
 70
     0
300
4:1
140
4.0
141
1.0
290
     0
  0
SCALE
  5
56
102
{ACAD_REACTORS
330
47
102
}
330
47
100
AcDbScale
 70
     0
300
8:1
140
8.0
141
1.0
290
     0
  0
SCALE
  5
57
102
{ACAD_REACTORS
330
47
102
}
330
47
100
AcDbScale
 70
     0
300
10:1
140
10.0
141
1.0
290
     0
  0
SCALE
  5
58
102
{ACAD_REACTORS
330
47
102
}
330
47
100
AcDbScale
 70
     0
300
100:1
140
100.0
141
1.0
290
     0
  0
ACDBSECTIONVIEWSTYLE
  5
2CD
102
{ACAD_XDICTIONARY
360
96A
102
}
102
{ACAD_REACTORS
330
2CC
102
}
330
2CC
100
AcDbModelDocViewStyle
 70
     0
  3
Metric50
290
     0
100
AcDbSectionViewStyle
 70
     0
 71
     0
 90
      102
 71
     1
340
11
 40
5.0
340
0
340
0
 40
5.0
300
I, O, Q, S, X, Z
 40
10.0
 90
        0
 40
2.5
 90
        0
 71
     2
340
16
 90
       25
340
16
 90
       50
 40
5.0
 40
2.5
 40
5.0
 71
     3
340
11
 40
5.0
 90
        0
 40
15.0
 90
        1
300
%<\AcVar ViewSectionStartId>%-%<\AcVar ViewSectionEndId>% (%<\AcVar ViewScale \f "%sn">%)
 71
     4
300
ANSI31
 40
1.0
 90
        0
290
     0
290
     0
 90
        6
 40
0.0
 40
1.570796326794896
 40
0.2617993877991494
 40
1.308996938995747
 40
-0.2617993877991494
 40
1.832595714594045
  0
TABLESTYLE
  5
5A
102
{ACAD_XDICTIONARY
360
8A6
102
}
102
{ACAD_REACTORS
330
59
102
}
330
59
100
AcDbTableStyle
  3
Standard
 70
     0
 71
     0
 40
1.5
 41
1.5
280
     0
281
     0
  7
Standard
140
4.5
170
     2
 62
     0
 63
     7
283
     0
274
    -2
284
     1
 64
     0
275
    -2
285
     1
 65
     0
276
    -2
286
     1
 66
     0
277
    -2
287
     1
 67
     0
278
    -2
288
     1
 68
     0
279
    -2
289
     1
 69
     0
  7
Standard
140
6.0
170
     5
 62
     0
 63
     7
283
     0
274
    -2
284
     1
 64
     0
275
    -2
285
     1
 65
     0
276
    -2
286
     1
 66
     0
277
    -2
287
     1
 67
     0
278
    -2
288
     1
 68
     0
279
    -2
289
     1
 69
     0
  7
Standard
140
4.5
170
     5
 62
     0
 63
     7
283
     0
274
    -2
284
     1
 64
     0
275
    -2
285
     1
 65
     0
276
    -2
286
     1
 66
     0
277
    -2
287
     1
 67
     0
278
    -2
288
     1
 68
     0
279
    -2
289
     1
 69
     0
  0
VISUALSTYLE
  5
2F
102
{ACAD_XDICTIONARY
360
941
102
}
102
{ACAD_REACTORS
330
2A
102
}
330
2A
100
AcDbVisualStyle
  2

 70
     4
 71
     0
 72
     2
 73
     0
 90
        0
 40
-0.6
 41
-30.0
 62
     5
 63
     7
 74
     1
 91
        4
 64
     7
 65
   257
 75
     1
175
     1
 42
1.0
 92
        0
 66
   257
 43
1.0
 76
     1
 77
     6
 78
     2
 67
     7
 79
     5
170
     0
171
     0
290
     0
174
     0
 93
        1
 44
0.0
173
     0
291
     0
 45
0.0
1001
ACAD
1000
AcDbSavedByObjectVersion
1070
     0
  0
VISUALSTYLE
  5
32
102
{ACAD_XDICTIONARY
360
947
102
}
102
{ACAD_REACTORS
330
2A
102
}
330
2A
100
AcDbVisualStyle
  2

 70
     7
 71
     1
 72
     0
 73
     1
 90
        0
 40
-0.6
 41
-30.0
 62
     5
 63
     7
 74
     0
 91
        4
 64
     7
 65
   257
 75
     1
175
     1
 42
1.0
 92
        8
 66
     7
 43
1.0
 76
     1
 77
     6
 78
     2
 67
     7
 79
     5
170
     0
171
     0
290
     0
174
     0
 93
        1
 44
0.0
173
     0
291
     1
 45
0.0
1001
ACAD
1000
AcDbSavedByObjectVersion
1070
     0
  0
VISUALSTYLE
  5
36
102
{ACAD_XDICTIONARY
360
94F
102
}
102
{ACAD_REACTORS
330
2A
102
}
330
2A
100
AcDbVisualStyle
  2

 70
    12
 71
     2
 72
     2
 73
     0
 90
        0
 40
-0.6
 41
-30.0
 62
     5
 63
     7
 74
     1
 91
        4
 64
     7
 65
   257
 75
     1
175
     1
 42
1.0
 92
        8
 66
     7
 43
1.0
 76
     1
 77
     6
 78
     2
 67
     7
 79
     5
170
     0
171
     0
290
     0
174
     0
 93
        1
 44
50.0
173
     0
291
     1
 45
0.0
1001
ACAD
1000
AcDbSavedByObjectVersion
1070
     0
  0
VISUALSTYLE
  5
3A
102
{ACAD_XDICTIONARY
360
957
102
}
102
{ACAD_REACTORS
330
2A
102
}
330
2A
100
AcDbVisualStyle
  2

 70
    16
 71
     2
 72
     2
 73
     3
 90
        0
 40
-0.6
 41
-30.0
 62
     5
 63
     8
 74
     1
 91
        4
 64
     7
 65
   257
 75
     1
175
     1
 42
1.0
 92
        8
 66
     8
 43
1.0
 76
     1
 77
     6
 78
     2
 67
     7
 79
     5
170
     0
171
     0
290
     0
174
     0
 93
        1
 44
0.0
173
     0
291
     1
 45
0.0
1001
ACAD
1000
AcDbSavedByObjectVersion
1070
     0
  0
VISUALSTYLE
  5
34
102
{ACAD_XDICTIONARY
360
94B
102
}
102
{ACAD_REACTORS
330
2A
102
}
330
2A
100
AcDbVisualStyle
  2

 70
     9
 71
     3
 72
     2
 73
     0
 90
        0
 40
-0.6
 41
-30.0
 62
     5
 63
     7
 74
     2
 91
        2
 64
     7
 65
   257
 75
     1
175
     1
 42
179.0
 92
        8
 66
     7
 43
1.0
 76
     1
 77
     6
 78
     2
 67
     7
 79
     3
170
     0
171
     0
290
     0
174
     0
 93
        1
 44
0.0
173
     0
291
     0
 45
0.0
1001
ACAD
1000
AcDbSavedByObjectVersion
1070
     0
  0
VISUALSTYLE
  5
35
102
{ACAD_XDICTIONARY
360
94D
102
}
102
{ACAD_REACTORS
330
2A
102
}
330
2A
100
AcDbVisualStyle
  2

 70
    11
 71
     2
 72
     2
 73
     0
 90
        0
 40
-0.6
 41
-30.0
 62
     5
 63
     7
 74
     1
 91
        4
 64
     7
 65
   257
 75
     1
175
     1
 42
1.0
 92
        8
 66
     7
 43
1.0
 76
     1
 77
     6
 78
     2
 67
     7
 79
     5
170
     0
171
     0
290
     0
174
     0
 93
        1
 44
-50.0
173
     0
291
     1
 45
0.0
1001
ACAD
1000
AcDbSavedByObjectVersion
1070
     0
  0
VISUALSTYLE
  5
3D
102
{ACAD_XDICTIONARY
360
95D
102
}
102
{ACAD_REACTORS
330
2A
102
}
330
2A
100
AcDbVisualStyle
  2

 70
    22
 71
     2
 72
     2
 73
     0
 90
        0
 40
-0.6
 41
-30.0
 62
     5
 63
     7
 74
     1
 91
        4
 64
     7
 65
   257
 75
     1
175
     1
 42
1.0
 92
        8
 66
     7
 43
1.0
 76
     1
 77
     6
 78
     2
 67
     7
 79
     5
170
     0
171
     0
290
     0
174
     0
 93
        1
 44
0.0
173
     0
291
     1
 45
0.0
1001
ACAD
1000
AcDbSavedByObjectVersion
1070
     0
  0
VISUALSTYLE
  5
39
102
{ACAD_XDICTIONARY
360
955
102
}
102
{ACAD_REACTORS
330
2A
102
}
330
2A
100
AcDbVisualStyle
  2

 70
    15
 71
     2
 72
     2
 73
     0
 90
        0
 40
-0.6
 41
-30.0
 62
     5
 63
     7
 74
     1
 91
        4
 64
     7
 65
   257
 75
     1
175
     1
 42
1.0
 92
        8
 66
     7
 43
1.0
 76
     1
 77
     6
 78
     2
 67
     7
 79
     5
170
     0
171
     0
290
     0
174
     0
 93
        1
 44
0.0
173
     0
291
     1
 45
0.0
1001
ACAD
1000
AcDbSavedByObjectVersion
1070
     0
  0
VISUALSTYLE
  5
2B
102
{ACAD_XDICTIONARY
360
939
102
}
102
{ACAD_REACTORS
330
2A
102
}
330
2A
100
AcDbVisualStyle
  2

 70
     0
 71
     2
 72
     1
 73
     1
 90
        2
 40
-0.6
 41
30.0
 62
     5
 63
     7
 74
     0
 91
        0
 64
     7
 65
   257
 75
     1
175
     1
 42
1.0
 92
        8
 66
     7
 43
1.0
 76
     1
 77
     6
 78
     2
 67
     7
 79
     5
170
     0
171
     0
290
     0
174
     0
 93
       13
 44
0.0
173
     0
291
     1
 45
0.0
1001
ACAD
1000
AcDbSavedByObjectVersion
1070
     0
  0
VISUALSTYLE
  5
2C
102
{ACAD_XDICTIONARY
360
93B
102
}
102
{ACAD_REACTORS
330
2A
102
}
330
2A
100
AcDbVisualStyle
  2

 70
     1
 71
     2
 72
     1
 73
     1
 90
        2
 40
-0.6
 41
30.0
 62
     5
 63
     7
 74
     1
 91
        0
 64
     7
 65
   257
 75
     1
175
     1
 42
1.0
 92
        0
 66
   257
 43
1.0
 76
     1
 77
     6
 78
     2
 67
     7
 79
     5
170
     0
171
     0
290
     0
174
     0
 93
       13
 44
0.0
173
     0
291
     1
 45
0.0
1001
ACAD
1000
AcDbSavedByObjectVersion
1070
     0
  0
VISUALSTYLE
  5
2D
102
{ACAD_XDICTIONARY
360
93D
102
}
102
{ACAD_REACTORS
330
2A
102
}
330
2A
100
AcDbVisualStyle
  2

 70
     2
 71
     2
 72
     2
 73
     1
 90
        2
 40
-0.6
 41
30.0
 62
     5
 63
     7
 74
     0
 91
        0
 64
     7
 65
   257
 75
     1
175
     1
 42
1.0
 92
        0
 66
     7
 43
1.0
 76
     1
 77
     6
 78
     2
 67
     7
 79
     5
170
     0
171
     0
290
     0
174
     0
 93
       13
 44
0.0
173
     0
291
     1
 45
0.0
1001
ACAD
1000
AcDbSavedByObjectVersion
1070
     0
  0
VISUALSTYLE
  5
2E
102
{ACAD_XDICTIONARY
360
93F
102
}
102
{ACAD_REACTORS
330
2A
102
}
330
2A
100
AcDbVisualStyle
  2

 70
     3
 71
     2
 72
     2
 73
     1
 90
        2
 40
-0.6
 41
30.0
 62
     5
 63
     7
 74
     1
 91
        0
 64
     7
 65
   257
 75
     1
175
     1
 42
1.0
 92
        0
 66
   257
 43
1.0
 76
     1
 77
     6
 78
     2
 67
     7
 79
     5
170
     0
171
     0
290
     0
174
     0
 93
       13
 44
0.0
173
     0
291
     1
 45
0.0
1001
ACAD
1000
AcDbSavedByObjectVersion
1070
     0
  0
VISUALSTYLE
  5
31
102
{ACAD_XDICTIONARY
360
945
102
}
102
{ACAD_REACTORS
330
2A
102
}
330
2A
100
AcDbVisualStyle
  2

 70
     6
 71
     1
 72
     2
 73
     2
 90
        0
 40
-0.6
 41
-30.0
 62
     5
 63
     7
 74
     2
 91
        2
 64
     7
 65
   257
 75
     2
175
     1
 42
40.0
 92
        0
 66
   257
 43
1.0
 76
     1
 77
     6
 78
     2
 67
     7
 79
     3
170
     0
171
     0
290
     0
174
     0
 93
        1
 44
0.0
173
     0
291
     0
 45
0.0
1001
ACAD
1000
AcDbSavedByObjectVersion
1070
     0
  0
VISUALSTYLE
  5
3B
102
{ACAD_XDICTIONARY
360
959
102
}
102
{ACAD_REACTORS
330
2A
102
}
330
2A
100
AcDbVisualStyle
  2

 70
    20
 71
     2
 72
     2
 73
     0
 90
        0
 40
-0.6
 41
-30.0
 62
     5
 63
     7
 74
     1
 91
        4
 64
     7
 65
   257
 75
     1
175
     1
 42
1.0
 92
       10
 66
     7
 43
1.0
 76
     1
 77
     6
 78
     2
 67
     7
 79
     5
170
     0
171
     0
290
     0
174
     0
 93
        1
 44
0.0
173
     0
291
     1
 45
0.0
1001
ACAD
1000
AcDbSavedByObjectVersion
1070
     0
  0
VISUALSTYLE
  5
38
102
{ACAD_XDICTIONARY
360
953
102
}
102
{ACAD_REACTORS
330
2A
102
}
330
2A
100
AcDbVisualStyle
  2

 70
    14
 71
     2
 72
     2
 73
     0
 90
        0
 40
-0.6
 41
-30.0
 62
     5
 63
     7
 74
     1
 91
        4
 64
     7
 65
   257
 75
     7
175
     7
 42
1.0
 92
        8
 66
     7
 43
1.0
 76
     1
 77
     6
 78
     2
 67
     7
 79
     5
170
     0
171
     0
290
     0
174
     0
 93
        1
 44
0.0
173
     0
291
     1
 45
0.0
1001
ACAD
1000
AcDbSavedByObjectVersion
1070
     0
  0
VISUALSTYLE
  5
3C
102
{ACAD_XDICTIONARY
360
95B
102
}
102
{ACAD_REACTORS
330
2A
102
}
330
2A
100
AcDbVisualStyle
  2

 70
    21
 71
     2
 72
     2
 73
     0
 90
        0
 40
-0.6
 41
-30.0
 62
     5
 63
     7
 74
     1
 91
        4
 64
     7
 65
   257
 75
     1
175
     1
 42
1.0
 92
        9
 66
     7
 43
1.0
 76
     1
 77
     6
 78
     2
 67
     7
 79
     5
170
     0
171
     0
290
     0
174
     0
 93
        1
 44
0.0
173
     0
291
     1
 45
0.0
1001
ACAD
1000
AcDbSavedByObjectVersion
1070
     0
  0
VISUALSTYLE
  5
33
102
{ACAD_XDICTIONARY
360
949
102
}
102
{ACAD_REACTORS
330
2A
102
}
330
2A
100
AcDbVisualStyle
  2

 70
     8
 71
     2
 72
     3
 73
     0
 90
        2
 40
-0.6
 41
30.0
 62
     5
 63
     7
 74
     0
 91
        0
 64
     7
 65
   257
 75
     1
175
     1
 42
1.0
 92
        8
 66
   257
 43
1.0
 76
     1
 77
     6
 78
     2
 67
     7
 79
     3
170
     0
171
     0
290
     0
174
     0
 93
       13
 44
0.0
173
     0
291
     0
 45
0.0
1001
ACAD
1000
AcDbSavedByObjectVersion
1070
     0
  0
VISUALSTYLE
  5
42
102
{ACAD_XDICTIONARY
360
967
102
}
102
{ACAD_REACTORS
330
2A
102
}
330
2A
100
AcDbVisualStyle
  2

 70
    27
 71
     2
 72
     2
 73
     1
 90
        2
 40
-0.6
 41
30.0
 62
     5
 63
     7
 74
     0
 91
        4
 64
     7
 65
   257
 75
     1
175
     1
 42
1.0
 92
        8
 66
   257
 43
1.0
 76
     1
 77
     6
 78
     2
 67
     8
 79
     3
170
     0
171
     0
290
     0
174
     0
 93
        5
 44
0.0
173
     0
291
     0
 45
0.0
1001
ACAD
1000
AcDbSavedByObjectVersion
1070
     0
  0
VISUALSTYLE
  5
41
102
{ACAD_XDICTIONARY
360
965
102
}
102
{ACAD_REACTORS
330
2A
102
}
330
2A
100
AcDbVisualStyle
  2

 70
    26
 71
     2
 72
     2
 73
     1
 90
        2
 40
-0.6
 41
30.0
 62
     5
 63
     7
 74
     1
 91
       10
 64
     7
 65
   257
 75
     2
175
     1
 42
1.0
 92
        8
 66
   257
 43
1.0
 76
     1
 77
     6
 78
     2
 67
     7
 79
     3
170
     0
171
     0
290
     0
174
     0
 93
        5
 44
0.0
173
     0
291
     0
 45
0.0
1001
ACAD
1000
AcDbSavedByObjectVersion
1070
     0
  0
VISUALSTYLE
  5
3E
102
{ACAD_XDICTIONARY
360
95F
102
}
102
{ACAD_REACTORS
330
2A
102
}
330
2A
100
AcDbVisualStyle
  2

 70
    23
 71
     2
 72
     2
 73
     3
 90
        0
 40
-0.6
 41
-30.0
 62
     5
 63
     7
 74
     2
 91
        2
 64
     7
 65
     7
 75
     1
175
     1
 42
40.0
 92
        8
 66
     7
 43
1.0
 76
     1
 77
     6
 78
     2
 67
     7
 79
     3
170
     0
171
     0
290
     0
174
     0
 93
        1
 44
0.0
173
     0
291
     0
 45
0.0
1001
ACAD
1000
AcDbSavedByObjectVersion
1070
     0
  0
VISUALSTYLE
  5
3F
102
{ACAD_XDICTIONARY
360
961
102
}
102
{ACAD_REACTORS
330
2A
102
}
330
2A
100
AcDbVisualStyle
  2

 70
    24
 71
     1
 72
     2
 73
     2
 90
        0
 40
-0.6
 41
-30.0
 62
     5
 63
     7
 74
     2
 91
        2
 64
     7
 65
     7
 75
     1
175
     1
 42
40.0
 92
       11
 66
     7
 43
1.0
 76
     1
 77
     6
 78
     2
 67
     7
 79
     6
170
     0
171
     0
290
     0
174
     0
 93
        1
 44
0.0
173
     0
291
     0
 45
0.0
1001
ACAD
1000
AcDbSavedByObjectVersion
1070
     0
  0
VISUALSTYLE
  5
37
102
{ACAD_XDICTIONARY
360
951
102
}
102
{ACAD_REACTORS
330
2A
102
}
330
2A
100
AcDbVisualStyle
  2

 70
    13
 71
     2
 72
     2
 73
     0
 90
        0
 40
-0.6
 41
-30.0
 62
     5
 63
     7
 74
     1
 91
        4
 64
     7
 65
   257
 75
     1
175
     1
 42
1.0
 92
       12
 66
     7
 43
1.0
 76
     1
 77
     6
 78
     2
 67
     7
 79
     5
170
     0
171
     0
290
     0
174
     0
 93
        1
 44
0.0
173
     0
291
     1
 45
0.0
1001
ACAD
1000
AcDbSavedByObjectVersion
1070
     0
  0
VISUALSTYLE
  5
30
102
{ACAD_XDICTIONARY
360
943
102
}
102
{ACAD_REACTORS
330
2A
102
}
330
2A
100
AcDbVisualStyle
  2

 70
     5
 71
     0
 72
     2
 73
     0
 90
        0
 40
-0.6
 41
-30.0
 62
     5
 63
     7
 74
     1
 91
        4
 64
     7
 65
   257
 75
     1
175
     1
 42
1.0
 92
        0
 66
   257
 43
1.0
 76
     1
 77
     6
 78
     2
 67
     7
 79
     3
170
     0
171
     0
290
     0
174
     0
 93
        1
 44
0.0
173
     0
291
     0
 45
0.0
1001
ACAD
1000
AcDbSavedByObjectVersion
1070
     0
  0
VISUALSTYLE
  5
40
102
{ACAD_XDICTIONARY
360
963
102
}
102
{ACAD_REACTORS
330
2A
102
}
330
2A
100
AcDbVisualStyle
  2

 70
    25
 71
     2
 72
     2
 73
     1
 90
        1
 40
0.5
 41
-30.0
 62
     5
 63
     7
 74
     1
 91
        0
 64
     7
 65
   257
 75
     1
175
     1
 42
1.0
 92
        8
 66
     7
 43
1.0
 76
     1
 77
     6
 78
     2
 67
     7
 79
     3
170
     0
171
     0
290
     0
174
     0
 93
       13
 44
0.0
173
     0
291
     0
 45
0.0
1001
ACAD
1000
AcDbSavedByObjectVersion
1070
     0
  0
DICTIONARYVAR
  5
28E
102
{ACAD_REACTORS
330
280
102
}
330
280
100
DictionaryVariables
280
     0
  1
1:1
  0
DICTIONARYVAR
  5
287
102
{ACAD_REACTORS
330
280
102
}
330
280
100
DictionaryVariables
280
     0
  1
3.500000
  0
DICTIONARYVAR
  5
288
102
{ACAD_REACTORS
330
280
102
}
330
280
100
DictionaryVariables
280
     0
  1
acadiso.lin
  0
DICTIONARYVAR
  5
282
102
{ACAD_REACTORS
330
280
102
}
330
280
100
DictionaryVariables
280
     0
  1
STANDARD
  0
DICTIONARYVAR
  5
281
102
{ACAD_REACTORS
330
280
102
}
330
280
100
DictionaryVariables
280
     0
  1
STANDARD
  0
DICTIONARYVAR
  5
8A1
102
{ACAD_REACTORS
330
280
102
}
330
280
100
DictionaryVariables
280
     0
  1
Metric50
  0
DICTIONARYVAR
  5
8A2
102
{ACAD_REACTORS
330
280
102
}
330
280
100
DictionaryVariables
280
     0
  1
Metric50
  0
DICTIONARYVAR
  5
289
102
{ACAD_REACTORS
330
280
102
}
330
280
100
DictionaryVariables
280
     0
  1
2
  0
DICTIONARYVAR
  5
28A
102
{ACAD_REACTORS
330
280
102
}
330
280
100
DictionaryVariables
280
     0
  1
1
  0
DICTIONARYVAR
  5
8ED
102
{ACAD_REACTORS
330
280
102
}
330
280
100
DictionaryVariables
280
     0
  1
0
  0
DICTIONARYVAR
  5
8A4
102
{ACAD_REACTORS
330
280
102
}
330
280
100
DictionaryVariables
280
     0
  1
1
  0
DICTIONARYVAR
  5
8A5
102
{ACAD_REACTORS
330
280
102
}
330
280
100
DictionaryVariables
280
     0
  1
15
  0
DICTIONARYVAR
  5
8A3
102
{ACAD_REACTORS
330
280
102
}
330
280
100
DictionaryVariables
280
     0
  1
0
  0
DICTIONARYVAR
  5
8F0
102
{ACAD_REACTORS
330
280
102
}
330
280
100
DictionaryVariables
280
     0
  1
1.570796
  0
DICTIONARYVAR
  5
8F1
102
{ACAD_REACTORS
330
280
102
}
330
280
100
DictionaryVariables
280
     0
  1
1.570796
  0
DICTIONARYVAR
  5
8F2
102
{ACAD_REACTORS
330
280
102
}
330
280
100
DictionaryVariables
280
     0
  1
-122.394000
  0
DICTIONARYVAR
  5
28F
102
{ACAD_REACTORS
330
280
102
}
330
280
100
DictionaryVariables
280
     0
  1
1
  0
DICTIONARYVAR
  5
8EF
102
{ACAD_REACTORS
330
280
102
}
330
280
100
DictionaryVariables
280
     0
  1
80.000000
  0
DICTIONARYVAR
  5
8EE
102
{ACAD_REACTORS
330
280
102
}
330
280
100
DictionaryVariables
280
     0
  1
5.000000
  0
DICTIONARYVAR
  5
8EC
102
{ACAD_REACTORS
330
280
102
}
330
280
100
DictionaryVariables
280
     0
  1
127
  0
DICTIONARYVAR
  5
8F3
102
{ACAD_REACTORS
330
280
102
}
330
280
100
DictionaryVariables
280
     0
  1
2
  0
DICTIONARY
  5
96C
330
2CF
100
AcDbDictionary
280
     1
281
     1
  3
ACAD_XREC_ROUNDTRIP
360
96D
  0
DICTIONARY
  5
935
330
1E
100
AcDbDictionary
280
     1
281
     1
  3
ACAD_XREC_ROUNDTRIP
360
936
  0
DICTIONARY
  5
937
330
22
100
AcDbDictionary
280
     1
281
     1
  3
ACAD_XREC_ROUNDTRIP
360
938
  0
DICTIONARY
  5
96E
330
2D0
100
AcDbDictionary
280
     1
281
     1
  3
ACAD_XREC_ROUNDTRIP
360
96F
  0
DICTIONARY
  5
2C2
330
45
100
AcDbDictionary
280
     1
281
     1
  3
ACAD_XREC_ROUNDTRIP
360
2C3
  0
DICTIONARY
  5
2C0
330
44
100
AcDbDictionary
280
     1
281
     1
  3
ACAD_XREC_ROUNDTRIP
360
2C1
  0
DICTIONARY
  5
2C4
330
46
100
AcDbDictionary
280
     1
281
     1
  3
ACAD_XREC_ROUNDTRIP
360
2C5
  0
DICTIONARY
  5
96A
330
2CD
100
AcDbDictionary
280
     1
281
     1
  3
ACAD_XREC_ROUNDTRIP
360
96B
  0
DICTIONARY
  5
8A6
330
5A
100
AcDbDictionary
280
     1
281
     1
  3
ACAD_ROUNDTRIP_2008_TABLESTYLE_CELLSTYLEMAP
360
932
  3
ACAD_XREC_ROUNDTRIP
360
969
  0
DICTIONARY
  5
941
330
2F
100
AcDbDictionary
280
     1
281
     1
  3
ACAD_XREC_ROUNDTRIP
360
942
  0
DICTIONARY
  5
947
330
32
100
AcDbDictionary
280
     1
281
     1
  3
ACAD_XREC_ROUNDTRIP
360
948
  0
DICTIONARY
  5
94F
330
36
100
AcDbDictionary
280
     1
281
     1
  3
ACAD_XREC_ROUNDTRIP
360
950
  0
DICTIONARY
  5
957
330
3A
100
AcDbDictionary
280
     1
281
     1
  3
ACAD_XREC_ROUNDTRIP
360
958
  0
DICTIONARY
  5
94B
330
34
100
AcDbDictionary
280
     1
281
     1
  3
ACAD_XREC_ROUNDTRIP
360
94C
  0
DICTIONARY
  5
94D
330
35
100
AcDbDictionary
280
     1
281
     1
  3
ACAD_XREC_ROUNDTRIP
360
94E
  0
DICTIONARY
  5
95D
330
3D
100
AcDbDictionary
280
     1
281
     1
  3
ACAD_XREC_ROUNDTRIP
360
95E
  0
DICTIONARY
  5
955
330
39
100
AcDbDictionary
280
     1
281
     1
  3
ACAD_XREC_ROUNDTRIP
360
956
  0
DICTIONARY
  5
939
330
2B
100
AcDbDictionary
280
     1
281
     1
  3
ACAD_XREC_ROUNDTRIP
360
93A
  0
DICTIONARY
  5
93B
330
2C
100
AcDbDictionary
280
     1
281
     1
  3
ACAD_XREC_ROUNDTRIP
360
93C
  0
DICTIONARY
  5
93D
330
2D
100
AcDbDictionary
280
     1
281
     1
  3
ACAD_XREC_ROUNDTRIP
360
93E
  0
DICTIONARY
  5
93F
330
2E
100
AcDbDictionary
280
     1
281
     1
  3
ACAD_XREC_ROUNDTRIP
360
940
  0
DICTIONARY
  5
945
330
31
100
AcDbDictionary
280
     1
281
     1
  3
ACAD_XREC_ROUNDTRIP
360
946
  0
DICTIONARY
  5
959
330
3B
100
AcDbDictionary
280
     1
281
     1
  3
ACAD_XREC_ROUNDTRIP
360
95A
  0
DICTIONARY
  5
953
330
38
100
AcDbDictionary
280
     1
281
     1
  3
ACAD_XREC_ROUNDTRIP
360
954
  0
DICTIONARY
  5
95B
330
3C
100
AcDbDictionary
280
     1
281
     1
  3
ACAD_XREC_ROUNDTRIP
360
95C
  0
DICTIONARY
  5
949
330
33
100
AcDbDictionary
280
     1
281
     1
  3
ACAD_XREC_ROUNDTRIP
360
94A
  0
DICTIONARY
  5
967
330
42
100
AcDbDictionary
280
     1
281
     1
  3
ACAD_XREC_ROUNDTRIP
360
968
  0
DICTIONARY
  5
965
330
41
100
AcDbDictionary
280
     1
281
     1
  3
ACAD_XREC_ROUNDTRIP
360
966
  0
DICTIONARY
  5
95F
330
3E
100
AcDbDictionary
280
     1
281
     1
  3
ACAD_XREC_ROUNDTRIP
360
960
  0
DICTIONARY
  5
961
330
3F
100
AcDbDictionary
280
     1
281
     1
  3
ACAD_XREC_ROUNDTRIP
360
962
  0
DICTIONARY
  5
951
330
37
100
AcDbDictionary
280
     1
281
     1
  3
ACAD_XREC_ROUNDTRIP
360
952
  0
DICTIONARY
  5
943
330
30
100
AcDbDictionary
280
     1
281
     1
  3
ACAD_XREC_ROUNDTRIP
360
944
  0
DICTIONARY
  5
963
330
40
100
AcDbDictionary
280
     1
281
     1
  3
ACAD_XREC_ROUNDTRIP
360
964
  0
XRECORD
  5
96D
102
{ACAD_REACTORS
330
96C
102
}
330
96C
100
AcDbXrecord
280
     1
102
DISPLAYNAME
  1
Metric50
102
FLAGS
 90
        0
  0
XRECORD
  5
936
102
{ACAD_REACTORS
330
935
102
}
330
935
100
AcDbXrecord
280
     1
102
SHADEPLOT
 70
     0
102
SHADEPLOTRESLEVEL
 70
     2
102
SHADEPLOTCUSTOMDPI
 70
   300
  0
XRECORD
  5
938
102
{ACAD_REACTORS
330
937
102
}
330
937
100
AcDbXrecord
280
     1
102
SHADEPLOT
 70
     0
102
SHADEPLOTRESLEVEL
 70
     2
102
SHADEPLOTCUSTOMDPI
 70
   300
  0
XRECORD
  5
96F
102
{ACAD_REACTORS
330
96E
102
}
330
96E
100
AcDbXrecord
280
     1
102
SHADEPLOT
 70
     0
102
SHADEPLOTRESLEVEL
 70
     2
102
SHADEPLOTCUSTOMDPI
 70
   300
  0
XRECORD
  5
2C3
102
{ACAD_REACTORS
330
2C2
102
}
330
2C2
100
AcDbXrecord
280
     1
102
MATERIAL
148
0.0
149
0.0
149
0.0
 93
        0
 94
      127
282
     0
 72
     1
 77
     1
171
     1
175
     1
179
     1
273
     0
  0
XRECORD
  5
2C1
102
{ACAD_REACTORS
330
2C0
102
}
330
2C0
100
AcDbXrecord
280
     1
102
MATERIAL
148
0.0
149
0.0
149
0.0
 93
        0
 94
      127
282
     0
 72
     1
 77
     1
171
     1
175
     1
179
     1
273
     0
  0
XRECORD
  5
2C5
102
{ACAD_REACTORS
330
2C4
102
}
330
2C4
100
AcDbXrecord
280
     1
102
MATERIAL
148
0.0
149
0.0
149
0.0
 93
        0
 94
      127
282
     0
 72
     1
 77
     1
171
     1
175
     1
179
     1
273
     0
  0
XRECORD
  5
96B
102
{ACAD_REACTORS
330
96A
102
}
330
96A
100
AcDbXrecord
280
     1
102
DISPLAYNAME
  1
Metric50
102
FLAGS
 90
        0
  0
CELLSTYLEMAP
  5
932
102
{ACAD_REACTORS
330
8A6
102
}
330
8A6
100
AcDbCellStyleMap
 90
        3
300
CELLSTYLE
  1
TABLEFORMAT_BEGIN
 90
        5
170
     1
 91
        0
 92
    32768
 62
   257
 93
        1
300
CONTENTFORMAT
  1
CONTENTFORMAT_BEGIN
 90
        0
 91
        0
 92
        4
 93
        0
300

 40
0.0
140
1.0
 94
        5
 62
     0
340
11
144
6.0
309
CONTENTFORMAT_END
171
     1
301
MARGIN
  1
CELLMARGIN_BEGIN
 40
1.5
 40
1.5
 40
1.5
 40
1.5
 40
0.18
 40
0.18
309
CELLMARGIN_END
 94
        6
 95
        1
302
GRIDFORMAT
  1
GRIDFORMAT_BEGIN
 90
        0
 91
        1
 62
     0
 92
       -2
340
0
 93
        0
 40
0.045
309
GRIDFORMAT_END
 95
        2
302
GRIDFORMAT
  1
GRIDFORMAT_BEGIN
 90
        0
 91
        1
 62
     0
 92
       -2
340
0
 93
        0
 40
0.045
309
GRIDFORMAT_END
 95
        4
302
GRIDFORMAT
  1
GRIDFORMAT_BEGIN
 90
        0
 91
        1
 62
     0
 92
       -2
340
0
 93
        0
 40
0.045
309
GRIDFORMAT_END
 95
        8
302
GRIDFORMAT
  1
GRIDFORMAT_BEGIN
 90
        0
 91
        1
 62
     0
 92
       -2
340
0
 93
        0
 40
0.045
309
GRIDFORMAT_END
 95
       16
302
GRIDFORMAT
  1
GRIDFORMAT_BEGIN
 90
        0
 91
        1
 62
     0
 92
       -2
340
0
 93
        0
 40
0.045
309
GRIDFORMAT_END
 95
       32
302
GRIDFORMAT
  1
GRIDFORMAT_BEGIN
 90
        0
 91
        1
 62
     0
 92
       -2
340
0
 93
        0
 40
0.045
309
GRIDFORMAT_END
309
TABLEFORMAT_END
  1
CELLSTYLE_BEGIN
 90
        1
 91
        1
300
_TITLE
309
CELLSTYLE_END
300
CELLSTYLE
  1
TABLEFORMAT_BEGIN
 90
        5
170
     1
 91
        0
 92
        0
 62
   257
 93
        1
300
CONTENTFORMAT
  1
CONTENTFORMAT_BEGIN
 90
        0
 91
        0
 92
        4
 93
        0
300

 40
0.0
140
1.0
 94
        5
 62
     0
340
11
144
4.5
309
CONTENTFORMAT_END
171
     1
301
MARGIN
  1
CELLMARGIN_BEGIN
 40
1.5
 40
1.5
 40
1.5
 40
1.5
 40
0.18
 40
0.18
309
CELLMARGIN_END
 94
        6
 95
        1
302
GRIDFORMAT
  1
GRIDFORMAT_BEGIN
 90
        0
 91
        1
 62
     0
 92
       -2
340
0
 93
        0
 40
0.045
309
GRIDFORMAT_END
 95
        2
302
GRIDFORMAT
  1
GRIDFORMAT_BEGIN
 90
        0
 91
        1
 62
     0
 92
       -2
340
0
 93
        0
 40
0.045
309
GRIDFORMAT_END
 95
        4
302
GRIDFORMAT
  1
GRIDFORMAT_BEGIN
 90
        0
 91
        1
 62
     0
 92
       -2
340
0
 93
        0
 40
0.045
309
GRIDFORMAT_END
 95
        8
302
GRIDFORMAT
  1
GRIDFORMAT_BEGIN
 90
        0
 91
        1
 62
     0
 92
       -2
340
0
 93
        0
 40
0.045
309
GRIDFORMAT_END
 95
       16
302
GRIDFORMAT
  1
GRIDFORMAT_BEGIN
 90
        0
 91
        1
 62
     0
 92
       -2
340
0
 93
        0
 40
0.045
309
GRIDFORMAT_END
 95
       32
302
GRIDFORMAT
  1
GRIDFORMAT_BEGIN
 90
        0
 91
        1
 62
     0
 92
       -2
340
0
 93
        0
 40
0.045
309
GRIDFORMAT_END
309
TABLEFORMAT_END
  1
CELLSTYLE_BEGIN
 90
        2
 91
        1
300
_HEADER
309
CELLSTYLE_END
300
CELLSTYLE
  1
TABLEFORMAT_BEGIN
 90
        5
170
     1
 91
        0
 92
        0
 62
   257
 93
        1
300
CONTENTFORMAT
  1
CONTENTFORMAT_BEGIN
 90
        0
 91
        0
 92
        4
 93
        0
300

 40
0.0
140
1.0
 94
        2
 62
     0
340
11
144
4.5
309
CONTENTFORMAT_END
171
     1
301
MARGIN
  1
CELLMARGIN_BEGIN
 40
1.5
 40
1.5
 40
1.5
 40
1.5
 40
0.18
 40
0.18
309
CELLMARGIN_END
 94
        6
 95
        1
302
GRIDFORMAT
  1
GRIDFORMAT_BEGIN
 90
        0
 91
        1
 62
     0
 92
       -2
340
0
 93
        0
 40
0.045
309
GRIDFORMAT_END
 95
        2
302
GRIDFORMAT
  1
GRIDFORMAT_BEGIN
 90
        0
 91
        1
 62
     0
 92
       -2
340
0
 93
        0
 40
0.045
309
GRIDFORMAT_END
 95
        4
302
GRIDFORMAT
  1
GRIDFORMAT_BEGIN
 90
        0
 91
        1
 62
     0
 92
       -2
340
0
 93
        0
 40
0.045
309
GRIDFORMAT_END
 95
        8
302
GRIDFORMAT
  1
GRIDFORMAT_BEGIN
 90
        0
 91
        1
 62
     0
 92
       -2
340
0
 93
        0
 40
0.045
309
GRIDFORMAT_END
 95
       16
302
GRIDFORMAT
  1
GRIDFORMAT_BEGIN
 90
        0
 91
        1
 62
     0
 92
       -2
340
0
 93
        0
 40
0.045
309
GRIDFORMAT_END
 95
       32
302
GRIDFORMAT
  1
GRIDFORMAT_BEGIN
 90
        0
 91
        1
 62
     0
 92
       -2
340
0
 93
        0
 40
0.045
309
GRIDFORMAT_END
309
TABLEFORMAT_END
  1
CELLSTYLE_BEGIN
 90
        3
 91
        2
300
_DATA
309
CELLSTYLE_END
  0
XRECORD
  5
969
102
{ACAD_REACTORS
330
8A6
102
}
330
8A6
100
AcDbXrecord
280
     1
102
ACAD_ROUNDTRIP_PRE2007_TABLESTYLE
 90
        4
 91
        0
  1

 92
        4
 93
        0
  2

 94
        4
 95
        0
  3

  0
XRECORD
  5
942
102
{ACAD_REACTORS
330
941
102
}
330
941
100
AcDbXrecord
280
     1
102
RTVSPost2010Prop28
280
     1
102
RTVSPost2010PropOp28
 70
     1
102
RTVSPost2010Prop29
280
     1
102
RTVSPost2010PropOp29
 70
     1
102
RTVSPost2010Prop30
280
     0
102
RTVSPost2010PropOp30
 70
     1
102
RTVSPost2010Prop31
280
     0
102
RTVSPost2010PropOp31
 70
     1
102
RTVSPost2010Prop32
280
     0
102
RTVSPost2010PropOp32
 70
     1
102
RTVSPost2010Prop33
280
     0
102
RTVSPost2010PropOp33
 70
     1
102
RTVSPost2010Prop34
280
     0
102
RTVSPost2010PropOp34
 70
     1
102
RTVSPost2010Prop35
280
     0
102
RTVSPost2010PropOp35
 70
     1
102
RTVSPost2010Prop36
280
     0
102
RTVSPost2010PropOp36
 70
     1
102
RTVSPost2010Prop37
 90
       50
102
RTVSPost2010PropOp37
 70
     1
102
RTVSPost2010Prop38
140
0.0
102
RTVSPost2010PropOp38
 70
     1
102
RTVSPost2010Prop39
140
1.0
102
RTVSPost2010PropOp39
 70
     1
102
RTVSPost2010Prop40
 90
        0
102
RTVSPost2010PropOp40
 70
     1
102
RTVSPost2010Prop41ColorIndex
 90
       18
102
RTVSPost2010Prop41ColorRGB
 90
        0
102
RTVSPost2010PropOp41
 70
     1
102
RTVSPost2010Prop42
 90
       50
102
RTVSPost2010PropOp42
 70
     1
102
RTVSPost2010Prop43
 90
        3
102
RTVSPost2010PropOp43
 70
     1
102
RTVSPost2010Prop44ColorIndex
 90
        5
102
RTVSPost2010Prop44ColorRGB
 90
      255
102
RTVSPost2010PropOp44
 70
     1
102
RTVSPost2010Prop45
280
     0
102
RTVSPost2010PropOp45
 70
     1
102
RTVSPost2010Prop46
 90
       50
102
RTVSPost2010PropOp46
 70
     1
102
RTVSPost2010Prop47
 90
       50
102
RTVSPost2010PropOp47
 70
     1
102
RTVSPost2010Prop48
 90
       50
102
RTVSPost2010PropOp48
 70
     1
102
RTVSPost2010Prop49
280
     0
102
RTVSPost2010PropOp49
 70
     1
102
RTVSPost2010Prop50
 90
       50
102
RTVSPost2010PropOp50
 70
     1
102
RTVSPost2010Prop51ColorIndex
 90
      256
102
RTVSPost2010Prop51ColorRGB
 90
-16777216
102
RTVSPost2010PropOp51
 70
     0
102
RTVSPost2010Prop52
140
1.0
102
RTVSPost2010PropOp52
 70
     0
102
RTVSPost2010Prop53
 90
        2
102
RTVSPost2010PropOp53
 70
     1
102
RTVSPost2010Prop54
  1
strokes_ogs.tif
102
RTVSPost2010PropOp54
 70
     1
102
RTVSPost2010Prop55
280
     0
102
RTVSPost2010PropOp55
 70
     1
102
RTVSPost2010Prop56
140
1.0
102
RTVSPost2010PropOp56
 70
     1
102
RTVSPost2010Prop57
140
1.0
102
RTVSPost2010PropOp57
 70
     1
102
RTVSPropertyOp0
 70
     1
102
RTVSPropertyOp1
 70
     1
102
RTVSPropertyOp2
 70
     1
102
RTVSPropertyOp3
 70
     1
102
RTVSPropertyOp4
 70
     1
102
RTVSPropertyOp5
 70
     1
102
RTVSPropertyOp6
 70
     1
102
RTVSPropertyOp7
 70
     1
102
RTVSPropertyOp8
 70
     1
102
RTVSPropertyOp9
 70
     1
102
RTVSPropertyOp10
 70
     1
102
RTVSPropertyOp11
 70
     1
102
RTVSPropertyOp12
 70
     1
102
RTVSPropertyOp13
 70
     1
102
RTVSPropertyOp14
 70
     1
102
RTVSPropertyOp15
 70
     1
102
RTVSPropertyOp16
 70
     1
102
RTVSPropertyOp17
 70
     1
102
RTVSPropertyOp18
 70
     1
102
RTVSPropertyOp19
 70
     1
102
RTVSPropertyOp20
 70
     1
102
RTVSPropertyOp21
 70
     1
102
RTVSPropertyOp22
 70
     1
102
RTVSPropertyOp23
 70
     1
102
RTVSPropertyOp24
 70
     1
102
RTVSPropertyOp25
 70
     1
102
RTVSPropertyOp26
 70
     1
102
RTVSPropertyOp27
 70
     1
102
RTVSPropertyOp28
 70
     1
102
RTVSPropertyOp29
 70
     1
102
RTVSPropertyOp30
 70
     1
102
RTVSPropertyOp31
 70
     1
102
RTVSPropertyOp32
 70
     1
102
RTVSPropertyOp33
 70
     1
102
RTVSPropertyOp34
 70
     1
102
RTVSPropertyOp35
 70
     1
102
RTVSPropertyOp36
 70
     1
102
RTVSPropertyOp37
 70
     1
102
RTVSPropertyOp38
 70
     1
102
RTVSPropertyOp39
 70
     1
102
RTVSPropertyOp40
 70
     1
102
RTVSPropertyOp41
 70
     1
102
RTVSPropertyOp42
 70
     1
102
RTVSPropertyOp43
 70
     1
102
RTVSPropertyOp44
 70
     1
102
RTVSPropertyOp45
 70
     1
102
RTVSPropertyOp46
 70
     1
102
RTVSPropertyOp47
 70
     1
102
RTVSPropertyOp48
 70
     1
102
RTVSPropertyOp49
 70
     1
102
RTVSPropertyOp50
 70
     1
102
RTVSPropertyOp51
 70
     0
102
RTVSPropertyOp52
 70
     0
102
RTVSPropertyOp53
 70
     1
102
RTVSPropertyOp54
 70
     1
102
RTVSPropertyOp55
 70
     1
102
RTVSPropertyOp56
 70
     1
102
RTVSPropertyOp57
 70
     1
102
RTVSPropertyOp58
 70
     1
102
RTVSPropertyOp59
 70
     1
102
RTVSPropertyOp60
 70
     1
102
RTVSPropertyOp61
 70
     1
102
RTVSPropertyOp62
 70
     1
  0
XRECORD
  5
948
102
{ACAD_REACTORS
330
947
102
}
330
947
100
AcDbXrecord
280
     1
102
RTVSPost2010Prop28
280
     0
102
RTVSPost2010PropOp28
 70
     1
102
RTVSPost2010Prop29
280
     1
102
RTVSPost2010PropOp29
 70
     1
102
RTVSPost2010Prop30
280
     1
102
RTVSPost2010PropOp30
 70
     1
102
RTVSPost2010Prop31
280
     0
102
RTVSPost2010PropOp31
 70
     1
102
RTVSPost2010Prop32
280
     0
102
RTVSPost2010PropOp32
 70
     1
102
RTVSPost2010Prop33
280
     0
102
RTVSPost2010PropOp33
 70
     1
102
RTVSPost2010Prop34
280
     0
102
RTVSPost2010PropOp34
 70
     1
102
RTVSPost2010Prop35
280
     0
102
RTVSPost2010PropOp35
 70
     1
102
RTVSPost2010Prop36
280
     0
102
RTVSPost2010PropOp36
 70
     1
102
RTVSPost2010Prop37
 90
       50
102
RTVSPost2010PropOp37
 70
     1
102
RTVSPost2010Prop38
140
0.0
102
RTVSPost2010PropOp38
 70
     1
102
RTVSPost2010Prop39
140
1.0
102
RTVSPost2010PropOp39
 70
     1
102
RTVSPost2010Prop40
 90
        0
102
RTVSPost2010PropOp40
 70
     1
102
RTVSPost2010Prop41ColorIndex
 90
       18
102
RTVSPost2010Prop41ColorRGB
 90
        0
102
RTVSPost2010PropOp41
 70
     1
102
RTVSPost2010Prop42
 90
       50
102
RTVSPost2010PropOp42
 70
     1
102
RTVSPost2010Prop43
 90
        3
102
RTVSPost2010PropOp43
 70
     1
102
RTVSPost2010Prop44ColorIndex
 90
        5
102
RTVSPost2010Prop44ColorRGB
 90
      255
102
RTVSPost2010PropOp44
 70
     1
102
RTVSPost2010Prop45
280
     0
102
RTVSPost2010PropOp45
 70
     1
102
RTVSPost2010Prop46
 90
       50
102
RTVSPost2010PropOp46
 70
     1
102
RTVSPost2010Prop47
 90
       50
102
RTVSPost2010PropOp47
 70
     1
102
RTVSPost2010Prop48
 90
       50
102
RTVSPost2010PropOp48
 70
     1
102
RTVSPost2010Prop49
280
     0
102
RTVSPost2010PropOp49
 70
     1
102
RTVSPost2010Prop50
 90
       50
102
RTVSPost2010PropOp50
 70
     1
102
RTVSPost2010Prop51ColorIndex
 90
      256
102
RTVSPost2010Prop51ColorRGB
 90
-16777216
102
RTVSPost2010PropOp51
 70
     0
102
RTVSPost2010Prop52
140
1.0
102
RTVSPost2010PropOp52
 70
     0
102
RTVSPost2010Prop53
 90
        2
102
RTVSPost2010PropOp53
 70
     1
102
RTVSPost2010Prop54
  1
strokes_ogs.tif
102
RTVSPost2010PropOp54
 70
     1
102
RTVSPost2010Prop55
280
     0
102
RTVSPost2010PropOp55
 70
     1
102
RTVSPost2010Prop56
140
1.0
102
RTVSPost2010PropOp56
 70
     1
102
RTVSPost2010Prop57
140
1.0
102
RTVSPost2010PropOp57
 70
     1
102
RTVSPropertyOp0
 70
     1
102
RTVSPropertyOp1
 70
     1
102
RTVSPropertyOp2
 70
     1
102
RTVSPropertyOp3
 70
     1
102
RTVSPropertyOp4
 70
     1
102
RTVSPropertyOp5
 70
     1
102
RTVSPropertyOp6
 70
     1
102
RTVSPropertyOp7
 70
     1
102
RTVSPropertyOp8
 70
     1
102
RTVSPropertyOp9
 70
     1
102
RTVSPropertyOp10
 70
     1
102
RTVSPropertyOp11
 70
     1
102
RTVSPropertyOp12
 70
     1
102
RTVSPropertyOp13
 70
     1
102
RTVSPropertyOp14
 70
     1
102
RTVSPropertyOp15
 70
     1
102
RTVSPropertyOp16
 70
     1
102
RTVSPropertyOp17
 70
     1
102
RTVSPropertyOp18
 70
     1
102
RTVSPropertyOp19
 70
     1
102
RTVSPropertyOp20
 70
     1
102
RTVSPropertyOp21
 70
     1
102
RTVSPropertyOp22
 70
     1
102
RTVSPropertyOp23
 70
     1
102
RTVSPropertyOp24
 70
     1
102
RTVSPropertyOp25
 70
     1
102
RTVSPropertyOp26
 70
     1
102
RTVSPropertyOp27
 70
     1
102
RTVSPropertyOp28
 70
     1
102
RTVSPropertyOp29
 70
     1
102
RTVSPropertyOp30
 70
     1
102
RTVSPropertyOp31
 70
     1
102
RTVSPropertyOp32
 70
     1
102
RTVSPropertyOp33
 70
     1
102
RTVSPropertyOp34
 70
     1
102
RTVSPropertyOp35
 70
     1
102
RTVSPropertyOp36
 70
     1
102
RTVSPropertyOp37
 70
     1
102
RTVSPropertyOp38
 70
     1
102
RTVSPropertyOp39
 70
     1
102
RTVSPropertyOp40
 70
     1
102
RTVSPropertyOp41
 70
     1
102
RTVSPropertyOp42
 70
     1
102
RTVSPropertyOp43
 70
     1
102
RTVSPropertyOp44
 70
     1
102
RTVSPropertyOp45
 70
     1
102
RTVSPropertyOp46
 70
     1
102
RTVSPropertyOp47
 70
     1
102
RTVSPropertyOp48
 70
     1
102
RTVSPropertyOp49
 70
     1
102
RTVSPropertyOp50
 70
     1
102
RTVSPropertyOp51
 70
     0
102
RTVSPropertyOp52
 70
     0
102
RTVSPropertyOp53
 70
     1
102
RTVSPropertyOp54
 70
     1
102
RTVSPropertyOp55
 70
     1
102
RTVSPropertyOp56
 70
     1
102
RTVSPropertyOp57
 70
     1
102
RTVSPropertyOp58
 70
     1
102
RTVSPropertyOp59
 70
     1
102
RTVSPropertyOp60
 70
     1
102
RTVSPropertyOp61
 70
     1
102
RTVSPropertyOp62
 70
     1
  0
XRECORD
  5
950
102
{ACAD_REACTORS
330
94F
102
}
330
94F
100
AcDbXrecord
280
     1
102
RTVSPost2010Prop28
280
     0
102
RTVSPost2010PropOp28
 70
     1
102
RTVSPost2010Prop29
280
     1
102
RTVSPost2010PropOp29
 70
     1
102
RTVSPost2010Prop30
280
     1
102
RTVSPost2010PropOp30
 70
     1
102
RTVSPost2010Prop31
280
     0
102
RTVSPost2010PropOp31
 70
     1
102
RTVSPost2010Prop32
280
     0
102
RTVSPost2010PropOp32
 70
     1
102
RTVSPost2010Prop33
280
     0
102
RTVSPost2010PropOp33
 70
     1
102
RTVSPost2010Prop34
280
     0
102
RTVSPost2010PropOp34
 70
     1
102
RTVSPost2010Prop35
280
     0
102
RTVSPost2010PropOp35
 70
     1
102
RTVSPost2010Prop36
280
     0
102
RTVSPost2010PropOp36
 70
     1
102
RTVSPost2010Prop37
 90
       50
102
RTVSPost2010PropOp37
 70
     1
102
RTVSPost2010Prop38
140
0.0
102
RTVSPost2010PropOp38
 70
     1
102
RTVSPost2010Prop39
140
1.0
102
RTVSPost2010PropOp39
 70
     1
102
RTVSPost2010Prop40
 90
        0
102
RTVSPost2010PropOp40
 70
     1
102
RTVSPost2010Prop41ColorIndex
 90
       18
102
RTVSPost2010Prop41ColorRGB
 90
        0
102
RTVSPost2010PropOp41
 70
     1
102
RTVSPost2010Prop42
 90
       50
102
RTVSPost2010PropOp42
 70
     1
102
RTVSPost2010Prop43
 90
        3
102
RTVSPost2010PropOp43
 70
     1
102
RTVSPost2010Prop44ColorIndex
 90
        5
102
RTVSPost2010Prop44ColorRGB
 90
      255
102
RTVSPost2010PropOp44
 70
     1
102
RTVSPost2010Prop45
280
     0
102
RTVSPost2010PropOp45
 70
     1
102
RTVSPost2010Prop46
 90
       50
102
RTVSPost2010PropOp46
 70
     1
102
RTVSPost2010Prop47
 90
       50
102
RTVSPost2010PropOp47
 70
     1
102
RTVSPost2010Prop48
 90
       50
102
RTVSPost2010PropOp48
 70
     1
102
RTVSPost2010Prop49
280
     0
102
RTVSPost2010PropOp49
 70
     1
102
RTVSPost2010Prop50
 90
       50
102
RTVSPost2010PropOp50
 70
     1
102
RTVSPost2010Prop51ColorIndex
 90
      256
102
RTVSPost2010Prop51ColorRGB
 90
-16777216
102
RTVSPost2010PropOp51
 70
     0
102
RTVSPost2010Prop52
140
1.0
102
RTVSPost2010PropOp52
 70
     0
102
RTVSPost2010Prop53
 90
        2
102
RTVSPost2010PropOp53
 70
     1
102
RTVSPost2010Prop54
  1
strokes_ogs.tif
102
RTVSPost2010PropOp54
 70
     1
102
RTVSPost2010Prop55
280
     0
102
RTVSPost2010PropOp55
 70
     1
102
RTVSPost2010Prop56
140
1.0
102
RTVSPost2010PropOp56
 70
     1
102
RTVSPost2010Prop57
140
1.0
102
RTVSPost2010PropOp57
 70
     1
102
RTVSPropertyOp0
 70
     1
102
RTVSPropertyOp1
 70
     1
102
RTVSPropertyOp2
 70
     1
102
RTVSPropertyOp3
 70
     1
102
RTVSPropertyOp4
 70
     1
102
RTVSPropertyOp5
 70
     1
102
RTVSPropertyOp6
 70
     1
102
RTVSPropertyOp7
 70
     1
102
RTVSPropertyOp8
 70
     1
102
RTVSPropertyOp9
 70
     1
102
RTVSPropertyOp10
 70
     1
102
RTVSPropertyOp11
 70
     1
102
RTVSPropertyOp12
 70
     1
102
RTVSPropertyOp13
 70
     1
102
RTVSPropertyOp14
 70
     1
102
RTVSPropertyOp15
 70
     1
102
RTVSPropertyOp16
 70
     1
102
RTVSPropertyOp17
 70
     1
102
RTVSPropertyOp18
 70
     1
102
RTVSPropertyOp19
 70
     1
102
RTVSPropertyOp20
 70
     1
102
RTVSPropertyOp21
 70
     1
102
RTVSPropertyOp22
 70
     1
102
RTVSPropertyOp23
 70
     1
102
RTVSPropertyOp24
 70
     1
102
RTVSPropertyOp25
 70
     1
102
RTVSPropertyOp26
 70
     1
102
RTVSPropertyOp27
 70
     1
102
RTVSPropertyOp28
 70
     1
102
RTVSPropertyOp29
 70
     1
102
RTVSPropertyOp30
 70
     1
102
RTVSPropertyOp31
 70
     1
102
RTVSPropertyOp32
 70
     1
102
RTVSPropertyOp33
 70
     1
102
RTVSPropertyOp34
 70
     1
102
RTVSPropertyOp35
 70
     1
102
RTVSPropertyOp36
 70
     1
102
RTVSPropertyOp37
 70
     1
102
RTVSPropertyOp38
 70
     1
102
RTVSPropertyOp39
 70
     1
102
RTVSPropertyOp40
 70
     1
102
RTVSPropertyOp41
 70
     1
102
RTVSPropertyOp42
 70
     1
102
RTVSPropertyOp43
 70
     1
102
RTVSPropertyOp44
 70
     1
102
RTVSPropertyOp45
 70
     1
102
RTVSPropertyOp46
 70
     1
102
RTVSPropertyOp47
 70
     1
102
RTVSPropertyOp48
 70
     1
102
RTVSPropertyOp49
 70
     1
102
RTVSPropertyOp50
 70
     1
102
RTVSPropertyOp51
 70
     0
102
RTVSPropertyOp52
 70
     0
102
RTVSPropertyOp53
 70
     1
102
RTVSPropertyOp54
 70
     1
102
RTVSPropertyOp55
 70
     1
102
RTVSPropertyOp56
 70
     1
102
RTVSPropertyOp57
 70
     1
102
RTVSPropertyOp58
 70
     1
102
RTVSPropertyOp59
 70
     1
102
RTVSPropertyOp60
 70
     1
102
RTVSPropertyOp61
 70
     1
102
RTVSPropertyOp62
 70
     1
  0
XRECORD
  5
958
102
{ACAD_REACTORS
330
957
102
}
330
957
100
AcDbXrecord
280
     1
102
RTVSPost2010Prop28
280
     0
102
RTVSPost2010PropOp28
 70
     1
102
RTVSPost2010Prop29
280
     1
102
RTVSPost2010PropOp29
 70
     1
102
RTVSPost2010Prop30
280
     1
102
RTVSPost2010PropOp30
 70
     1
102
RTVSPost2010Prop31
280
     0
102
RTVSPost2010PropOp31
 70
     1
102
RTVSPost2010Prop32
280
     0
102
RTVSPost2010PropOp32
 70
     1
102
RTVSPost2010Prop33
280
     0
102
RTVSPost2010PropOp33
 70
     1
102
RTVSPost2010Prop34
280
     0
102
RTVSPost2010PropOp34
 70
     1
102
RTVSPost2010Prop35
280
     0
102
RTVSPost2010PropOp35
 70
     1
102
RTVSPost2010Prop36
280
     0
102
RTVSPost2010PropOp36
 70
     1
102
RTVSPost2010Prop37
 90
       50
102
RTVSPost2010PropOp37
 70
     1
102
RTVSPost2010Prop38
140
0.0
102
RTVSPost2010PropOp38
 70
     1
102
RTVSPost2010Prop39
140
1.0
102
RTVSPost2010PropOp39
 70
     1
102
RTVSPost2010Prop40
 90
        0
102
RTVSPost2010PropOp40
 70
     1
102
RTVSPost2010Prop41ColorIndex
 90
       18
102
RTVSPost2010Prop41ColorRGB
 90
        0
102
RTVSPost2010PropOp41
 70
     1
102
RTVSPost2010Prop42
 90
       50
102
RTVSPost2010PropOp42
 70
     1
102
RTVSPost2010Prop43
 90
        3
102
RTVSPost2010PropOp43
 70
     1
102
RTVSPost2010Prop44ColorIndex
 90
        5
102
RTVSPost2010Prop44ColorRGB
 90
      255
102
RTVSPost2010PropOp44
 70
     1
102
RTVSPost2010Prop45
280
     0
102
RTVSPost2010PropOp45
 70
     1
102
RTVSPost2010Prop46
 90
       50
102
RTVSPost2010PropOp46
 70
     1
102
RTVSPost2010Prop47
 90
       50
102
RTVSPost2010PropOp47
 70
     1
102
RTVSPost2010Prop48
 90
       50
102
RTVSPost2010PropOp48
 70
     1
102
RTVSPost2010Prop49
280
     0
102
RTVSPost2010PropOp49
 70
     1
102
RTVSPost2010Prop50
 90
       50
102
RTVSPost2010PropOp50
 70
     1
102
RTVSPost2010Prop51ColorIndex
 90
      256
102
RTVSPost2010Prop51ColorRGB
 90
-16777216
102
RTVSPost2010PropOp51
 70
     0
102
RTVSPost2010Prop52
140
1.0
102
RTVSPost2010PropOp52
 70
     0
102
RTVSPost2010Prop53
 90
        2
102
RTVSPost2010PropOp53
 70
     1
102
RTVSPost2010Prop54
  1
strokes_ogs.tif
102
RTVSPost2010PropOp54
 70
     1
102
RTVSPost2010Prop55
280
     0
102
RTVSPost2010PropOp55
 70
     1
102
RTVSPost2010Prop56
140
1.0
102
RTVSPost2010PropOp56
 70
     1
102
RTVSPost2010Prop57
140
1.0
102
RTVSPost2010PropOp57
 70
     1
102
RTVSPropertyOp0
 70
     1
102
RTVSPropertyOp1
 70
     1
102
RTVSPropertyOp2
 70
     1
102
RTVSPropertyOp3
 70
     1
102
RTVSPropertyOp4
 70
     1
102
RTVSPropertyOp5
 70
     1
102
RTVSPropertyOp6
 70
     1
102
RTVSPropertyOp7
 70
     1
102
RTVSPropertyOp8
 70
     1
102
RTVSPropertyOp9
 70
     1
102
RTVSPropertyOp10
 70
     1
102
RTVSPropertyOp11
 70
     1
102
RTVSPropertyOp12
 70
     1
102
RTVSPropertyOp13
 70
     1
102
RTVSPropertyOp14
 70
     1
102
RTVSPropertyOp15
 70
     1
102
RTVSPropertyOp16
 70
     1
102
RTVSPropertyOp17
 70
     1
102
RTVSPropertyOp18
 70
     1
102
RTVSPropertyOp19
 70
     1
102
RTVSPropertyOp20
 70
     1
102
RTVSPropertyOp21
 70
     1
102
RTVSPropertyOp22
 70
     1
102
RTVSPropertyOp23
 70
     1
102
RTVSPropertyOp24
 70
     1
102
RTVSPropertyOp25
 70
     1
102
RTVSPropertyOp26
 70
     1
102
RTVSPropertyOp27
 70
     1
102
RTVSPropertyOp28
 70
     1
102
RTVSPropertyOp29
 70
     1
102
RTVSPropertyOp30
 70
     1
102
RTVSPropertyOp31
 70
     1
102
RTVSPropertyOp32
 70
     1
102
RTVSPropertyOp33
 70
     1
102
RTVSPropertyOp34
 70
     1
102
RTVSPropertyOp35
 70
     1
102
RTVSPropertyOp36
 70
     1
102
RTVSPropertyOp37
 70
     1
102
RTVSPropertyOp38
 70
     1
102
RTVSPropertyOp39
 70
     1
102
RTVSPropertyOp40
 70
     1
102
RTVSPropertyOp41
 70
     1
102
RTVSPropertyOp42
 70
     1
102
RTVSPropertyOp43
 70
     1
102
RTVSPropertyOp44
 70
     1
102
RTVSPropertyOp45
 70
     1
102
RTVSPropertyOp46
 70
     1
102
RTVSPropertyOp47
 70
     1
102
RTVSPropertyOp48
 70
     1
102
RTVSPropertyOp49
 70
     1
102
RTVSPropertyOp50
 70
     1
102
RTVSPropertyOp51
 70
     0
102
RTVSPropertyOp52
 70
     0
102
RTVSPropertyOp53
 70
     1
102
RTVSPropertyOp54
 70
     1
102
RTVSPropertyOp55
 70
     1
102
RTVSPropertyOp56
 70
     1
102
RTVSPropertyOp57
 70
     1
102
RTVSPropertyOp58
 70
     1
102
RTVSPropertyOp59
 70
     1
102
RTVSPropertyOp60
 70
     1
102
RTVSPropertyOp61
 70
     1
102
RTVSPropertyOp62
 70
     1
  0
XRECORD
  5
94C
102
{ACAD_REACTORS
330
94B
102
}
330
94B
100
AcDbXrecord
280
     1
102
RTVSPost2010Prop28
280
     0
102
RTVSPost2010PropOp28
 70
     1
102
RTVSPost2010Prop29
280
     1
102
RTVSPost2010PropOp29
 70
     1
102
RTVSPost2010Prop30
280
     1
102
RTVSPost2010PropOp30
 70
     1
102
RTVSPost2010Prop31
280
     0
102
RTVSPost2010PropOp31
 70
     1
102
RTVSPost2010Prop32
280
     0
102
RTVSPost2010PropOp32
 70
     1
102
RTVSPost2010Prop33
280
     0
102
RTVSPost2010PropOp33
 70
     1
102
RTVSPost2010Prop34
280
     0
102
RTVSPost2010PropOp34
 70
     1
102
RTVSPost2010Prop35
280
     0
102
RTVSPost2010PropOp35
 70
     1
102
RTVSPost2010Prop36
280
     0
102
RTVSPost2010PropOp36
 70
     1
102
RTVSPost2010Prop37
 90
       50
102
RTVSPost2010PropOp37
 70
     1
102
RTVSPost2010Prop38
140
0.0
102
RTVSPost2010PropOp38
 70
     1
102
RTVSPost2010Prop39
140
1.0
102
RTVSPost2010PropOp39
 70
     1
102
RTVSPost2010Prop40
 90
        0
102
RTVSPost2010PropOp40
 70
     1
102
RTVSPost2010Prop41ColorIndex
 90
       18
102
RTVSPost2010Prop41ColorRGB
 90
        0
102
RTVSPost2010PropOp41
 70
     1
102
RTVSPost2010Prop42
 90
       50
102
RTVSPost2010PropOp42
 70
     1
102
RTVSPost2010Prop43
 90
        3
102
RTVSPost2010PropOp43
 70
     1
102
RTVSPost2010Prop44ColorIndex
 90
        5
102
RTVSPost2010Prop44ColorRGB
 90
      255
102
RTVSPost2010PropOp44
 70
     1
102
RTVSPost2010Prop45
280
     0
102
RTVSPost2010PropOp45
 70
     1
102
RTVSPost2010Prop46
 90
       50
102
RTVSPost2010PropOp46
 70
     1
102
RTVSPost2010Prop47
 90
       50
102
RTVSPost2010PropOp47
 70
     1
102
RTVSPost2010Prop48
 90
       50
102
RTVSPost2010PropOp48
 70
     1
102
RTVSPost2010Prop49
280
     0
102
RTVSPost2010PropOp49
 70
     1
102
RTVSPost2010Prop50
 90
       50
102
RTVSPost2010PropOp50
 70
     1
102
RTVSPost2010Prop51ColorIndex
 90
      256
102
RTVSPost2010Prop51ColorRGB
 90
-16777216
102
RTVSPost2010PropOp51
 70
     0
102
RTVSPost2010Prop52
140
1.0
102
RTVSPost2010PropOp52
 70
     0
102
RTVSPost2010Prop53
 90
        2
102
RTVSPost2010PropOp53
 70
     1
102
RTVSPost2010Prop54
  1
strokes_ogs.tif
102
RTVSPost2010PropOp54
 70
     1
102
RTVSPost2010Prop55
280
     0
102
RTVSPost2010PropOp55
 70
     1
102
RTVSPost2010Prop56
140
1.0
102
RTVSPost2010PropOp56
 70
     1
102
RTVSPost2010Prop57
140
1.0
102
RTVSPost2010PropOp57
 70
     1
102
RTVSPropertyOp0
 70
     1
102
RTVSPropertyOp1
 70
     1
102
RTVSPropertyOp2
 70
     1
102
RTVSPropertyOp3
 70
     1
102
RTVSPropertyOp4
 70
     1
102
RTVSPropertyOp5
 70
     1
102
RTVSPropertyOp6
 70
     1
102
RTVSPropertyOp7
 70
     1
102
RTVSPropertyOp8
 70
     1
102
RTVSPropertyOp9
 70
     1
102
RTVSPropertyOp10
 70
     1
102
RTVSPropertyOp11
 70
     1
102
RTVSPropertyOp12
 70
     1
102
RTVSPropertyOp13
 70
     1
102
RTVSPropertyOp14
 70
     1
102
RTVSPropertyOp15
 70
     1
102
RTVSPropertyOp16
 70
     1
102
RTVSPropertyOp17
 70
     1
102
RTVSPropertyOp18
 70
     1
102
RTVSPropertyOp19
 70
     1
102
RTVSPropertyOp20
 70
     1
102
RTVSPropertyOp21
 70
     1
102
RTVSPropertyOp22
 70
     1
102
RTVSPropertyOp23
 70
     1
102
RTVSPropertyOp24
 70
     1
102
RTVSPropertyOp25
 70
     1
102
RTVSPropertyOp26
 70
     1
102
RTVSPropertyOp27
 70
     1
102
RTVSPropertyOp28
 70
     1
102
RTVSPropertyOp29
 70
     1
102
RTVSPropertyOp30
 70
     1
102
RTVSPropertyOp31
 70
     1
102
RTVSPropertyOp32
 70
     1
102
RTVSPropertyOp33
 70
     1
102
RTVSPropertyOp34
 70
     1
102
RTVSPropertyOp35
 70
     1
102
RTVSPropertyOp36
 70
     1
102
RTVSPropertyOp37
 70
     1
102
RTVSPropertyOp38
 70
     1
102
RTVSPropertyOp39
 70
     1
102
RTVSPropertyOp40
 70
     1
102
RTVSPropertyOp41
 70
     1
102
RTVSPropertyOp42
 70
     1
102
RTVSPropertyOp43
 70
     1
102
RTVSPropertyOp44
 70
     1
102
RTVSPropertyOp45
 70
     1
102
RTVSPropertyOp46
 70
     1
102
RTVSPropertyOp47
 70
     1
102
RTVSPropertyOp48
 70
     1
102
RTVSPropertyOp49
 70
     1
102
RTVSPropertyOp50
 70
     1
102
RTVSPropertyOp51
 70
     0
102
RTVSPropertyOp52
 70
     0
102
RTVSPropertyOp53
 70
     1
102
RTVSPropertyOp54
 70
     1
102
RTVSPropertyOp55
 70
     1
102
RTVSPropertyOp56
 70
     1
102
RTVSPropertyOp57
 70
     1
102
RTVSPropertyOp58
 70
     1
102
RTVSPropertyOp59
 70
     1
102
RTVSPropertyOp60
 70
     1
102
RTVSPropertyOp61
 70
     1
102
RTVSPropertyOp62
 70
     1
  0
XRECORD
  5
94E
102
{ACAD_REACTORS
330
94D
102
}
330
94D
100
AcDbXrecord
280
     1
102
RTVSPost2010Prop28
280
     0
102
RTVSPost2010PropOp28
 70
     1
102
RTVSPost2010Prop29
280
     1
102
RTVSPost2010PropOp29
 70
     1
102
RTVSPost2010Prop30
280
     1
102
RTVSPost2010PropOp30
 70
     1
102
RTVSPost2010Prop31
280
     0
102
RTVSPost2010PropOp31
 70
     1
102
RTVSPost2010Prop32
280
     0
102
RTVSPost2010PropOp32
 70
     1
102
RTVSPost2010Prop33
280
     0
102
RTVSPost2010PropOp33
 70
     1
102
RTVSPost2010Prop34
280
     0
102
RTVSPost2010PropOp34
 70
     1
102
RTVSPost2010Prop35
280
     0
102
RTVSPost2010PropOp35
 70
     1
102
RTVSPost2010Prop36
280
     0
102
RTVSPost2010PropOp36
 70
     1
102
RTVSPost2010Prop37
 90
       50
102
RTVSPost2010PropOp37
 70
     1
102
RTVSPost2010Prop38
140
0.0
102
RTVSPost2010PropOp38
 70
     1
102
RTVSPost2010Prop39
140
1.0
102
RTVSPost2010PropOp39
 70
     1
102
RTVSPost2010Prop40
 90
        0
102
RTVSPost2010PropOp40
 70
     1
102
RTVSPost2010Prop41ColorIndex
 90
       18
102
RTVSPost2010Prop41ColorRGB
 90
        0
102
RTVSPost2010PropOp41
 70
     1
102
RTVSPost2010Prop42
 90
       50
102
RTVSPost2010PropOp42
 70
     1
102
RTVSPost2010Prop43
 90
        3
102
RTVSPost2010PropOp43
 70
     1
102
RTVSPost2010Prop44ColorIndex
 90
        5
102
RTVSPost2010Prop44ColorRGB
 90
      255
102
RTVSPost2010PropOp44
 70
     1
102
RTVSPost2010Prop45
280
     0
102
RTVSPost2010PropOp45
 70
     1
102
RTVSPost2010Prop46
 90
       50
102
RTVSPost2010PropOp46
 70
     1
102
RTVSPost2010Prop47
 90
       50
102
RTVSPost2010PropOp47
 70
     1
102
RTVSPost2010Prop48
 90
       50
102
RTVSPost2010PropOp48
 70
     1
102
RTVSPost2010Prop49
280
     0
102
RTVSPost2010PropOp49
 70
     1
102
RTVSPost2010Prop50
 90
       50
102
RTVSPost2010PropOp50
 70
     1
102
RTVSPost2010Prop51ColorIndex
 90
      256
102
RTVSPost2010Prop51ColorRGB
 90
-16777216
102
RTVSPost2010PropOp51
 70
     0
102
RTVSPost2010Prop52
140
1.0
102
RTVSPost2010PropOp52
 70
     0
102
RTVSPost2010Prop53
 90
        2
102
RTVSPost2010PropOp53
 70
     1
102
RTVSPost2010Prop54
  1
strokes_ogs.tif
102
RTVSPost2010PropOp54
 70
     1
102
RTVSPost2010Prop55
280
     0
102
RTVSPost2010PropOp55
 70
     1
102
RTVSPost2010Prop56
140
1.0
102
RTVSPost2010PropOp56
 70
     1
102
RTVSPost2010Prop57
140
1.0
102
RTVSPost2010PropOp57
 70
     1
102
RTVSPropertyOp0
 70
     1
102
RTVSPropertyOp1
 70
     1
102
RTVSPropertyOp2
 70
     1
102
RTVSPropertyOp3
 70
     1
102
RTVSPropertyOp4
 70
     1
102
RTVSPropertyOp5
 70
     1
102
RTVSPropertyOp6
 70
     1
102
RTVSPropertyOp7
 70
     1
102
RTVSPropertyOp8
 70
     1
102
RTVSPropertyOp9
 70
     1
102
RTVSPropertyOp10
 70
     1
102
RTVSPropertyOp11
 70
     1
102
RTVSPropertyOp12
 70
     1
102
RTVSPropertyOp13
 70
     1
102
RTVSPropertyOp14
 70
     1
102
RTVSPropertyOp15
 70
     1
102
RTVSPropertyOp16
 70
     1
102
RTVSPropertyOp17
 70
     1
102
RTVSPropertyOp18
 70
     1
102
RTVSPropertyOp19
 70
     1
102
RTVSPropertyOp20
 70
     1
102
RTVSPropertyOp21
 70
     1
102
RTVSPropertyOp22
 70
     1
102
RTVSPropertyOp23
 70
     1
102
RTVSPropertyOp24
 70
     1
102
RTVSPropertyOp25
 70
     1
102
RTVSPropertyOp26
 70
     1
102
RTVSPropertyOp27
 70
     1
102
RTVSPropertyOp28
 70
     1
102
RTVSPropertyOp29
 70
     1
102
RTVSPropertyOp30
 70
     1
102
RTVSPropertyOp31
 70
     1
102
RTVSPropertyOp32
 70
     1
102
RTVSPropertyOp33
 70
     1
102
RTVSPropertyOp34
 70
     1
102
RTVSPropertyOp35
 70
     1
102
RTVSPropertyOp36
 70
     1
102
RTVSPropertyOp37
 70
     1
102
RTVSPropertyOp38
 70
     1
102
RTVSPropertyOp39
 70
     1
102
RTVSPropertyOp40
 70
     1
102
RTVSPropertyOp41
 70
     1
102
RTVSPropertyOp42
 70
     1
102
RTVSPropertyOp43
 70
     1
102
RTVSPropertyOp44
 70
     1
102
RTVSPropertyOp45
 70
     1
102
RTVSPropertyOp46
 70
     1
102
RTVSPropertyOp47
 70
     1
102
RTVSPropertyOp48
 70
     1
102
RTVSPropertyOp49
 70
     1
102
RTVSPropertyOp50
 70
     1
102
RTVSPropertyOp51
 70
     0
102
RTVSPropertyOp52
 70
     0
102
RTVSPropertyOp53
 70
     1
102
RTVSPropertyOp54
 70
     1
102
RTVSPropertyOp55
 70
     1
102
RTVSPropertyOp56
 70
     1
102
RTVSPropertyOp57
 70
     1
102
RTVSPropertyOp58
 70
     1
102
RTVSPropertyOp59
 70
     1
102
RTVSPropertyOp60
 70
     1
102
RTVSPropertyOp61
 70
     1
102
RTVSPropertyOp62
 70
     1
  0
XRECORD
  5
95E
102
{ACAD_REACTORS
330
95D
102
}
330
95D
100
AcDbXrecord
280
     1
102
RTVSPost2010Prop28
280
     0
102
RTVSPost2010PropOp28
 70
     0
102
RTVSPost2010Prop29
280
     1
102
RTVSPost2010PropOp29
 70
     0
102
RTVSPost2010Prop30
280
     1
102
RTVSPost2010PropOp30
 70
     0
102
RTVSPost2010Prop31
280
     0
102
RTVSPost2010PropOp31
 70
     0
102
RTVSPost2010Prop32
280
     0
102
RTVSPost2010PropOp32
 70
     0
102
RTVSPost2010Prop33
280
     0
102
RTVSPost2010PropOp33
 70
     0
102
RTVSPost2010Prop34
280
     0
102
RTVSPost2010PropOp34
 70
     0
102
RTVSPost2010Prop35
280
     0
102
RTVSPost2010PropOp35
 70
     0
102
RTVSPost2010Prop36
280
     0
102
RTVSPost2010PropOp36
 70
     0
102
RTVSPost2010Prop37
 90
       50
102
RTVSPost2010PropOp37
 70
     0
102
RTVSPost2010Prop38
140
0.0
102
RTVSPost2010PropOp38
 70
     0
102
RTVSPost2010Prop39
140
1.0
102
RTVSPost2010PropOp39
 70
     0
102
RTVSPost2010Prop40
 90
        0
102
RTVSPost2010PropOp40
 70
     0
102
RTVSPost2010Prop41ColorIndex
 90
       18
102
RTVSPost2010Prop41ColorRGB
 90
        0
102
RTVSPost2010PropOp41
 70
     0
102
RTVSPost2010Prop42
 90
       50
102
RTVSPost2010PropOp42
 70
     0
102
RTVSPost2010Prop43
 90
        3
102
RTVSPost2010PropOp43
 70
     0
102
RTVSPost2010Prop44ColorIndex
 90
        5
102
RTVSPost2010Prop44ColorRGB
 90
      255
102
RTVSPost2010PropOp44
 70
     0
102
RTVSPost2010Prop45
280
     0
102
RTVSPost2010PropOp45
 70
     0
102
RTVSPost2010Prop46
 90
       50
102
RTVSPost2010PropOp46
 70
     0
102
RTVSPost2010Prop47
 90
       50
102
RTVSPost2010PropOp47
 70
     0
102
RTVSPost2010Prop48
 90
       50
102
RTVSPost2010PropOp48
 70
     0
102
RTVSPost2010Prop49
280
     0
102
RTVSPost2010PropOp49
 70
     0
102
RTVSPost2010Prop50
 90
       50
102
RTVSPost2010PropOp50
 70
     0
102
RTVSPost2010Prop51ColorIndex
 90
      256
102
RTVSPost2010Prop51ColorRGB
 90
-16777216
102
RTVSPost2010PropOp51
 70
     0
102
RTVSPost2010Prop52
140
1.0
102
RTVSPost2010PropOp52
 70
     0
102
RTVSPost2010Prop53
 90
        2
102
RTVSPost2010PropOp53
 70
     0
102
RTVSPost2010Prop54
  1
strokes_ogs.tif
102
RTVSPost2010PropOp54
 70
     0
102
RTVSPost2010Prop55
280
     0
102
RTVSPost2010PropOp55
 70
     0
102
RTVSPost2010Prop56
140
1.0
102
RTVSPost2010PropOp56
 70
     0
102
RTVSPost2010Prop57
140
1.0
102
RTVSPost2010PropOp57
 70
     0
102
RTVSPropertyOp0
 70
     0
102
RTVSPropertyOp1
 70
     0
102
RTVSPropertyOp2
 70
     0
102
RTVSPropertyOp3
 70
     0
102
RTVSPropertyOp4
 70
     0
102
RTVSPropertyOp5
 70
     0
102
RTVSPropertyOp6
 70
     0
102
RTVSPropertyOp7
 70
     0
102
RTVSPropertyOp8
 70
     0
102
RTVSPropertyOp9
 70
     0
102
RTVSPropertyOp10
 70
     0
102
RTVSPropertyOp11
 70
     0
102
RTVSPropertyOp12
 70
     0
102
RTVSPropertyOp13
 70
     0
102
RTVSPropertyOp14
 70
     2
102
RTVSPropertyOp15
 70
     0
102
RTVSPropertyOp16
 70
     0
102
RTVSPropertyOp17
 70
     0
102
RTVSPropertyOp18
 70
     0
102
RTVSPropertyOp19
 70
     0
102
RTVSPropertyOp20
 70
     0
102
RTVSPropertyOp21
 70
     0
102
RTVSPropertyOp22
 70
     0
102
RTVSPropertyOp23
 70
     0
102
RTVSPropertyOp24
 70
     0
102
RTVSPropertyOp25
 70
     0
102
RTVSPropertyOp26
 70
     0
102
RTVSPropertyOp27
 70
     0
102
RTVSPropertyOp28
 70
     0
102
RTVSPropertyOp29
 70
     0
102
RTVSPropertyOp30
 70
     0
102
RTVSPropertyOp31
 70
     0
102
RTVSPropertyOp32
 70
     0
102
RTVSPropertyOp33
 70
     0
102
RTVSPropertyOp34
 70
     0
102
RTVSPropertyOp35
 70
     0
102
RTVSPropertyOp36
 70
     0
102
RTVSPropertyOp37
 70
     0
102
RTVSPropertyOp38
 70
     0
102
RTVSPropertyOp39
 70
     0
102
RTVSPropertyOp40
 70
     0
102
RTVSPropertyOp41
 70
     0
102
RTVSPropertyOp42
 70
     0
102
RTVSPropertyOp43
 70
     0
102
RTVSPropertyOp44
 70
     0
102
RTVSPropertyOp45
 70
     0
102
RTVSPropertyOp46
 70
     0
102
RTVSPropertyOp47
 70
     0
102
RTVSPropertyOp48
 70
     0
102
RTVSPropertyOp49
 70
     0
102
RTVSPropertyOp50
 70
     0
102
RTVSPropertyOp51
 70
     0
102
RTVSPropertyOp52
 70
     0
102
RTVSPropertyOp53
 70
     0
102
RTVSPropertyOp54
 70
     0
102
RTVSPropertyOp55
 70
     0
102
RTVSPropertyOp56
 70
     0
102
RTVSPropertyOp57
 70
     0
102
RTVSPropertyOp58
 70
     1
102
RTVSPropertyOp59
 70
     1
102
RTVSPropertyOp60
 70
     1
102
RTVSPropertyOp61
 70
     1
102
RTVSPropertyOp62
 70
     1
  0
XRECORD
  5
956
102
{ACAD_REACTORS
330
955
102
}
330
955
100
AcDbXrecord
280
     1
102
RTVSPost2010Prop28
280
     0
102
RTVSPost2010PropOp28
 70
     1
102
RTVSPost2010Prop29
280
     1
102
RTVSPost2010PropOp29
 70
     1
102
RTVSPost2010Prop30
280
     1
102
RTVSPost2010PropOp30
 70
     1
102
RTVSPost2010Prop31
280
     0
102
RTVSPost2010PropOp31
 70
     1
102
RTVSPost2010Prop32
280
     0
102
RTVSPost2010PropOp32
 70
     1
102
RTVSPost2010Prop33
280
     0
102
RTVSPost2010PropOp33
 70
     1
102
RTVSPost2010Prop34
280
     0
102
RTVSPost2010PropOp34
 70
     1
102
RTVSPost2010Prop35
280
     0
102
RTVSPost2010PropOp35
 70
     1
102
RTVSPost2010Prop36
280
     0
102
RTVSPost2010PropOp36
 70
     1
102
RTVSPost2010Prop37
 90
       50
102
RTVSPost2010PropOp37
 70
     1
102
RTVSPost2010Prop38
140
0.0
102
RTVSPost2010PropOp38
 70
     1
102
RTVSPost2010Prop39
140
1.0
102
RTVSPost2010PropOp39
 70
     1
102
RTVSPost2010Prop40
 90
        0
102
RTVSPost2010PropOp40
 70
     1
102
RTVSPost2010Prop41ColorIndex
 90
       18
102
RTVSPost2010Prop41ColorRGB
 90
        0
102
RTVSPost2010PropOp41
 70
     1
102
RTVSPost2010Prop42
 90
       50
102
RTVSPost2010PropOp42
 70
     1
102
RTVSPost2010Prop43
 90
        3
102
RTVSPost2010PropOp43
 70
     1
102
RTVSPost2010Prop44ColorIndex
 90
        5
102
RTVSPost2010Prop44ColorRGB
 90
      255
102
RTVSPost2010PropOp44
 70
     1
102
RTVSPost2010Prop45
280
     0
102
RTVSPost2010PropOp45
 70
     1
102
RTVSPost2010Prop46
 90
       50
102
RTVSPost2010PropOp46
 70
     1
102
RTVSPost2010Prop47
 90
       50
102
RTVSPost2010PropOp47
 70
     1
102
RTVSPost2010Prop48
 90
       50
102
RTVSPost2010PropOp48
 70
     1
102
RTVSPost2010Prop49
280
     0
102
RTVSPost2010PropOp49
 70
     1
102
RTVSPost2010Prop50
 90
       50
102
RTVSPost2010PropOp50
 70
     1
102
RTVSPost2010Prop51ColorIndex
 90
      256
102
RTVSPost2010Prop51ColorRGB
 90
-16777216
102
RTVSPost2010PropOp51
 70
     0
102
RTVSPost2010Prop52
140
1.0
102
RTVSPost2010PropOp52
 70
     0
102
RTVSPost2010Prop53
 90
        2
102
RTVSPost2010PropOp53
 70
     1
102
RTVSPost2010Prop54
  1
strokes_ogs.tif
102
RTVSPost2010PropOp54
 70
     1
102
RTVSPost2010Prop55
280
     0
102
RTVSPost2010PropOp55
 70
     1
102
RTVSPost2010Prop56
140
1.0
102
RTVSPost2010PropOp56
 70
     1
102
RTVSPost2010Prop57
140
1.0
102
RTVSPost2010PropOp57
 70
     1
102
RTVSPropertyOp0
 70
     1
102
RTVSPropertyOp1
 70
     1
102
RTVSPropertyOp2
 70
     1
102
RTVSPropertyOp3
 70
     1
102
RTVSPropertyOp4
 70
     1
102
RTVSPropertyOp5
 70
     1
102
RTVSPropertyOp6
 70
     1
102
RTVSPropertyOp7
 70
     1
102
RTVSPropertyOp8
 70
     1
102
RTVSPropertyOp9
 70
     1
102
RTVSPropertyOp10
 70
     1
102
RTVSPropertyOp11
 70
     1
102
RTVSPropertyOp12
 70
     1
102
RTVSPropertyOp13
 70
     1
102
RTVSPropertyOp14
 70
     1
102
RTVSPropertyOp15
 70
     1
102
RTVSPropertyOp16
 70
     1
102
RTVSPropertyOp17
 70
     1
102
RTVSPropertyOp18
 70
     1
102
RTVSPropertyOp19
 70
     1
102
RTVSPropertyOp20
 70
     1
102
RTVSPropertyOp21
 70
     1
102
RTVSPropertyOp22
 70
     1
102
RTVSPropertyOp23
 70
     1
102
RTVSPropertyOp24
 70
     1
102
RTVSPropertyOp25
 70
     1
102
RTVSPropertyOp26
 70
     1
102
RTVSPropertyOp27
 70
     1
102
RTVSPropertyOp28
 70
     1
102
RTVSPropertyOp29
 70
     1
102
RTVSPropertyOp30
 70
     1
102
RTVSPropertyOp31
 70
     1
102
RTVSPropertyOp32
 70
     1
102
RTVSPropertyOp33
 70
     1
102
RTVSPropertyOp34
 70
     1
102
RTVSPropertyOp35
 70
     1
102
RTVSPropertyOp36
 70
     1
102
RTVSPropertyOp37
 70
     1
102
RTVSPropertyOp38
 70
     1
102
RTVSPropertyOp39
 70
     1
102
RTVSPropertyOp40
 70
     1
102
RTVSPropertyOp41
 70
     1
102
RTVSPropertyOp42
 70
     1
102
RTVSPropertyOp43
 70
     1
102
RTVSPropertyOp44
 70
     1
102
RTVSPropertyOp45
 70
     1
102
RTVSPropertyOp46
 70
     1
102
RTVSPropertyOp47
 70
     1
102
RTVSPropertyOp48
 70
     1
102
RTVSPropertyOp49
 70
     1
102
RTVSPropertyOp50
 70
     1
102
RTVSPropertyOp51
 70
     0
102
RTVSPropertyOp52
 70
     0
102
RTVSPropertyOp53
 70
     1
102
RTVSPropertyOp54
 70
     1
102
RTVSPropertyOp55
 70
     1
102
RTVSPropertyOp56
 70
     1
102
RTVSPropertyOp57
 70
     1
102
RTVSPropertyOp58
 70
     1
102
RTVSPropertyOp59
 70
     1
102
RTVSPropertyOp60
 70
     1
102
RTVSPropertyOp61
 70
     1
102
RTVSPropertyOp62
 70
     1
  0
XRECORD
  5
93A
102
{ACAD_REACTORS
330
939
102
}
330
939
100
AcDbXrecord
280
     1
102
RTVSPost2010Prop28
280
     0
102
RTVSPost2010PropOp28
 70
     1
102
RTVSPost2010Prop29
280
     1
102
RTVSPost2010PropOp29
 70
     1
102
RTVSPost2010Prop30
280
     1
102
RTVSPost2010PropOp30
 70
     1
102
RTVSPost2010Prop31
280
     0
102
RTVSPost2010PropOp31
 70
     1
102
RTVSPost2010Prop32
280
     0
102
RTVSPost2010PropOp32
 70
     1
102
RTVSPost2010Prop33
280
     0
102
RTVSPost2010PropOp33
 70
     1
102
RTVSPost2010Prop34
280
     0
102
RTVSPost2010PropOp34
 70
     1
102
RTVSPost2010Prop35
280
     0
102
RTVSPost2010PropOp35
 70
     1
102
RTVSPost2010Prop36
280
     0
102
RTVSPost2010PropOp36
 70
     1
102
RTVSPost2010Prop37
 90
       50
102
RTVSPost2010PropOp37
 70
     1
102
RTVSPost2010Prop38
140
0.0
102
RTVSPost2010PropOp38
 70
     1
102
RTVSPost2010Prop39
140
1.0
102
RTVSPost2010PropOp39
 70
     1
102
RTVSPost2010Prop40
 90
        0
102
RTVSPost2010PropOp40
 70
     1
102
RTVSPost2010Prop41ColorIndex
 90
       18
102
RTVSPost2010Prop41ColorRGB
 90
        0
102
RTVSPost2010PropOp41
 70
     1
102
RTVSPost2010Prop42
 90
       50
102
RTVSPost2010PropOp42
 70
     1
102
RTVSPost2010Prop43
 90
        3
102
RTVSPost2010PropOp43
 70
     1
102
RTVSPost2010Prop44ColorIndex
 90
        5
102
RTVSPost2010Prop44ColorRGB
 90
      255
102
RTVSPost2010PropOp44
 70
     1
102
RTVSPost2010Prop45
280
     0
102
RTVSPost2010PropOp45
 70
     1
102
RTVSPost2010Prop46
 90
       50
102
RTVSPost2010PropOp46
 70
     1
102
RTVSPost2010Prop47
 90
       50
102
RTVSPost2010PropOp47
 70
     1
102
RTVSPost2010Prop48
 90
       50
102
RTVSPost2010PropOp48
 70
     1
102
RTVSPost2010Prop49
280
     0
102
RTVSPost2010PropOp49
 70
     1
102
RTVSPost2010Prop50
 90
       50
102
RTVSPost2010PropOp50
 70
     1
102
RTVSPost2010Prop51ColorIndex
 90
      256
102
RTVSPost2010Prop51ColorRGB
 90
-16777216
102
RTVSPost2010PropOp51
 70
     0
102
RTVSPost2010Prop52
140
1.0
102
RTVSPost2010PropOp52
 70
     0
102
RTVSPost2010Prop53
 90
        2
102
RTVSPost2010PropOp53
 70
     1
102
RTVSPost2010Prop54
  1
strokes_ogs.tif
102
RTVSPost2010PropOp54
 70
     1
102
RTVSPost2010Prop55
280
     0
102
RTVSPost2010PropOp55
 70
     1
102
RTVSPost2010Prop56
140
1.0
102
RTVSPost2010PropOp56
 70
     1
102
RTVSPost2010Prop57
140
1.0
102
RTVSPost2010PropOp57
 70
     1
102
RTVSPropertyOp0
 70
     1
102
RTVSPropertyOp1
 70
     1
102
RTVSPropertyOp2
 70
     1
102
RTVSPropertyOp3
 70
     1
102
RTVSPropertyOp4
 70
     1
102
RTVSPropertyOp5
 70
     1
102
RTVSPropertyOp6
 70
     1
102
RTVSPropertyOp7
 70
     1
102
RTVSPropertyOp8
 70
     1
102
RTVSPropertyOp9
 70
     1
102
RTVSPropertyOp10
 70
     1
102
RTVSPropertyOp11
 70
     1
102
RTVSPropertyOp12
 70
     1
102
RTVSPropertyOp13
 70
     1
102
RTVSPropertyOp14
 70
     1
102
RTVSPropertyOp15
 70
     1
102
RTVSPropertyOp16
 70
     1
102
RTVSPropertyOp17
 70
     1
102
RTVSPropertyOp18
 70
     1
102
RTVSPropertyOp19
 70
     1
102
RTVSPropertyOp20
 70
     1
102
RTVSPropertyOp21
 70
     1
102
RTVSPropertyOp22
 70
     1
102
RTVSPropertyOp23
 70
     1
102
RTVSPropertyOp24
 70
     1
102
RTVSPropertyOp25
 70
     1
102
RTVSPropertyOp26
 70
     1
102
RTVSPropertyOp27
 70
     1
102
RTVSPropertyOp28
 70
     1
102
RTVSPropertyOp29
 70
     1
102
RTVSPropertyOp30
 70
     1
102
RTVSPropertyOp31
 70
     1
102
RTVSPropertyOp32
 70
     1
102
RTVSPropertyOp33
 70
     1
102
RTVSPropertyOp34
 70
     1
102
RTVSPropertyOp35
 70
     1
102
RTVSPropertyOp36
 70
     1
102
RTVSPropertyOp37
 70
     1
102
RTVSPropertyOp38
 70
     1
102
RTVSPropertyOp39
 70
     1
102
RTVSPropertyOp40
 70
     1
102
RTVSPropertyOp41
 70
     1
102
RTVSPropertyOp42
 70
     1
102
RTVSPropertyOp43
 70
     1
102
RTVSPropertyOp44
 70
     1
102
RTVSPropertyOp45
 70
     1
102
RTVSPropertyOp46
 70
     1
102
RTVSPropertyOp47
 70
     1
102
RTVSPropertyOp48
 70
     1
102
RTVSPropertyOp49
 70
     1
102
RTVSPropertyOp50
 70
     1
102
RTVSPropertyOp51
 70
     0
102
RTVSPropertyOp52
 70
     0
102
RTVSPropertyOp53
 70
     1
102
RTVSPropertyOp54
 70
     1
102
RTVSPropertyOp55
 70
     1
102
RTVSPropertyOp56
 70
     1
102
RTVSPropertyOp57
 70
     1
102
RTVSPropertyOp58
 70
     1
102
RTVSPropertyOp59
 70
     1
102
RTVSPropertyOp60
 70
     1
102
RTVSPropertyOp61
 70
     1
102
RTVSPropertyOp62
 70
     1
  0
XRECORD
  5
93C
102
{ACAD_REACTORS
330
93B
102
}
330
93B
100
AcDbXrecord
280
     1
102
RTVSPost2010Prop28
280
     0
102
RTVSPost2010PropOp28
 70
     1
102
RTVSPost2010Prop29
280
     1
102
RTVSPost2010PropOp29
 70
     1
102
RTVSPost2010Prop30
280
     1
102
RTVSPost2010PropOp30
 70
     1
102
RTVSPost2010Prop31
280
     0
102
RTVSPost2010PropOp31
 70
     1
102
RTVSPost2010Prop32
280
     0
102
RTVSPost2010PropOp32
 70
     1
102
RTVSPost2010Prop33
280
     0
102
RTVSPost2010PropOp33
 70
     1
102
RTVSPost2010Prop34
280
     0
102
RTVSPost2010PropOp34
 70
     1
102
RTVSPost2010Prop35
280
     0
102
RTVSPost2010PropOp35
 70
     1
102
RTVSPost2010Prop36
280
     0
102
RTVSPost2010PropOp36
 70
     1
102
RTVSPost2010Prop37
 90
       50
102
RTVSPost2010PropOp37
 70
     1
102
RTVSPost2010Prop38
140
0.0
102
RTVSPost2010PropOp38
 70
     1
102
RTVSPost2010Prop39
140
1.0
102
RTVSPost2010PropOp39
 70
     1
102
RTVSPost2010Prop40
 90
        0
102
RTVSPost2010PropOp40
 70
     1
102
RTVSPost2010Prop41ColorIndex
 90
       18
102
RTVSPost2010Prop41ColorRGB
 90
        0
102
RTVSPost2010PropOp41
 70
     1
102
RTVSPost2010Prop42
 90
       50
102
RTVSPost2010PropOp42
 70
     1
102
RTVSPost2010Prop43
 90
        3
102
RTVSPost2010PropOp43
 70
     1
102
RTVSPost2010Prop44ColorIndex
 90
        5
102
RTVSPost2010Prop44ColorRGB
 90
      255
102
RTVSPost2010PropOp44
 70
     1
102
RTVSPost2010Prop45
280
     0
102
RTVSPost2010PropOp45
 70
     1
102
RTVSPost2010Prop46
 90
       50
102
RTVSPost2010PropOp46
 70
     1
102
RTVSPost2010Prop47
 90
       50
102
RTVSPost2010PropOp47
 70
     1
102
RTVSPost2010Prop48
 90
       50
102
RTVSPost2010PropOp48
 70
     1
102
RTVSPost2010Prop49
280
     0
102
RTVSPost2010PropOp49
 70
     1
102
RTVSPost2010Prop50
 90
       50
102
RTVSPost2010PropOp50
 70
     1
102
RTVSPost2010Prop51ColorIndex
 90
      256
102
RTVSPost2010Prop51ColorRGB
 90
-16777216
102
RTVSPost2010PropOp51
 70
     0
102
RTVSPost2010Prop52
140
1.0
102
RTVSPost2010PropOp52
 70
     0
102
RTVSPost2010Prop53
 90
        2
102
RTVSPost2010PropOp53
 70
     1
102
RTVSPost2010Prop54
  1
strokes_ogs.tif
102
RTVSPost2010PropOp54
 70
     1
102
RTVSPost2010Prop55
280
     0
102
RTVSPost2010PropOp55
 70
     1
102
RTVSPost2010Prop56
140
1.0
102
RTVSPost2010PropOp56
 70
     1
102
RTVSPost2010Prop57
140
1.0
102
RTVSPost2010PropOp57
 70
     1
102
RTVSPropertyOp0
 70
     1
102
RTVSPropertyOp1
 70
     1
102
RTVSPropertyOp2
 70
     1
102
RTVSPropertyOp3
 70
     1
102
RTVSPropertyOp4
 70
     1
102
RTVSPropertyOp5
 70
     1
102
RTVSPropertyOp6
 70
     1
102
RTVSPropertyOp7
 70
     1
102
RTVSPropertyOp8
 70
     1
102
RTVSPropertyOp9
 70
     1
102
RTVSPropertyOp10
 70
     1
102
RTVSPropertyOp11
 70
     1
102
RTVSPropertyOp12
 70
     1
102
RTVSPropertyOp13
 70
     1
102
RTVSPropertyOp14
 70
     1
102
RTVSPropertyOp15
 70
     1
102
RTVSPropertyOp16
 70
     1
102
RTVSPropertyOp17
 70
     1
102
RTVSPropertyOp18
 70
     1
102
RTVSPropertyOp19
 70
     1
102
RTVSPropertyOp20
 70
     1
102
RTVSPropertyOp21
 70
     1
102
RTVSPropertyOp22
 70
     1
102
RTVSPropertyOp23
 70
     1
102
RTVSPropertyOp24
 70
     1
102
RTVSPropertyOp25
 70
     1
102
RTVSPropertyOp26
 70
     1
102
RTVSPropertyOp27
 70
     1
102
RTVSPropertyOp28
 70
     1
102
RTVSPropertyOp29
 70
     1
102
RTVSPropertyOp30
 70
     1
102
RTVSPropertyOp31
 70
     1
102
RTVSPropertyOp32
 70
     1
102
RTVSPropertyOp33
 70
     1
102
RTVSPropertyOp34
 70
     1
102
RTVSPropertyOp35
 70
     1
102
RTVSPropertyOp36
 70
     1
102
RTVSPropertyOp37
 70
     1
102
RTVSPropertyOp38
 70
     1
102
RTVSPropertyOp39
 70
     1
102
RTVSPropertyOp40
 70
     1
102
RTVSPropertyOp41
 70
     1
102
RTVSPropertyOp42
 70
     1
102
RTVSPropertyOp43
 70
     1
102
RTVSPropertyOp44
 70
     1
102
RTVSPropertyOp45
 70
     1
102
RTVSPropertyOp46
 70
     1
102
RTVSPropertyOp47
 70
     1
102
RTVSPropertyOp48
 70
     1
102
RTVSPropertyOp49
 70
     1
102
RTVSPropertyOp50
 70
     1
102
RTVSPropertyOp51
 70
     0
102
RTVSPropertyOp52
 70
     0
102
RTVSPropertyOp53
 70
     1
102
RTVSPropertyOp54
 70
     1
102
RTVSPropertyOp55
 70
     1
102
RTVSPropertyOp56
 70
     1
102
RTVSPropertyOp57
 70
     1
102
RTVSPropertyOp58
 70
     1
102
RTVSPropertyOp59
 70
     1
102
RTVSPropertyOp60
 70
     1
102
RTVSPropertyOp61
 70
     1
102
RTVSPropertyOp62
 70
     1
  0
XRECORD
  5
93E
102
{ACAD_REACTORS
330
93D
102
}
330
93D
100
AcDbXrecord
280
     1
102
RTVSPost2010Prop28
280
     0
102
RTVSPost2010PropOp28
 70
     1
102
RTVSPost2010Prop29
280
     1
102
RTVSPost2010PropOp29
 70
     1
102
RTVSPost2010Prop30
280
     1
102
RTVSPost2010PropOp30
 70
     1
102
RTVSPost2010Prop31
280
     0
102
RTVSPost2010PropOp31
 70
     1
102
RTVSPost2010Prop32
280
     0
102
RTVSPost2010PropOp32
 70
     1
102
RTVSPost2010Prop33
280
     0
102
RTVSPost2010PropOp33
 70
     1
102
RTVSPost2010Prop34
280
     0
102
RTVSPost2010PropOp34
 70
     1
102
RTVSPost2010Prop35
280
     0
102
RTVSPost2010PropOp35
 70
     1
102
RTVSPost2010Prop36
280
     0
102
RTVSPost2010PropOp36
 70
     1
102
RTVSPost2010Prop37
 90
       50
102
RTVSPost2010PropOp37
 70
     1
102
RTVSPost2010Prop38
140
0.0
102
RTVSPost2010PropOp38
 70
     1
102
RTVSPost2010Prop39
140
1.0
102
RTVSPost2010PropOp39
 70
     1
102
RTVSPost2010Prop40
 90
        0
102
RTVSPost2010PropOp40
 70
     1
102
RTVSPost2010Prop41ColorIndex
 90
       18
102
RTVSPost2010Prop41ColorRGB
 90
        0
102
RTVSPost2010PropOp41
 70
     1
102
RTVSPost2010Prop42
 90
       50
102
RTVSPost2010PropOp42
 70
     1
102
RTVSPost2010Prop43
 90
        3
102
RTVSPost2010PropOp43
 70
     1
102
RTVSPost2010Prop44ColorIndex
 90
        5
102
RTVSPost2010Prop44ColorRGB
 90
      255
102
RTVSPost2010PropOp44
 70
     1
102
RTVSPost2010Prop45
280
     0
102
RTVSPost2010PropOp45
 70
     1
102
RTVSPost2010Prop46
 90
       50
102
RTVSPost2010PropOp46
 70
     1
102
RTVSPost2010Prop47
 90
       50
102
RTVSPost2010PropOp47
 70
     1
102
RTVSPost2010Prop48
 90
       50
102
RTVSPost2010PropOp48
 70
     1
102
RTVSPost2010Prop49
280
     0
102
RTVSPost2010PropOp49
 70
     1
102
RTVSPost2010Prop50
 90
       50
102
RTVSPost2010PropOp50
 70
     1
102
RTVSPost2010Prop51ColorIndex
 90
      256
102
RTVSPost2010Prop51ColorRGB
 90
-16777216
102
RTVSPost2010PropOp51
 70
     0
102
RTVSPost2010Prop52
140
1.0
102
RTVSPost2010PropOp52
 70
     0
102
RTVSPost2010Prop53
 90
        2
102
RTVSPost2010PropOp53
 70
     1
102
RTVSPost2010Prop54
  1
strokes_ogs.tif
102
RTVSPost2010PropOp54
 70
     1
102
RTVSPost2010Prop55
280
     0
102
RTVSPost2010PropOp55
 70
     1
102
RTVSPost2010Prop56
140
1.0
102
RTVSPost2010PropOp56
 70
     1
102
RTVSPost2010Prop57
140
1.0
102
RTVSPost2010PropOp57
 70
     1
102
RTVSPropertyOp0
 70
     1
102
RTVSPropertyOp1
 70
     1
102
RTVSPropertyOp2
 70
     1
102
RTVSPropertyOp3
 70
     1
102
RTVSPropertyOp4
 70
     1
102
RTVSPropertyOp5
 70
     1
102
RTVSPropertyOp6
 70
     1
102
RTVSPropertyOp7
 70
     1
102
RTVSPropertyOp8
 70
     1
102
RTVSPropertyOp9
 70
     1
102
RTVSPropertyOp10
 70
     1
102
RTVSPropertyOp11
 70
     1
102
RTVSPropertyOp12
 70
     1
102
RTVSPropertyOp13
 70
     1
102
RTVSPropertyOp14
 70
     1
102
RTVSPropertyOp15
 70
     1
102
RTVSPropertyOp16
 70
     1
102
RTVSPropertyOp17
 70
     1
102
RTVSPropertyOp18
 70
     1
102
RTVSPropertyOp19
 70
     1
102
RTVSPropertyOp20
 70
     1
102
RTVSPropertyOp21
 70
     1
102
RTVSPropertyOp22
 70
     1
102
RTVSPropertyOp23
 70
     1
102
RTVSPropertyOp24
 70
     1
102
RTVSPropertyOp25
 70
     1
102
RTVSPropertyOp26
 70
     1
102
RTVSPropertyOp27
 70
     1
102
RTVSPropertyOp28
 70
     1
102
RTVSPropertyOp29
 70
     1
102
RTVSPropertyOp30
 70
     1
102
RTVSPropertyOp31
 70
     1
102
RTVSPropertyOp32
 70
     1
102
RTVSPropertyOp33
 70
     1
102
RTVSPropertyOp34
 70
     1
102
RTVSPropertyOp35
 70
     1
102
RTVSPropertyOp36
 70
     1
102
RTVSPropertyOp37
 70
     1
102
RTVSPropertyOp38
 70
     1
102
RTVSPropertyOp39
 70
     1
102
RTVSPropertyOp40
 70
     1
102
RTVSPropertyOp41
 70
     1
102
RTVSPropertyOp42
 70
     1
102
RTVSPropertyOp43
 70
     1
102
RTVSPropertyOp44
 70
     1
102
RTVSPropertyOp45
 70
     1
102
RTVSPropertyOp46
 70
     1
102
RTVSPropertyOp47
 70
     1
102
RTVSPropertyOp48
 70
     1
102
RTVSPropertyOp49
 70
     1
102
RTVSPropertyOp50
 70
     1
102
RTVSPropertyOp51
 70
     0
102
RTVSPropertyOp52
 70
     0
102
RTVSPropertyOp53
 70
     1
102
RTVSPropertyOp54
 70
     1
102
RTVSPropertyOp55
 70
     1
102
RTVSPropertyOp56
 70
     1
102
RTVSPropertyOp57
 70
     1
102
RTVSPropertyOp58
 70
     1
102
RTVSPropertyOp59
 70
     1
102
RTVSPropertyOp60
 70
     1
102
RTVSPropertyOp61
 70
     1
102
RTVSPropertyOp62
 70
     1
  0
XRECORD
  5
940
102
{ACAD_REACTORS
330
93F
102
}
330
93F
100
AcDbXrecord
280
     1
102
RTVSPost2010Prop28
280
     0
102
RTVSPost2010PropOp28
 70
     1
102
RTVSPost2010Prop29
280
     1
102
RTVSPost2010PropOp29
 70
     1
102
RTVSPost2010Prop30
280
     1
102
RTVSPost2010PropOp30
 70
     1
102
RTVSPost2010Prop31
280
     0
102
RTVSPost2010PropOp31
 70
     1
102
RTVSPost2010Prop32
280
     0
102
RTVSPost2010PropOp32
 70
     1
102
RTVSPost2010Prop33
280
     0
102
RTVSPost2010PropOp33
 70
     1
102
RTVSPost2010Prop34
280
     0
102
RTVSPost2010PropOp34
 70
     1
102
RTVSPost2010Prop35
280
     0
102
RTVSPost2010PropOp35
 70
     1
102
RTVSPost2010Prop36
280
     0
102
RTVSPost2010PropOp36
 70
     1
102
RTVSPost2010Prop37
 90
       50
102
RTVSPost2010PropOp37
 70
     1
102
RTVSPost2010Prop38
140
0.0
102
RTVSPost2010PropOp38
 70
     1
102
RTVSPost2010Prop39
140
1.0
102
RTVSPost2010PropOp39
 70
     1
102
RTVSPost2010Prop40
 90
        0
102
RTVSPost2010PropOp40
 70
     1
102
RTVSPost2010Prop41ColorIndex
 90
       18
102
RTVSPost2010Prop41ColorRGB
 90
        0
102
RTVSPost2010PropOp41
 70
     1
102
RTVSPost2010Prop42
 90
       50
102
RTVSPost2010PropOp42
 70
     1
102
RTVSPost2010Prop43
 90
        3
102
RTVSPost2010PropOp43
 70
     1
102
RTVSPost2010Prop44ColorIndex
 90
        5
102
RTVSPost2010Prop44ColorRGB
 90
      255
102
RTVSPost2010PropOp44
 70
     1
102
RTVSPost2010Prop45
280
     0
102
RTVSPost2010PropOp45
 70
     1
102
RTVSPost2010Prop46
 90
       50
102
RTVSPost2010PropOp46
 70
     1
102
RTVSPost2010Prop47
 90
       50
102
RTVSPost2010PropOp47
 70
     1
102
RTVSPost2010Prop48
 90
       50
102
RTVSPost2010PropOp48
 70
     1
102
RTVSPost2010Prop49
280
     0
102
RTVSPost2010PropOp49
 70
     1
102
RTVSPost2010Prop50
 90
       50
102
RTVSPost2010PropOp50
 70
     1
102
RTVSPost2010Prop51ColorIndex
 90
      256
102
RTVSPost2010Prop51ColorRGB
 90
-16777216
102
RTVSPost2010PropOp51
 70
     0
102
RTVSPost2010Prop52
140
1.0
102
RTVSPost2010PropOp52
 70
     0
102
RTVSPost2010Prop53
 90
        2
102
RTVSPost2010PropOp53
 70
     1
102
RTVSPost2010Prop54
  1
strokes_ogs.tif
102
RTVSPost2010PropOp54
 70
     1
102
RTVSPost2010Prop55
280
     0
102
RTVSPost2010PropOp55
 70
     1
102
RTVSPost2010Prop56
140
1.0
102
RTVSPost2010PropOp56
 70
     1
102
RTVSPost2010Prop57
140
1.0
102
RTVSPost2010PropOp57
 70
     1
102
RTVSPropertyOp0
 70
     1
102
RTVSPropertyOp1
 70
     1
102
RTVSPropertyOp2
 70
     1
102
RTVSPropertyOp3
 70
     1
102
RTVSPropertyOp4
 70
     1
102
RTVSPropertyOp5
 70
     1
102
RTVSPropertyOp6
 70
     1
102
RTVSPropertyOp7
 70
     1
102
RTVSPropertyOp8
 70
     1
102
RTVSPropertyOp9
 70
     1
102
RTVSPropertyOp10
 70
     1
102
RTVSPropertyOp11
 70
     1
102
RTVSPropertyOp12
 70
     1
102
RTVSPropertyOp13
 70
     1
102
RTVSPropertyOp14
 70
     1
102
RTVSPropertyOp15
 70
     1
102
RTVSPropertyOp16
 70
     1
102
RTVSPropertyOp17
 70
     1
102
RTVSPropertyOp18
 70
     1
102
RTVSPropertyOp19
 70
     1
102
RTVSPropertyOp20
 70
     1
102
RTVSPropertyOp21
 70
     1
102
RTVSPropertyOp22
 70
     1
102
RTVSPropertyOp23
 70
     1
102
RTVSPropertyOp24
 70
     1
102
RTVSPropertyOp25
 70
     1
102
RTVSPropertyOp26
 70
     1
102
RTVSPropertyOp27
 70
     1
102
RTVSPropertyOp28
 70
     1
102
RTVSPropertyOp29
 70
     1
102
RTVSPropertyOp30
 70
     1
102
RTVSPropertyOp31
 70
     1
102
RTVSPropertyOp32
 70
     1
102
RTVSPropertyOp33
 70
     1
102
RTVSPropertyOp34
 70
     1
102
RTVSPropertyOp35
 70
     1
102
RTVSPropertyOp36
 70
     1
102
RTVSPropertyOp37
 70
     1
102
RTVSPropertyOp38
 70
     1
102
RTVSPropertyOp39
 70
     1
102
RTVSPropertyOp40
 70
     1
102
RTVSPropertyOp41
 70
     1
102
RTVSPropertyOp42
 70
     1
102
RTVSPropertyOp43
 70
     1
102
RTVSPropertyOp44
 70
     1
102
RTVSPropertyOp45
 70
     1
102
RTVSPropertyOp46
 70
     1
102
RTVSPropertyOp47
 70
     1
102
RTVSPropertyOp48
 70
     1
102
RTVSPropertyOp49
 70
     1
102
RTVSPropertyOp50
 70
     1
102
RTVSPropertyOp51
 70
     0
102
RTVSPropertyOp52
 70
     0
102
RTVSPropertyOp53
 70
     1
102
RTVSPropertyOp54
 70
     1
102
RTVSPropertyOp55
 70
     1
102
RTVSPropertyOp56
 70
     1
102
RTVSPropertyOp57
 70
     1
102
RTVSPropertyOp58
 70
     1
102
RTVSPropertyOp59
 70
     1
102
RTVSPropertyOp60
 70
     1
102
RTVSPropertyOp61
 70
     1
102
RTVSPropertyOp62
 70
     1
  0
XRECORD
  5
946
102
{ACAD_REACTORS
330
945
102
}
330
945
100
AcDbXrecord
280
     1
102
RTVSPost2010Prop28
280
     0
102
RTVSPost2010PropOp28
 70
     1
102
RTVSPost2010Prop29
280
     1
102
RTVSPost2010PropOp29
 70
     1
102
RTVSPost2010Prop30
280
     1
102
RTVSPost2010PropOp30
 70
     1
102
RTVSPost2010Prop31
280
     0
102
RTVSPost2010PropOp31
 70
     1
102
RTVSPost2010Prop32
280
     0
102
RTVSPost2010PropOp32
 70
     1
102
RTVSPost2010Prop33
280
     0
102
RTVSPost2010PropOp33
 70
     1
102
RTVSPost2010Prop34
280
     0
102
RTVSPost2010PropOp34
 70
     1
102
RTVSPost2010Prop35
280
     0
102
RTVSPost2010PropOp35
 70
     1
102
RTVSPost2010Prop36
280
     0
102
RTVSPost2010PropOp36
 70
     1
102
RTVSPost2010Prop37
 90
       50
102
RTVSPost2010PropOp37
 70
     1
102
RTVSPost2010Prop38
140
0.0
102
RTVSPost2010PropOp38
 70
     1
102
RTVSPost2010Prop39
140
1.0
102
RTVSPost2010PropOp39
 70
     1
102
RTVSPost2010Prop40
 90
        0
102
RTVSPost2010PropOp40
 70
     1
102
RTVSPost2010Prop41ColorIndex
 90
       18
102
RTVSPost2010Prop41ColorRGB
 90
        0
102
RTVSPost2010PropOp41
 70
     1
102
RTVSPost2010Prop42
 90
       50
102
RTVSPost2010PropOp42
 70
     1
102
RTVSPost2010Prop43
 90
        3
102
RTVSPost2010PropOp43
 70
     1
102
RTVSPost2010Prop44ColorIndex
 90
        5
102
RTVSPost2010Prop44ColorRGB
 90
      255
102
RTVSPost2010PropOp44
 70
     1
102
RTVSPost2010Prop45
280
     0
102
RTVSPost2010PropOp45
 70
     1
102
RTVSPost2010Prop46
 90
       50
102
RTVSPost2010PropOp46
 70
     1
102
RTVSPost2010Prop47
 90
       50
102
RTVSPost2010PropOp47
 70
     1
102
RTVSPost2010Prop48
 90
       50
102
RTVSPost2010PropOp48
 70
     1
102
RTVSPost2010Prop49
280
     0
102
RTVSPost2010PropOp49
 70
     1
102
RTVSPost2010Prop50
 90
       50
102
RTVSPost2010PropOp50
 70
     1
102
RTVSPost2010Prop51ColorIndex
 90
      256
102
RTVSPost2010Prop51ColorRGB
 90
-16777216
102
RTVSPost2010PropOp51
 70
     0
102
RTVSPost2010Prop52
140
1.0
102
RTVSPost2010PropOp52
 70
     0
102
RTVSPost2010Prop53
 90
        2
102
RTVSPost2010PropOp53
 70
     1
102
RTVSPost2010Prop54
  1
strokes_ogs.tif
102
RTVSPost2010PropOp54
 70
     1
102
RTVSPost2010Prop55
280
     0
102
RTVSPost2010PropOp55
 70
     1
102
RTVSPost2010Prop56
140
1.0
102
RTVSPost2010PropOp56
 70
     1
102
RTVSPost2010Prop57
140
1.0
102
RTVSPost2010PropOp57
 70
     1
102
RTVSPropertyOp0
 70
     1
102
RTVSPropertyOp1
 70
     1
102
RTVSPropertyOp2
 70
     1
102
RTVSPropertyOp3
 70
     1
102
RTVSPropertyOp4
 70
     1
102
RTVSPropertyOp5
 70
     1
102
RTVSPropertyOp6
 70
     1
102
RTVSPropertyOp7
 70
     1
102
RTVSPropertyOp8
 70
     1
102
RTVSPropertyOp9
 70
     1
102
RTVSPropertyOp10
 70
     1
102
RTVSPropertyOp11
 70
     1
102
RTVSPropertyOp12
 70
     1
102
RTVSPropertyOp13
 70
     1
102
RTVSPropertyOp14
 70
     1
102
RTVSPropertyOp15
 70
     1
102
RTVSPropertyOp16
 70
     1
102
RTVSPropertyOp17
 70
     1
102
RTVSPropertyOp18
 70
     1
102
RTVSPropertyOp19
 70
     1
102
RTVSPropertyOp20
 70
     1
102
RTVSPropertyOp21
 70
     1
102
RTVSPropertyOp22
 70
     1
102
RTVSPropertyOp23
 70
     1
102
RTVSPropertyOp24
 70
     1
102
RTVSPropertyOp25
 70
     1
102
RTVSPropertyOp26
 70
     1
102
RTVSPropertyOp27
 70
     1
102
RTVSPropertyOp28
 70
     1
102
RTVSPropertyOp29
 70
     1
102
RTVSPropertyOp30
 70
     1
102
RTVSPropertyOp31
 70
     1
102
RTVSPropertyOp32
 70
     1
102
RTVSPropertyOp33
 70
     1
102
RTVSPropertyOp34
 70
     1
102
RTVSPropertyOp35
 70
     1
102
RTVSPropertyOp36
 70
     1
102
RTVSPropertyOp37
 70
     1
102
RTVSPropertyOp38
 70
     1
102
RTVSPropertyOp39
 70
     1
102
RTVSPropertyOp40
 70
     1
102
RTVSPropertyOp41
 70
     1
102
RTVSPropertyOp42
 70
     1
102
RTVSPropertyOp43
 70
     1
102
RTVSPropertyOp44
 70
     1
102
RTVSPropertyOp45
 70
     1
102
RTVSPropertyOp46
 70
     1
102
RTVSPropertyOp47
 70
     1
102
RTVSPropertyOp48
 70
     1
102
RTVSPropertyOp49
 70
     1
102
RTVSPropertyOp50
 70
     1
102
RTVSPropertyOp51
 70
     0
102
RTVSPropertyOp52
 70
     0
102
RTVSPropertyOp53
 70
     1
102
RTVSPropertyOp54
 70
     1
102
RTVSPropertyOp55
 70
     1
102
RTVSPropertyOp56
 70
     1
102
RTVSPropertyOp57
 70
     1
102
RTVSPropertyOp58
 70
     1
102
RTVSPropertyOp59
 70
     1
102
RTVSPropertyOp60
 70
     1
102
RTVSPropertyOp61
 70
     1
102
RTVSPropertyOp62
 70
     1
  0
XRECORD
  5
95A
102
{ACAD_REACTORS
330
959
102
}
330
959
100
AcDbXrecord
280
     1
102
RTVSPost2010Prop28
280
     0
102
RTVSPost2010PropOp28
 70
     0
102
RTVSPost2010Prop29
280
     1
102
RTVSPost2010PropOp29
 70
     0
102
RTVSPost2010Prop30
280
     1
102
RTVSPost2010PropOp30
 70
     0
102
RTVSPost2010Prop31
280
     0
102
RTVSPost2010PropOp31
 70
     0
102
RTVSPost2010Prop32
280
     0
102
RTVSPost2010PropOp32
 70
     0
102
RTVSPost2010Prop33
280
     0
102
RTVSPost2010PropOp33
 70
     0
102
RTVSPost2010Prop34
280
     0
102
RTVSPost2010PropOp34
 70
     0
102
RTVSPost2010Prop35
280
     0
102
RTVSPost2010PropOp35
 70
     0
102
RTVSPost2010Prop36
280
     0
102
RTVSPost2010PropOp36
 70
     0
102
RTVSPost2010Prop37
 90
       50
102
RTVSPost2010PropOp37
 70
     0
102
RTVSPost2010Prop38
140
0.0
102
RTVSPost2010PropOp38
 70
     0
102
RTVSPost2010Prop39
140
1.0
102
RTVSPost2010PropOp39
 70
     0
102
RTVSPost2010Prop40
 90
        0
102
RTVSPost2010PropOp40
 70
     0
102
RTVSPost2010Prop41ColorIndex
 90
       18
102
RTVSPost2010Prop41ColorRGB
 90
        0
102
RTVSPost2010PropOp41
 70
     0
102
RTVSPost2010Prop42
 90
       50
102
RTVSPost2010PropOp42
 70
     0
102
RTVSPost2010Prop43
 90
        3
102
RTVSPost2010PropOp43
 70
     0
102
RTVSPost2010Prop44ColorIndex
 90
        5
102
RTVSPost2010Prop44ColorRGB
 90
      255
102
RTVSPost2010PropOp44
 70
     0
102
RTVSPost2010Prop45
280
     0
102
RTVSPost2010PropOp45
 70
     0
102
RTVSPost2010Prop46
 90
       50
102
RTVSPost2010PropOp46
 70
     0
102
RTVSPost2010Prop47
 90
       50
102
RTVSPost2010PropOp47
 70
     0
102
RTVSPost2010Prop48
 90
       50
102
RTVSPost2010PropOp48
 70
     0
102
RTVSPost2010Prop49
280
     0
102
RTVSPost2010PropOp49
 70
     0
102
RTVSPost2010Prop50
 90
       50
102
RTVSPost2010PropOp50
 70
     0
102
RTVSPost2010Prop51ColorIndex
 90
      256
102
RTVSPost2010Prop51ColorRGB
 90
-16777216
102
RTVSPost2010PropOp51
 70
     0
102
RTVSPost2010Prop52
140
1.0
102
RTVSPost2010PropOp52
 70
     0
102
RTVSPost2010Prop53
 90
        2
102
RTVSPost2010PropOp53
 70
     0
102
RTVSPost2010Prop54
  1
strokes_ogs.tif
102
RTVSPost2010PropOp54
 70
     0
102
RTVSPost2010Prop55
280
     0
102
RTVSPost2010PropOp55
 70
     0
102
RTVSPost2010Prop56
140
1.0
102
RTVSPost2010PropOp56
 70
     0
102
RTVSPost2010Prop57
140
1.0
102
RTVSPost2010PropOp57
 70
     0
102
RTVSPropertyOp0
 70
     0
102
RTVSPropertyOp1
 70
     0
102
RTVSPropertyOp2
 70
     0
102
RTVSPropertyOp3
 70
     0
102
RTVSPropertyOp4
 70
     0
102
RTVSPropertyOp5
 70
     0
102
RTVSPropertyOp6
 70
     0
102
RTVSPropertyOp7
 70
     0
102
RTVSPropertyOp8
 70
     0
102
RTVSPropertyOp9
 70
     0
102
RTVSPropertyOp10
 70
     0
102
RTVSPropertyOp11
 70
     0
102
RTVSPropertyOp12
 70
     0
102
RTVSPropertyOp13
 70
     0
102
RTVSPropertyOp14
 70
     2
102
RTVSPropertyOp15
 70
     0
102
RTVSPropertyOp16
 70
     0
102
RTVSPropertyOp17
 70
     0
102
RTVSPropertyOp18
 70
     0
102
RTVSPropertyOp19
 70
     0
102
RTVSPropertyOp20
 70
     0
102
RTVSPropertyOp21
 70
     0
102
RTVSPropertyOp22
 70
     0
102
RTVSPropertyOp23
 70
     0
102
RTVSPropertyOp24
 70
     0
102
RTVSPropertyOp25
 70
     0
102
RTVSPropertyOp26
 70
     0
102
RTVSPropertyOp27
 70
     0
102
RTVSPropertyOp28
 70
     0
102
RTVSPropertyOp29
 70
     0
102
RTVSPropertyOp30
 70
     0
102
RTVSPropertyOp31
 70
     0
102
RTVSPropertyOp32
 70
     0
102
RTVSPropertyOp33
 70
     0
102
RTVSPropertyOp34
 70
     0
102
RTVSPropertyOp35
 70
     0
102
RTVSPropertyOp36
 70
     0
102
RTVSPropertyOp37
 70
     0
102
RTVSPropertyOp38
 70
     0
102
RTVSPropertyOp39
 70
     0
102
RTVSPropertyOp40
 70
     0
102
RTVSPropertyOp41
 70
     0
102
RTVSPropertyOp42
 70
     0
102
RTVSPropertyOp43
 70
     0
102
RTVSPropertyOp44
 70
     0
102
RTVSPropertyOp45
 70
     0
102
RTVSPropertyOp46
 70
     0
102
RTVSPropertyOp47
 70
     0
102
RTVSPropertyOp48
 70
     0
102
RTVSPropertyOp49
 70
     0
102
RTVSPropertyOp50
 70
     0
102
RTVSPropertyOp51
 70
     0
102
RTVSPropertyOp52
 70
     0
102
RTVSPropertyOp53
 70
     0
102
RTVSPropertyOp54
 70
     0
102
RTVSPropertyOp55
 70
     0
102
RTVSPropertyOp56
 70
     0
102
RTVSPropertyOp57
 70
     0
102
RTVSPropertyOp58
 70
     1
102
RTVSPropertyOp59
 70
     1
102
RTVSPropertyOp60
 70
     1
102
RTVSPropertyOp61
 70
     1
102
RTVSPropertyOp62
 70
     1
  0
XRECORD
  5
954
102
{ACAD_REACTORS
330
953
102
}
330
953
100
AcDbXrecord
280
     1
102
RTVSPost2010Prop28
280
     0
102
RTVSPost2010PropOp28
 70
     1
102
RTVSPost2010Prop29
280
     1
102
RTVSPost2010PropOp29
 70
     1
102
RTVSPost2010Prop30
280
     1
102
RTVSPost2010PropOp30
 70
     1
102
RTVSPost2010Prop31
280
     0
102
RTVSPost2010PropOp31
 70
     1
102
RTVSPost2010Prop32
280
     0
102
RTVSPost2010PropOp32
 70
     1
102
RTVSPost2010Prop33
280
     0
102
RTVSPost2010PropOp33
 70
     1
102
RTVSPost2010Prop34
280
     0
102
RTVSPost2010PropOp34
 70
     1
102
RTVSPost2010Prop35
280
     0
102
RTVSPost2010PropOp35
 70
     1
102
RTVSPost2010Prop36
280
     0
102
RTVSPost2010PropOp36
 70
     1
102
RTVSPost2010Prop37
 90
       50
102
RTVSPost2010PropOp37
 70
     1
102
RTVSPost2010Prop38
140
0.0
102
RTVSPost2010PropOp38
 70
     1
102
RTVSPost2010Prop39
140
1.0
102
RTVSPost2010PropOp39
 70
     1
102
RTVSPost2010Prop40
 90
        0
102
RTVSPost2010PropOp40
 70
     1
102
RTVSPost2010Prop41ColorIndex
 90
       18
102
RTVSPost2010Prop41ColorRGB
 90
        0
102
RTVSPost2010PropOp41
 70
     1
102
RTVSPost2010Prop42
 90
       50
102
RTVSPost2010PropOp42
 70
     1
102
RTVSPost2010Prop43
 90
        3
102
RTVSPost2010PropOp43
 70
     1
102
RTVSPost2010Prop44ColorIndex
 90
        5
102
RTVSPost2010Prop44ColorRGB
 90
      255
102
RTVSPost2010PropOp44
 70
     1
102
RTVSPost2010Prop45
280
     0
102
RTVSPost2010PropOp45
 70
     1
102
RTVSPost2010Prop46
 90
       50
102
RTVSPost2010PropOp46
 70
     1
102
RTVSPost2010Prop47
 90
       50
102
RTVSPost2010PropOp47
 70
     1
102
RTVSPost2010Prop48
 90
       50
102
RTVSPost2010PropOp48
 70
     1
102
RTVSPost2010Prop49
280
     0
102
RTVSPost2010PropOp49
 70
     1
102
RTVSPost2010Prop50
 90
       50
102
RTVSPost2010PropOp50
 70
     1
102
RTVSPost2010Prop51ColorIndex
 90
      256
102
RTVSPost2010Prop51ColorRGB
 90
-16777216
102
RTVSPost2010PropOp51
 70
     0
102
RTVSPost2010Prop52
140
1.0
102
RTVSPost2010PropOp52
 70
     0
102
RTVSPost2010Prop53
 90
        2
102
RTVSPost2010PropOp53
 70
     1
102
RTVSPost2010Prop54
  1
strokes_ogs.tif
102
RTVSPost2010PropOp54
 70
     1
102
RTVSPost2010Prop55
280
     0
102
RTVSPost2010PropOp55
 70
     1
102
RTVSPost2010Prop56
140
1.0
102
RTVSPost2010PropOp56
 70
     1
102
RTVSPost2010Prop57
140
1.0
102
RTVSPost2010PropOp57
 70
     1
102
RTVSPropertyOp0
 70
     1
102
RTVSPropertyOp1
 70
     1
102
RTVSPropertyOp2
 70
     1
102
RTVSPropertyOp3
 70
     1
102
RTVSPropertyOp4
 70
     1
102
RTVSPropertyOp5
 70
     1
102
RTVSPropertyOp6
 70
     1
102
RTVSPropertyOp7
 70
     1
102
RTVSPropertyOp8
 70
     1
102
RTVSPropertyOp9
 70
     1
102
RTVSPropertyOp10
 70
     1
102
RTVSPropertyOp11
 70
     1
102
RTVSPropertyOp12
 70
     1
102
RTVSPropertyOp13
 70
     1
102
RTVSPropertyOp14
 70
     1
102
RTVSPropertyOp15
 70
     1
102
RTVSPropertyOp16
 70
     1
102
RTVSPropertyOp17
 70
     1
102
RTVSPropertyOp18
 70
     1
102
RTVSPropertyOp19
 70
     1
102
RTVSPropertyOp20
 70
     1
102
RTVSPropertyOp21
 70
     1
102
RTVSPropertyOp22
 70
     1
102
RTVSPropertyOp23
 70
     1
102
RTVSPropertyOp24
 70
     1
102
RTVSPropertyOp25
 70
     1
102
RTVSPropertyOp26
 70
     1
102
RTVSPropertyOp27
 70
     1
102
RTVSPropertyOp28
 70
     1
102
RTVSPropertyOp29
 70
     1
102
RTVSPropertyOp30
 70
     1
102
RTVSPropertyOp31
 70
     1
102
RTVSPropertyOp32
 70
     1
102
RTVSPropertyOp33
 70
     1
102
RTVSPropertyOp34
 70
     1
102
RTVSPropertyOp35
 70
     1
102
RTVSPropertyOp36
 70
     1
102
RTVSPropertyOp37
 70
     1
102
RTVSPropertyOp38
 70
     1
102
RTVSPropertyOp39
 70
     1
102
RTVSPropertyOp40
 70
     1
102
RTVSPropertyOp41
 70
     1
102
RTVSPropertyOp42
 70
     1
102
RTVSPropertyOp43
 70
     1
102
RTVSPropertyOp44
 70
     1
102
RTVSPropertyOp45
 70
     1
102
RTVSPropertyOp46
 70
     1
102
RTVSPropertyOp47
 70
     1
102
RTVSPropertyOp48
 70
     1
102
RTVSPropertyOp49
 70
     1
102
RTVSPropertyOp50
 70
     1
102
RTVSPropertyOp51
 70
     0
102
RTVSPropertyOp52
 70
     0
102
RTVSPropertyOp53
 70
     1
102
RTVSPropertyOp54
 70
     1
102
RTVSPropertyOp55
 70
     1
102
RTVSPropertyOp56
 70
     1
102
RTVSPropertyOp57
 70
     1
102
RTVSPropertyOp58
 70
     1
102
RTVSPropertyOp59
 70
     1
102
RTVSPropertyOp60
 70
     1
102
RTVSPropertyOp61
 70
     1
102
RTVSPropertyOp62
 70
     1
  0
XRECORD
  5
95C
102
{ACAD_REACTORS
330
95B
102
}
330
95B
100
AcDbXrecord
280
     1
102
RTVSPost2010Prop28
280
     0
102
RTVSPost2010PropOp28
 70
     0
102
RTVSPost2010Prop29
280
     1
102
RTVSPost2010PropOp29
 70
     0
102
RTVSPost2010Prop30
280
     1
102
RTVSPost2010PropOp30
 70
     0
102
RTVSPost2010Prop31
280
     0
102
RTVSPost2010PropOp31
 70
     0
102
RTVSPost2010Prop32
280
     0
102
RTVSPost2010PropOp32
 70
     0
102
RTVSPost2010Prop33
280
     0
102
RTVSPost2010PropOp33
 70
     0
102
RTVSPost2010Prop34
280
     0
102
RTVSPost2010PropOp34
 70
     0
102
RTVSPost2010Prop35
280
     0
102
RTVSPost2010PropOp35
 70
     0
102
RTVSPost2010Prop36
280
     0
102
RTVSPost2010PropOp36
 70
     0
102
RTVSPost2010Prop37
 90
       50
102
RTVSPost2010PropOp37
 70
     0
102
RTVSPost2010Prop38
140
0.0
102
RTVSPost2010PropOp38
 70
     0
102
RTVSPost2010Prop39
140
1.0
102
RTVSPost2010PropOp39
 70
     0
102
RTVSPost2010Prop40
 90
        0
102
RTVSPost2010PropOp40
 70
     0
102
RTVSPost2010Prop41ColorIndex
 90
       18
102
RTVSPost2010Prop41ColorRGB
 90
        0
102
RTVSPost2010PropOp41
 70
     0
102
RTVSPost2010Prop42
 90
       50
102
RTVSPost2010PropOp42
 70
     0
102
RTVSPost2010Prop43
 90
        3
102
RTVSPost2010PropOp43
 70
     0
102
RTVSPost2010Prop44ColorIndex
 90
        5
102
RTVSPost2010Prop44ColorRGB
 90
      255
102
RTVSPost2010PropOp44
 70
     0
102
RTVSPost2010Prop45
280
     0
102
RTVSPost2010PropOp45
 70
     0
102
RTVSPost2010Prop46
 90
       50
102
RTVSPost2010PropOp46
 70
     0
102
RTVSPost2010Prop47
 90
       50
102
RTVSPost2010PropOp47
 70
     0
102
RTVSPost2010Prop48
 90
       50
102
RTVSPost2010PropOp48
 70
     0
102
RTVSPost2010Prop49
280
     0
102
RTVSPost2010PropOp49
 70
     0
102
RTVSPost2010Prop50
 90
       50
102
RTVSPost2010PropOp50
 70
     0
102
RTVSPost2010Prop51ColorIndex
 90
      256
102
RTVSPost2010Prop51ColorRGB
 90
-16777216
102
RTVSPost2010PropOp51
 70
     0
102
RTVSPost2010Prop52
140
1.0
102
RTVSPost2010PropOp52
 70
     0
102
RTVSPost2010Prop53
 90
        2
102
RTVSPost2010PropOp53
 70
     0
102
RTVSPost2010Prop54
  1
strokes_ogs.tif
102
RTVSPost2010PropOp54
 70
     0
102
RTVSPost2010Prop55
280
     0
102
RTVSPost2010PropOp55
 70
     0
102
RTVSPost2010Prop56
140
1.0
102
RTVSPost2010PropOp56
 70
     0
102
RTVSPost2010Prop57
140
1.0
102
RTVSPost2010PropOp57
 70
     0
102
RTVSPropertyOp0
 70
     0
102
RTVSPropertyOp1
 70
     0
102
RTVSPropertyOp2
 70
     0
102
RTVSPropertyOp3
 70
     0
102
RTVSPropertyOp4
 70
     0
102
RTVSPropertyOp5
 70
     0
102
RTVSPropertyOp6
 70
     0
102
RTVSPropertyOp7
 70
     0
102
RTVSPropertyOp8
 70
     0
102
RTVSPropertyOp9
 70
     0
102
RTVSPropertyOp10
 70
     0
102
RTVSPropertyOp11
 70
     0
102
RTVSPropertyOp12
 70
     0
102
RTVSPropertyOp13
 70
     0
102
RTVSPropertyOp14
 70
     2
102
RTVSPropertyOp15
 70
     0
102
RTVSPropertyOp16
 70
     0
102
RTVSPropertyOp17
 70
     0
102
RTVSPropertyOp18
 70
     0
102
RTVSPropertyOp19
 70
     0
102
RTVSPropertyOp20
 70
     0
102
RTVSPropertyOp21
 70
     0
102
RTVSPropertyOp22
 70
     0
102
RTVSPropertyOp23
 70
     0
102
RTVSPropertyOp24
 70
     0
102
RTVSPropertyOp25
 70
     0
102
RTVSPropertyOp26
 70
     0
102
RTVSPropertyOp27
 70
     0
102
RTVSPropertyOp28
 70
     0
102
RTVSPropertyOp29
 70
     0
102
RTVSPropertyOp30
 70
     0
102
RTVSPropertyOp31
 70
     0
102
RTVSPropertyOp32
 70
     0
102
RTVSPropertyOp33
 70
     0
102
RTVSPropertyOp34
 70
     0
102
RTVSPropertyOp35
 70
     0
102
RTVSPropertyOp36
 70
     0
102
RTVSPropertyOp37
 70
     0
102
RTVSPropertyOp38
 70
     0
102
RTVSPropertyOp39
 70
     0
102
RTVSPropertyOp40
 70
     0
102
RTVSPropertyOp41
 70
     0
102
RTVSPropertyOp42
 70
     0
102
RTVSPropertyOp43
 70
     0
102
RTVSPropertyOp44
 70
     0
102
RTVSPropertyOp45
 70
     0
102
RTVSPropertyOp46
 70
     0
102
RTVSPropertyOp47
 70
     0
102
RTVSPropertyOp48
 70
     0
102
RTVSPropertyOp49
 70
     0
102
RTVSPropertyOp50
 70
     0
102
RTVSPropertyOp51
 70
     0
102
RTVSPropertyOp52
 70
     0
102
RTVSPropertyOp53
 70
     0
102
RTVSPropertyOp54
 70
     0
102
RTVSPropertyOp55
 70
     0
102
RTVSPropertyOp56
 70
     0
102
RTVSPropertyOp57
 70
     0
102
RTVSPropertyOp58
 70
     1
102
RTVSPropertyOp59
 70
     1
102
RTVSPropertyOp60
 70
     1
102
RTVSPropertyOp61
 70
     1
102
RTVSPropertyOp62
 70
     1
  0
XRECORD
  5
94A
102
{ACAD_REACTORS
330
949
102
}
330
949
100
AcDbXrecord
280
     1
102
RTVSPost2010Prop28
280
     0
102
RTVSPost2010PropOp28
 70
     1
102
RTVSPost2010Prop29
280
     1
102
RTVSPost2010PropOp29
 70
     1
102
RTVSPost2010Prop30
280
     1
102
RTVSPost2010PropOp30
 70
     1
102
RTVSPost2010Prop31
280
     0
102
RTVSPost2010PropOp31
 70
     1
102
RTVSPost2010Prop32
280
     0
102
RTVSPost2010PropOp32
 70
     1
102
RTVSPost2010Prop33
280
     0
102
RTVSPost2010PropOp33
 70
     1
102
RTVSPost2010Prop34
280
     0
102
RTVSPost2010PropOp34
 70
     1
102
RTVSPost2010Prop35
280
     0
102
RTVSPost2010PropOp35
 70
     1
102
RTVSPost2010Prop36
280
     0
102
RTVSPost2010PropOp36
 70
     1
102
RTVSPost2010Prop37
 90
       50
102
RTVSPost2010PropOp37
 70
     1
102
RTVSPost2010Prop38
140
0.0
102
RTVSPost2010PropOp38
 70
     1
102
RTVSPost2010Prop39
140
1.0
102
RTVSPost2010PropOp39
 70
     1
102
RTVSPost2010Prop40
 90
        0
102
RTVSPost2010PropOp40
 70
     1
102
RTVSPost2010Prop41ColorIndex
 90
       18
102
RTVSPost2010Prop41ColorRGB
 90
        0
102
RTVSPost2010PropOp41
 70
     1
102
RTVSPost2010Prop42
 90
       50
102
RTVSPost2010PropOp42
 70
     1
102
RTVSPost2010Prop43
 90
        3
102
RTVSPost2010PropOp43
 70
     1
102
RTVSPost2010Prop44ColorIndex
 90
        5
102
RTVSPost2010Prop44ColorRGB
 90
      255
102
RTVSPost2010PropOp44
 70
     1
102
RTVSPost2010Prop45
280
     0
102
RTVSPost2010PropOp45
 70
     1
102
RTVSPost2010Prop46
 90
       50
102
RTVSPost2010PropOp46
 70
     1
102
RTVSPost2010Prop47
 90
       50
102
RTVSPost2010PropOp47
 70
     1
102
RTVSPost2010Prop48
 90
       50
102
RTVSPost2010PropOp48
 70
     1
102
RTVSPost2010Prop49
280
     0
102
RTVSPost2010PropOp49
 70
     1
102
RTVSPost2010Prop50
 90
       50
102
RTVSPost2010PropOp50
 70
     1
102
RTVSPost2010Prop51ColorIndex
 90
      256
102
RTVSPost2010Prop51ColorRGB
 90
-16777216
102
RTVSPost2010PropOp51
 70
     0
102
RTVSPost2010Prop52
140
1.0
102
RTVSPost2010PropOp52
 70
     0
102
RTVSPost2010Prop53
 90
        2
102
RTVSPost2010PropOp53
 70
     1
102
RTVSPost2010Prop54
  1
strokes_ogs.tif
102
RTVSPost2010PropOp54
 70
     1
102
RTVSPost2010Prop55
280
     0
102
RTVSPost2010PropOp55
 70
     1
102
RTVSPost2010Prop56
140
1.0
102
RTVSPost2010PropOp56
 70
     1
102
RTVSPost2010Prop57
140
1.0
102
RTVSPost2010PropOp57
 70
     1
102
RTVSPropertyOp0
 70
     1
102
RTVSPropertyOp1
 70
     1
102
RTVSPropertyOp2
 70
     1
102
RTVSPropertyOp3
 70
     1
102
RTVSPropertyOp4
 70
     1
102
RTVSPropertyOp5
 70
     1
102
RTVSPropertyOp6
 70
     1
102
RTVSPropertyOp7
 70
     1
102
RTVSPropertyOp8
 70
     1
102
RTVSPropertyOp9
 70
     1
102
RTVSPropertyOp10
 70
     1
102
RTVSPropertyOp11
 70
     1
102
RTVSPropertyOp12
 70
     1
102
RTVSPropertyOp13
 70
     1
102
RTVSPropertyOp14
 70
     1
102
RTVSPropertyOp15
 70
     1
102
RTVSPropertyOp16
 70
     1
102
RTVSPropertyOp17
 70
     1
102
RTVSPropertyOp18
 70
     1
102
RTVSPropertyOp19
 70
     1
102
RTVSPropertyOp20
 70
     1
102
RTVSPropertyOp21
 70
     1
102
RTVSPropertyOp22
 70
     1
102
RTVSPropertyOp23
 70
     1
102
RTVSPropertyOp24
 70
     1
102
RTVSPropertyOp25
 70
     1
102
RTVSPropertyOp26
 70
     1
102
RTVSPropertyOp27
 70
     1
102
RTVSPropertyOp28
 70
     1
102
RTVSPropertyOp29
 70
     1
102
RTVSPropertyOp30
 70
     1
102
RTVSPropertyOp31
 70
     1
102
RTVSPropertyOp32
 70
     1
102
RTVSPropertyOp33
 70
     1
102
RTVSPropertyOp34
 70
     1
102
RTVSPropertyOp35
 70
     1
102
RTVSPropertyOp36
 70
     1
102
RTVSPropertyOp37
 70
     1
102
RTVSPropertyOp38
 70
     1
102
RTVSPropertyOp39
 70
     1
102
RTVSPropertyOp40
 70
     1
102
RTVSPropertyOp41
 70
     1
102
RTVSPropertyOp42
 70
     1
102
RTVSPropertyOp43
 70
     1
102
RTVSPropertyOp44
 70
     1
102
RTVSPropertyOp45
 70
     1
102
RTVSPropertyOp46
 70
     1
102
RTVSPropertyOp47
 70
     1
102
RTVSPropertyOp48
 70
     1
102
RTVSPropertyOp49
 70
     1
102
RTVSPropertyOp50
 70
     1
102
RTVSPropertyOp51
 70
     0
102
RTVSPropertyOp52
 70
     0
102
RTVSPropertyOp53
 70
     1
102
RTVSPropertyOp54
 70
     1
102
RTVSPropertyOp55
 70
     1
102
RTVSPropertyOp56
 70
     1
102
RTVSPropertyOp57
 70
     1
102
RTVSPropertyOp58
 70
     1
102
RTVSPropertyOp59
 70
     1
102
RTVSPropertyOp60
 70
     1
102
RTVSPropertyOp61
 70
     1
102
RTVSPropertyOp62
 70
     1
  0
XRECORD
  5
968
102
{ACAD_REACTORS
330
967
102
}
330
967
100
AcDbXrecord
280
     1
102
RTVSPost2010Prop28
280
     0
102
RTVSPost2010PropOp28
 70
     1
102
RTVSPost2010Prop29
280
     1
102
RTVSPost2010PropOp29
 70
     1
102
RTVSPost2010Prop30
280
     1
102
RTVSPost2010PropOp30
 70
     1
102
RTVSPost2010Prop31
280
     0
102
RTVSPost2010PropOp31
 70
     1
102
RTVSPost2010Prop32
280
     0
102
RTVSPost2010PropOp32
 70
     1
102
RTVSPost2010Prop33
280
     0
102
RTVSPost2010PropOp33
 70
     1
102
RTVSPost2010Prop34
280
     0
102
RTVSPost2010PropOp34
 70
     1
102
RTVSPost2010Prop35
280
     0
102
RTVSPost2010PropOp35
 70
     1
102
RTVSPost2010Prop36
280
     0
102
RTVSPost2010PropOp36
 70
     1
102
RTVSPost2010Prop37
 90
       50
102
RTVSPost2010PropOp37
 70
     1
102
RTVSPost2010Prop38
140
0.0
102
RTVSPost2010PropOp38
 70
     1
102
RTVSPost2010Prop39
140
1.0
102
RTVSPost2010PropOp39
 70
     1
102
RTVSPost2010Prop40
 90
        0
102
RTVSPost2010PropOp40
 70
     1
102
RTVSPost2010Prop41ColorIndex
 90
       18
102
RTVSPost2010Prop41ColorRGB
 90
        0
102
RTVSPost2010PropOp41
 70
     1
102
RTVSPost2010Prop42
 90
       50
102
RTVSPost2010PropOp42
 70
     1
102
RTVSPost2010Prop43
 90
        3
102
RTVSPost2010PropOp43
 70
     1
102
RTVSPost2010Prop44ColorIndex
 90
        5
102
RTVSPost2010Prop44ColorRGB
 90
      255
102
RTVSPost2010PropOp44
 70
     1
102
RTVSPost2010Prop45
280
     0
102
RTVSPost2010PropOp45
 70
     1
102
RTVSPost2010Prop46
 90
       50
102
RTVSPost2010PropOp46
 70
     1
102
RTVSPost2010Prop47
 90
       50
102
RTVSPost2010PropOp47
 70
     1
102
RTVSPost2010Prop48
 90
       50
102
RTVSPost2010PropOp48
 70
     1
102
RTVSPost2010Prop49
280
     0
102
RTVSPost2010PropOp49
 70
     1
102
RTVSPost2010Prop50
 90
       50
102
RTVSPost2010PropOp50
 70
     1
102
RTVSPost2010Prop51ColorIndex
 90
      256
102
RTVSPost2010Prop51ColorRGB
 90
-16777216
102
RTVSPost2010PropOp51
 70
     0
102
RTVSPost2010Prop52
140
1.0
102
RTVSPost2010PropOp52
 70
     0
102
RTVSPost2010Prop53
 90
        2
102
RTVSPost2010PropOp53
 70
     1
102
RTVSPost2010Prop54
  1
strokes_ogs.tif
102
RTVSPost2010PropOp54
 70
     1
102
RTVSPost2010Prop55
280
     0
102
RTVSPost2010PropOp55
 70
     1
102
RTVSPost2010Prop56
140
1.0
102
RTVSPost2010PropOp56
 70
     1
102
RTVSPost2010Prop57
140
1.0
102
RTVSPost2010PropOp57
 70
     1
102
RTVSPropertyOp0
 70
     1
102
RTVSPropertyOp1
 70
     1
102
RTVSPropertyOp2
 70
     1
102
RTVSPropertyOp3
 70
     1
102
RTVSPropertyOp4
 70
     1
102
RTVSPropertyOp5
 70
     1
102
RTVSPropertyOp6
 70
     1
102
RTVSPropertyOp7
 70
     1
102
RTVSPropertyOp8
 70
     1
102
RTVSPropertyOp9
 70
     1
102
RTVSPropertyOp10
 70
     1
102
RTVSPropertyOp11
 70
     1
102
RTVSPropertyOp12
 70
     1
102
RTVSPropertyOp13
 70
     1
102
RTVSPropertyOp14
 70
     1
102
RTVSPropertyOp15
 70
     1
102
RTVSPropertyOp16
 70
     1
102
RTVSPropertyOp17
 70
     1
102
RTVSPropertyOp18
 70
     1
102
RTVSPropertyOp19
 70
     1
102
RTVSPropertyOp20
 70
     1
102
RTVSPropertyOp21
 70
     1
102
RTVSPropertyOp22
 70
     1
102
RTVSPropertyOp23
 70
     1
102
RTVSPropertyOp24
 70
     1
102
RTVSPropertyOp25
 70
     1
102
RTVSPropertyOp26
 70
     1
102
RTVSPropertyOp27
 70
     1
102
RTVSPropertyOp28
 70
     1
102
RTVSPropertyOp29
 70
     1
102
RTVSPropertyOp30
 70
     1
102
RTVSPropertyOp31
 70
     1
102
RTVSPropertyOp32
 70
     1
102
RTVSPropertyOp33
 70
     1
102
RTVSPropertyOp34
 70
     1
102
RTVSPropertyOp35
 70
     1
102
RTVSPropertyOp36
 70
     1
102
RTVSPropertyOp37
 70
     1
102
RTVSPropertyOp38
 70
     1
102
RTVSPropertyOp39
 70
     1
102
RTVSPropertyOp40
 70
     1
102
RTVSPropertyOp41
 70
     1
102
RTVSPropertyOp42
 70
     1
102
RTVSPropertyOp43
 70
     1
102
RTVSPropertyOp44
 70
     1
102
RTVSPropertyOp45
 70
     1
102
RTVSPropertyOp46
 70
     1
102
RTVSPropertyOp47
 70
     1
102
RTVSPropertyOp48
 70
     1
102
RTVSPropertyOp49
 70
     1
102
RTVSPropertyOp50
 70
     1
102
RTVSPropertyOp51
 70
     0
102
RTVSPropertyOp52
 70
     0
102
RTVSPropertyOp53
 70
     1
102
RTVSPropertyOp54
 70
     1
102
RTVSPropertyOp55
 70
     1
102
RTVSPropertyOp56
 70
     1
102
RTVSPropertyOp57
 70
     1
102
RTVSPropertyOp58
 70
     1
102
RTVSPropertyOp59
 70
     1
102
RTVSPropertyOp60
 70
     1
102
RTVSPropertyOp61
 70
     1
102
RTVSPropertyOp62
 70
     1
  0
XRECORD
  5
966
102
{ACAD_REACTORS
330
965
102
}
330
965
100
AcDbXrecord
280
     1
102
RTVSPost2010Prop28
280
     0
102
RTVSPost2010PropOp28
 70
     1
102
RTVSPost2010Prop29
280
     1
102
RTVSPost2010PropOp29
 70
     1
102
RTVSPost2010Prop30
280
     1
102
RTVSPost2010PropOp30
 70
     1
102
RTVSPost2010Prop31
280
     0
102
RTVSPost2010PropOp31
 70
     1
102
RTVSPost2010Prop32
280
     0
102
RTVSPost2010PropOp32
 70
     1
102
RTVSPost2010Prop33
280
     0
102
RTVSPost2010PropOp33
 70
     1
102
RTVSPost2010Prop34
280
     0
102
RTVSPost2010PropOp34
 70
     1
102
RTVSPost2010Prop35
280
     0
102
RTVSPost2010PropOp35
 70
     1
102
RTVSPost2010Prop36
280
     0
102
RTVSPost2010PropOp36
 70
     1
102
RTVSPost2010Prop37
 90
       50
102
RTVSPost2010PropOp37
 70
     1
102
RTVSPost2010Prop38
140
0.0
102
RTVSPost2010PropOp38
 70
     1
102
RTVSPost2010Prop39
140
1.0
102
RTVSPost2010PropOp39
 70
     1
102
RTVSPost2010Prop40
 90
        0
102
RTVSPost2010PropOp40
 70
     1
102
RTVSPost2010Prop41ColorIndex
 90
       18
102
RTVSPost2010Prop41ColorRGB
 90
        0
102
RTVSPost2010PropOp41
 70
     1
102
RTVSPost2010Prop42
 90
       50
102
RTVSPost2010PropOp42
 70
     1
102
RTVSPost2010Prop43
 90
        3
102
RTVSPost2010PropOp43
 70
     1
102
RTVSPost2010Prop44ColorIndex
 90
        5
102
RTVSPost2010Prop44ColorRGB
 90
      255
102
RTVSPost2010PropOp44
 70
     1
102
RTVSPost2010Prop45
280
     0
102
RTVSPost2010PropOp45
 70
     1
102
RTVSPost2010Prop46
 90
       50
102
RTVSPost2010PropOp46
 70
     1
102
RTVSPost2010Prop47
 90
       50
102
RTVSPost2010PropOp47
 70
     1
102
RTVSPost2010Prop48
 90
       50
102
RTVSPost2010PropOp48
 70
     1
102
RTVSPost2010Prop49
280
     0
102
RTVSPost2010PropOp49
 70
     1
102
RTVSPost2010Prop50
 90
       50
102
RTVSPost2010PropOp50
 70
     1
102
RTVSPost2010Prop51ColorIndex
 90
      256
102
RTVSPost2010Prop51ColorRGB
 90
-16777216
102
RTVSPost2010PropOp51
 70
     0
102
RTVSPost2010Prop52
140
1.0
102
RTVSPost2010PropOp52
 70
     0
102
RTVSPost2010Prop53
 90
        2
102
RTVSPost2010PropOp53
 70
     1
102
RTVSPost2010Prop54
  1
strokes_ogs.tif
102
RTVSPost2010PropOp54
 70
     1
102
RTVSPost2010Prop55
280
     0
102
RTVSPost2010PropOp55
 70
     1
102
RTVSPost2010Prop56
140
1.0
102
RTVSPost2010PropOp56
 70
     1
102
RTVSPost2010Prop57
140
1.0
102
RTVSPost2010PropOp57
 70
     1
102
RTVSPropertyOp0
 70
     1
102
RTVSPropertyOp1
 70
     1
102
RTVSPropertyOp2
 70
     1
102
RTVSPropertyOp3
 70
     1
102
RTVSPropertyOp4
 70
     1
102
RTVSPropertyOp5
 70
     1
102
RTVSPropertyOp6
 70
     1
102
RTVSPropertyOp7
 70
     1
102
RTVSPropertyOp8
 70
     1
102
RTVSPropertyOp9
 70
     1
102
RTVSPropertyOp10
 70
     1
102
RTVSPropertyOp11
 70
     1
102
RTVSPropertyOp12
 70
     1
102
RTVSPropertyOp13
 70
     1
102
RTVSPropertyOp14
 70
     1
102
RTVSPropertyOp15
 70
     1
102
RTVSPropertyOp16
 70
     1
102
RTVSPropertyOp17
 70
     1
102
RTVSPropertyOp18
 70
     1
102
RTVSPropertyOp19
 70
     1
102
RTVSPropertyOp20
 70
     1
102
RTVSPropertyOp21
 70
     1
102
RTVSPropertyOp22
 70
     1
102
RTVSPropertyOp23
 70
     1
102
RTVSPropertyOp24
 70
     1
102
RTVSPropertyOp25
 70
     1
102
RTVSPropertyOp26
 70
     1
102
RTVSPropertyOp27
 70
     1
102
RTVSPropertyOp28
 70
     1
102
RTVSPropertyOp29
 70
     1
102
RTVSPropertyOp30
 70
     1
102
RTVSPropertyOp31
 70
     1
102
RTVSPropertyOp32
 70
     1
102
RTVSPropertyOp33
 70
     1
102
RTVSPropertyOp34
 70
     1
102
RTVSPropertyOp35
 70
     1
102
RTVSPropertyOp36
 70
     1
102
RTVSPropertyOp37
 70
     1
102
RTVSPropertyOp38
 70
     1
102
RTVSPropertyOp39
 70
     1
102
RTVSPropertyOp40
 70
     1
102
RTVSPropertyOp41
 70
     1
102
RTVSPropertyOp42
 70
     1
102
RTVSPropertyOp43
 70
     1
102
RTVSPropertyOp44
 70
     1
102
RTVSPropertyOp45
 70
     1
102
RTVSPropertyOp46
 70
     1
102
RTVSPropertyOp47
 70
     1
102
RTVSPropertyOp48
 70
     1
102
RTVSPropertyOp49
 70
     1
102
RTVSPropertyOp50
 70
     1
102
RTVSPropertyOp51
 70
     0
102
RTVSPropertyOp52
 70
     0
102
RTVSPropertyOp53
 70
     1
102
RTVSPropertyOp54
 70
     1
102
RTVSPropertyOp55
 70
     1
102
RTVSPropertyOp56
 70
     1
102
RTVSPropertyOp57
 70
     1
102
RTVSPropertyOp58
 70
     1
102
RTVSPropertyOp59
 70
     1
102
RTVSPropertyOp60
 70
     1
102
RTVSPropertyOp61
 70
     1
102
RTVSPropertyOp62
 70
     1
  0
XRECORD
  5
960
102
{ACAD_REACTORS
330
95F
102
}
330
95F
100
AcDbXrecord
280
     1
102
RTVSPost2010Prop28
280
     0
102
RTVSPost2010PropOp28
 70
     1
102
RTVSPost2010Prop29
280
     1
102
RTVSPost2010PropOp29
 70
     1
102
RTVSPost2010Prop30
280
     1
102
RTVSPost2010PropOp30
 70
     1
102
RTVSPost2010Prop31
280
     0
102
RTVSPost2010PropOp31
 70
     1
102
RTVSPost2010Prop32
280
     0
102
RTVSPost2010PropOp32
 70
     1
102
RTVSPost2010Prop33
280
     0
102
RTVSPost2010PropOp33
 70
     1
102
RTVSPost2010Prop34
280
     0
102
RTVSPost2010PropOp34
 70
     1
102
RTVSPost2010Prop35
280
     0
102
RTVSPost2010PropOp35
 70
     1
102
RTVSPost2010Prop36
280
     0
102
RTVSPost2010PropOp36
 70
     1
102
RTVSPost2010Prop37
 90
       50
102
RTVSPost2010PropOp37
 70
     1
102
RTVSPost2010Prop38
140
0.0
102
RTVSPost2010PropOp38
 70
     1
102
RTVSPost2010Prop39
140
1.0
102
RTVSPost2010PropOp39
 70
     1
102
RTVSPost2010Prop40
 90
        0
102
RTVSPost2010PropOp40
 70
     1
102
RTVSPost2010Prop41ColorIndex
 90
       18
102
RTVSPost2010Prop41ColorRGB
 90
        0
102
RTVSPost2010PropOp41
 70
     1
102
RTVSPost2010Prop42
 90
       50
102
RTVSPost2010PropOp42
 70
     1
102
RTVSPost2010Prop43
 90
        3
102
RTVSPost2010PropOp43
 70
     1
102
RTVSPost2010Prop44ColorIndex
 90
        5
102
RTVSPost2010Prop44ColorRGB
 90
      255
102
RTVSPost2010PropOp44
 70
     1
102
RTVSPost2010Prop45
280
     0
102
RTVSPost2010PropOp45
 70
     1
102
RTVSPost2010Prop46
 90
       50
102
RTVSPost2010PropOp46
 70
     1
102
RTVSPost2010Prop47
 90
       50
102
RTVSPost2010PropOp47
 70
     1
102
RTVSPost2010Prop48
 90
       50
102
RTVSPost2010PropOp48
 70
     1
102
RTVSPost2010Prop49
280
     0
102
RTVSPost2010PropOp49
 70
     1
102
RTVSPost2010Prop50
 90
       50
102
RTVSPost2010PropOp50
 70
     1
102
RTVSPost2010Prop51ColorIndex
 90
      256
102
RTVSPost2010Prop51ColorRGB
 90
-16777216
102
RTVSPost2010PropOp51
 70
     0
102
RTVSPost2010Prop52
140
1.0
102
RTVSPost2010PropOp52
 70
     0
102
RTVSPost2010Prop53
 90
        2
102
RTVSPost2010PropOp53
 70
     1
102
RTVSPost2010Prop54
  1
strokes_ogs.tif
102
RTVSPost2010PropOp54
 70
     1
102
RTVSPost2010Prop55
280
     0
102
RTVSPost2010PropOp55
 70
     1
102
RTVSPost2010Prop56
140
1.0
102
RTVSPost2010PropOp56
 70
     1
102
RTVSPost2010Prop57
140
1.0
102
RTVSPost2010PropOp57
 70
     1
102
RTVSPropertyOp0
 70
     1
102
RTVSPropertyOp1
 70
     1
102
RTVSPropertyOp2
 70
     1
102
RTVSPropertyOp3
 70
     1
102
RTVSPropertyOp4
 70
     1
102
RTVSPropertyOp5
 70
     1
102
RTVSPropertyOp6
 70
     1
102
RTVSPropertyOp7
 70
     1
102
RTVSPropertyOp8
 70
     1
102
RTVSPropertyOp9
 70
     1
102
RTVSPropertyOp10
 70
     1
102
RTVSPropertyOp11
 70
     1
102
RTVSPropertyOp12
 70
     1
102
RTVSPropertyOp13
 70
     1
102
RTVSPropertyOp14
 70
     1
102
RTVSPropertyOp15
 70
     1
102
RTVSPropertyOp16
 70
     1
102
RTVSPropertyOp17
 70
     1
102
RTVSPropertyOp18
 70
     1
102
RTVSPropertyOp19
 70
     1
102
RTVSPropertyOp20
 70
     1
102
RTVSPropertyOp21
 70
     1
102
RTVSPropertyOp22
 70
     1
102
RTVSPropertyOp23
 70
     1
102
RTVSPropertyOp24
 70
     1
102
RTVSPropertyOp25
 70
     1
102
RTVSPropertyOp26
 70
     1
102
RTVSPropertyOp27
 70
     1
102
RTVSPropertyOp28
 70
     1
102
RTVSPropertyOp29
 70
     1
102
RTVSPropertyOp30
 70
     1
102
RTVSPropertyOp31
 70
     1
102
RTVSPropertyOp32
 70
     1
102
RTVSPropertyOp33
 70
     1
102
RTVSPropertyOp34
 70
     1
102
RTVSPropertyOp35
 70
     1
102
RTVSPropertyOp36
 70
     1
102
RTVSPropertyOp37
 70
     1
102
RTVSPropertyOp38
 70
     1
102
RTVSPropertyOp39
 70
     1
102
RTVSPropertyOp40
 70
     1
102
RTVSPropertyOp41
 70
     1
102
RTVSPropertyOp42
 70
     1
102
RTVSPropertyOp43
 70
     1
102
RTVSPropertyOp44
 70
     1
102
RTVSPropertyOp45
 70
     1
102
RTVSPropertyOp46
 70
     1
102
RTVSPropertyOp47
 70
     1
102
RTVSPropertyOp48
 70
     1
102
RTVSPropertyOp49
 70
     1
102
RTVSPropertyOp50
 70
     1
102
RTVSPropertyOp51
 70
     0
102
RTVSPropertyOp52
 70
     0
102
RTVSPropertyOp53
 70
     1
102
RTVSPropertyOp54
 70
     1
102
RTVSPropertyOp55
 70
     1
102
RTVSPropertyOp56
 70
     1
102
RTVSPropertyOp57
 70
     1
102
RTVSPropertyOp58
 70
     1
102
RTVSPropertyOp59
 70
     1
102
RTVSPropertyOp60
 70
     1
102
RTVSPropertyOp61
 70
     1
102
RTVSPropertyOp62
 70
     1
  0
XRECORD
  5
962
102
{ACAD_REACTORS
330
961
102
}
330
961
100
AcDbXrecord
280
     1
102
RTVSPost2010Prop28
280
     0
102
RTVSPost2010PropOp28
 70
     1
102
RTVSPost2010Prop29
280
     1
102
RTVSPost2010PropOp29
 70
     1
102
RTVSPost2010Prop30
280
     1
102
RTVSPost2010PropOp30
 70
     1
102
RTVSPost2010Prop31
280
     0
102
RTVSPost2010PropOp31
 70
     1
102
RTVSPost2010Prop32
280
     0
102
RTVSPost2010PropOp32
 70
     1
102
RTVSPost2010Prop33
280
     0
102
RTVSPost2010PropOp33
 70
     1
102
RTVSPost2010Prop34
280
     0
102
RTVSPost2010PropOp34
 70
     1
102
RTVSPost2010Prop35
280
     0
102
RTVSPost2010PropOp35
 70
     1
102
RTVSPost2010Prop36
280
     0
102
RTVSPost2010PropOp36
 70
     1
102
RTVSPost2010Prop37
 90
       50
102
RTVSPost2010PropOp37
 70
     1
102
RTVSPost2010Prop38
140
0.0
102
RTVSPost2010PropOp38
 70
     1
102
RTVSPost2010Prop39
140
1.0
102
RTVSPost2010PropOp39
 70
     1
102
RTVSPost2010Prop40
 90
        0
102
RTVSPost2010PropOp40
 70
     1
102
RTVSPost2010Prop41ColorIndex
 90
       18
102
RTVSPost2010Prop41ColorRGB
 90
        0
102
RTVSPost2010PropOp41
 70
     1
102
RTVSPost2010Prop42
 90
       50
102
RTVSPost2010PropOp42
 70
     1
102
RTVSPost2010Prop43
 90
        3
102
RTVSPost2010PropOp43
 70
     1
102
RTVSPost2010Prop44ColorIndex
 90
        5
102
RTVSPost2010Prop44ColorRGB
 90
      255
102
RTVSPost2010PropOp44
 70
     1
102
RTVSPost2010Prop45
280
     0
102
RTVSPost2010PropOp45
 70
     1
102
RTVSPost2010Prop46
 90
       50
102
RTVSPost2010PropOp46
 70
     1
102
RTVSPost2010Prop47
 90
       50
102
RTVSPost2010PropOp47
 70
     1
102
RTVSPost2010Prop48
 90
       50
102
RTVSPost2010PropOp48
 70
     1
102
RTVSPost2010Prop49
280
     0
102
RTVSPost2010PropOp49
 70
     1
102
RTVSPost2010Prop50
 90
       50
102
RTVSPost2010PropOp50
 70
     1
102
RTVSPost2010Prop51ColorIndex
 90
      256
102
RTVSPost2010Prop51ColorRGB
 90
-16777216
102
RTVSPost2010PropOp51
 70
     0
102
RTVSPost2010Prop52
140
1.0
102
RTVSPost2010PropOp52
 70
     0
102
RTVSPost2010Prop53
 90
        2
102
RTVSPost2010PropOp53
 70
     1
102
RTVSPost2010Prop54
  1
strokes_ogs.tif
102
RTVSPost2010PropOp54
 70
     1
102
RTVSPost2010Prop55
280
     0
102
RTVSPost2010PropOp55
 70
     1
102
RTVSPost2010Prop56
140
1.0
102
RTVSPost2010PropOp56
 70
     1
102
RTVSPost2010Prop57
140
1.0
102
RTVSPost2010PropOp57
 70
     1
102
RTVSPropertyOp0
 70
     1
102
RTVSPropertyOp1
 70
     1
102
RTVSPropertyOp2
 70
     1
102
RTVSPropertyOp3
 70
     1
102
RTVSPropertyOp4
 70
     1
102
RTVSPropertyOp5
 70
     1
102
RTVSPropertyOp6
 70
     1
102
RTVSPropertyOp7
 70
     1
102
RTVSPropertyOp8
 70
     1
102
RTVSPropertyOp9
 70
     1
102
RTVSPropertyOp10
 70
     1
102
RTVSPropertyOp11
 70
     1
102
RTVSPropertyOp12
 70
     1
102
RTVSPropertyOp13
 70
     1
102
RTVSPropertyOp14
 70
     1
102
RTVSPropertyOp15
 70
     1
102
RTVSPropertyOp16
 70
     1
102
RTVSPropertyOp17
 70
     1
102
RTVSPropertyOp18
 70
     1
102
RTVSPropertyOp19
 70
     1
102
RTVSPropertyOp20
 70
     1
102
RTVSPropertyOp21
 70
     1
102
RTVSPropertyOp22
 70
     1
102
RTVSPropertyOp23
 70
     1
102
RTVSPropertyOp24
 70
     1
102
RTVSPropertyOp25
 70
     1
102
RTVSPropertyOp26
 70
     1
102
RTVSPropertyOp27
 70
     1
102
RTVSPropertyOp28
 70
     1
102
RTVSPropertyOp29
 70
     1
102
RTVSPropertyOp30
 70
     1
102
RTVSPropertyOp31
 70
     1
102
RTVSPropertyOp32
 70
     1
102
RTVSPropertyOp33
 70
     1
102
RTVSPropertyOp34
 70
     1
102
RTVSPropertyOp35
 70
     1
102
RTVSPropertyOp36
 70
     1
102
RTVSPropertyOp37
 70
     1
102
RTVSPropertyOp38
 70
     1
102
RTVSPropertyOp39
 70
     1
102
RTVSPropertyOp40
 70
     1
102
RTVSPropertyOp41
 70
     1
102
RTVSPropertyOp42
 70
     1
102
RTVSPropertyOp43
 70
     1
102
RTVSPropertyOp44
 70
     1
102
RTVSPropertyOp45
 70
     1
102
RTVSPropertyOp46
 70
     1
102
RTVSPropertyOp47
 70
     1
102
RTVSPropertyOp48
 70
     1
102
RTVSPropertyOp49
 70
     1
102
RTVSPropertyOp50
 70
     1
102
RTVSPropertyOp51
 70
     0
102
RTVSPropertyOp52
 70
     0
102
RTVSPropertyOp53
 70
     1
102
RTVSPropertyOp54
 70
     1
102
RTVSPropertyOp55
 70
     1
102
RTVSPropertyOp56
 70
     1
102
RTVSPropertyOp57
 70
     1
102
RTVSPropertyOp58
 70
     1
102
RTVSPropertyOp59
 70
     1
102
RTVSPropertyOp60
 70
     1
102
RTVSPropertyOp61
 70
     1
102
RTVSPropertyOp62
 70
     1
  0
XRECORD
  5
952
102
{ACAD_REACTORS
330
951
102
}
330
951
100
AcDbXrecord
280
     1
102
RTVSPost2010Prop28
280
     0
102
RTVSPost2010PropOp28
 70
     1
102
RTVSPost2010Prop29
280
     1
102
RTVSPost2010PropOp29
 70
     1
102
RTVSPost2010Prop30
280
     1
102
RTVSPost2010PropOp30
 70
     1
102
RTVSPost2010Prop31
280
     0
102
RTVSPost2010PropOp31
 70
     1
102
RTVSPost2010Prop32
280
     0
102
RTVSPost2010PropOp32
 70
     1
102
RTVSPost2010Prop33
280
     0
102
RTVSPost2010PropOp33
 70
     1
102
RTVSPost2010Prop34
280
     0
102
RTVSPost2010PropOp34
 70
     1
102
RTVSPost2010Prop35
280
     0
102
RTVSPost2010PropOp35
 70
     1
102
RTVSPost2010Prop36
280
     0
102
RTVSPost2010PropOp36
 70
     1
102
RTVSPost2010Prop37
 90
       50
102
RTVSPost2010PropOp37
 70
     1
102
RTVSPost2010Prop38
140
0.0
102
RTVSPost2010PropOp38
 70
     1
102
RTVSPost2010Prop39
140
1.0
102
RTVSPost2010PropOp39
 70
     1
102
RTVSPost2010Prop40
 90
        0
102
RTVSPost2010PropOp40
 70
     1
102
RTVSPost2010Prop41ColorIndex
 90
       18
102
RTVSPost2010Prop41ColorRGB
 90
        0
102
RTVSPost2010PropOp41
 70
     1
102
RTVSPost2010Prop42
 90
       50
102
RTVSPost2010PropOp42
 70
     1
102
RTVSPost2010Prop43
 90
        3
102
RTVSPost2010PropOp43
 70
     1
102
RTVSPost2010Prop44ColorIndex
 90
        5
102
RTVSPost2010Prop44ColorRGB
 90
      255
102
RTVSPost2010PropOp44
 70
     1
102
RTVSPost2010Prop45
280
     0
102
RTVSPost2010PropOp45
 70
     1
102
RTVSPost2010Prop46
 90
       50
102
RTVSPost2010PropOp46
 70
     1
102
RTVSPost2010Prop47
 90
       50
102
RTVSPost2010PropOp47
 70
     1
102
RTVSPost2010Prop48
 90
       50
102
RTVSPost2010PropOp48
 70
     1
102
RTVSPost2010Prop49
280
     0
102
RTVSPost2010PropOp49
 70
     1
102
RTVSPost2010Prop50
 90
       50
102
RTVSPost2010PropOp50
 70
     1
102
RTVSPost2010Prop51ColorIndex
 90
      256
102
RTVSPost2010Prop51ColorRGB
 90
-16777216
102
RTVSPost2010PropOp51
 70
     0
102
RTVSPost2010Prop52
140
1.0
102
RTVSPost2010PropOp52
 70
     0
102
RTVSPost2010Prop53
 90
        2
102
RTVSPost2010PropOp53
 70
     1
102
RTVSPost2010Prop54
  1
strokes_ogs.tif
102
RTVSPost2010PropOp54
 70
     1
102
RTVSPost2010Prop55
280
     0
102
RTVSPost2010PropOp55
 70
     1
102
RTVSPost2010Prop56
140
1.0
102
RTVSPost2010PropOp56
 70
     1
102
RTVSPost2010Prop57
140
1.0
102
RTVSPost2010PropOp57
 70
     1
102
RTVSPropertyOp0
 70
     1
102
RTVSPropertyOp1
 70
     1
102
RTVSPropertyOp2
 70
     1
102
RTVSPropertyOp3
 70
     1
102
RTVSPropertyOp4
 70
     1
102
RTVSPropertyOp5
 70
     1
102
RTVSPropertyOp6
 70
     1
102
RTVSPropertyOp7
 70
     1
102
RTVSPropertyOp8
 70
     1
102
RTVSPropertyOp9
 70
     1
102
RTVSPropertyOp10
 70
     1
102
RTVSPropertyOp11
 70
     1
102
RTVSPropertyOp12
 70
     1
102
RTVSPropertyOp13
 70
     1
102
RTVSPropertyOp14
 70
     1
102
RTVSPropertyOp15
 70
     1
102
RTVSPropertyOp16
 70
     1
102
RTVSPropertyOp17
 70
     1
102
RTVSPropertyOp18
 70
     1
102
RTVSPropertyOp19
 70
     1
102
RTVSPropertyOp20
 70
     1
102
RTVSPropertyOp21
 70
     1
102
RTVSPropertyOp22
 70
     1
102
RTVSPropertyOp23
 70
     1
102
RTVSPropertyOp24
 70
     1
102
RTVSPropertyOp25
 70
     1
102
RTVSPropertyOp26
 70
     1
102
RTVSPropertyOp27
 70
     1
102
RTVSPropertyOp28
 70
     1
102
RTVSPropertyOp29
 70
     1
102
RTVSPropertyOp30
 70
     1
102
RTVSPropertyOp31
 70
     1
102
RTVSPropertyOp32
 70
     1
102
RTVSPropertyOp33
 70
     1
102
RTVSPropertyOp34
 70
     1
102
RTVSPropertyOp35
 70
     1
102
RTVSPropertyOp36
 70
     1
102
RTVSPropertyOp37
 70
     1
102
RTVSPropertyOp38
 70
     1
102
RTVSPropertyOp39
 70
     1
102
RTVSPropertyOp40
 70
     1
102
RTVSPropertyOp41
 70
     1
102
RTVSPropertyOp42
 70
     1
102
RTVSPropertyOp43
 70
     1
102
RTVSPropertyOp44
 70
     1
102
RTVSPropertyOp45
 70
     1
102
RTVSPropertyOp46
 70
     1
102
RTVSPropertyOp47
 70
     1
102
RTVSPropertyOp48
 70
     1
102
RTVSPropertyOp49
 70
     1
102
RTVSPropertyOp50
 70
     1
102
RTVSPropertyOp51
 70
     0
102
RTVSPropertyOp52
 70
     0
102
RTVSPropertyOp53
 70
     1
102
RTVSPropertyOp54
 70
     1
102
RTVSPropertyOp55
 70
     1
102
RTVSPropertyOp56
 70
     1
102
RTVSPropertyOp57
 70
     1
102
RTVSPropertyOp58
 70
     1
102
RTVSPropertyOp59
 70
     1
102
RTVSPropertyOp60
 70
     1
102
RTVSPropertyOp61
 70
     1
102
RTVSPropertyOp62
 70
     1
  0
XRECORD
  5
944
102
{ACAD_REACTORS
330
943
102
}
330
943
100
AcDbXrecord
280
     1
102
RTVSPost2010Prop28
280
     0
102
RTVSPost2010PropOp28
 70
     1
102
RTVSPost2010Prop29
280
     1
102
RTVSPost2010PropOp29
 70
     1
102
RTVSPost2010Prop30
280
     1
102
RTVSPost2010PropOp30
 70
     1
102
RTVSPost2010Prop31
280
     0
102
RTVSPost2010PropOp31
 70
     1
102
RTVSPost2010Prop32
280
     0
102
RTVSPost2010PropOp32
 70
     1
102
RTVSPost2010Prop33
280
     0
102
RTVSPost2010PropOp33
 70
     1
102
RTVSPost2010Prop34
280
     0
102
RTVSPost2010PropOp34
 70
     1
102
RTVSPost2010Prop35
280
     0
102
RTVSPost2010PropOp35
 70
     1
102
RTVSPost2010Prop36
280
     0
102
RTVSPost2010PropOp36
 70
     1
102
RTVSPost2010Prop37
 90
       50
102
RTVSPost2010PropOp37
 70
     1
102
RTVSPost2010Prop38
140
0.0
102
RTVSPost2010PropOp38
 70
     1
102
RTVSPost2010Prop39
140
1.0
102
RTVSPost2010PropOp39
 70
     1
102
RTVSPost2010Prop40
 90
        0
102
RTVSPost2010PropOp40
 70
     1
102
RTVSPost2010Prop41ColorIndex
 90
       18
102
RTVSPost2010Prop41ColorRGB
 90
        0
102
RTVSPost2010PropOp41
 70
     1
102
RTVSPost2010Prop42
 90
       50
102
RTVSPost2010PropOp42
 70
     1
102
RTVSPost2010Prop43
 90
        3
102
RTVSPost2010PropOp43
 70
     1
102
RTVSPost2010Prop44ColorIndex
 90
        5
102
RTVSPost2010Prop44ColorRGB
 90
      255
102
RTVSPost2010PropOp44
 70
     1
102
RTVSPost2010Prop45
280
     0
102
RTVSPost2010PropOp45
 70
     1
102
RTVSPost2010Prop46
 90
       50
102
RTVSPost2010PropOp46
 70
     1
102
RTVSPost2010Prop47
 90
       50
102
RTVSPost2010PropOp47
 70
     1
102
RTVSPost2010Prop48
 90
       50
102
RTVSPost2010PropOp48
 70
     1
102
RTVSPost2010Prop49
280
     0
102
RTVSPost2010PropOp49
 70
     1
102
RTVSPost2010Prop50
 90
       50
102
RTVSPost2010PropOp50
 70
     1
102
RTVSPost2010Prop51ColorIndex
 90
      256
102
RTVSPost2010Prop51ColorRGB
 90
-16777216
102
RTVSPost2010PropOp51
 70
     0
102
RTVSPost2010Prop52
140
1.0
102
RTVSPost2010PropOp52
 70
     0
102
RTVSPost2010Prop53
 90
        2
102
RTVSPost2010PropOp53
 70
     1
102
RTVSPost2010Prop54
  1
strokes_ogs.tif
102
RTVSPost2010PropOp54
 70
     1
102
RTVSPost2010Prop55
280
     0
102
RTVSPost2010PropOp55
 70
     1
102
RTVSPost2010Prop56
140
1.0
102
RTVSPost2010PropOp56
 70
     1
102
RTVSPost2010Prop57
140
1.0
102
RTVSPost2010PropOp57
 70
     1
102
RTVSPropertyOp0
 70
     1
102
RTVSPropertyOp1
 70
     1
102
RTVSPropertyOp2
 70
     1
102
RTVSPropertyOp3
 70
     1
102
RTVSPropertyOp4
 70
     1
102
RTVSPropertyOp5
 70
     1
102
RTVSPropertyOp6
 70
     1
102
RTVSPropertyOp7
 70
     1
102
RTVSPropertyOp8
 70
     1
102
RTVSPropertyOp9
 70
     1
102
RTVSPropertyOp10
 70
     1
102
RTVSPropertyOp11
 70
     1
102
RTVSPropertyOp12
 70
     1
102
RTVSPropertyOp13
 70
     1
102
RTVSPropertyOp14
 70
     1
102
RTVSPropertyOp15
 70
     1
102
RTVSPropertyOp16
 70
     1
102
RTVSPropertyOp17
 70
     1
102
RTVSPropertyOp18
 70
     1
102
RTVSPropertyOp19
 70
     1
102
RTVSPropertyOp20
 70
     1
102
RTVSPropertyOp21
 70
     1
102
RTVSPropertyOp22
 70
     1
102
RTVSPropertyOp23
 70
     1
102
RTVSPropertyOp24
 70
     1
102
RTVSPropertyOp25
 70
     1
102
RTVSPropertyOp26
 70
     1
102
RTVSPropertyOp27
 70
     1
102
RTVSPropertyOp28
 70
     1
102
RTVSPropertyOp29
 70
     1
102
RTVSPropertyOp30
 70
     1
102
RTVSPropertyOp31
 70
     1
102
RTVSPropertyOp32
 70
     1
102
RTVSPropertyOp33
 70
     1
102
RTVSPropertyOp34
 70
     1
102
RTVSPropertyOp35
 70
     1
102
RTVSPropertyOp36
 70
     1
102
RTVSPropertyOp37
 70
     1
102
RTVSPropertyOp38
 70
     1
102
RTVSPropertyOp39
 70
     1
102
RTVSPropertyOp40
 70
     1
102
RTVSPropertyOp41
 70
     1
102
RTVSPropertyOp42
 70
     1
102
RTVSPropertyOp43
 70
     1
102
RTVSPropertyOp44
 70
     1
102
RTVSPropertyOp45
 70
     1
102
RTVSPropertyOp46
 70
     1
102
RTVSPropertyOp47
 70
     1
102
RTVSPropertyOp48
 70
     1
102
RTVSPropertyOp49
 70
     1
102
RTVSPropertyOp50
 70
     1
102
RTVSPropertyOp51
 70
     0
102
RTVSPropertyOp52
 70
     0
102
RTVSPropertyOp53
 70
     1
102
RTVSPropertyOp54
 70
     1
102
RTVSPropertyOp55
 70
     1
102
RTVSPropertyOp56
 70
     1
102
RTVSPropertyOp57
 70
     1
102
RTVSPropertyOp58
 70
     1
102
RTVSPropertyOp59
 70
     1
102
RTVSPropertyOp60
 70
     1
102
RTVSPropertyOp61
 70
     1
102
RTVSPropertyOp62
 70
     1
  0
XRECORD
  5
964
102
{ACAD_REACTORS
330
963
102
}
330
963
100
AcDbXrecord
280
     1
102
RTVSPost2010Prop28
280
     0
102
RTVSPost2010PropOp28
 70
     1
102
RTVSPost2010Prop29
280
     1
102
RTVSPost2010PropOp29
 70
     1
102
RTVSPost2010Prop30
280
     1
102
RTVSPost2010PropOp30
 70
     1
102
RTVSPost2010Prop31
280
     0
102
RTVSPost2010PropOp31
 70
     1
102
RTVSPost2010Prop32
280
     0
102
RTVSPost2010PropOp32
 70
     1
102
RTVSPost2010Prop33
280
     0
102
RTVSPost2010PropOp33
 70
     1
102
RTVSPost2010Prop34
280
     0
102
RTVSPost2010PropOp34
 70
     1
102
RTVSPost2010Prop35
280
     0
102
RTVSPost2010PropOp35
 70
     1
102
RTVSPost2010Prop36
280
     0
102
RTVSPost2010PropOp36
 70
     1
102
RTVSPost2010Prop37
 90
       50
102
RTVSPost2010PropOp37
 70
     1
102
RTVSPost2010Prop38
140
0.0
102
RTVSPost2010PropOp38
 70
     1
102
RTVSPost2010Prop39
140
1.0
102
RTVSPost2010PropOp39
 70
     1
102
RTVSPost2010Prop40
 90
        0
102
RTVSPost2010PropOp40
 70
     1
102
RTVSPost2010Prop41ColorIndex
 90
       18
102
RTVSPost2010Prop41ColorRGB
 90
        0
102
RTVSPost2010PropOp41
 70
     1
102
RTVSPost2010Prop42
 90
       50
102
RTVSPost2010PropOp42
 70
     1
102
RTVSPost2010Prop43
 90
        3
102
RTVSPost2010PropOp43
 70
     1
102
RTVSPost2010Prop44ColorIndex
 90
        5
102
RTVSPost2010Prop44ColorRGB
 90
      255
102
RTVSPost2010PropOp44
 70
     1
102
RTVSPost2010Prop45
280
     0
102
RTVSPost2010PropOp45
 70
     1
102
RTVSPost2010Prop46
 90
       50
102
RTVSPost2010PropOp46
 70
     1
102
RTVSPost2010Prop47
 90
       50
102
RTVSPost2010PropOp47
 70
     1
102
RTVSPost2010Prop48
 90
       50
102
RTVSPost2010PropOp48
 70
     1
102
RTVSPost2010Prop49
280
     0
102
RTVSPost2010PropOp49
 70
     1
102
RTVSPost2010Prop50
 90
       50
102
RTVSPost2010PropOp50
 70
     1
102
RTVSPost2010Prop51ColorIndex
 90
      256
102
RTVSPost2010Prop51ColorRGB
 90
-16777216
102
RTVSPost2010PropOp51
 70
     0
102
RTVSPost2010Prop52
140
1.0
102
RTVSPost2010PropOp52
 70
     0
102
RTVSPost2010Prop53
 90
        2
102
RTVSPost2010PropOp53
 70
     1
102
RTVSPost2010Prop54
  1
strokes_ogs.tif
102
RTVSPost2010PropOp54
 70
     1
102
RTVSPost2010Prop55
280
     0
102
RTVSPost2010PropOp55
 70
     1
102
RTVSPost2010Prop56
140
1.0
102
RTVSPost2010PropOp56
 70
     1
102
RTVSPost2010Prop57
140
1.0
102
RTVSPost2010PropOp57
 70
     1
102
RTVSPropertyOp0
 70
     1
102
RTVSPropertyOp1
 70
     1
102
RTVSPropertyOp2
 70
     1
102
RTVSPropertyOp3
 70
     1
102
RTVSPropertyOp4
 70
     1
102
RTVSPropertyOp5
 70
     1
102
RTVSPropertyOp6
 70
     1
102
RTVSPropertyOp7
 70
     1
102
RTVSPropertyOp8
 70
     1
102
RTVSPropertyOp9
 70
     1
102
RTVSPropertyOp10
 70
     1
102
RTVSPropertyOp11
 70
     1
102
RTVSPropertyOp12
 70
     1
102
RTVSPropertyOp13
 70
     1
102
RTVSPropertyOp14
 70
     1
102
RTVSPropertyOp15
 70
     1
102
RTVSPropertyOp16
 70
     1
102
RTVSPropertyOp17
 70
     1
102
RTVSPropertyOp18
 70
     1
102
RTVSPropertyOp19
 70
     1
102
RTVSPropertyOp20
 70
     1
102
RTVSPropertyOp21
 70
     1
102
RTVSPropertyOp22
 70
     1
102
RTVSPropertyOp23
 70
     1
102
RTVSPropertyOp24
 70
     1
102
RTVSPropertyOp25
 70
     1
102
RTVSPropertyOp26
 70
     1
102
RTVSPropertyOp27
 70
     1
102
RTVSPropertyOp28
 70
     1
102
RTVSPropertyOp29
 70
     1
102
RTVSPropertyOp30
 70
     1
102
RTVSPropertyOp31
 70
     1
102
RTVSPropertyOp32
 70
     1
102
RTVSPropertyOp33
 70
     1
102
RTVSPropertyOp34
 70
     1
102
RTVSPropertyOp35
 70
     1
102
RTVSPropertyOp36
 70
     1
102
RTVSPropertyOp37
 70
     1
102
RTVSPropertyOp38
 70
     1
102
RTVSPropertyOp39
 70
     1
102
RTVSPropertyOp40
 70
     1
102
RTVSPropertyOp41
 70
     1
102
RTVSPropertyOp42
 70
     1
102
RTVSPropertyOp43
 70
     1
102
RTVSPropertyOp44
 70
     1
102
RTVSPropertyOp45
 70
     1
102
RTVSPropertyOp46
 70
     1
102
RTVSPropertyOp47
 70
     1
102
RTVSPropertyOp48
 70
     1
102
RTVSPropertyOp49
 70
     1
102
RTVSPropertyOp50
 70
     1
102
RTVSPropertyOp51
 70
     0
102
RTVSPropertyOp52
 70
     0
102
RTVSPropertyOp53
 70
     1
102
RTVSPropertyOp54
 70
     1
102
RTVSPropertyOp55
 70
     1
102
RTVSPropertyOp56
 70
     1
102
RTVSPropertyOp57
 70
     1
102
RTVSPropertyOp58
 70
     1
102
RTVSPropertyOp59
 70
     1
102
RTVSPropertyOp60
 70
     1
102
RTVSPropertyOp61
 70
     1
102
RTVSPropertyOp62
 70
     1
  0
ENDSEC
  0
EOF
