  0
SECTION
  2
HEADER
  9
$ACADVER
  1
AC1015
  9
$ACADMAINTVER
 70
    20
  9
$DWGCODEPAGE
  3
ANSI_932
  9
$INSBASE
 10
0.0
 20
0.0
 30
0.0
  9
$EXTMIN
 10
17.44615463937543
 20
20.28445783842995
 30
0.0
  9
$EXTMAX
 10
2018.756450138194
 20
1217.762473649668
 30
0.0
  9
$LIMMIN
 10
-543.7260112762463
 20
-425.1266174316413
  9
$LIMMAX
 10
1249.644836425781
 20
709.1151428222665
  9
$ORTHOMODE
 70
     0
  9
$REGENMODE
 70
     1
  9
$FILLMODE
 70
     1
  9
$QTEXTMODE
 70
     0
  9
$MIRRTEXT
 70
     1
  9
$LTSCALE
 40
0.2601702512405678
  9
$ATTMODE
 70
     1
  9
$TEXTSIZE
 40
2.5
  9
$TRACEWID
 40
1.0
  9
$TEXTSTYLE
  7
Standard
  9
$CLAYER
  8
0
  9
$CELTYPE
  6
ByLayer
  9
$CECOLOR
 62
   256
  9
$CELTSCALE
 40
1.0
  9
$DISPSILH
 70
     0
  9
$DIMSCALE
 40
1.0
  9
$DIMASZ
 40
2.5
  9
$DIMEXO
 40
0.625
  9
$DIMDLI
 40
3.75
  9
$DIMRND
 40
0.0
  9
$DIMDLE
 40
0.0
  9
$DIMEXE
 40
1.25
  9
$DIMTP
 40
0.0
  9
$DIMTM
 40
0.0
  9
$DIMTXT
 40
2.5
  9
$DIMCEN
 40
2.5
  9
$DIMTSZ
 40
0.0
  9
$DIMTOL
 70
     0
  9
$DIMLIM
 70
     0
  9
$DIMTIH
 70
     0
  9
$DIMTOH
 70
     0
  9
$DIMSE1
 70
     0
  9
$DIMSE2
 70
     0
  9
$DIMTAD
 70
     1
  9
$DIMZIN
 70
     0
  9
$DIMBLK
  1

  9
$DIMASO
 70
     1
  9
$DIMSHO
 70
     1
  9
$DIMPOST
  1

  9
$DIMAPOST
  1

  9
$DIMALT
 70
     0
  9
$DIMALTD
 70
     3
  9
$DIMALTF
 40
0.03937007874016
  9
$DIMLFAC
 40
1.0
  9
$DIMTOFL
 70
     1
  9
$DIMTVP
 40
0.0
  9
$DIMTIX
 70
     0
  9
$DIMSOXD
 70
     0
  9
$DIMSAH
 70
     0
  9
$DIMBLK1
  1

  9
$DIMBLK2
  1

  9
$DIMSTYLE
  2
Standard
  9
$DIMCLRD
 70
     0
  9
$DIMCLRE
 70
     0
  9
$DIMCLRT
 70
     0
  9
$DIMTFAC
 40
0.75
  9
$DIMGAP
 40
0.625
  9
$DIMJUST
 70
     0
  9
$DIMSD1
 70
     0
  9
$DIMSD2
 70
     0
  9
$DIMTOLJ
 70
     0
  9
$DIMTZIN
 70
     8
  9
$DIMALTZ
 70
     0
  9
$DIMALTTZ
 70
     0
  9
$DIMUPT
 70
     0
  9
$DIMDEC
 70
     2
  9
$DIMTDEC
 70
     2
  9
$DIMALTU
 70
     2
  9
$DIMALTTD
 70
     3
  9
$DIMTXSTY
  7
Standard
  9
$DIMAUNIT
 70
     0
  9
$DIMADEC
 70
     0
  9
$DIMALTRND
 40
0.0
  9
$DIMAZIN
 70
     0
  9
$DIMDSEP
 70
    46
  9
$DIMATFIT
 70
     3
  9
$DIMFRAC
 70
     0
  9
$DIMLDRBLK
  1

  9
$DIMLUNIT
 70
     2
  9
$DIMLWD
 70
    -2
  9
$DIMLWE
 70
    -2
  9
$DIMTMOVE
 70
     0
  9
$LUNITS
 70
     2
  9
$LUPREC
 70
     4
  9
$SKETCHINC
 40
1.0
  9
$FILLETRAD
 40
0.0
  9
$AUNITS
 70
     0
  9
$AUPREC
 70
     0
  9
$MENU
  1
.
  9
$ELEVATION
 40
0.0
  9
$PELEVATION
 40
0.0
  9
$THICKNESS
 40
0.0
  9
$LIMCHECK
 70
     0
  9
$CHAMFERA
 40
10.0
  9
$CHAMFERB
 40
10.0
  9
$CHAMFERC
 40
20.0
  9
$CHAMFERD
 40
0.0
  9
$SKPOLY
 70
     0
  9
$TDCREATE
 40
2455188.750000000
  9
$TDUCREATE
 40
2455188.375000000
  9
$TDUPDATE
 40
2459747.437399133
  9
$TDUUPDATE
 40
2459747.062399132
  9
$TDINDWG
 40
0.0539187500
  9
$TDUSRTIMER
 40
0.0539185880
  9
$USRTIMER
 70
     1
  9
$ANGBASE
 50
0.0
  9
$ANGDIR
 70
     0
  9
$PDMODE
 70
     0
  9
$PDSIZE
 40
0.0
  9
$PLINEWID
 40
0.0
  9
$SPLFRAME
 70
     0
  9
$SPLINETYPE
 70
     6
  9
$SPLINESEGS
 70
     8
  9
$HANDSEED
  5
884
  9
$SURFTAB1
 70
     6
  9
$SURFTAB2
 70
     6
  9
$SURFTYPE
 70
     6
  9
$SURFU
 70
     6
  9
$SURFV
 70
     6
  9
$UCSBASE
  2

  9
$UCSNAME
  2

  9
$UCSORG
 10
0.0
 20
0.0
 30
0.0
  9
$UCSXDIR
 10
1.0
 20
0.0
 30
0.0
  9
$UCSYDIR
 10
0.0
 20
1.0
 30
0.0
  9
$UCSORTHOREF
  2

  9
$UCSORTHOVIEW
 70
     0
  9
$UCSORGTOP
 10
0.0
 20
0.0
 30
0.0
  9
$UCSORGBOTTOM
 10
0.0
 20
0.0
 30
0.0
  9
$UCSORGLEFT
 10
0.0
 20
0.0
 30
0.0
  9
$UCSORGRIGHT
 10
0.0
 20
0.0
 30
0.0
  9
$UCSORGFRONT
 10
0.0
 20
0.0
 30
0.0
  9
$UCSORGBACK
 10
0.0
 20
0.0
 30
0.0
  9
$PUCSBASE
  2

  9
$PUCSNAME
  2

  9
$PUCSORG
 10
0.0
 20
0.0
 30
0.0
  9
$PUCSXDIR
 10
1.0
 20
0.0
 30
0.0
  9
$PUCSYDIR
 10
0.0
 20
1.0
 30
0.0
  9
$PUCSORTHOREF
  2

  9
$PUCSORTHOVIEW
 70
     0
  9
$PUCSORGTOP
 10
0.0
 20
0.0
 30
0.0
  9
$PUCSORGBOTTOM
 10
0.0
 20
0.0
 30
0.0
  9
$PUCSORGLEFT
 10
0.0
 20
0.0
 30
0.0
  9
$PUCSORGRIGHT
 10
0.0
 20
0.0
 30
0.0
  9
$PUCSORGFRONT
 10
0.0
 20
0.0
 30
0.0
  9
$PUCSORGBACK
 10
0.0
 20
0.0
 30
0.0
  9
$USERI1
 70
     0
  9
$USERI2
 70
     0
  9
$USERI3
 70
     0
  9
$USERI4
 70
     0
  9
$USERI5
 70
     0
  9
$USERR1
 40
0.0
  9
$USERR2
 40
0.0
  9
$USERR3
 40
0.0
  9
$USERR4
 40
0.0
  9
$USERR5
 40
0.0
  9
$WORLDVIEW
 70
     1
  9
$SHADEDGE
 70
     3
  9
$SHADEDIF
 70
    70
  9
$TILEMODE
 70
     1
  9
$MAXACTVP
 70
    64
  9
$PINSBASE
 10
0.0
 20
0.0
 30
0.0
  9
$PLIMCHECK
 70
     0
  9
$PEXTMIN
 10
1.000000000000000E+20
 20
1.000000000000000E+20
 30
1.000000000000000E+20
  9
$PEXTMAX
 10
-1.000000000000000E+20
 20
-1.000000000000000E+20
 30
-1.000000000000000E+20
  9
$PLIMMIN
 10
0.0
 20
0.0
  9
$PLIMMAX
 10
420.0
 20
297.0
  9
$UNITMODE
 70
     0
  9
$VISRETAIN
 70
     1
  9
$PLINEGEN
 70
     0
  9
$PSLTSCALE
 70
     1
  9
$TREEDEPTH
 70
  3020
  9
$CMLSTYLE
  2
Standard
  9
$CMLJUST
 70
     0
  9
$CMLSCALE
 40
20.0
  9
$PROXYGRAPHICS
 70
     1
  9
$MEASUREMENT
 70
     1
  9
$CELWEIGHT
370
    -1
  9
$ENDCAPS
280
     0
  9
$JOINSTYLE
280
     0
  9
$LWDISPLAY
290
     0
  9
$INSUNITS
 70
     4
  9
$HYPERLINKBASE
  1

  9
$STYLESHEET
  1

  9
$XEDIT
290
     1
  9
$CEPSNTYPE
380
     0
  9
$PSTYLEMODE
290
     1
  9
$FINGERPRINTGUID
  2
{1A26D273-17B2-4BB0-9014-137477DC3953}
  9
$VERSIONGUID
  2
{4915497B-B20B-4141-B748-F546A228C9E6}
  9
$EXTNAMES
290
     1
  9
$PSVPSCALE
 40
0.0
  9
$OLESTARTUP
290
     0
  0
ENDSEC
  0
SECTION
  2
CLASSES
  0
CLASS
  1
ACDBDICTIONARYWDFLT
  2
AcDbDictionaryWithDefault
  3
ObjectDBX Classes
 90
        0
280
     0
281
     0
  0
CLASS
  1
VISUALSTYLE
  2
AcDbVisualStyle
  3
ObjectDBX Classes
 90
     4095
280
     0
281
     0
  0
CLASS
  1
MATERIAL
  2
AcDbMaterial
  3
ObjectDBX Classes
 90
     1153
280
     0
281
     0
  0
CLASS
  1
SCALE
  2
AcDbScale
  3
ObjectDBX Classes
 90
     1153
280
     0
281
     0
  0
CLASS
  1
TABLESTYLE
  2
AcDbTableStyle
  3
ObjectDBX Classes
 90
     4095
280
     0
281
     0
  0
CLASS
  1
MLEADERSTYLE
  2
AcDbMLeaderStyle
  3
ACDB_MLEADERSTYLE_CLASS
 90
     4095
280
     0
281
     0
  0
CLASS
  1
SUN
  2
AcDbSun
  3
SCENEOE
 90
    33921
280
     0
281
     0
  0
CLASS
  1
DICTIONARYVAR
  2
AcDbDictionaryVar
  3
ObjectDBX Classes
 90
        0
280
     0
281
     0
  0
CLASS
  1
ACDBSECTIONVIEWSTYLE
  2
AcDbSectionViewStyle
  3
ObjectDBX Classes
 90
     1025
280
     0
281
     0
  0
CLASS
  1
ACDBDETAILVIEWSTYLE
  2
AcDbDetailViewStyle
  3
ObjectDBX Classes
 90
     1025
280
     0
281
     0
  0
CLASS
  1
SORTENTSTABLE
  2
AcDbSortentsTable
  3
ObjectDBX Classes
 90
        0
280
     0
281
     0
  0
CLASS
  1
CELLSTYLEMAP
  2
AcDbCellStyleMap
  3
ObjectDBX Classes
 90
     1152
280
     0
281
     0
  0
CLASS
  1
ACDBPLACEHOLDER
  2
AcDbPlaceHolder
  3
ObjectDBX Classes
 90
        0
280
     0
281
     0
  0
CLASS
  1
LAYOUT
  2
AcDbLayout
  3
ObjectDBX Classes
 90
        0
280
     0
281
     0
  0
ENDSEC
  0
SECTION
  2
TABLES
  0
TABLE
  2
VPORT
  5
8
330
0
100
AcDbSymbolTable
 70
     1
  0
VPORT
  5
29
330
8
100
AcDbSymbolTableRecord
100
AcDbViewportTableRecord
  2
*Active
 70
     0
 10
0.0
 20
0.0
 11
1.0
 21
1.0
 12
902.6364166420938
 22
451.0035129655443
 13
0.0
 23
0.0
 14
10.0
 24
10.0
 15
10.0
 25
10.0
 16
0.0
 26
0.0
 36
1.0
 17
0.0
 27
0.0
 37
0.0
 40
1359.721463292195
 41
2.204301075268817
 42
50.0
 43
0.0
 44
0.0
 50
0.0
 51
0.0
 71
     0
 72
 20000
 73
     1
 74
     3
 75
     0
 76
     0
 77
     0
 78
     0
281
     0
 65
     1
110
0.0
120
0.0
130
0.0
111
1.0
121
0.0
131
0.0
112
0.0
122
1.0
132
0.0
 79
     0
146
0.0
1001
ACAD_NAV_VCDISPLAY
1070
     3
  0
ENDTAB
  0
TABLE
  2
LTYPE
  5
5
330
0
100
AcDbSymbolTable
 70
     2
  0
LTYPE
  5
14
330
5
100
AcDbSymbolTableRecord
100
AcDbLinetypeTableRecord
  2
ByBlock
 70
     0
  3

 72
    65
 73
     0
 40
0.0
  0
LTYPE
  5
15
330
5
100
AcDbSymbolTableRecord
100
AcDbLinetypeTableRecord
  2
ByLayer
 70
     0
  3

 72
    65
 73
     0
 40
0.0
  0
LTYPE
  5
16
330
5
100
AcDbSymbolTableRecord
100
AcDbLinetypeTableRecord
  2
Continuous
 70
     0
  3
Solid line
 72
    65
 73
     0
 40
0.0
  0
LTYPE
  5
29B
330
5
100
AcDbSymbolTableRecord
100
AcDbLinetypeTableRecord
  2
CENTER2
 70
     0
  3
Center (.5x) ___ _ ___ _ ___ _ ___ _ ___ _ ___
 72
    65
 73
     4
 40
28.575
 49
19.05
 74
     0
 49
-3.174999999999998
 74
     0
 49
3.174999999999998
 74
     0
 49
-3.174999999999998
 74
     0
  0
ENDTAB
  0
TABLE
  2
LAYER
  5
2
102
{ACAD_XDICTIONARY
360
2A0
102
}
330
0
100
AcDbSymbolTable
 70
     4
  0
LAYER
  5
10
102
{ACAD_XDICTIONARY
360
7AD
102
}
330
2
100
AcDbSymbolTableRecord
100
AcDbLayerTableRecord
  2
0
 70
     0
 62
     7
  6
Continuous
370
    -3
390
F
  0
LAYER
  5
66
330
2
100
AcDbSymbolTableRecord
100
AcDbLayerTableRecord
  2
Defpoints
 70
     0
 62
     7
  6
Continuous
290
     0
370
    -3
390
F
  0
LAYER
  5
29C
102
{ACAD_XDICTIONARY
360
29D
102
}
330
2
100
AcDbSymbolTableRecord
100
AcDbLayerTableRecord
  2
中心線
 70
     0
 62
     3
  6
CENTER2
370
    -3
390
F
  0
LAYER
  5
29E
102
{ACAD_XDICTIONARY
360
29F
102
}
330
2
100
AcDbSymbolTableRecord
100
AcDbLayerTableRecord
  2
実線
 70
     0
 62
     7
  6
Continuous
370
    -3
390
F
  0
ENDTAB
  0
TABLE
  2
STYLE
  5
3
330
0
100
AcDbSymbolTable
 70
     1
  0
STYLE
  5
11
330
3
100
AcDbSymbolTableRecord
100
AcDbTextStyleTableRecord
  2
Standard
 70
     0
 40
0.0
 41
1.0
 50
0.0
 71
     0
 42
2.5
  3
txt
  4
extfont2
  0
ENDTAB
  0
TABLE
  2
VIEW
  5
6
330
0
100
AcDbSymbolTable
 70
     0
  0
ENDTAB
  0
TABLE
  2
UCS
  5
7
330
0
100
AcDbSymbolTable
 70
     0
  0
ENDTAB
  0
TABLE
  2
APPID
  5
9
330
0
100
AcDbSymbolTable
 70
     4
  0
APPID
  5
12
330
9
100
AcDbSymbolTableRecord
100
AcDbRegAppTableRecord
  2
ACAD
 70
     0
  0
APPID
  5
280
330
9
100
AcDbSymbolTableRecord
100
AcDbRegAppTableRecord
  2
ACAD_MLEADERVER
 70
     0
  0
APPID
  5
290
330
9
100
AcDbSymbolTableRecord
100
AcDbRegAppTableRecord
  2
ACAD_NAV_VCDISPLAY
 70
     0
  0
APPID
  5
797
330
9
100
AcDbSymbolTableRecord
100
AcDbRegAppTableRecord
  2
ACAD_EXEMPT_FROM_CAD_STANDARDS
 70
     0
  0
ENDTAB
  0
TABLE
  2
DIMSTYLE
  5
A
330
0
100
AcDbSymbolTable
 70
     1
100
AcDbDimStyleTable
 71
     1
340
27
  0
DIMSTYLE
105
27
330
A
100
AcDbSymbolTableRecord
100
AcDbDimStyleTableRecord
  2
Standard
 70
     0
 41
2.5
 42
0.625
 43
3.75
 44
1.25
 73
     0
 74
     0
 77
     1
140
2.5
141
2.5
143
0.03937007874016
146
0.75
147
0.625
171
     3
172
     1
271
     2
272
     2
274
     3
283
     0
284
     8
340
11
  0
ENDTAB
  0
TABLE
  2
BLOCK_RECORD
  5
1
330
0
100
AcDbSymbolTable
 70
     1
  0
BLOCK_RECORD
  5
1F
102
{ACAD_XDICTIONARY
360
62C
102
}
330
1
100
AcDbSymbolTableRecord
100
AcDbBlockTableRecord
  2
*Model_Space
340
22
  0
BLOCK_RECORD
  5
1B
330
1
100
AcDbSymbolTableRecord
100
AcDbBlockTableRecord
  2
*Paper_Space
340
1E
  0
BLOCK_RECORD
  5
23
330
1
100
AcDbSymbolTableRecord
100
AcDbBlockTableRecord
  2
*Paper_Space0
340
28A
  0
ENDTAB
  0
ENDSEC
  0
SECTION
  2
BLOCKS
  0
BLOCK
  5
20
330
1F
100
AcDbEntity
  8
0
100
AcDbBlockBegin
  2
*Model_Space
 70
     0
 10
0.0
 20
0.0
 30
0.0
  3
*Model_Space
  1

  0
ENDBLK
  5
21
330
1F
100
AcDbEntity
  8
0
100
AcDbBlockEnd
  0
BLOCK
  5
1C
330
1B
100
AcDbEntity
 67
     1
  8
0
100
AcDbBlockBegin
  2
*Paper_Space
 70
     0
 10
0.0
 20
0.0
 30
0.0
  3
*Paper_Space
  1

  0
ENDBLK
  5
1D
330
1B
100
AcDbEntity
 67
     1
  8
0
100
AcDbBlockEnd
  0
BLOCK
  5
24
330
23
100
AcDbEntity
 67
     1
  8
0
100
AcDbBlockBegin
  2
*Paper_Space0
 70
     0
 10
0.0
 20
0.0
 30
0.0
  3
*Paper_Space0
  1

  0
ENDBLK
  5
25
330
23
100
AcDbEntity
 67
     1
  8
0
100
AcDbBlockEnd
  0
ENDSEC
  0
SECTION
  2
ENTITIES
  0
LINE
  5
5CB
102
{ACAD_REACTORS
330
7AC
102
}
330
1F
100
AcDbEntity
  8
中心線
100
AcDbLine
 10
257.4461546393786
 20
752.2844578384298
 30
0.0
 11
401.4461546393786
 21
752.2844578384298
 31
0.0
  0
LINE
  5
5CC
102
{ACAD_REACTORS
330
7AC
102
}
330
1F
100
AcDbEntity
  8
中心線
100
AcDbLine
 10
329.4461546393786
 20
680.2844578384298
 30
0.0
 11
329.4461546393786
 21
824.2844578384296
 31
0.0
  0
LINE
  5
5CD
102
{ACAD_REACTORS
330
7A9
102
}
330
1F
100
AcDbEntity
  8
中心線
100
AcDbLine
 10
257.4461546393783
 20
92.28445783842984
 30
0.0
 11
401.4461546393782
 21
92.28445783842984
 31
0.0
  0
LINE
  5
5CE
102
{ACAD_REACTORS
330
7A9
102
}
330
1F
100
AcDbEntity
  8
中心線
100
AcDbLine
 10
329.4461546393786
 20
20.28445783842995
 30
0.0
 11
329.4461546393786
 21
164.2844578384299
 31
0.0
  0
LINE
  5
5D2
102
{ACAD_REACTORS
330
7AB
102
}
330
1F
100
AcDbEntity
  8
中心線
100
AcDbLine
 10
34.44615463937839
 20
272.2844578384297
 30
0.0
 11
144.4461546393784
 21
272.2844578384297
 31
0.0
  0
LINE
  5
5D5
102
{ACAD_REACTORS
330
7AB
102
}
330
1F
100
AcDbEntity
  8
中心線
100
AcDbLine
 10
89.44615463937498
 20
200.2844578384297
 30
0.0
 11
89.44615463937498
 21
637.2387314026964
 31
0.0
  0
LINE
  5
5D9
102
{ACAD_REACTORS
330
7AB
102
}
330
1F
100
AcDbEntity
  8
中心線
100
AcDbLine
 10
17.44615463937543
 20
234.28445783843
 30
0.0
 11
161.4461546393754
 21
234.28445783843
 31
0.0
  0
LINE
  5
5DA
102
{ACAD_REACTORS
330
7A9
102
}
330
1F
100
AcDbEntity
  8
実線
100
AcDbLine
 10
394.3461546393786
 20
111.3344578384299
 30
0.0
 11
364.6185514869066
 21
111.3344578384299
 31
0.0
  0
LINE
  5
5DB
102
{ACAD_REACTORS
330
7A9
102
}
330
1F
100
AcDbEntity
  8
実線
100
AcDbLine
 10
364.6185514869066
 20
73.23445783842988
 30
0.0
 11
394.3461546393786
 21
73.23445783842988
 31
0.0
  0
LINE
  5
5DC
102
{ACAD_REACTORS
330
7A9
102
}
330
1F
100
AcDbEntity
  8
実線
100
AcDbLine
 10
394.3461546393786
 20
111.3344578384299
 30
0.0
 11
394.3461546393786
 21
73.23445783842988
 31
0.0
  0
LINE
  5
5DD
102
{ACAD_REACTORS
330
7A9
102
}
330
1F
100
AcDbEntity
  8
実線
100
AcDbLine
 10
394.3461546393786
 20
73.23445783842988
 30
0.0
 11
396.6961546393785
 21
67.03445783842983
 31
0.0
  0
LINE
  5
5DE
102
{ACAD_REACTORS
330
7A9
102
}
330
1F
100
AcDbEntity
  8
実線
100
AcDbLine
 10
396.6961546393785
 20
117.5344578384297
 30
0.0
 11
394.3461546393786
 21
111.3344578384299
 31
0.0
  0
LINE
  5
5DF
102
{ACAD_REACTORS
330
7A9
102
}
330
1F
100
AcDbEntity
  8
実線
100
AcDbLine
 10
399.4461546393785
 20
117.5344578384298
 30
0.0
 11
399.4461546393785
 21
67.03445783842983
 31
0.0
  0
LINE
  5
5E0
102
{ACAD_REACTORS
330
7A9
102
}
330
1F
100
AcDbEntity
  8
実線
100
AcDbLine
 10
396.6961546393785
 20
117.5344578384298
 30
0.0
 11
396.6961546393785
 21
67.03445783842983
 31
0.0
  0
LINE
  5
5E1
102
{ACAD_REACTORS
330
7A9
102
}
330
1F
100
AcDbEntity
  8
実線
100
AcDbLine
 10
399.4461546393785
 20
117.5344578384298
 30
0.0
 11
396.6961546393785
 21
117.5344578384298
 31
0.0
  0
LINE
  5
5E2
102
{ACAD_REACTORS
330
7A9
102
}
330
1F
100
AcDbEntity
  8
実線
100
AcDbLine
 10
396.6961546393785
 20
67.03445783842983
 30
0.0
 11
399.4461546393785
 21
67.03445783842983
 31
0.0
  0
LINE
  5
5E3
102
{ACAD_REACTORS
330
7A9
102
}
330
1F
100
AcDbEntity
  8
実線
100
AcDbLine
 10
264.5461546393785
 20
73.23445783842988
 30
0.0
 11
294.2737577918506
 21
73.23445783842988
 31
0.0
  0
LINE
  5
5E4
102
{ACAD_REACTORS
330
7A9
102
}
330
1F
100
AcDbEntity
  8
実線
100
AcDbLine
 10
294.2737577918506
 20
111.3344578384299
 30
0.0
 11
264.5461546393785
 21
111.3344578384299
 31
0.0
  0
LINE
  5
5E5
102
{ACAD_REACTORS
330
7A9
102
}
330
1F
100
AcDbEntity
  8
実線
100
AcDbLine
 10
264.5461546393785
 20
73.23445783842988
 30
0.0
 11
264.5461546393785
 21
111.3344578384299
 31
0.0
  0
LINE
  5
5E6
102
{ACAD_REACTORS
330
7A9
102
}
330
1F
100
AcDbEntity
  8
実線
100
AcDbLine
 10
264.5461546393785
 20
111.3344578384299
 30
0.0
 11
262.1961546393785
 21
117.5344578384298
 31
0.0
  0
LINE
  5
5E7
102
{ACAD_REACTORS
330
7A9
102
}
330
1F
100
AcDbEntity
  8
実線
100
AcDbLine
 10
262.1961546393785
 20
67.03445783842983
 30
0.0
 11
264.5461546393785
 21
73.23445783842988
 31
0.0
  0
LINE
  5
5E8
102
{ACAD_REACTORS
330
7A9
102
}
330
1F
100
AcDbEntity
  8
実線
100
AcDbLine
 10
259.4461546393785
 20
67.03445783842983
 30
0.0
 11
259.4461546393785
 21
117.5344578384298
 31
0.0
  0
LINE
  5
5E9
102
{ACAD_REACTORS
330
7A9
102
}
330
1F
100
AcDbEntity
  8
実線
100
AcDbLine
 10
262.1961546393785
 20
67.03445783842983
 30
0.0
 11
262.1961546393785
 21
117.5344578384298
 31
0.0
  0
LINE
  5
5EA
102
{ACAD_REACTORS
330
7A9
102
}
330
1F
100
AcDbEntity
  8
実線
100
AcDbLine
 10
259.4461546393785
 20
67.03445783842983
 30
0.0
 11
262.1961546393785
 21
67.03445783842983
 31
0.0
  0
LINE
  5
5EB
102
{ACAD_REACTORS
330
7A9
102
}
330
1F
100
AcDbEntity
  8
実線
100
AcDbLine
 10
262.1961546393785
 20
117.5344578384298
 30
0.0
 11
259.4461546393785
 21
117.5344578384298
 31
0.0
  0
ARC
  5
5EC
102
{ACAD_REACTORS
330
7A9
102
}
330
1F
100
AcDbEntity
  8
実線
100
AcDbCircle
 10
329.4461546393793
 20
92.28445783843062
 30
0.0
 40
50.0
100
AcDbArc
 50
112.3956387194856
 51
122.7800510628626
  0
ARC
  5
5ED
102
{ACAD_REACTORS
330
7A9
102
}
330
1F
100
AcDbEntity
  8
実線
100
AcDbCircle
 10
329.4461546393793
 20
92.28445783843062
 30
0.0
 40
50.0
100
AcDbArc
 50
147.2199489371374
 51
157.6043612805137
  0
ARC
  5
5EE
102
{ACAD_REACTORS
330
7A9
102
}
330
1F
100
AcDbEntity
  8
実線
100
AcDbCircle
 10
329.4461546393793
 20
92.28445783843062
 30
0.0
 40
50.0
100
AcDbArc
 50
202.3956387194893
 51
212.7800510628626
  0
ARC
  5
5EF
102
{ACAD_REACTORS
330
7A9
102
}
330
1F
100
AcDbEntity
  8
実線
100
AcDbCircle
 10
329.4461546393793
 20
92.28445783843062
 30
0.0
 40
50.0
100
AcDbArc
 50
237.2199489371374
 51
247.6043612805143
  0
ARC
  5
5F0
102
{ACAD_REACTORS
330
7A9
102
}
330
1F
100
AcDbEntity
  8
実線
100
AcDbCircle
 10
329.4461546393793
 20
92.28445783843062
 30
0.0
 40
50.0
100
AcDbArc
 50
292.3956387194857
 51
302.7800510628626
  0
ARC
  5
5F1
102
{ACAD_REACTORS
330
7A9
102
}
330
1F
100
AcDbEntity
  8
実線
100
AcDbCircle
 10
329.4461546393793
 20
92.28445783843062
 30
0.0
 40
50.0
100
AcDbArc
 50
327.2199489371374
 51
337.6043612805107
  0
ARC
  5
5F2
102
{ACAD_REACTORS
330
7A9
102
}
330
1F
100
AcDbEntity
  8
実線
100
AcDbCircle
 10
329.4461546393793
 20
92.28445783843062
 30
0.0
 40
50.0
100
AcDbArc
 50
22.39563871948627
 51
32.78005106286261
  0
ARC
  5
5F3
102
{ACAD_REACTORS
330
7A9
102
}
330
1F
100
AcDbEntity
  8
実線
100
AcDbCircle
 10
329.4461546393793
 20
92.28445783843062
 30
0.0
 40
50.0
100
AcDbArc
 50
57.2199489371374
 51
67.60436128051435
  0
LINE
  5
5F4
102
{ACAD_REACTORS
330
7A9
102
}
330
1F
100
AcDbEntity
  8
実線
100
AcDbLine
 10
348.4961546393785
 20
114.3043262537869
 30
0.0
 11
348.4961546393785
 21
157.1844578384299
 31
0.0
  0
LINE
  5
5F5
102
{ACAD_REACTORS
330
7A9
102
}
330
1F
100
AcDbEntity
  8
実線
100
AcDbLine
 10
348.4961546393785
 20
27.38445783842986
 30
0.0
 11
348.4961546393785
 21
70.26458942307283
 31
0.0
  0
LINE
  5
5F6
102
{ACAD_REACTORS
330
7A9
102
}
330
1F
100
AcDbEntity
  8
実線
100
AcDbLine
 10
310.3961546393787
 20
70.26458942307283
 30
0.0
 11
310.3961546393787
 21
27.38445783842986
 31
0.0
  0
LINE
  5
5F7
102
{ACAD_REACTORS
330
7A9
102
}
330
1F
100
AcDbEntity
  8
実線
100
AcDbLine
 10
310.3961546393787
 20
157.1844578384299
 30
0.0
 11
310.3961546393787
 21
114.3043262537869
 31
0.0
  0
LINE
  5
5F8
102
{ACAD_REACTORS
330
7A9
102
}
330
1F
100
AcDbEntity
  8
実線
100
AcDbLine
 10
348.4961546393785
 20
27.38445783842986
 30
0.0
 11
310.3961546393787
 21
27.38445783842986
 31
0.0
  0
LINE
  5
5F9
102
{ACAD_REACTORS
330
7A9
102
}
330
1F
100
AcDbEntity
  8
実線
100
AcDbLine
 10
310.3961546393787
 20
27.38445783842986
 30
0.0
 11
304.1961546393785
 21
25.03445783842989
 31
0.0
  0
LINE
  5
5FA
102
{ACAD_REACTORS
330
7A9
102
}
330
1F
100
AcDbEntity
  8
実線
100
AcDbLine
 10
354.6961546393785
 20
25.03445783842989
 30
0.0
 11
348.4961546393785
 21
27.38445783842986
 31
0.0
  0
LINE
  5
5FB
102
{ACAD_REACTORS
330
7A9
102
}
330
1F
100
AcDbEntity
  8
実線
100
AcDbLine
 10
304.1961546393785
 20
162.2844578384299
 30
0.0
 11
354.6961546393785
 21
162.2844578384299
 31
0.0
  0
LINE
  5
5FC
102
{ACAD_REACTORS
330
7A9
102
}
330
1F
100
AcDbEntity
  8
実線
100
AcDbLine
 10
304.1961546393785
 20
162.2844578384299
 30
0.0
 11
304.1961546393785
 21
159.5344578384299
 31
0.0
  0
LINE
  5
5FD
102
{ACAD_REACTORS
330
7A9
102
}
330
1F
100
AcDbEntity
  8
実線
100
AcDbLine
 10
354.6961546393785
 20
159.5344578384299
 30
0.0
 11
354.6961546393785
 21
162.2844578384299
 31
0.0
  0
LINE
  5
5FE
102
{ACAD_REACTORS
330
7A9
102
}
330
1F
100
AcDbEntity
  8
実線
100
AcDbLine
 10
304.1961546393785
 20
159.5344578384299
 30
0.0
 11
354.6961546393785
 21
159.5344578384299
 31
0.0
  0
LINE
  5
5FF
102
{ACAD_REACTORS
330
7A9
102
}
330
1F
100
AcDbEntity
  8
実線
100
AcDbLine
 10
310.3961546393787
 20
157.1844578384299
 30
0.0
 11
348.4961546393785
 21
157.1844578384299
 31
0.0
  0
LINE
  5
600
102
{ACAD_REACTORS
330
7A9
102
}
330
1F
100
AcDbEntity
  8
実線
100
AcDbLine
 10
348.4961546393785
 20
157.1844578384299
 30
0.0
 11
354.6961546393785
 21
159.5344578384299
 31
0.0
  0
LINE
  5
601
102
{ACAD_REACTORS
330
7A9
102
}
330
1F
100
AcDbEntity
  8
実線
100
AcDbLine
 10
304.1961546393785
 20
159.5344578384299
 30
0.0
 11
310.3961546393787
 21
157.1844578384299
 31
0.0
  0
LINE
  5
602
102
{ACAD_REACTORS
330
7A9
102
}
330
1F
100
AcDbEntity
  8
実線
100
AcDbLine
 10
354.6961546393785
 20
22.28445783842989
 30
0.0
 11
304.1961546393785
 21
22.28445783842989
 31
0.0
  0
LINE
  5
603
102
{ACAD_REACTORS
330
7A9
102
}
330
1F
100
AcDbEntity
  8
実線
100
AcDbLine
 10
354.6961546393785
 20
25.03445783842989
 30
0.0
 11
304.1961546393785
 21
25.03445783842989
 31
0.0
  0
LINE
  5
604
102
{ACAD_REACTORS
330
7A9
102
}
330
1F
100
AcDbEntity
  8
実線
100
AcDbLine
 10
354.6961546393785
 20
22.28445783842989
 30
0.0
 11
354.6961546393785
 21
25.03445783842989
 31
0.0
  0
LINE
  5
605
102
{ACAD_REACTORS
330
7A9
102
}
330
1F
100
AcDbEntity
  8
実線
100
AcDbLine
 10
304.1961546393785
 20
25.03445783842989
 30
0.0
 11
304.1961546393785
 21
22.28445783842989
 31
0.0
  0
ARC
  5
606
102
{ACAD_REACTORS
330
7A9
102
}
330
1F
100
AcDbEntity
  8
実線
100
AcDbCircle
 10
360.7961546393785
 20
71.78445783842983
 30
0.0
 40
2.0
100
AcDbArc
 50
270.0
 51
0.0
  0
ARC
  5
607
102
{ACAD_REACTORS
330
7A9
102
}
330
1F
100
AcDbEntity
  8
実線
100
AcDbCircle
 10
360.7961546393785
 20
112.7844578384298
 30
0.0
 40
2.0
100
AcDbArc
 50
0.0
 51
90.0
  0
LINE
  5
608
102
{ACAD_REACTORS
330
7A9
102
}
330
1F
100
AcDbEntity
  8
実線
100
AcDbLine
 10
349.7961546393785
 20
114.7844578384298
 30
0.0
 11
360.7961546393785
 21
114.7844578384298
 31
0.0
  0
LINE
  5
609
102
{ACAD_REACTORS
330
7A9
102
}
330
1F
100
AcDbEntity
  8
実線
100
AcDbLine
 10
360.7961546393785
 20
69.78445783842983
 30
0.0
 11
349.7961546393785
 21
69.78445783842983
 31
0.0
  0
LINE
  5
60A
102
{ACAD_REACTORS
330
7A9
102
}
330
1F
100
AcDbEntity
  8
実線
100
AcDbLine
 10
362.7961546393787
 20
112.7844578384298
 30
0.0
 11
362.7961546393787
 21
71.78445783842983
 31
0.0
  0
ARC
  5
60B
102
{ACAD_REACTORS
330
7A9
102
}
330
1F
100
AcDbEntity
  8
実線
100
AcDbCircle
 10
349.7961546393785
 20
112.7844578384298
 30
0.0
 40
2.0
100
AcDbArc
 50
90.0
 51
180.0
  0
LINE
  5
60C
102
{ACAD_REACTORS
330
7A9
102
}
330
1F
100
AcDbEntity
  8
実線
100
AcDbLine
 10
347.7961546393786
 20
71.78445783842983
 30
0.0
 11
347.7961546393786
 21
112.7844578384298
 31
0.0
  0
ARC
  5
60D
102
{ACAD_REACTORS
330
7A9
102
}
330
1F
100
AcDbEntity
  8
実線
100
AcDbCircle
 10
349.7961546393785
 20
71.78445783842983
 30
0.0
 40
2.0
100
AcDbArc
 50
180.0
 51
270.0
  0
ARC
  5
60E
102
{ACAD_REACTORS
330
7A9
102
}
330
1F
100
AcDbEntity
  8
実線
100
AcDbCircle
 10
309.0961546393785
 20
71.78445783842983
 30
0.0
 40
2.0
100
AcDbArc
 50
270.0
 51
0.0
  0
ARC
  5
60F
102
{ACAD_REACTORS
330
7A9
102
}
330
1F
100
AcDbEntity
  8
実線
100
AcDbCircle
 10
309.0961546393785
 20
112.7844578384298
 30
0.0
 40
2.0
100
AcDbArc
 50
0.0
 51
90.0
  0
ARC
  5
610
102
{ACAD_REACTORS
330
7A9
102
}
330
1F
100
AcDbEntity
  8
実線
100
AcDbCircle
 10
298.0961546393785
 20
112.7844578384298
 30
0.0
 40
2.0
100
AcDbArc
 50
90.0
 51
180.0
  0
ARC
  5
611
102
{ACAD_REACTORS
330
7A9
102
}
330
1F
100
AcDbEntity
  8
実線
100
AcDbCircle
 10
298.0961546393785
 20
71.78445783842983
 30
0.0
 40
2.0
100
AcDbArc
 50
180.0
 51
270.0
  0
LINE
  5
612
102
{ACAD_REACTORS
330
7A9
102
}
330
1F
100
AcDbEntity
  8
実線
100
AcDbLine
 10
311.0961546393785
 20
112.7844578384298
 30
0.0
 11
311.0961546393785
 21
71.78445783842983
 31
0.0
  0
LINE
  5
613
102
{ACAD_REACTORS
330
7A9
102
}
330
1F
100
AcDbEntity
  8
実線
100
AcDbLine
 10
298.0961546393785
 20
114.7844578384298
 30
0.0
 11
309.0961546393785
 21
114.7844578384298
 31
0.0
  0
LINE
  5
614
102
{ACAD_REACTORS
330
7A9
102
}
330
1F
100
AcDbEntity
  8
実線
100
AcDbLine
 10
296.0961546393785
 20
71.78445783842983
 30
0.0
 11
296.0961546393785
 21
112.7844578384298
 31
0.0
  0
LINE
  5
615
102
{ACAD_REACTORS
330
7A9
102
}
330
1F
100
AcDbEntity
  8
実線
100
AcDbLine
 10
309.0961546393785
 20
69.78445783842983
 30
0.0
 11
298.0961546393785
 21
69.78445783842983
 31
0.0
  0
ARC
  5
616
102
{ACAD_REACTORS
330
7A9
102
}
330
1F
100
AcDbEntity
  8
実線
100
AcDbCircle
 10
290.4689848704947
 20
128.9318347815018
 30
0.0
 40
7.999999999999996
100
AcDbArc
 50
136.7645737428866
 51
214.9999999999987
  0
LINE
  5
617
102
{ACAD_REACTORS
330
7A9
102
}
330
1F
100
AcDbEntity
  8
実線
100
AcDbLine
 10
297.387389187115
 20
137.8148439616257
 30
0.0
 11
310.3961546393787
 21
128.7060083291485
 31
0.0
  0
LINE
  5
618
102
{ACAD_REACTORS
330
7A9
102
}
330
1F
100
AcDbEntity
  8
実線
100
AcDbLine
 10
293.0246041486598
 20
111.3344578384299
 30
0.0
 11
283.9157685161829
 21
124.3432232906934
 31
0.0
  0
ARC
  5
619
102
{ACAD_REACTORS
330
7A9
102
}
330
1F
100
AcDbEntity
  8
実線
100
AcDbCircle
 10
292.7987776963066
 20
131.2616276073136
 30
0.0
 40
8.000000000000021
100
AcDbArc
 50
55.00000000000264
 51
133.2354262571099
  0
ARC
  5
61A
102
{ACAD_REACTORS
330
7A9
102
}
330
1F
100
AcDbEntity
  8
実線
100
AcDbCircle
 10
329.4461546393787
 20
92.28445783842994
 30
0.0
 40
61.50000000000008
100
AcDbArc
 50
133.2354262571099
 51
136.7645737428866
  0
LINE
  5
61B
102
{ACAD_REACTORS
330
7A9
102
}
330
1F
100
AcDbEntity
  8
実線
100
AcDbLine
 10
374.9765407625746
 20
124.3432232906934
 30
0.0
 11
365.8677051300975
 21
111.3344578384299
 31
0.0
  0
ARC
  5
61C
102
{ACAD_REACTORS
330
7A9
102
}
330
1F
100
AcDbEntity
  8
実線
100
AcDbCircle
 10
368.4233244082625
 20
128.9318347815018
 30
0.0
 40
8.000000000000023
100
AcDbArc
 50
325.0000000000013
 51
43.23542625711335
  0
ARC
  5
61D
102
{ACAD_REACTORS
330
7A9
102
}
330
1F
100
AcDbEntity
  8
実線
100
AcDbCircle
 10
329.4461546393793
 20
92.28445783843062
 30
0.0
 40
61.49999999999885
100
AcDbArc
 50
43.23542625711335
 51
46.76457374289014
  0
ARC
  5
61E
102
{ACAD_REACTORS
330
7A9
102
}
330
1F
100
AcDbEntity
  8
実線
100
AcDbCircle
 10
366.0935315824504
 20
131.2616276073137
 30
0.0
 40
7.999999999999986
100
AcDbArc
 50
46.76457374289014
 51
124.9999999999974
  0
LINE
  5
61F
102
{ACAD_REACTORS
330
7A9
102
}
330
1F
100
AcDbEntity
  8
実線
100
AcDbLine
 10
348.4961546393785
 20
128.7060083291486
 30
0.0
 11
361.5049200916423
 21
137.8148439616257
 31
0.0
  0
LINE
  5
620
102
{ACAD_REACTORS
330
7A9
102
}
330
1F
100
AcDbEntity
  8
実線
100
AcDbLine
 10
283.9157685161829
 20
60.22569238616625
 30
0.0
 11
293.0246041486598
 21
73.23445783842988
 31
0.0
  0
ARC
  5
621
102
{ACAD_REACTORS
330
7A9
102
}
330
1F
100
AcDbEntity
  8
実線
100
AcDbCircle
 10
290.4689848704947
 20
55.63708089535788
 30
0.0
 40
8.000000000000008
100
AcDbArc
 50
145.0000000000013
 51
223.2354262571134
  0
ARC
  5
622
102
{ACAD_REACTORS
330
7A9
102
}
330
1F
100
AcDbEntity
  8
実線
100
AcDbCircle
 10
329.4461546393794
 20
92.28445783843056
 30
0.0
 40
61.50000000000114
100
AcDbArc
 50
223.2354262571134
 51
226.7645737428901
  0
ARC
  5
623
102
{ACAD_REACTORS
330
7A9
102
}
330
1F
100
AcDbEntity
  8
実線
100
AcDbCircle
 10
292.7987776963066
 20
53.30728806954602
 30
0.0
 40
8.000000000000008
100
AcDbArc
 50
226.7645737428901
 51
304.9999999999974
  0
LINE
  5
624
102
{ACAD_REACTORS
330
7A9
102
}
330
1F
100
AcDbEntity
  8
実線
100
AcDbLine
 10
310.3961546393787
 20
55.86290734771108
 30
0.0
 11
297.387389187115
 21
46.75407171523403
 31
0.0
  0
LINE
  5
625
102
{ACAD_REACTORS
330
7A9
102
}
330
1F
100
AcDbEntity
  8
実線
100
AcDbLine
 10
361.5049200916423
 20
46.75407171523403
 30
0.0
 11
348.4961546393785
 21
55.86290734771108
 31
0.0
  0
ARC
  5
626
102
{ACAD_REACTORS
330
7A9
102
}
330
1F
100
AcDbEntity
  8
実線
100
AcDbCircle
 10
366.0935315824504
 20
53.30728806954602
 30
0.0
 40
8.000000000000008
100
AcDbArc
 50
235.0000000000026
 51
313.2354262571098
  0
ARC
  5
627
102
{ACAD_REACTORS
330
7A9
102
}
330
1F
100
AcDbEntity
  8
実線
100
AcDbCircle
 10
329.4461546393787
 20
92.28445783843005
 30
0.0
 40
61.50000000000009
100
AcDbArc
 50
313.2354262571098
 51
316.7645737428866
  0
ARC
  5
628
102
{ACAD_REACTORS
330
7A9
102
}
330
1F
100
AcDbEntity
  8
実線
100
AcDbCircle
 10
368.4233244082625
 20
55.63708089535788
 30
0.0
 40
7.999999999999995
100
AcDbArc
 50
316.7645737428866
 51
34.9999999999987
  0
LINE
  5
629
102
{ACAD_REACTORS
330
7A9
102
}
330
1F
100
AcDbEntity
  8
実線
100
AcDbLine
 10
365.8677051300975
 20
73.23445783842988
 30
0.0
 11
374.9765407625746
 21
60.2256923861662
 31
0.0
  0
ARC
  5
62A
102
{ACAD_REACTORS
330
7A9
102
}
330
1F
100
AcDbEntity
  8
実線
100
AcDbCircle
 10
329.4461546393785
 20
92.28445783842984
 30
0.0
 40
40.0
100
AcDbArc
 50
118.4407686454636
 51
241.5592313545364
  0
ARC
  5
62B
102
{ACAD_REACTORS
330
7A9
102
}
330
1F
100
AcDbEntity
  8
実線
100
AcDbCircle
 10
329.4461546393785
 20
92.28445783842984
 30
0.0
 40
40.0
100
AcDbArc
 50
298.4407686454636
 51
61.55923135453641
  0
CIRCLE
  5
62E
102
{ACAD_REACTORS
330
7AC
102
}
330
1F
100
AcDbEntity
  8
実線
100
AcDbCircle
 10
329.4461546393786
 20
752.2844578384309
 30
0.0
 40
16.5
  0
CIRCLE
  5
62F
102
{ACAD_REACTORS
330
7AC
102
}
330
1F
100
AcDbEntity
  8
実線
100
AcDbCircle
 10
329.4461546393786
 20
752.2844578384309
 30
0.0
 40
44.0
  0
LINE
  5
630
102
{ACAD_REACTORS
330
7AC
102
}
330
1F
100
AcDbEntity
  8
実線
100
AcDbLine
 10
394.3461546393779
 20
771.3344578384318
 30
0.0
 11
375.6749065152401
 21
771.3344578384318
 31
0.0
  0
LINE
  5
631
102
{ACAD_REACTORS
330
7AC
102
}
330
1F
100
AcDbEntity
  8
実線
100
AcDbLine
 10
375.674906515241
 20
733.2344578384317
 30
0.0
 11
394.3461546393779
 21
733.2344578384317
 31
0.0
  0
LINE
  5
632
102
{ACAD_REACTORS
330
7AC
102
}
330
1F
100
AcDbEntity
  8
実線
100
AcDbLine
 10
394.3461546393779
 20
733.2344578384317
 30
0.0
 11
396.6961546393778
 21
727.0344578384318
 31
0.0
  0
LINE
  5
633
102
{ACAD_REACTORS
330
7AC
102
}
330
1F
100
AcDbEntity
  8
実線
100
AcDbLine
 10
396.6961546393778
 20
777.5344578384318
 30
0.0
 11
394.3461546393779
 21
771.3344578384318
 31
0.0
  0
LINE
  5
634
102
{ACAD_REACTORS
330
7AC
102
}
330
1F
100
AcDbEntity
  8
実線
100
AcDbLine
 10
394.3461546393779
 20
733.2344578384317
 30
0.0
 11
394.3461546393779
 21
771.3344578384318
 31
0.0
  0
LINE
  5
635
102
{ACAD_REACTORS
330
7AC
102
}
330
1F
100
AcDbEntity
  8
実線
100
AcDbLine
 10
399.4461546393779
 20
777.5344578384318
 30
0.0
 11
396.6961546393778
 21
777.5344578384318
 31
0.0
  0
LINE
  5
636
102
{ACAD_REACTORS
330
7AC
102
}
330
1F
100
AcDbEntity
  8
実線
100
AcDbLine
 10
396.6961546393778
 20
727.0344578384318
 30
0.0
 11
399.4461546393779
 21
727.0344578384318
 31
0.0
  0
LINE
  5
637
102
{ACAD_REACTORS
330
7AC
102
}
330
1F
100
AcDbEntity
  8
実線
100
AcDbLine
 10
399.4461546393779
 20
727.0344578384318
 30
0.0
 11
399.4461546393779
 21
777.5344578384318
 31
0.0
  0
LINE
  5
638
102
{ACAD_REACTORS
330
7AC
102
}
330
1F
100
AcDbEntity
  8
実線
100
AcDbLine
 10
396.6961546393778
 20
727.0344578384318
 30
0.0
 11
396.6961546393778
 21
777.5344578384318
 31
0.0
  0
LINE
  5
639
102
{ACAD_REACTORS
330
7AC
102
}
330
1F
100
AcDbEntity
  8
実線
100
AcDbLine
 10
264.5461546393779
 20
733.2344578384317
 30
0.0
 11
283.2174027635165
 21
733.2344578384317
 31
0.0
  0
LINE
  5
63A
102
{ACAD_REACTORS
330
7AC
102
}
330
1F
100
AcDbEntity
  8
実線
100
AcDbLine
 10
283.2174027635172
 20
771.3344578384318
 30
0.0
 11
264.5461546393779
 21
771.3344578384318
 31
0.0
  0
LINE
  5
63B
102
{ACAD_REACTORS
330
7AC
102
}
330
1F
100
AcDbEntity
  8
実線
100
AcDbLine
 10
259.4461546393778
 20
727.0344578384318
 30
0.0
 11
262.1961546393778
 21
727.0344578384318
 31
0.0
  0
LINE
  5
63C
102
{ACAD_REACTORS
330
7AC
102
}
330
1F
100
AcDbEntity
  8
実線
100
AcDbLine
 10
262.1961546393778
 20
777.5344578384318
 30
0.0
 11
259.4461546393778
 21
777.5344578384318
 31
0.0
  0
LINE
  5
63D
102
{ACAD_REACTORS
330
7AC
102
}
330
1F
100
AcDbEntity
  8
実線
100
AcDbLine
 10
259.4461546393778
 20
777.5344578384318
 30
0.0
 11
259.4461546393778
 21
727.0344578384318
 31
0.0
  0
LINE
  5
63E
102
{ACAD_REACTORS
330
7AC
102
}
330
1F
100
AcDbEntity
  8
実線
100
AcDbLine
 10
264.5461546393779
 20
771.3344578384318
 30
0.0
 11
262.1961546393778
 21
777.5344578384318
 31
0.0
  0
LINE
  5
63F
102
{ACAD_REACTORS
330
7AC
102
}
330
1F
100
AcDbEntity
  8
実線
100
AcDbLine
 10
262.1961546393778
 20
727.0344578384318
 30
0.0
 11
264.5461546393779
 21
733.2344578384317
 31
0.0
  0
LINE
  5
640
102
{ACAD_REACTORS
330
7AC
102
}
330
1F
100
AcDbEntity
  8
実線
100
AcDbLine
 10
262.1961546393778
 20
777.5344578384318
 30
0.0
 11
262.1961546393778
 21
727.0344578384318
 31
0.0
  0
LINE
  5
641
102
{ACAD_REACTORS
330
7AC
102
}
330
1F
100
AcDbEntity
  8
実線
100
AcDbLine
 10
264.5461546393779
 20
771.3344578384318
 30
0.0
 11
264.5461546393779
 21
733.2344578384317
 31
0.0
  0
CIRCLE
  5
642
102
{ACAD_REACTORS
330
7AC
102
}
330
1F
100
AcDbEntity
  8
実線
100
AcDbCircle
 10
329.4461546393786
 20
752.2844578384309
 30
0.0
 40
43.3
  0
CIRCLE
  5
643
102
{ACAD_REACTORS
330
7AC
102
}
330
1F
100
AcDbEntity
  8
実線
100
AcDbCircle
 10
329.4461546393786
 20
752.2844578384309
 30
0.0
 40
42.5
  0
ARC
  5
644
102
{ACAD_REACTORS
330
7AC
102
}
330
1F
100
AcDbEntity
  8
実線
100
AcDbCircle
 10
368.4233244082627
 20
715.6370808953587
 30
0.0
 40
8.000000000000023
100
AcDbArc
 50
316.7645737428832
 51
34.99999999999737
  0
ARC
  5
645
102
{ACAD_REACTORS
330
7AC
102
}
330
1F
100
AcDbEntity
  8
実線
100
AcDbCircle
 10
292.7987776963066
 20
713.3072880695468
 30
0.0
 40
8.000000000000021
100
AcDbArc
 50
226.7645737428901
 51
304.9999999999974
  0
LINE
  5
646
102
{ACAD_REACTORS
330
7AC
102
}
330
1F
100
AcDbEntity
  8
実線
100
AcDbLine
 10
374.9765407625747
 20
720.2256923861668
 30
0.0
 11
371.4839127194465
 21
725.2136821642529
 31
0.0
  0
LINE
  5
647
102
{ACAD_REACTORS
330
7AC
102
}
330
1F
100
AcDbEntity
  8
実線
100
AcDbLine
 10
371.4839127194465
 20
779.3552335126097
 30
0.0
 11
374.9765407625747
 21
784.3432232906949
 31
0.0
  0
ARC
  5
648
102
{ACAD_REACTORS
330
7AC
102
}
330
1F
100
AcDbEntity
  8
実線
100
AcDbCircle
 10
329.4461546393795
 20
752.2844578384298
 30
0.0
 40
61.49999999999885
100
AcDbArc
 50
313.2354262571098
 51
316.7645737428878
  0
ARC
  5
649
102
{ACAD_REACTORS
330
7AC
102
}
330
1F
100
AcDbEntity
  8
実線
100
AcDbCircle
 10
290.4689848704947
 20
788.9318347815027
 30
0.0
 40
8.000000000000008
100
AcDbArc
 50
136.7645737428878
 51
214.9999999999974
  0
LINE
  5
64A
102
{ACAD_REACTORS
330
7AC
102
}
330
1F
100
AcDbEntity
  8
実線
100
AcDbLine
 10
283.9157685161829
 20
784.3432232906949
 30
0.0
 11
287.4083965593109
 21
779.3552335126097
 31
0.0
  0
LINE
  5
64B
102
{ACAD_REACTORS
330
7AC
102
}
330
1F
100
AcDbEntity
  8
実線
100
AcDbLine
 10
287.4083965593109
 20
725.2136821642529
 30
0.0
 11
283.9157685161829
 21
720.2256923861668
 31
0.0
  0
ARC
  5
64C
102
{ACAD_REACTORS
330
7AC
102
}
330
1F
100
AcDbEntity
  8
実線
100
AcDbCircle
 10
290.4689848704947
 20
715.6370808953587
 30
0.0
 40
7.999999999999996
100
AcDbArc
 50
145.0000000000026
 51
223.2354262571122
  0
ARC
  5
64D
102
{ACAD_REACTORS
330
7AC
102
}
330
1F
100
AcDbEntity
  8
実線
100
AcDbCircle
 10
329.4461546393791
 20
752.2844578384309
 30
0.0
 40
61.50000000000008
100
AcDbArc
 50
223.2354262571122
 51
226.7645737428901
  0
ARC
  5
64E
102
{ACAD_REACTORS
330
7AC
102
}
330
1F
100
AcDbEntity
  8
実線
100
AcDbCircle
 10
329.4461546393787
 20
752.2844578384309
 30
0.0
 40
61.50000000000009
100
AcDbArc
 50
43.23542625711217
 51
46.76457374289014
  0
LINE
  5
64F
102
{ACAD_REACTORS
330
7AC
102
}
330
1F
100
AcDbEntity
  8
実線
100
AcDbLine
 10
297.3873891871149
 20
706.7540717152347
 30
0.0
 11
302.3753789652001
 21
710.2466997583627
 31
0.0
  0
LINE
  5
650
102
{ACAD_REACTORS
330
7AC
102
}
330
1F
100
AcDbEntity
  8
実線
100
AcDbLine
 10
356.5169303135573
 20
710.2466997583627
 30
0.0
 11
361.5049200916423
 21
706.7540717152347
 31
0.0
  0
ARC
  5
651
102
{ACAD_REACTORS
330
7AC
102
}
330
1F
100
AcDbEntity
  8
実線
100
AcDbCircle
 10
366.0935315824507
 20
713.3072880695468
 30
0.0
 40
7.999999999999986
100
AcDbArc
 50
235.0000000000026
 51
313.2354262571098
  0
ARC
  5
652
102
{ACAD_REACTORS
330
7AC
102
}
330
1F
100
AcDbEntity
  8
実線
100
AcDbCircle
 10
368.4233244082627
 20
788.9318347815027
 30
0.0
 40
7.999999999999995
100
AcDbArc
 50
325.0000000000026
 51
43.23542625711217
  0
LINE
  5
653
102
{ACAD_REACTORS
330
7AC
102
}
330
1F
100
AcDbEntity
  8
実線
100
AcDbLine
 10
361.5049200916423
 20
797.8148439616269
 30
0.0
 11
356.5169303135573
 21
794.3222159184987
 31
0.0
  0
ARC
  5
654
102
{ACAD_REACTORS
330
7AC
102
}
330
1F
100
AcDbEntity
  8
実線
100
AcDbCircle
 10
366.0935315824507
 20
791.2616276073148
 30
0.0
 40
8.000000000000008
100
AcDbArc
 50
46.76457374289014
 51
124.9999999999974
  0
ARC
  5
655
102
{ACAD_REACTORS
330
7AC
102
}
330
1F
100
AcDbEntity
  8
実線
100
AcDbCircle
 10
329.4461546393798
 20
752.2844578384298
 30
0.0
 40
61.50000000000114
100
AcDbArc
 50
133.2354262571099
 51
136.7645737428878
  0
LINE
  5
656
102
{ACAD_REACTORS
330
7AC
102
}
330
1F
100
AcDbEntity
  8
実線
100
AcDbLine
 10
302.3753789652001
 20
794.3222159184987
 30
0.0
 11
297.3873891871149
 21
797.8148439616269
 31
0.0
  0
ARC
  5
657
102
{ACAD_REACTORS
330
7AC
102
}
330
1F
100
AcDbEntity
  8
実線
100
AcDbCircle
 10
292.7987776963066
 20
791.2616276073148
 30
0.0
 40
8.000000000000008
100
AcDbArc
 50
55.00000000000264
 51
133.2354262571099
  0
LINE
  5
658
102
{ACAD_REACTORS
330
7AC
102
}
330
1F
100
AcDbEntity
  8
実線
100
AcDbLine
 10
310.396154639378
 20
706.0557059625688
 30
0.0
 11
310.396154639378
 21
687.3844578384318
 31
0.0
  0
LINE
  5
659
102
{ACAD_REACTORS
330
7AC
102
}
330
1F
100
AcDbEntity
  8
実線
100
AcDbLine
 10
310.396154639378
 20
817.1844578384316
 30
0.0
 11
310.396154639378
 21
798.5132097142929
 31
0.0
  0
LINE
  5
65A
102
{ACAD_REACTORS
330
7AC
102
}
330
1F
100
AcDbEntity
  8
実線
100
AcDbLine
 10
348.4961546393778
 20
798.5132097142929
 30
0.0
 11
348.4961546393778
 21
817.1844578384316
 31
0.0
  0
LINE
  5
65B
102
{ACAD_REACTORS
330
7AC
102
}
330
1F
100
AcDbEntity
  8
実線
100
AcDbLine
 10
348.4961546393778
 20
687.3844578384318
 30
0.0
 11
348.4961546393778
 21
706.0557059625688
 31
0.0
  0
LINE
  5
65C
102
{ACAD_REACTORS
330
7AC
102
}
330
1F
100
AcDbEntity
  8
実線
100
AcDbLine
 10
348.4961546393778
 20
817.1844578384316
 30
0.0
 11
354.6961546393778
 21
819.534457838432
 31
0.0
  0
LINE
  5
65D
102
{ACAD_REACTORS
330
7AC
102
}
330
1F
100
AcDbEntity
  8
実線
100
AcDbLine
 10
304.1961546393778
 20
819.534457838432
 30
0.0
 11
310.396154639378
 21
817.1844578384316
 31
0.0
  0
LINE
  5
65E
102
{ACAD_REACTORS
330
7AC
102
}
330
1F
100
AcDbEntity
  8
実線
100
AcDbLine
 10
348.4961546393778
 20
817.1844578384316
 30
0.0
 11
310.396154639378
 21
817.1844578384316
 31
0.0
  0
LINE
  5
65F
102
{ACAD_REACTORS
330
7AC
102
}
330
1F
100
AcDbEntity
  8
実線
100
AcDbLine
 10
304.1961546393778
 20
822.284457838432
 30
0.0
 11
304.1961546393778
 21
819.534457838432
 31
0.0
  0
LINE
  5
660
102
{ACAD_REACTORS
330
7AC
102
}
330
1F
100
AcDbEntity
  8
実線
100
AcDbLine
 10
354.6961546393778
 20
819.534457838432
 30
0.0
 11
354.6961546393778
 21
822.284457838432
 31
0.0
  0
LINE
  5
661
102
{ACAD_REACTORS
330
7AC
102
}
330
1F
100
AcDbEntity
  8
実線
100
AcDbLine
 10
354.6961546393778
 20
822.284457838432
 30
0.0
 11
304.1961546393778
 21
822.284457838432
 31
0.0
  0
LINE
  5
662
102
{ACAD_REACTORS
330
7AC
102
}
330
1F
100
AcDbEntity
  8
実線
100
AcDbLine
 10
354.6961546393778
 20
819.534457838432
 30
0.0
 11
304.1961546393778
 21
819.534457838432
 31
0.0
  0
LINE
  5
663
102
{ACAD_REACTORS
330
7AC
102
}
330
1F
100
AcDbEntity
  8
実線
100
AcDbLine
 10
310.396154639378
 20
687.3844578384318
 30
0.0
 11
304.1961546393778
 21
685.0344578384318
 31
0.0
  0
LINE
  5
664
102
{ACAD_REACTORS
330
7AC
102
}
330
1F
100
AcDbEntity
  8
実線
100
AcDbLine
 10
354.6961546393778
 20
685.0344578384318
 30
0.0
 11
348.4961546393778
 21
687.3844578384318
 31
0.0
  0
LINE
  5
665
102
{ACAD_REACTORS
330
7AC
102
}
330
1F
100
AcDbEntity
  8
実線
100
AcDbLine
 10
310.396154639378
 20
687.3844578384318
 30
0.0
 11
348.4961546393778
 21
687.3844578384318
 31
0.0
  0
LINE
  5
666
102
{ACAD_REACTORS
330
7AC
102
}
330
1F
100
AcDbEntity
  8
実線
100
AcDbLine
 10
354.6961546393778
 20
682.2844578384319
 30
0.0
 11
354.6961546393778
 21
685.0344578384318
 31
0.0
  0
LINE
  5
667
102
{ACAD_REACTORS
330
7AC
102
}
330
1F
100
AcDbEntity
  8
実線
100
AcDbLine
 10
304.1961546393778
 20
685.0344578384318
 30
0.0
 11
304.1961546393778
 21
682.2844578384319
 31
0.0
  0
LINE
  5
668
102
{ACAD_REACTORS
330
7AC
102
}
330
1F
100
AcDbEntity
  8
実線
100
AcDbLine
 10
304.1961546393778
 20
682.2844578384319
 30
0.0
 11
354.6961546393778
 21
682.2844578384319
 31
0.0
  0
LINE
  5
669
102
{ACAD_REACTORS
330
7AC
102
}
330
1F
100
AcDbEntity
  8
実線
100
AcDbLine
 10
304.1961546393778
 20
685.0344578384318
 30
0.0
 11
354.6961546393778
 21
685.0344578384318
 31
0.0
  0
CIRCLE
  5
66A
102
{ACAD_REACTORS
330
7AC
102
}
330
1F
100
AcDbEntity
  8
実線
100
AcDbCircle
 10
329.4461546393786
 20
752.2844578384309
 30
0.0
 40
50.0
  0
LINE
  5
66B
102
{ACAD_REACTORS
330
7A7
102
}
330
1F
100
AcDbEntity
  8
実線
100
AcDbLine
 10
792.946154639374
 20
615.08445783843
 30
0.0
 11
825.946154639374
 21
615.08445783843
 31
0.0
  0
LINE
  5
66C
102
{ACAD_REACTORS
330
7A7
102
}
330
1F
100
AcDbEntity
  8
実線
100
AcDbLine
 10
792.946154639374
 20
615.08445783843
 30
0.0
 11
766.9461546393741
 21
605.88445783843
 31
0.0
  0
LINE
  5
66D
102
{ACAD_REACTORS
330
7A7
102
}
330
1F
100
AcDbEntity
  8
実線
100
AcDbLine
 10
851.946154639374
 20
605.88445783843
 30
0.0
 11
825.946154639374
 21
615.08445783843
 31
0.0
  0
LINE
  5
66E
102
{ACAD_REACTORS
330
7A7
102
}
330
1F
100
AcDbEntity
  8
実線
100
AcDbLine
 10
766.9461546393741
 20
605.88445783843
 30
0.0
 11
851.946154639374
 21
605.88445783843
 31
0.0
  0
LINE
  5
66F
102
{ACAD_REACTORS
330
7A7
102
}
330
1F
100
AcDbEntity
  8
実線
100
AcDbLine
 10
766.146154639374
 20
492.8844578384302
 30
0.0
 11
765.446154639374
 21
489.1844578384301
 31
0.0
  0
LINE
  5
670
102
{ACAD_REACTORS
330
7A7
102
}
330
1F
100
AcDbEntity
  8
実線
100
AcDbLine
 10
853.4461546393741
 20
489.1844578384301
 30
0.0
 11
852.7461546393739
 21
492.8844578384302
 31
0.0
  0
LINE
  5
671
102
{ACAD_REACTORS
330
7A7
102
}
330
1F
100
AcDbEntity
  8
実線
100
AcDbLine
 10
765.446154639374
 20
489.1844578384301
 30
0.0
 11
853.4461546393741
 21
489.1844578384301
 31
0.0
  0
LINE
  5
672
102
{ACAD_REACTORS
330
7A7
102
}
330
1F
100
AcDbEntity
  8
実線
100
AcDbLine
 10
744.5461546393748
 20
253.2344578384301
 30
0.0
 11
769.446154639375
 21
253.2344578384301
 31
0.0
  0
LINE
  5
673
102
{ACAD_REACTORS
330
7A7
102
}
330
1F
100
AcDbEntity
  8
実線
100
AcDbLine
 10
762.4689848704909
 20
291.3344578384301
 30
0.0
 11
744.5461546393748
 21
291.3344578384301
 31
0.0
  0
LINE
  5
674
102
{ACAD_REACTORS
330
7A7
102
}
330
1F
100
AcDbEntity
  8
実線
100
AcDbLine
 10
739.4461546393749
 20
247.0344578384301
 30
0.0
 11
742.196154639375
 21
247.0344578384301
 31
0.0
  0
LINE
  5
675
102
{ACAD_REACTORS
330
7A7
102
}
330
1F
100
AcDbEntity
  8
実線
100
AcDbLine
 10
742.196154639375
 20
297.5344578384301
 30
0.0
 11
739.4461546393749
 21
297.5344578384301
 31
0.0
  0
LINE
  5
676
102
{ACAD_REACTORS
330
7A7
102
}
330
1F
100
AcDbEntity
  8
実線
100
AcDbLine
 10
739.4461546393749
 20
247.0344578384301
 30
0.0
 11
739.4461546393749
 21
297.5344578384301
 31
0.0
  0
LINE
  5
677
102
{ACAD_REACTORS
330
7A7
102
}
330
1F
100
AcDbEntity
  8
実線
100
AcDbLine
 10
744.5461546393748
 20
291.3344578384301
 30
0.0
 11
742.196154639375
 21
297.5344578384301
 31
0.0
  0
LINE
  5
678
102
{ACAD_REACTORS
330
7A7
102
}
330
1F
100
AcDbEntity
  8
実線
100
AcDbLine
 10
742.196154639375
 20
247.0344578384302
 30
0.0
 11
744.5461546393748
 21
253.2344578384301
 31
0.0
  0
LINE
  5
679
102
{ACAD_REACTORS
330
7A7
102
}
330
1F
100
AcDbEntity
  8
実線
100
AcDbLine
 10
742.196154639375
 20
297.5344578384301
 30
0.0
 11
742.196154639375
 21
247.0344578384301
 31
0.0
  0
LINE
  5
67A
102
{ACAD_REACTORS
330
7A7
102
}
330
1F
100
AcDbEntity
  8
実線
100
AcDbLine
 10
744.5461546393748
 20
291.3344578384301
 30
0.0
 11
744.5461546393748
 21
253.2344578384301
 31
0.0
  0
LINE
  5
67B
102
{ACAD_REACTORS
330
7A7
102
}
330
1F
100
AcDbEntity
  8
実線
100
AcDbLine
 10
874.3461546393747
 20
291.3344578384301
 30
0.0
 11
856.4233244082593
 21
291.3344578384301
 31
0.0
  0
LINE
  5
67C
102
{ACAD_REACTORS
330
7A7
102
}
330
1F
100
AcDbEntity
  8
実線
100
AcDbLine
 10
849.4461546393749
 20
253.2344578384301
 30
0.0
 11
874.3461546393747
 21
253.2344578384301
 31
0.0
  0
LINE
  5
67D
102
{ACAD_REACTORS
330
7A7
102
}
330
1F
100
AcDbEntity
  8
実線
100
AcDbLine
 10
879.4461546393749
 20
247.0344578384301
 30
0.0
 11
879.4461546393749
 21
297.5344578384301
 31
0.0
  0
LINE
  5
67E
102
{ACAD_REACTORS
330
7A7
102
}
330
1F
100
AcDbEntity
  8
実線
100
AcDbLine
 10
879.4461546393749
 20
297.5344578384301
 30
0.0
 11
876.696154639375
 21
297.5344578384301
 31
0.0
  0
LINE
  5
67F
102
{ACAD_REACTORS
330
7A7
102
}
330
1F
100
AcDbEntity
  8
実線
100
AcDbLine
 10
876.696154639375
 20
247.0344578384301
 30
0.0
 11
879.4461546393749
 21
247.0344578384301
 31
0.0
  0
LINE
  5
680
102
{ACAD_REACTORS
330
7A7
102
}
330
1F
100
AcDbEntity
  8
実線
100
AcDbLine
 10
876.696154639375
 20
247.0344578384301
 30
0.0
 11
876.696154639375
 21
297.5344578384301
 31
0.0
  0
LINE
  5
681
102
{ACAD_REACTORS
330
7A7
102
}
330
1F
100
AcDbEntity
  8
実線
100
AcDbLine
 10
874.3461546393747
 20
253.2344578384301
 30
0.0
 11
874.3461546393747
 21
291.3344578384301
 31
0.0
  0
LINE
  5
682
102
{ACAD_REACTORS
330
7A7
102
}
330
1F
100
AcDbEntity
  8
実線
100
AcDbLine
 10
874.3461546393747
 20
253.2344578384301
 30
0.0
 11
876.696154639375
 21
247.0344578384301
 31
0.0
  0
LINE
  5
683
102
{ACAD_REACTORS
330
7A7
102
}
330
1F
100
AcDbEntity
  8
実線
100
AcDbLine
 10
876.696154639375
 20
297.5344578384301
 30
0.0
 11
874.3461546393747
 21
291.3344578384301
 31
0.0
  0
LINE
  5
684
102
{ACAD_REACTORS
330
7A7
102
}
330
1F
100
AcDbEntity
  8
実線
100
AcDbLine
 10
815.446154639374
 20
313.6844578384302
 30
0.0
 11
815.446154639374
 21
340.6844578384302
 31
0.0
  0
LINE
  5
685
102
{ACAD_REACTORS
330
7A7
102
}
330
1F
100
AcDbEntity
  8
実線
100
AcDbLine
 10
803.4461546393741
 20
340.6844578384302
 30
0.0
 11
803.4461546393741
 21
313.6844578384302
 31
0.0
  0
LINE
  5
686
102
{ACAD_REACTORS
330
7A7
102
}
330
1F
100
AcDbEntity
  8
実線
100
AcDbLine
 10
759.4461546393749
 20
460.18445783843
 30
0.0
 11
859.446154639375
 21
460.18445783843
 31
0.0
  0
LINE
  5
687
102
{ACAD_REACTORS
330
7A7
102
}
330
1F
100
AcDbEntity
  8
実線
100
AcDbLine
 10
859.446154639375
 20
384.1844578384301
 30
0.0
 11
859.446154639375
 21
460.1844578384301
 31
0.0
  0
LINE
  5
688
102
{ACAD_REACTORS
330
7A7
102
}
330
1F
100
AcDbEntity
  8
実線
100
AcDbLine
 10
759.4461546393749
 20
460.18445783843
 30
0.0
 11
759.4461546393749
 21
384.1844578384301
 31
0.0
  0
LINE
  5
689
102
{ACAD_REACTORS
330
7A7
102
}
330
1F
100
AcDbEntity
  8
実線
100
AcDbLine
 10
759.4461546393749
 20
384.1844578384301
 30
0.0
 11
859.446154639375
 21
384.1844578384301
 31
0.0
  0
LINE
  5
68A
102
{ACAD_REACTORS
330
7A7
102
}
330
1F
100
AcDbEntity
  8
実線
100
AcDbLine
 10
774.4461546393741
 20
476.1844578384301
 30
0.0
 11
844.4461546393741
 21
476.1844578384301
 31
0.0
  0
LINE
  5
68B
102
{ACAD_REACTORS
330
7A7
102
}
330
1F
100
AcDbEntity
  8
実線
100
AcDbLine
 10
844.4461546393741
 20
464.6844578384301
 30
0.0
 11
844.4461546393741
 21
476.1844578384301
 31
0.0
  0
LINE
  5
68C
102
{ACAD_REACTORS
330
7A7
102
}
330
1F
100
AcDbEntity
  8
実線
100
AcDbLine
 10
774.4461546393741
 20
476.1844578384301
 30
0.0
 11
774.4461546393741
 21
464.6844578384301
 31
0.0
  0
LINE
  5
68D
102
{ACAD_REACTORS
330
7A7
102
}
330
1F
100
AcDbEntity
  8
実線
100
AcDbLine
 10
822.446154639374
 20
476.1844578384301
 30
0.0
 11
822.446154639374
 21
489.1844578384301
 31
0.0
  0
LINE
  5
68E
102
{ACAD_REACTORS
330
7A7
102
}
330
1F
100
AcDbEntity
  8
実線
100
AcDbLine
 10
796.446154639374
 20
489.1844578384301
 30
0.0
 11
796.446154639374
 21
476.1844578384301
 31
0.0
  0
LINE
  5
68F
102
{ACAD_REACTORS
330
7A7
102
}
330
1F
100
AcDbEntity
  8
実線
100
AcDbLine
 10
766.146154639374
 20
528.8844578384302
 30
0.0
 11
852.7461546393739
 21
528.8844578384302
 31
0.0
  0
LINE
  5
690
102
{ACAD_REACTORS
330
7A7
102
}
330
1F
100
AcDbEntity
  8
実線
100
AcDbLine
 10
852.7461546393739
 20
492.8844578384302
 30
0.0
 11
852.7461546393739
 21
528.8844578384302
 31
0.0
  0
LINE
  5
691
102
{ACAD_REACTORS
330
7A7
102
}
330
1F
100
AcDbEntity
  8
実線
100
AcDbLine
 10
766.146154639374
 20
528.8844578384302
 30
0.0
 11
766.146154639374
 21
492.8844578384302
 31
0.0
  0
LINE
  5
692
102
{ACAD_REACTORS
330
7A7
102
}
330
1F
100
AcDbEntity
  8
実線
100
AcDbLine
 10
766.146154639374
 20
492.8844578384302
 30
0.0
 11
852.7461546393739
 21
492.8844578384302
 31
0.0
  0
LINE
  5
693
102
{ACAD_REACTORS
330
7A7
102
}
330
1F
100
AcDbEntity
  8
実線
100
AcDbLine
 10
851.946154639374
 20
528.8844578384302
 30
0.0
 11
851.946154639374
 21
605.8844578384301
 31
0.0
  0
LINE
  5
694
102
{ACAD_REACTORS
330
7A7
102
}
330
1F
100
AcDbEntity
  8
実線
100
AcDbLine
 10
766.9461546393741
 20
605.8844578384301
 30
0.0
 11
766.9461546393741
 21
528.8844578384302
 31
0.0
  0
ARC
  5
695
102
{ACAD_REACTORS
330
7A7
102
}
330
1F
100
AcDbEntity
  8
実線
100
AcDbCircle
 10
785.746154639374
 20
354.6844578384301
 30
0.0
 40
57.99999999999997
100
AcDbArc
 50
315.0170320400987
 51
346.0320373253493
  0
LINE
  5
696
102
{ACAD_REACTORS
330
7A7
102
}
330
1F
100
AcDbEntity
  8
実線
100
AcDbLine
 10
853.7461546393741
 20
384.1844578384301
 30
0.0
 11
853.7461546393741
 21
354.6844578384301
 31
0.0
  0
ARC
  5
697
102
{ACAD_REACTORS
330
7A7
102
}
330
1F
100
AcDbEntity
  8
実線
100
AcDbCircle
 10
783.746154639374
 20
354.6844578384301
 30
0.0
 40
70.00000000000003
100
AcDbArc
 50
324.146532936536
 51
0.0
  0
LINE
  5
698
102
{ACAD_REACTORS
330
7A7
102
}
330
1F
100
AcDbEntity
  8
実線
100
AcDbLine
 10
765.1461546393741
 20
384.1844578384301
 30
0.0
 11
765.1461546393741
 21
354.6844578384301
 31
0.0
  0
ARC
  5
699
102
{ACAD_REACTORS
330
7A7
102
}
330
1F
100
AcDbEntity
  8
実線
100
AcDbCircle
 10
835.1461546393741
 20
354.6844578384301
 30
0.0
 40
70.00000000000003
100
AcDbArc
 50
180.0
 51
215.8534670634641
  0
ARC
  5
69A
102
{ACAD_REACTORS
330
7A7
102
}
330
1F
100
AcDbEntity
  8
実線
100
AcDbCircle
 10
833.1461546393741
 20
354.6844578384301
 30
0.0
 40
57.99999999999997
100
AcDbArc
 50
193.9679626746507
 51
224.9829679599013
  0
LINE
  5
69B
102
{ACAD_REACTORS
330
7A7
102
}
330
1F
100
AcDbEntity
  8
実線
100
AcDbLine
 10
771.0607733074141
 20
340.6844578384302
 30
0.0
 11
847.831535971335
 21
340.6844578384302
 31
0.0
  0
LINE
  5
69C
102
{ACAD_REACTORS
330
7A7
102
}
330
1F
100
AcDbEntity
  8
実線
100
AcDbLine
 10
847.831535971335
 20
384.1844578384301
 30
0.0
 11
847.831535971335
 21
340.6844578384302
 31
0.0
  0
LINE
  5
69D
102
{ACAD_REACTORS
330
7A7
102
}
330
1F
100
AcDbEntity
  8
実線
100
AcDbLine
 10
771.0607733074141
 20
384.1844578384301
 30
0.0
 11
771.0607733074141
 21
340.6844578384302
 31
0.0
  0
LINE
  5
69E
102
{ACAD_REACTORS
330
7A7
102
}
330
1F
100
AcDbEntity
  8
実線
100
AcDbLine
 10
762.46898487049
 20
300.1844578384301
 30
0.0
 11
856.4233244082579
 21
300.1844578384301
 31
0.0
  0
LINE
  5
69F
102
{ACAD_REACTORS
330
7A7
102
}
330
1F
100
AcDbEntity
  8
実線
100
AcDbLine
 10
762.46898487049
 20
313.6844578384302
 30
0.0
 11
856.4233244082579
 21
313.6844578384302
 31
0.0
  0
LINE
  5
6A0
102
{ACAD_REACTORS
330
7A7
102
}
330
1F
100
AcDbEntity
  8
実線
100
AcDbLine
 10
856.4233244082579
 20
300.1844578384301
 30
0.0
 11
856.4233244082579
 21
313.6844578384302
 31
0.0
  0
LINE
  5
6A1
102
{ACAD_REACTORS
330
7A7
102
}
330
1F
100
AcDbEntity
  8
実線
100
AcDbLine
 10
762.46898487049
 20
313.6844578384302
 30
0.0
 11
762.46898487049
 21
300.1844578384301
 31
0.0
  0
LINE
  5
6A2
102
{ACAD_REACTORS
330
7A7
102
}
330
1F
100
AcDbEntity
  8
実線
100
AcDbLine
 10
791.4172578289501
 20
313.6844578384302
 30
0.0
 11
791.4172578289501
 21
300.1844578384301
 31
0.0
  0
LINE
  5
6A3
102
{ACAD_REACTORS
330
7A7
102
}
330
1F
100
AcDbEntity
  8
実線
100
AcDbLine
 10
827.4750514497982
 20
313.6844578384302
 30
0.0
 11
827.4750514497982
 21
300.1844578384301
 31
0.0
  0
CIRCLE
  5
6A4
102
{ACAD_REACTORS
330
7A7
102
}
330
1F
100
AcDbEntity
  8
実線
100
AcDbCircle
 10
809.446154639375
 20
234.2844578384301
 30
0.0
 40
25.25
  0
LINE
  5
6A5
102
{ACAD_REACTORS
330
7A7
102
}
330
1F
100
AcDbEntity
  8
実線
100
AcDbLine
 10
762.4461546393741
 20
464.6844578384301
 30
0.0
 11
856.4461546381291
 21
464.6844578384301
 31
0.0
  0
ARC
  5
6A6
102
{ACAD_REACTORS
330
7A7
102
}
330
1F
100
AcDbEntity
  8
実線
100
AcDbCircle
 10
856.446154639374
 20
461.6844578384301
 30
0.0
 40
3.0
100
AcDbArc
 50
0.0
 51
90.0
  0
ARC
  5
6A7
102
{ACAD_REACTORS
330
7A7
102
}
330
1F
100
AcDbEntity
  8
実線
100
AcDbCircle
 10
762.4461546393741
 20
461.6844578384301
 30
0.0
 40
3.0
100
AcDbArc
 50
90.0
 51
180.0
  0
LINE
  5
6A8
102
{ACAD_REACTORS
330
7A7
102
}
330
1F
100
AcDbEntity
  8
実線
100
AcDbLine
 10
859.446154639375
 20
460.1844578384301
 30
0.0
 11
859.446154639375
 21
461.6844578384301
 31
0.0
  0
LINE
  5
6A9
102
{ACAD_REACTORS
330
7A7
102
}
330
1F
100
AcDbEntity
  8
実線
100
AcDbLine
 10
759.4461546393749
 20
461.6844578384301
 30
0.0
 11
759.4461546393749
 21
460.1844578384301
 31
0.0
  0
LINE
  5
6AA
102
{ACAD_REACTORS
330
7A7
102
}
330
1F
100
AcDbEntity
  8
実線
100
AcDbLine
 10
791.0961546393748
 20
212.9344578384301
 30
0.0
 11
776.0961546393748
 21
212.9344578384301
 31
0.0
  0
LINE
  5
6AB
102
{ACAD_REACTORS
330
7A7
102
}
330
1F
100
AcDbEntity
  8
実線
100
AcDbLine
 10
791.0961546393748
 20
216.9397180018111
 30
0.0
 11
791.0961546393748
 21
212.9344578384301
 31
0.0
  0
LINE
  5
6AC
102
{ACAD_REACTORS
330
7A7
102
}
330
1F
100
AcDbEntity
  8
実線
100
AcDbLine
 10
776.0961546393748
 20
212.9344578384301
 30
0.0
 11
776.0961546393748
 21
250.2107464949482
 31
0.0
  0
LINE
  5
6AD
102
{ACAD_REACTORS
330
7A7
102
}
330
1F
100
AcDbEntity
  8
実線
100
AcDbLine
 10
842.7961546393749
 20
212.9344578384301
 30
0.0
 11
827.7961546393749
 21
212.9344578384301
 31
0.0
  0
LINE
  5
6AE
102
{ACAD_REACTORS
330
7A7
102
}
330
1F
100
AcDbEntity
  8
実線
100
AcDbLine
 10
827.7961546393749
 20
212.9344578384301
 30
0.0
 11
827.7961546393749
 21
216.9397180018111
 31
0.0
  0
LINE
  5
6AF
102
{ACAD_REACTORS
330
7A7
102
}
330
1F
100
AcDbEntity
  8
実線
100
AcDbLine
 10
842.7961546393749
 20
250.2107464949482
 30
0.0
 11
842.7961546393749
 21
212.9344578384301
 31
0.0
  0
LINE
  5
6B0
102
{ACAD_REACTORS
330
7A7
102
}
330
1F
100
AcDbEntity
  8
実線
100
AcDbLine
 10
842.7961546393749
 20
243.2592964476786
 30
0.0
 11
848.27637685497
 21
249.7903709613285
 31
0.0
  0
LINE
  5
6B1
102
{ACAD_REACTORS
330
7A7
102
}
330
1F
100
AcDbEntity
  8
実線
100
AcDbLine
 10
770.6159324237801
 20
249.7903709613285
 30
0.0
 11
776.0961546393748
 21
243.2592964476786
 31
0.0
  0
ARC
  5
6B2
102
{ACAD_REACTORS
330
7A7
102
}
330
1F
100
AcDbEntity
  8
実線
100
AcDbCircle
 10
774.446154639375
 20
253.0043090097612
 30
0.0
 40
5.0
100
AcDbArc
 50
180.0
 51
220.0000000000001
  0
ARC
  5
6B3
102
{ACAD_REACTORS
330
7A7
102
}
330
1F
100
AcDbEntity
  8
実線
100
AcDbCircle
 10
844.446154639375
 20
253.0043090097612
 30
0.0
 40
5.0
100
AcDbArc
 50
319.9999999999999
 51
0.0
  0
LINE
  5
6B4
102
{ACAD_REACTORS
330
7A7
102
}
330
1F
100
AcDbEntity
  8
実線
100
AcDbLine
 10
849.4461546393749
 20
253.0043090097612
 30
0.0
 11
849.4461546393749
 21
253.2344578384301
 31
0.0
  0
LINE
  5
6B5
102
{ACAD_REACTORS
330
7A7
102
}
330
1F
100
AcDbEntity
  8
実線
100
AcDbLine
 10
769.446154639375
 20
253.2344578384301
 30
0.0
 11
769.446154639375
 21
253.0043090097612
 31
0.0
  0
LINE
  5
6B6
102
{ACAD_REACTORS
330
7A7
102
}
330
1F
100
AcDbEntity
  8
実線
100
AcDbLine
 10
856.4233244082593
 20
290.18445783843
 30
0.0
 11
827.4750514497991
 21
290.18445783843
 31
0.0
  0
LINE
  5
6B7
102
{ACAD_REACTORS
330
7A7
102
}
330
1F
100
AcDbEntity
  8
実線
100
AcDbLine
 10
856.4233244082593
 20
290.18445783843
 30
0.0
 11
856.4233244082593
 21
300.1844578384301
 31
0.0
  0
LINE
  5
6B8
102
{ACAD_REACTORS
330
7A7
102
}
330
1F
100
AcDbEntity
  8
実線
100
AcDbLine
 10
762.4689848704909
 20
300.1844578384301
 30
0.0
 11
762.4689848704909
 21
290.18445783843
 31
0.0
  0
LINE
  5
6B9
102
{ACAD_REACTORS
330
7A7
102
}
330
1F
100
AcDbEntity
  8
実線
100
AcDbLine
 10
762.4689848704909
 20
290.18445783843
 30
0.0
 11
791.417257828951
 21
290.18445783843
 31
0.0
  0
LINE
  5
6BA
102
{ACAD_REACTORS
330
7A7
102
}
330
1F
100
AcDbEntity
  8
実線
100
AcDbLine
 10
791.417257828951
 20
300.1844578384301
 30
0.0
 11
791.417257828951
 21
290.18445783843
 31
0.0
  0
LINE
  5
6BB
102
{ACAD_REACTORS
330
7A7
102
}
330
1F
100
AcDbEntity
  8
実線
100
AcDbLine
 10
827.4750514497991
 20
300.1844578384301
 30
0.0
 11
827.4750514497991
 21
290.18445783843
 31
0.0
  0
LINE
  5
6BC
102
{ACAD_REACTORS
330
7A8
102
}
330
1F
100
AcDbEntity
  8
実線
100
AcDbLine
 10
526.9461546393752
 20
605.88445783843
 30
0.0
 11
611.9461546393751
 21
605.88445783843
 31
0.0
  0
LINE
  5
6BD
102
{ACAD_REACTORS
330
7A8
102
}
330
1F
100
AcDbEntity
  8
実線
100
AcDbLine
 10
585.9461546393752
 20
615.08445783843
 30
0.0
 11
552.9461546393751
 21
615.08445783843
 31
0.0
  0
LINE
  5
6BE
102
{ACAD_REACTORS
330
7A8
102
}
330
1F
100
AcDbEntity
  8
実線
100
AcDbLine
 10
552.9461546393751
 20
615.08445783843
 30
0.0
 11
526.9461546393752
 21
605.88445783843
 31
0.0
  0
LINE
  5
6BF
102
{ACAD_REACTORS
330
7A8
102
}
330
1F
100
AcDbEntity
  8
実線
100
AcDbLine
 10
611.9461546393751
 20
605.88445783843
 30
0.0
 11
585.9461546393752
 21
615.08445783843
 31
0.0
  0
LINE
  5
6C0
102
{ACAD_REACTORS
330
7A8
102
}
330
1F
100
AcDbEntity
  8
実線
100
AcDbLine
 10
525.4461546393752
 20
489.1844578384301
 30
0.0
 11
613.4461546393752
 21
489.1844578384301
 31
0.0
  0
LINE
  5
6C1
102
{ACAD_REACTORS
330
7A8
102
}
330
1F
100
AcDbEntity
  8
実線
100
AcDbLine
 10
526.1461546393753
 20
492.8844578384302
 30
0.0
 11
525.4461546393752
 21
489.1844578384301
 31
0.0
  0
LINE
  5
6C2
102
{ACAD_REACTORS
330
7A8
102
}
330
1F
100
AcDbEntity
  8
実線
100
AcDbLine
 10
613.4461546393752
 20
489.1844578384301
 30
0.0
 11
612.7461546393753
 21
492.8844578384302
 31
0.0
  0
CIRCLE
  5
6C3
102
{ACAD_REACTORS
330
7A8
102
}
330
1F
100
AcDbEntity
  8
実線
100
AcDbCircle
 10
569.446154639376
 20
272.2844578384301
 30
0.0
 40
25.25
  0
LINE
  5
6C4
102
{ACAD_REACTORS
330
7A8
102
}
330
1F
100
AcDbEntity
  8
実線
100
AcDbLine
 10
619.4461546393752
 20
460.18445783843
 30
0.0
 11
519.4461546393752
 21
460.18445783843
 31
0.0
  0
LINE
  5
6C5
102
{ACAD_REACTORS
330
7A8
102
}
330
1F
100
AcDbEntity
  8
実線
100
AcDbLine
 10
519.4461546393752
 20
384.1844578384301
 30
0.0
 11
619.4461546393752
 21
384.1844578384301
 31
0.0
  0
LINE
  5
6C6
102
{ACAD_REACTORS
330
7A8
102
}
330
1F
100
AcDbEntity
  8
実線
100
AcDbLine
 10
619.4461546393752
 20
384.1844578384301
 30
0.0
 11
619.4461546393752
 21
460.1844578384301
 31
0.0
  0
LINE
  5
6C7
102
{ACAD_REACTORS
330
7A8
102
}
330
1F
100
AcDbEntity
  8
実線
100
AcDbLine
 10
519.4461546393752
 20
460.18445783843
 30
0.0
 11
519.4461546393752
 21
384.1844578384301
 31
0.0
  0
LINE
  5
6C8
102
{ACAD_REACTORS
330
7A8
102
}
330
1F
100
AcDbEntity
  8
実線
100
AcDbLine
 10
604.4461546393752
 20
476.1844578384301
 30
0.0
 11
534.4461546393752
 21
476.1844578384301
 31
0.0
  0
LINE
  5
6C9
102
{ACAD_REACTORS
330
7A8
102
}
330
1F
100
AcDbEntity
  8
実線
100
AcDbLine
 10
604.4461546393752
 20
464.6844578384301
 30
0.0
 11
604.4461546393752
 21
476.1844578384301
 31
0.0
  0
LINE
  5
6CA
102
{ACAD_REACTORS
330
7A8
102
}
330
1F
100
AcDbEntity
  8
実線
100
AcDbLine
 10
534.4461546393752
 20
476.1844578384301
 30
0.0
 11
534.4461546393752
 21
464.6844578384301
 31
0.0
  0
LINE
  5
6CB
102
{ACAD_REACTORS
330
7A8
102
}
330
1F
100
AcDbEntity
  8
実線
100
AcDbLine
 10
582.4461546393751
 20
476.1844578384301
 30
0.0
 11
582.4461546393751
 21
489.1844578384301
 31
0.0
  0
LINE
  5
6CC
102
{ACAD_REACTORS
330
7A8
102
}
330
1F
100
AcDbEntity
  8
実線
100
AcDbLine
 10
556.4461546393752
 20
489.1844578384301
 30
0.0
 11
556.4461546393752
 21
476.1844578384301
 31
0.0
  0
LINE
  5
6CD
102
{ACAD_REACTORS
330
7A8
102
}
330
1F
100
AcDbEntity
  8
実線
100
AcDbLine
 10
612.7461546393753
 20
528.8844578384302
 30
0.0
 11
526.1461546393753
 21
528.8844578384302
 31
0.0
  0
LINE
  5
6CE
102
{ACAD_REACTORS
330
7A8
102
}
330
1F
100
AcDbEntity
  8
実線
100
AcDbLine
 10
526.1461546393753
 20
492.8844578384302
 30
0.0
 11
612.7461546393753
 21
492.8844578384302
 31
0.0
  0
LINE
  5
6CF
102
{ACAD_REACTORS
330
7A8
102
}
330
1F
100
AcDbEntity
  8
実線
100
AcDbLine
 10
612.7461546393753
 20
492.8844578384302
 30
0.0
 11
612.7461546393753
 21
528.8844578384302
 31
0.0
  0
LINE
  5
6D0
102
{ACAD_REACTORS
330
7A8
102
}
330
1F
100
AcDbEntity
  8
実線
100
AcDbLine
 10
526.1461546393753
 20
528.8844578384302
 30
0.0
 11
526.1461546393753
 21
492.8844578384302
 31
0.0
  0
LINE
  5
6D1
102
{ACAD_REACTORS
330
7A8
102
}
330
1F
100
AcDbEntity
  8
実線
100
AcDbLine
 10
611.9461546393751
 20
528.8844578384302
 30
0.0
 11
611.9461546393751
 21
605.8844578384301
 31
0.0
  0
LINE
  5
6D2
102
{ACAD_REACTORS
330
7A8
102
}
330
1F
100
AcDbEntity
  8
実線
100
AcDbLine
 10
526.9461546393752
 20
605.8844578384301
 30
0.0
 11
526.9461546393752
 21
528.8844578384302
 31
0.0
  0
LINE
  5
6D3
102
{ACAD_REACTORS
330
7A8
102
}
330
1F
100
AcDbEntity
  8
実線
100
AcDbLine
 10
529.4461546393752
 20
384.1844578384301
 30
0.0
 11
529.4461546393752
 21
340.6844578384302
 31
0.0
  0
LINE
  5
6D4
102
{ACAD_REACTORS
330
7A8
102
}
330
1F
100
AcDbEntity
  8
実線
100
AcDbLine
 10
529.4461546393752
 20
340.6844578384302
 30
0.0
 11
558.1961546393752
 21
340.6844578384302
 31
0.0
  0
LINE
  5
6D5
102
{ACAD_REACTORS
330
7A8
102
}
330
1F
100
AcDbEntity
  8
実線
100
AcDbLine
 10
580.6961546393751
 20
340.6844578384302
 30
0.0
 11
609.4461546393752
 21
340.6844578384302
 31
0.0
  0
LINE
  5
6D6
102
{ACAD_REACTORS
330
7A8
102
}
330
1F
100
AcDbEntity
  8
実線
100
AcDbLine
 10
609.4461546393752
 20
340.6844578384302
 30
0.0
 11
609.4461546393752
 21
384.1844578384301
 31
0.0
  0
LINE
  5
6D7
102
{ACAD_REACTORS
330
7A8
102
}
330
1F
100
AcDbEntity
  8
実線
100
AcDbLine
 10
558.1961546393752
 20
384.1844578384301
 30
0.0
 11
558.1961546393752
 21
313.6844578384302
 31
0.0
  0
LINE
  5
6D8
102
{ACAD_REACTORS
330
7A8
102
}
330
1F
100
AcDbEntity
  8
実線
100
AcDbLine
 10
580.6961546393751
 20
384.1844578384301
 30
0.0
 11
580.6961546393751
 21
313.6844578384302
 31
0.0
  0
LINE
  5
6D9
102
{ACAD_REACTORS
330
7A8
102
}
330
1F
100
AcDbEntity
  8
実線
100
AcDbLine
 10
616.4233244082593
 20
313.6844578384302
 30
0.0
 11
522.4689848704911
 21
313.6844578384302
 31
0.0
  0
LINE
  5
6DA
102
{ACAD_REACTORS
330
7A8
102
}
330
1F
100
AcDbEntity
  8
実線
100
AcDbLine
 10
616.4233244082593
 20
300.1844578384301
 30
0.0
 11
522.4689848704911
 21
300.1844578384301
 31
0.0
  0
LINE
  5
6DB
102
{ACAD_REACTORS
330
7A8
102
}
330
1F
100
AcDbEntity
  8
実線
100
AcDbLine
 10
522.4689848704911
 20
313.6844578384302
 30
0.0
 11
522.4689848704911
 21
300.1844578384301
 31
0.0
  0
LINE
  5
6DC
102
{ACAD_REACTORS
330
7A8
102
}
330
1F
100
AcDbEntity
  8
実線
100
AcDbLine
 10
616.4233244082593
 20
300.1844578384301
 30
0.0
 11
616.4233244082593
 21
313.6844578384302
 31
0.0
  0
LINE
  5
6DD
102
{ACAD_REACTORS
330
7A8
102
}
330
1F
100
AcDbEntity
  8
実線
100
AcDbLine
 10
551.417257828951
 20
313.6844578384302
 30
0.0
 11
551.417257828951
 21
300.1844578384301
 31
0.0
  0
LINE
  5
6DE
102
{ACAD_REACTORS
330
7A8
102
}
330
1F
100
AcDbEntity
  8
実線
100
AcDbLine
 10
587.4750514497991
 20
313.6844578384302
 30
0.0
 11
587.4750514497991
 21
300.1844578384301
 31
0.0
  0
LINE
  5
6DF
102
{ACAD_REACTORS
330
7A8
102
}
330
1F
100
AcDbEntity
  8
実線
100
AcDbLine
 10
529.4461546393761
 20
253.3344578384301
 30
0.0
 11
504.5461546393762
 21
253.3344578384301
 31
0.0
  0
LINE
  5
6E0
102
{ACAD_REACTORS
330
7A8
102
}
330
1F
100
AcDbEntity
  8
実線
100
AcDbLine
 10
634.3461546393761
 20
253.3344578384301
 30
0.0
 11
609.4461546393761
 21
253.3344578384301
 31
0.0
  0
LINE
  5
6E1
102
{ACAD_REACTORS
330
7A8
102
}
330
1F
100
AcDbEntity
  8
実線
100
AcDbLine
 10
591.9461546393761
 20
215.2344578384301
 30
0.0
 11
634.3461546393761
 21
215.2344578384301
 31
0.0
  0
LINE
  5
6E2
102
{ACAD_REACTORS
330
7A8
102
}
330
1F
100
AcDbEntity
  8
実線
100
AcDbLine
 10
504.5461546393762
 20
215.2344578384301
 30
0.0
 11
546.9461546393761
 21
215.2344578384301
 31
0.0
  0
LINE
  5
6E3
102
{ACAD_REACTORS
330
7A8
102
}
330
1F
100
AcDbEntity
  8
実線
100
AcDbLine
 10
504.5461546393762
 20
253.3344578384301
 30
0.0
 11
502.1961546393761
 21
259.5344578384301
 31
0.0
  0
LINE
  5
6E4
102
{ACAD_REACTORS
330
7A8
102
}
330
1F
100
AcDbEntity
  8
実線
100
AcDbLine
 10
502.1961546393761
 20
209.0344578384301
 30
0.0
 11
504.5461546393762
 21
215.2344578384301
 31
0.0
  0
LINE
  5
6E5
102
{ACAD_REACTORS
330
7A8
102
}
330
1F
100
AcDbEntity
  8
実線
100
AcDbLine
 10
504.5461546393762
 20
253.3344578384301
 30
0.0
 11
504.5461546393762
 21
215.2344578384301
 31
0.0
  0
LINE
  5
6E6
102
{ACAD_REACTORS
330
7A8
102
}
330
1F
100
AcDbEntity
  8
実線
100
AcDbLine
 10
499.4461546393761
 20
209.0344578384301
 30
0.0
 11
502.1961546393761
 21
209.0344578384301
 31
0.0
  0
LINE
  5
6E7
102
{ACAD_REACTORS
330
7A8
102
}
330
1F
100
AcDbEntity
  8
実線
100
AcDbLine
 10
502.1961546393761
 20
259.5344578384301
 30
0.0
 11
499.4461546393761
 21
259.5344578384301
 31
0.0
  0
LINE
  5
6E8
102
{ACAD_REACTORS
330
7A8
102
}
330
1F
100
AcDbEntity
  8
実線
100
AcDbLine
 10
499.4461546393761
 20
259.5344578384301
 30
0.0
 11
499.4461546393761
 21
209.0344578384301
 31
0.0
  0
LINE
  5
6E9
102
{ACAD_REACTORS
330
7A8
102
}
330
1F
100
AcDbEntity
  8
実線
100
AcDbLine
 10
502.1961546393761
 20
259.5344578384301
 30
0.0
 11
502.1961546393761
 21
209.0344578384301
 31
0.0
  0
LINE
  5
6EA
102
{ACAD_REACTORS
330
7A8
102
}
330
1F
100
AcDbEntity
  8
実線
100
AcDbLine
 10
634.3461546393761
 20
215.2344578384301
 30
0.0
 11
634.3461546393761
 21
253.3344578384301
 31
0.0
  0
LINE
  5
6EB
102
{ACAD_REACTORS
330
7A8
102
}
330
1F
100
AcDbEntity
  8
実線
100
AcDbLine
 10
634.3461546393761
 20
215.2344578384301
 30
0.0
 11
636.6961546393761
 21
209.0344578384301
 31
0.0
  0
LINE
  5
6EC
102
{ACAD_REACTORS
330
7A8
102
}
330
1F
100
AcDbEntity
  8
実線
100
AcDbLine
 10
636.6961546393761
 20
259.5344578384301
 30
0.0
 11
634.3461546393761
 21
253.3344578384301
 31
0.0
  0
LINE
  5
6ED
102
{ACAD_REACTORS
330
7A8
102
}
330
1F
100
AcDbEntity
  8
実線
100
AcDbLine
 10
639.4461546393761
 20
209.0344578384301
 30
0.0
 11
639.4461546393761
 21
259.5344578384301
 31
0.0
  0
LINE
  5
6EE
102
{ACAD_REACTORS
330
7A8
102
}
330
1F
100
AcDbEntity
  8
実線
100
AcDbLine
 10
636.6961546393761
 20
209.0344578384301
 30
0.0
 11
636.6961546393761
 21
259.5344578384301
 31
0.0
  0
LINE
  5
6EF
102
{ACAD_REACTORS
330
7A8
102
}
330
1F
100
AcDbEntity
  8
実線
100
AcDbLine
 10
639.4461546393761
 20
259.5344578384301
 30
0.0
 11
636.6961546393761
 21
259.5344578384301
 31
0.0
  0
LINE
  5
6F0
102
{ACAD_REACTORS
330
7A8
102
}
330
1F
100
AcDbEntity
  8
実線
100
AcDbLine
 10
636.6961546393761
 20
209.0344578384301
 30
0.0
 11
639.4461546393761
 21
209.0344578384301
 31
0.0
  0
LINE
  5
6F1
102
{ACAD_REACTORS
330
7A8
102
}
330
1F
100
AcDbEntity
  8
実線
100
AcDbLine
 10
616.4461546393752
 20
464.6844578384301
 30
0.0
 11
522.4461546393752
 21
464.6844578384301
 31
0.0
  0
ARC
  5
6F2
102
{ACAD_REACTORS
330
7A8
102
}
330
1F
100
AcDbEntity
  8
実線
100
AcDbCircle
 10
616.4461546393752
 20
461.6844578384301
 30
0.0
 40
3.0
100
AcDbArc
 50
0.0
 51
90.0
  0
ARC
  5
6F3
102
{ACAD_REACTORS
330
7A8
102
}
330
1F
100
AcDbEntity
  8
実線
100
AcDbCircle
 10
522.4461546393752
 20
461.6844578384301
 30
0.0
 40
3.0
100
AcDbArc
 50
90.0
 51
180.0
  0
LINE
  5
6F4
102
{ACAD_REACTORS
330
7A8
102
}
330
1F
100
AcDbEntity
  8
実線
100
AcDbLine
 10
619.4461546393752
 20
460.1844578384301
 30
0.0
 11
619.4461546393752
 21
461.6844578384301
 31
0.0
  0
LINE
  5
6F5
102
{ACAD_REACTORS
330
7A8
102
}
330
1F
100
AcDbEntity
  8
実線
100
AcDbLine
 10
519.4461546393752
 20
461.6844578384301
 30
0.0
 11
519.4461546393752
 21
460.1844578384301
 31
0.0
  0
LINE
  5
6F6
102
{ACAD_REACTORS
330
7A8
102
}
330
1F
100
AcDbEntity
  8
実線
100
AcDbLine
 10
546.9461546393761
 20
212.9344578384301
 30
0.0
 11
591.9461546393761
 21
212.9344578384301
 31
0.0
  0
LINE
  5
6F7
102
{ACAD_REACTORS
330
7A8
102
}
330
1F
100
AcDbEntity
  8
実線
100
AcDbLine
 10
591.9461546393761
 20
249.5023002328493
 30
0.0
 11
591.9461546393761
 21
212.9344578384301
 31
0.0
  0
LINE
  5
6F8
102
{ACAD_REACTORS
330
7A8
102
}
330
1F
100
AcDbEntity
  8
実線
100
AcDbLine
 10
546.9461546393761
 20
212.9344578384301
 30
0.0
 11
546.9461546393761
 21
249.5023002328491
 31
0.0
  0
LINE
  5
6F9
102
{ACAD_REACTORS
330
7A8
102
}
330
1F
100
AcDbEntity
  8
実線
100
AcDbLine
 10
609.4461546393761
 20
253.3344578384301
 30
0.0
 11
609.4461546393761
 21
290.18445783843
 31
0.0
  0
LINE
  5
6FA
102
{ACAD_REACTORS
330
7A8
102
}
330
1F
100
AcDbEntity
  8
実線
100
AcDbLine
 10
529.4461546393761
 20
290.18445783843
 30
0.0
 11
529.4461546393761
 21
253.3344578384301
 31
0.0
  0
LINE
  5
6FB
102
{ACAD_REACTORS
330
7A8
102
}
330
1F
100
AcDbEntity
  8
実線
100
AcDbLine
 10
522.4689848704922
 20
300.1844578384301
 30
0.0
 11
522.4689848704922
 21
290.18445783843
 31
0.0
  0
LINE
  5
6FC
102
{ACAD_REACTORS
330
7A8
102
}
330
1F
100
AcDbEntity
  8
実線
100
AcDbLine
 10
522.4689848704922
 20
290.18445783843
 30
0.0
 11
551.4172578289524
 21
290.18445783843
 31
0.0
  0
LINE
  5
6FD
102
{ACAD_REACTORS
330
7A8
102
}
330
1F
100
AcDbEntity
  8
実線
100
AcDbLine
 10
616.4233244082602
 20
290.18445783843
 30
0.0
 11
587.4750514498004
 21
290.18445783843
 31
0.0
  0
LINE
  5
6FE
102
{ACAD_REACTORS
330
7A8
102
}
330
1F
100
AcDbEntity
  8
実線
100
AcDbLine
 10
616.4233244082602
 20
290.18445783843
 30
0.0
 11
616.4233244082602
 21
300.1844578384301
 31
0.0
  0
LINE
  5
6FF
102
{ACAD_REACTORS
330
7A8
102
}
330
1F
100
AcDbEntity
  8
実線
100
AcDbLine
 10
551.4172578289524
 20
300.1844578384301
 30
0.0
 11
551.4172578289524
 21
290.18445783843
 31
0.0
  0
LINE
  5
700
102
{ACAD_REACTORS
330
7A8
102
}
330
1F
100
AcDbEntity
  8
実線
100
AcDbLine
 10
587.4750514498004
 20
300.1844578384301
 30
0.0
 11
587.4750514498004
 21
290.18445783843
 31
0.0
  0
LINE
  5
701
102
{ACAD_REACTORS
330
7AB
102
}
330
1F
100
AcDbEntity
  8
実線
100
AcDbLine
 10
72.94615463937498
 20
615.0844578384298
 30
0.0
 11
46.94615463937497
 21
605.8844578384298
 31
0.0
  0
LINE
  5
702
102
{ACAD_REACTORS
330
7AB
102
}
330
1F
100
AcDbEntity
  8
実線
100
AcDbLine
 10
131.9461546393751
 20
605.8844578384298
 30
0.0
 11
105.946154639375
 21
615.0844578384298
 31
0.0
  0
LINE
  5
703
102
{ACAD_REACTORS
330
7AB
102
}
330
1F
100
AcDbEntity
  8
実線
100
AcDbLine
 10
46.94615463937497
 20
605.8844578384298
 30
0.0
 11
131.946154639375
 21
605.8844578384298
 31
0.0
  0
LINE
  5
704
102
{ACAD_REACTORS
330
7AB
102
}
330
1F
100
AcDbEntity
  8
実線
100
AcDbLine
 10
105.946154639375
 20
615.0844578384298
 30
0.0
 11
72.94615463937498
 21
615.0844578384298
 31
0.0
  0
LINE
  5
705
102
{ACAD_REACTORS
330
7AB
102
}
330
1F
100
AcDbEntity
  8
実線
100
AcDbLine
 10
46.14615463937503
 20
492.8844578384301
 30
0.0
 11
45.44615463937498
 21
489.18445783843
 31
0.0
  0
LINE
  5
706
102
{ACAD_REACTORS
330
7AB
102
}
330
1F
100
AcDbEntity
  8
実線
100
AcDbLine
 10
133.446154639375
 20
489.18445783843
 30
0.0
 11
132.746154639375
 21
492.8844578384301
 31
0.0
  0
LINE
  5
707
102
{ACAD_REACTORS
330
7AB
102
}
330
1F
100
AcDbEntity
  8
実線
100
AcDbLine
 10
45.44615463937498
 20
489.18445783843
 30
0.0
 11
133.446154639375
 21
489.18445783843
 31
0.0
  0
CIRCLE
  5
708
102
{ACAD_REACTORS
330
7AB
102
}
330
1F
100
AcDbEntity
  8
実線
100
AcDbCircle
 10
89.44615463937429
 20
272.28445783843
 30
0.0
 40
25.25
  0
LINE
  5
709
102
{ACAD_REACTORS
330
7AB
102
}
330
1F
100
AcDbEntity
  8
実線
100
AcDbLine
 10
139.4461546393749
 20
384.18445783843
 30
0.0
 11
139.4461546393749
 21
460.18445783843
 31
0.0
  0
LINE
  5
70A
102
{ACAD_REACTORS
330
7AB
102
}
330
1F
100
AcDbEntity
  8
実線
100
AcDbLine
 10
39.44615463937498
 20
460.1844578384299
 30
0.0
 11
39.44615463937498
 21
384.18445783843
 31
0.0
  0
LINE
  5
70B
102
{ACAD_REACTORS
330
7AB
102
}
330
1F
100
AcDbEntity
  8
実線
100
AcDbLine
 10
139.4461546393749
 20
460.1844578384299
 30
0.0
 11
39.44615463937498
 21
460.1844578384299
 31
0.0
  0
LINE
  5
70C
102
{ACAD_REACTORS
330
7AB
102
}
330
1F
100
AcDbEntity
  8
実線
100
AcDbLine
 10
39.44615463937498
 20
384.18445783843
 30
0.0
 11
139.4461546393749
 21
384.18445783843
 31
0.0
  0
LINE
  5
70D
102
{ACAD_REACTORS
330
7AB
102
}
330
1F
100
AcDbEntity
  8
実線
100
AcDbLine
 10
124.446154639375
 20
464.68445783843
 30
0.0
 11
124.446154639375
 21
476.18445783843
 31
0.0
  0
LINE
  5
70E
102
{ACAD_REACTORS
330
7AB
102
}
330
1F
100
AcDbEntity
  8
実線
100
AcDbLine
 10
54.44615463937498
 20
476.18445783843
 30
0.0
 11
54.44615463937498
 21
464.68445783843
 31
0.0
  0
LINE
  5
70F
102
{ACAD_REACTORS
330
7AB
102
}
330
1F
100
AcDbEntity
  8
実線
100
AcDbLine
 10
124.446154639375
 20
476.18445783843
 30
0.0
 11
54.44615463937498
 21
476.18445783843
 31
0.0
  0
LINE
  5
710
102
{ACAD_REACTORS
330
7AB
102
}
330
1F
100
AcDbEntity
  8
実線
100
AcDbLine
 10
102.446154639375
 20
476.18445783843
 30
0.0
 11
102.446154639375
 21
489.18445783843
 31
0.0
  0
LINE
  5
711
102
{ACAD_REACTORS
330
7AB
102
}
330
1F
100
AcDbEntity
  8
実線
100
AcDbLine
 10
76.44615463937498
 20
489.18445783843
 30
0.0
 11
76.44615463937498
 21
476.18445783843
 31
0.0
  0
LINE
  5
712
102
{ACAD_REACTORS
330
7AB
102
}
330
1F
100
AcDbEntity
  8
実線
100
AcDbLine
 10
132.746154639375
 20
492.8844578384301
 30
0.0
 11
132.746154639375
 21
528.88445783843
 31
0.0
  0
LINE
  5
713
102
{ACAD_REACTORS
330
7AB
102
}
330
1F
100
AcDbEntity
  8
実線
100
AcDbLine
 10
46.14615463937503
 20
528.88445783843
 30
0.0
 11
46.14615463937503
 21
492.8844578384301
 31
0.0
  0
LINE
  5
714
102
{ACAD_REACTORS
330
7AB
102
}
330
1F
100
AcDbEntity
  8
実線
100
AcDbLine
 10
132.746154639375
 20
528.88445783843
 30
0.0
 11
46.14615463937503
 21
528.88445783843
 31
0.0
  0
LINE
  5
715
102
{ACAD_REACTORS
330
7AB
102
}
330
1F
100
AcDbEntity
  8
実線
100
AcDbLine
 10
46.14615463937503
 20
492.8844578384301
 30
0.0
 11
132.746154639375
 21
492.8844578384301
 31
0.0
  0
LINE
  5
716
102
{ACAD_REACTORS
330
7AB
102
}
330
1F
100
AcDbEntity
  8
実線
100
AcDbLine
 10
131.946154639375
 20
528.88445783843
 30
0.0
 11
131.946154639375
 21
605.8844578384301
 31
0.0
  0
LINE
  5
717
102
{ACAD_REACTORS
330
7AB
102
}
330
1F
100
AcDbEntity
  8
実線
100
AcDbLine
 10
46.94615463937497
 20
605.8844578384301
 30
0.0
 11
46.94615463937497
 21
528.88445783843
 31
0.0
  0
LINE
  5
718
102
{ACAD_REACTORS
330
7AB
102
}
330
1F
100
AcDbEntity
  8
実線
100
AcDbLine
 10
49.44615463937498
 20
384.18445783843
 30
0.0
 11
49.44615463937498
 21
340.68445783843
 31
0.0
  0
LINE
  5
719
102
{ACAD_REACTORS
330
7AB
102
}
330
1F
100
AcDbEntity
  8
実線
100
AcDbLine
 10
49.44615463937498
 20
340.68445783843
 30
0.0
 11
78.19615463937498
 21
340.68445783843
 31
0.0
  0
LINE
  5
71A
102
{ACAD_REACTORS
330
7AB
102
}
330
1F
100
AcDbEntity
  8
実線
100
AcDbLine
 10
100.696154639375
 20
340.68445783843
 30
0.0
 11
129.446154639375
 21
340.68445783843
 31
0.0
  0
LINE
  5
71B
102
{ACAD_REACTORS
330
7AB
102
}
330
1F
100
AcDbEntity
  8
実線
100
AcDbLine
 10
129.446154639375
 20
340.68445783843
 30
0.0
 11
129.446154639375
 21
384.18445783843
 31
0.0
  0
LINE
  5
71C
102
{ACAD_REACTORS
330
7AB
102
}
330
1F
100
AcDbEntity
  8
実線
100
AcDbLine
 10
100.696154639375
 20
384.18445783843
 30
0.0
 11
100.696154639375
 21
313.68445783843
 31
0.0
  0
LINE
  5
71D
102
{ACAD_REACTORS
330
7AB
102
}
330
1F
100
AcDbEntity
  8
実線
100
AcDbLine
 10
78.19615463937498
 20
384.18445783843
 30
0.0
 11
78.19615463937498
 21
313.68445783843
 31
0.0
  0
LINE
  5
71E
102
{ACAD_REACTORS
330
7AB
102
}
330
1F
100
AcDbEntity
  8
実線
100
AcDbLine
 10
136.4233244082588
 20
313.68445783843
 30
0.0
 11
42.46898487049111
 21
313.68445783843
 31
0.0
  0
LINE
  5
71F
102
{ACAD_REACTORS
330
7AB
102
}
330
1F
100
AcDbEntity
  8
実線
100
AcDbLine
 10
136.4233244082588
 20
300.18445783843
 30
0.0
 11
42.46898487049111
 21
300.18445783843
 31
0.0
  0
LINE
  5
720
102
{ACAD_REACTORS
330
7AB
102
}
330
1F
100
AcDbEntity
  8
実線
100
AcDbLine
 10
42.46898487049111
 20
313.68445783843
 30
0.0
 11
42.46898487049111
 21
300.18445783843
 31
0.0
  0
LINE
  5
721
102
{ACAD_REACTORS
330
7AB
102
}
330
1F
100
AcDbEntity
  8
実線
100
AcDbLine
 10
136.4233244082588
 20
300.18445783843
 30
0.0
 11
136.4233244082588
 21
313.68445783843
 31
0.0
  0
LINE
  5
722
102
{ACAD_REACTORS
330
7AB
102
}
330
1F
100
AcDbEntity
  8
実線
100
AcDbLine
 10
71.41725782895105
 20
313.68445783843
 30
0.0
 11
71.41725782895105
 21
300.18445783843
 31
0.0
  0
LINE
  5
723
102
{ACAD_REACTORS
330
7AB
102
}
330
1F
100
AcDbEntity
  8
実線
100
AcDbLine
 10
107.475051449799
 20
313.68445783843
 30
0.0
 11
107.475051449799
 21
300.18445783843
 31
0.0
  0
LINE
  5
724
102
{ACAD_REACTORS
330
7AB
102
}
330
1F
100
AcDbEntity
  8
実線
100
AcDbLine
 10
111.9461546393743
 20
215.23445783843
 30
0.0
 11
154.3461546393741
 21
215.23445783843
 31
0.0
  0
LINE
  5
725
102
{ACAD_REACTORS
330
7AB
102
}
330
1F
100
AcDbEntity
  8
実線
100
AcDbLine
 10
24.5461546393741
 20
215.23445783843
 30
0.0
 11
66.9461546393743
 21
215.23445783843
 31
0.0
  0
LINE
  5
726
102
{ACAD_REACTORS
330
7AB
102
}
330
1F
100
AcDbEntity
  8
実線
100
AcDbLine
 10
49.4461546393743
 20
253.33445783843
 30
0.0
 11
24.5461546393741
 21
253.33445783843
 31
0.0
  0
LINE
  5
727
102
{ACAD_REACTORS
330
7AB
102
}
330
1F
100
AcDbEntity
  8
実線
100
AcDbLine
 10
154.3461546393741
 20
253.33445783843
 30
0.0
 11
129.4461546393743
 21
253.33445783843
 31
0.0
  0
LINE
  5
728
102
{ACAD_REACTORS
330
7AB
102
}
330
1F
100
AcDbEntity
  8
実線
100
AcDbLine
 10
154.3461546393741
 20
215.23445783843
 30
0.0
 11
154.3461546393741
 21
253.33445783843
 31
0.0
  0
LINE
  5
729
102
{ACAD_REACTORS
330
7AB
102
}
330
1F
100
AcDbEntity
  8
実線
100
AcDbLine
 10
154.3461546393741
 20
215.23445783843
 30
0.0
 11
156.6961546393743
 21
209.03445783843
 31
0.0
  0
LINE
  5
72A
102
{ACAD_REACTORS
330
7AB
102
}
330
1F
100
AcDbEntity
  8
実線
100
AcDbLine
 10
156.6961546393743
 20
259.53445783843
 30
0.0
 11
154.3461546393741
 21
253.33445783843
 31
0.0
  0
LINE
  5
72B
102
{ACAD_REACTORS
330
7AB
102
}
330
1F
100
AcDbEntity
  8
実線
100
AcDbLine
 10
24.5461546393741
 20
253.33445783843
 30
0.0
 11
22.19615463937413
 21
259.53445783843
 31
0.0
  0
LINE
  5
72C
102
{ACAD_REACTORS
330
7AB
102
}
330
1F
100
AcDbEntity
  8
実線
100
AcDbLine
 10
22.19615463937413
 20
209.03445783843
 30
0.0
 11
24.5461546393741
 21
215.23445783843
 31
0.0
  0
LINE
  5
72D
102
{ACAD_REACTORS
330
7AB
102
}
330
1F
100
AcDbEntity
  8
実線
100
AcDbLine
 10
24.5461546393741
 20
253.33445783843
 30
0.0
 11
24.5461546393741
 21
215.23445783843
 31
0.0
  0
LINE
  5
72E
102
{ACAD_REACTORS
330
7AB
102
}
330
1F
100
AcDbEntity
  8
実線
100
AcDbLine
 10
159.4461546393741
 20
209.03445783843
 30
0.0
 11
159.4461546393741
 21
259.53445783843
 31
0.0
  0
LINE
  5
72F
102
{ACAD_REACTORS
330
7AB
102
}
330
1F
100
AcDbEntity
  8
実線
100
AcDbLine
 10
156.6961546393743
 20
209.03445783843
 30
0.0
 11
156.6961546393743
 21
259.53445783843
 31
0.0
  0
LINE
  5
730
102
{ACAD_REACTORS
330
7AB
102
}
330
1F
100
AcDbEntity
  8
実線
100
AcDbLine
 10
159.4461546393741
 20
259.53445783843
 30
0.0
 11
156.6961546393743
 21
259.53445783843
 31
0.0
  0
LINE
  5
731
102
{ACAD_REACTORS
330
7AB
102
}
330
1F
100
AcDbEntity
  8
実線
100
AcDbLine
 10
156.6961546393743
 20
209.03445783843
 30
0.0
 11
159.4461546393741
 21
209.03445783843
 31
0.0
  0
LINE
  5
732
102
{ACAD_REACTORS
330
7AB
102
}
330
1F
100
AcDbEntity
  8
実線
100
AcDbLine
 10
19.44615463937413
 20
209.03445783843
 30
0.0
 11
22.19615463937413
 21
209.03445783843
 31
0.0
  0
LINE
  5
733
102
{ACAD_REACTORS
330
7AB
102
}
330
1F
100
AcDbEntity
  8
実線
100
AcDbLine
 10
22.19615463937413
 20
259.53445783843
 30
0.0
 11
19.44615463937413
 21
259.53445783843
 31
0.0
  0
LINE
  5
734
102
{ACAD_REACTORS
330
7AB
102
}
330
1F
100
AcDbEntity
  8
実線
100
AcDbLine
 10
19.44615463937413
 20
259.53445783843
 30
0.0
 11
19.44615463937413
 21
209.03445783843
 31
0.0
  0
LINE
  5
735
102
{ACAD_REACTORS
330
7AB
102
}
330
1F
100
AcDbEntity
  8
実線
100
AcDbLine
 10
22.19615463937413
 20
259.53445783843
 30
0.0
 11
22.19615463937413
 21
209.03445783843
 31
0.0
  0
LINE
  5
736
102
{ACAD_REACTORS
330
7AB
102
}
330
1F
100
AcDbEntity
  8
実線
100
AcDbLine
 10
42.44615463937498
 20
464.68445783843
 30
0.0
 11
136.446154639375
 21
464.68445783843
 31
0.0
  0
ARC
  5
737
102
{ACAD_REACTORS
330
7AB
102
}
330
1F
100
AcDbEntity
  8
実線
100
AcDbCircle
 10
136.446154639375
 20
461.68445783843
 30
0.0
 40
3.0
100
AcDbArc
 50
0.0
 51
90.0
  0
ARC
  5
738
102
{ACAD_REACTORS
330
7AB
102
}
330
1F
100
AcDbEntity
  8
実線
100
AcDbCircle
 10
42.44615463937498
 20
461.68445783843
 30
0.0
 40
3.0
100
AcDbArc
 50
90.0
 51
180.0
  0
LINE
  5
739
102
{ACAD_REACTORS
330
7AB
102
}
330
1F
100
AcDbEntity
  8
実線
100
AcDbLine
 10
139.4461546393749
 20
460.18445783843
 30
0.0
 11
139.4461546393749
 21
461.68445783843
 31
0.0
  0
LINE
  5
73A
102
{ACAD_REACTORS
330
7AB
102
}
330
1F
100
AcDbEntity
  8
実線
100
AcDbLine
 10
39.44615463937498
 20
461.68445783843
 30
0.0
 11
39.44615463937498
 21
460.18445783843
 31
0.0
  0
LINE
  5
73B
102
{ACAD_REACTORS
330
7AB
102
}
330
1F
100
AcDbEntity
  8
実線
100
AcDbLine
 10
66.9461546393743
 20
212.93445783843
 30
0.0
 11
111.9461546393743
 21
212.93445783843
 31
0.0
  0
LINE
  5
73C
102
{ACAD_REACTORS
330
7AB
102
}
330
1F
100
AcDbEntity
  8
実線
100
AcDbLine
 10
66.9461546393743
 20
212.93445783843
 30
0.0
 11
66.9461546393743
 21
249.502300232849
 31
0.0
  0
LINE
  5
73D
102
{ACAD_REACTORS
330
7AB
102
}
330
1F
100
AcDbEntity
  8
実線
100
AcDbLine
 10
111.9461546393743
 20
249.502300232849
 30
0.0
 11
111.9461546393743
 21
212.93445783843
 31
0.0
  0
LINE
  5
73E
102
{ACAD_REACTORS
330
7AB
102
}
330
1F
100
AcDbEntity
  8
実線
100
AcDbLine
 10
129.4461546393743
 20
253.33445783843
 30
0.0
 11
129.4461546393743
 21
290.1844578384299
 31
0.0
  0
LINE
  5
73F
102
{ACAD_REACTORS
330
7AB
102
}
330
1F
100
AcDbEntity
  8
実線
100
AcDbLine
 10
49.4461546393743
 20
290.1844578384299
 30
0.0
 11
49.4461546393743
 21
253.33445783843
 31
0.0
  0
LINE
  5
740
102
{ACAD_REACTORS
330
7AB
102
}
330
1F
100
AcDbEntity
  8
実線
100
AcDbLine
 10
42.46898487049032
 20
300.18445783843
 30
0.0
 11
42.46898487049032
 21
290.1844578384299
 31
0.0
  0
LINE
  5
741
102
{ACAD_REACTORS
330
7AB
102
}
330
1F
100
AcDbEntity
  8
実線
100
AcDbLine
 10
42.46898487049032
 20
290.1844578384299
 30
0.0
 11
71.41725782895014
 21
290.1844578384299
 31
0.0
  0
LINE
  5
742
102
{ACAD_REACTORS
330
7AB
102
}
330
1F
100
AcDbEntity
  8
実線
100
AcDbLine
 10
136.423324408258
 20
290.1844578384299
 30
0.0
 11
107.4750514497982
 21
290.1844578384299
 31
0.0
  0
LINE
  5
743
102
{ACAD_REACTORS
330
7AB
102
}
330
1F
100
AcDbEntity
  8
実線
100
AcDbLine
 10
136.423324408258
 20
290.1844578384299
 30
0.0
 11
136.423324408258
 21
300.18445783843
 31
0.0
  0
LINE
  5
744
102
{ACAD_REACTORS
330
7AB
102
}
330
1F
100
AcDbEntity
  8
実線
100
AcDbLine
 10
71.41725782895014
 20
300.18445783843
 30
0.0
 11
71.41725782895014
 21
290.1844578384299
 31
0.0
  0
LINE
  5
745
102
{ACAD_REACTORS
330
7AB
102
}
330
1F
100
AcDbEntity
  8
実線
100
AcDbLine
 10
107.4750514497982
 20
300.18445783843
 30
0.0
 11
107.4750514497982
 21
290.1844578384299
 31
0.0
  0
LINE
  5
746
102
{ACAD_REACTORS
330
7AA
102
}
330
1F
100
AcDbEntity
  8
実線
100
AcDbLine
 10
371.9461546393788
 20
605.88445783843
 30
0.0
 11
286.9461546393786
 21
605.88445783843
 31
0.0
  0
LINE
  5
747
102
{ACAD_REACTORS
330
7AA
102
}
330
1F
100
AcDbEntity
  8
実線
100
AcDbLine
 10
312.9461546393788
 20
615.08445783843
 30
0.0
 11
286.9461546393787
 21
605.88445783843
 31
0.0
  0
LINE
  5
748
102
{ACAD_REACTORS
330
7AA
102
}
330
1F
100
AcDbEntity
  8
実線
100
AcDbLine
 10
371.9461546393788
 20
605.88445783843
 30
0.0
 11
345.9461546393787
 21
615.08445783843
 31
0.0
  0
LINE
  5
749
102
{ACAD_REACTORS
330
7AA
102
}
330
1F
100
AcDbEntity
  8
実線
100
AcDbLine
 10
345.9461546393787
 20
615.08445783843
 30
0.0
 11
312.9461546393788
 21
615.08445783843
 31
0.0
  0
LINE
  5
74A
102
{ACAD_REACTORS
330
7AA
102
}
330
1F
100
AcDbEntity
  8
実線
100
AcDbLine
 10
373.4461546393788
 20
489.1844578384301
 30
0.0
 11
285.4461546393787
 21
489.1844578384301
 31
0.0
  0
LINE
  5
74B
102
{ACAD_REACTORS
330
7AA
102
}
330
1F
100
AcDbEntity
  8
実線
100
AcDbLine
 10
286.1461546393787
 20
492.8844578384302
 30
0.0
 11
285.4461546393787
 21
489.1844578384301
 31
0.0
  0
LINE
  5
74C
102
{ACAD_REACTORS
330
7AA
102
}
330
1F
100
AcDbEntity
  8
実線
100
AcDbLine
 10
373.4461546393788
 20
489.1844578384301
 30
0.0
 11
372.7461546393787
 21
492.8844578384302
 31
0.0
  0
LINE
  5
74D
102
{ACAD_REACTORS
330
7AA
102
}
330
1F
100
AcDbEntity
  8
実線
100
AcDbLine
 10
372.7461546393787
 20
492.8844578384302
 30
0.0
 11
286.1461546393787
 21
492.8844578384302
 31
0.0
  0
LINE
  5
74E
102
{ACAD_REACTORS
330
7AA
102
}
330
1F
100
AcDbEntity
  8
実線
100
AcDbLine
 10
394.3461546393779
 20
291.3344578384301
 30
0.0
 11
376.4233244082618
 21
291.3344578384301
 31
0.0
  0
LINE
  5
74F
102
{ACAD_REACTORS
330
7AA
102
}
330
1F
100
AcDbEntity
  8
実線
100
AcDbLine
 10
369.4461546393779
 20
253.2344578384301
 30
0.0
 11
394.3461546393779
 21
253.2344578384301
 31
0.0
  0
LINE
  5
750
102
{ACAD_REACTORS
330
7AA
102
}
330
1F
100
AcDbEntity
  8
実線
100
AcDbLine
 10
394.3461546393779
 20
253.2344578384301
 30
0.0
 11
394.3461546393779
 21
291.3344578384301
 31
0.0
  0
LINE
  5
751
102
{ACAD_REACTORS
330
7AA
102
}
330
1F
100
AcDbEntity
  8
実線
100
AcDbLine
 10
394.3461546393779
 20
253.2344578384301
 30
0.0
 11
396.6961546393778
 21
247.0344578384302
 31
0.0
  0
LINE
  5
752
102
{ACAD_REACTORS
330
7AA
102
}
330
1F
100
AcDbEntity
  8
実線
100
AcDbLine
 10
396.6961546393778
 20
297.5344578384301
 30
0.0
 11
394.3461546393779
 21
291.3344578384301
 31
0.0
  0
LINE
  5
753
102
{ACAD_REACTORS
330
7AA
102
}
330
1F
100
AcDbEntity
  8
実線
100
AcDbLine
 10
399.4461546393779
 20
247.0344578384301
 30
0.0
 11
399.4461546393779
 21
297.5344578384301
 31
0.0
  0
LINE
  5
754
102
{ACAD_REACTORS
330
7AA
102
}
330
1F
100
AcDbEntity
  8
実線
100
AcDbLine
 10
396.6961546393778
 20
247.0344578384301
 30
0.0
 11
396.6961546393778
 21
297.5344578384301
 31
0.0
  0
LINE
  5
755
102
{ACAD_REACTORS
330
7AA
102
}
330
1F
100
AcDbEntity
  8
実線
100
AcDbLine
 10
399.4461546393779
 20
297.5344578384301
 30
0.0
 11
396.6961546393778
 21
297.5344578384301
 31
0.0
  0
LINE
  5
756
102
{ACAD_REACTORS
330
7AA
102
}
330
1F
100
AcDbEntity
  8
実線
100
AcDbLine
 10
396.6961546393778
 20
247.0344578384301
 30
0.0
 11
399.4461546393779
 21
247.0344578384301
 31
0.0
  0
LINE
  5
757
102
{ACAD_REACTORS
330
7AA
102
}
330
1F
100
AcDbEntity
  8
実線
100
AcDbLine
 10
264.5461546393779
 20
253.2344578384301
 30
0.0
 11
289.4461546393778
 21
253.2344578384301
 31
0.0
  0
LINE
  5
758
102
{ACAD_REACTORS
330
7AA
102
}
330
1F
100
AcDbEntity
  8
実線
100
AcDbLine
 10
282.4689848704939
 20
291.3344578384301
 30
0.0
 11
264.5461546393779
 21
291.3344578384301
 31
0.0
  0
LINE
  5
759
102
{ACAD_REACTORS
330
7AA
102
}
330
1F
100
AcDbEntity
  8
実線
100
AcDbLine
 10
264.5461546393779
 20
291.3344578384301
 30
0.0
 11
262.1961546393778
 21
297.5344578384301
 31
0.0
  0
LINE
  5
75A
102
{ACAD_REACTORS
330
7AA
102
}
330
1F
100
AcDbEntity
  8
実線
100
AcDbLine
 10
262.1961546393778
 20
247.0344578384301
 30
0.0
 11
264.5461546393779
 21
253.2344578384301
 31
0.0
  0
LINE
  5
75B
102
{ACAD_REACTORS
330
7AA
102
}
330
1F
100
AcDbEntity
  8
実線
100
AcDbLine
 10
264.5461546393779
 20
291.3344578384301
 30
0.0
 11
264.5461546393779
 21
253.2344578384301
 31
0.0
  0
LINE
  5
75C
102
{ACAD_REACTORS
330
7AA
102
}
330
1F
100
AcDbEntity
  8
実線
100
AcDbLine
 10
259.4461546393778
 20
247.0344578384301
 30
0.0
 11
262.1961546393778
 21
247.0344578384301
 31
0.0
  0
LINE
  5
75D
102
{ACAD_REACTORS
330
7AA
102
}
330
1F
100
AcDbEntity
  8
実線
100
AcDbLine
 10
262.1961546393778
 20
297.5344578384301
 30
0.0
 11
259.4461546393778
 21
297.5344578384301
 31
0.0
  0
LINE
  5
75E
102
{ACAD_REACTORS
330
7AA
102
}
330
1F
100
AcDbEntity
  8
実線
100
AcDbLine
 10
259.4461546393778
 20
247.0344578384301
 30
0.0
 11
259.4461546393778
 21
297.5344578384301
 31
0.0
  0
LINE
  5
75F
102
{ACAD_REACTORS
330
7AA
102
}
330
1F
100
AcDbEntity
  8
実線
100
AcDbLine
 10
262.1961546393778
 20
247.0344578384301
 30
0.0
 11
262.1961546393778
 21
297.5344578384301
 31
0.0
  0
LINE
  5
760
102
{ACAD_REACTORS
330
7AA
102
}
330
1F
100
AcDbEntity
  8
実線
100
AcDbLine
 10
335.4461546393787
 20
313.6844578384302
 30
0.0
 11
335.4461546393787
 21
340.6844578384302
 31
0.0
  0
LINE
  5
761
102
{ACAD_REACTORS
330
7AA
102
}
330
1F
100
AcDbEntity
  8
実線
100
AcDbLine
 10
323.4461546393788
 20
340.6844578384302
 30
0.0
 11
323.4461546393788
 21
313.6844578384302
 31
0.0
  0
LINE
  5
762
102
{ACAD_REACTORS
330
7AA
102
}
330
1F
100
AcDbEntity
  8
実線
100
AcDbLine
 10
379.4461546393786
 20
384.1844578384301
 30
0.0
 11
279.4461546393787
 21
384.1844578384301
 31
0.0
  0
LINE
  5
763
102
{ACAD_REACTORS
330
7AA
102
}
330
1F
100
AcDbEntity
  8
実線
100
AcDbLine
 10
379.4461546393786
 20
384.1844578384301
 30
0.0
 11
379.4461546393786
 21
460.1844578384301
 31
0.0
  0
LINE
  5
764
102
{ACAD_REACTORS
330
7AA
102
}
330
1F
100
AcDbEntity
  8
実線
100
AcDbLine
 10
279.4461546393787
 20
460.18445783843
 30
0.0
 11
279.4461546393787
 21
384.1844578384301
 31
0.0
  0
LINE
  5
765
102
{ACAD_REACTORS
330
7AA
102
}
330
1F
100
AcDbEntity
  8
実線
100
AcDbLine
 10
379.4461546393786
 20
460.18445783843
 30
0.0
 11
279.4461546393787
 21
460.18445783843
 31
0.0
  0
LINE
  5
766
102
{ACAD_REACTORS
330
7AA
102
}
330
1F
100
AcDbEntity
  8
実線
100
AcDbLine
 10
364.4461546393787
 20
464.6844578384301
 30
0.0
 11
364.4461546393787
 21
476.1844578384301
 31
0.0
  0
LINE
  5
767
102
{ACAD_REACTORS
330
7AA
102
}
330
1F
100
AcDbEntity
  8
実線
100
AcDbLine
 10
294.4461546393787
 20
476.1844578384301
 30
0.0
 11
294.4461546393787
 21
464.6844578384301
 31
0.0
  0
LINE
  5
768
102
{ACAD_REACTORS
330
7AA
102
}
330
1F
100
AcDbEntity
  8
実線
100
AcDbLine
 10
364.4461546393787
 20
476.1844578384301
 30
0.0
 11
294.4461546393787
 21
476.1844578384301
 31
0.0
  0
LINE
  5
769
102
{ACAD_REACTORS
330
7AA
102
}
330
1F
100
AcDbEntity
  8
実線
100
AcDbLine
 10
342.4461546393787
 20
476.1844578384301
 30
0.0
 11
342.4461546393787
 21
489.1844578384301
 31
0.0
  0
LINE
  5
76A
102
{ACAD_REACTORS
330
7AA
102
}
330
1F
100
AcDbEntity
  8
実線
100
AcDbLine
 10
316.4461546393787
 20
489.1844578384301
 30
0.0
 11
316.4461546393787
 21
476.1844578384301
 31
0.0
  0
LINE
  5
76B
102
{ACAD_REACTORS
330
7AA
102
}
330
1F
100
AcDbEntity
  8
実線
100
AcDbLine
 10
372.7461546393787
 20
492.8844578384302
 30
0.0
 11
372.7461546393787
 21
528.8844578384302
 31
0.0
  0
LINE
  5
76C
102
{ACAD_REACTORS
330
7AA
102
}
330
1F
100
AcDbEntity
  8
実線
100
AcDbLine
 10
286.1461546393787
 20
528.8844578384302
 30
0.0
 11
286.1461546393787
 21
492.8844578384302
 31
0.0
  0
LINE
  5
76D
102
{ACAD_REACTORS
330
7AA
102
}
330
1F
100
AcDbEntity
  8
実線
100
AcDbLine
 10
372.7461546393787
 20
528.8844578384302
 30
0.0
 11
286.1461546393787
 21
528.8844578384302
 31
0.0
  0
LINE
  5
76E
102
{ACAD_REACTORS
330
7AA
102
}
330
1F
100
AcDbEntity
  8
実線
100
AcDbLine
 10
371.9461546393787
 20
528.8844578384302
 30
0.0
 11
371.9461546393787
 21
605.8844578384301
 31
0.0
  0
LINE
  5
76F
102
{ACAD_REACTORS
330
7AA
102
}
330
1F
100
AcDbEntity
  8
実線
100
AcDbLine
 10
286.9461546393787
 20
605.8844578384301
 30
0.0
 11
286.9461546393787
 21
528.8844578384302
 31
0.0
  0
ARC
  5
770
102
{ACAD_REACTORS
330
7AA
102
}
330
1F
100
AcDbEntity
  8
実線
100
AcDbCircle
 10
305.7461546393787
 20
354.6844578384301
 30
0.0
 40
57.99999999999997
100
AcDbArc
 50
315.0170320400987
 51
346.0320373253493
  0
LINE
  5
771
102
{ACAD_REACTORS
330
7AA
102
}
330
1F
100
AcDbEntity
  8
実線
100
AcDbLine
 10
373.7461546393787
 20
384.1844578384301
 30
0.0
 11
373.7461546393787
 21
354.6844578384301
 31
0.0
  0
ARC
  5
772
102
{ACAD_REACTORS
330
7AA
102
}
330
1F
100
AcDbEntity
  8
実線
100
AcDbCircle
 10
303.7461546393787
 20
354.6844578384301
 30
0.0
 40
70.00000000000003
100
AcDbArc
 50
324.1465329365346
 51
0.0
  0
ARC
  5
773
102
{ACAD_REACTORS
330
7AA
102
}
330
1F
100
AcDbEntity
  8
実線
100
AcDbCircle
 10
355.1461546393787
 20
354.6844578384301
 30
0.0
 40
70.00000000000003
100
AcDbArc
 50
180.0
 51
215.8534670634654
  0
LINE
  5
774
102
{ACAD_REACTORS
330
7AA
102
}
330
1F
100
AcDbEntity
  8
実線
100
AcDbLine
 10
285.1461546393787
 20
384.1844578384301
 30
0.0
 11
285.1461546393787
 21
354.6844578384301
 31
0.0
  0
ARC
  5
775
102
{ACAD_REACTORS
330
7AA
102
}
330
1F
100
AcDbEntity
  8
実線
100
AcDbCircle
 10
353.1461546393785
 20
354.6844578384301
 30
0.0
 40
57.99999999999997
100
AcDbArc
 50
193.9679626746507
 51
224.9829679599013
  0
LINE
  5
776
102
{ACAD_REACTORS
330
7AA
102
}
330
1F
100
AcDbEntity
  8
実線
100
AcDbLine
 10
291.0607733074185
 20
384.1844578384301
 30
0.0
 11
291.0607733074185
 21
340.6844578384302
 31
0.0
  0
LINE
  5
777
102
{ACAD_REACTORS
330
7AA
102
}
330
1F
100
AcDbEntity
  8
実線
100
AcDbLine
 10
291.0607733074185
 20
340.6844578384302
 30
0.0
 11
367.831535971339
 21
340.6844578384302
 31
0.0
  0
LINE
  5
778
102
{ACAD_REACTORS
330
7AA
102
}
330
1F
100
AcDbEntity
  8
実線
100
AcDbLine
 10
367.831535971339
 20
384.1844578384301
 30
0.0
 11
367.831535971339
 21
340.6844578384302
 31
0.0
  0
LINE
  5
779
102
{ACAD_REACTORS
330
7AA
102
}
330
1F
100
AcDbEntity
  8
実線
100
AcDbLine
 10
376.4233244082627
 20
313.6844578384302
 30
0.0
 11
282.4689848704947
 21
313.6844578384302
 31
0.0
  0
LINE
  5
77A
102
{ACAD_REACTORS
330
7AA
102
}
330
1F
100
AcDbEntity
  8
実線
100
AcDbLine
 10
282.4689848704947
 20
313.6844578384302
 30
0.0
 11
282.4689848704947
 21
300.1844578384301
 31
0.0
  0
LINE
  5
77B
102
{ACAD_REACTORS
330
7AA
102
}
330
1F
100
AcDbEntity
  8
実線
100
AcDbLine
 10
376.4233244082627
 20
300.1844578384301
 30
0.0
 11
376.4233244082627
 21
313.6844578384302
 31
0.0
  0
LINE
  5
77C
102
{ACAD_REACTORS
330
7AA
102
}
330
1F
100
AcDbEntity
  8
実線
100
AcDbLine
 10
347.4750514498028
 20
313.6844578384302
 30
0.0
 11
347.4750514498028
 21
300.1844578384301
 31
0.0
  0
LINE
  5
77D
102
{ACAD_REACTORS
330
7AA
102
}
330
1F
100
AcDbEntity
  8
実線
100
AcDbLine
 10
311.4172578289547
 20
313.6844578384302
 30
0.0
 11
311.4172578289547
 21
300.1844578384301
 31
0.0
  0
CIRCLE
  5
77E
102
{ACAD_REACTORS
330
7AA
102
}
330
1F
100
AcDbEntity
  8
実線
100
AcDbCircle
 10
329.4461546393778
 20
234.2844578384301
 30
0.0
 40
25.25
  0
LINE
  5
77F
102
{ACAD_REACTORS
330
7AA
102
}
330
1F
100
AcDbEntity
  8
実線
100
AcDbLine
 10
379.4461546393786
 20
460.1844578384301
 30
0.0
 11
379.4461546393786
 21
461.6844578384301
 31
0.0
  0
LINE
  5
780
102
{ACAD_REACTORS
330
7AA
102
}
330
1F
100
AcDbEntity
  8
実線
100
AcDbLine
 10
279.4461546393787
 20
461.6844578384301
 30
0.0
 11
279.4461546393787
 21
460.1844578384301
 31
0.0
  0
LINE
  5
781
102
{ACAD_REACTORS
330
7AA
102
}
330
1F
100
AcDbEntity
  8
実線
100
AcDbLine
 10
376.4461546393787
 20
464.6844578384301
 30
0.0
 11
282.4461546393787
 21
464.6844578384301
 31
0.0
  0
ARC
  5
782
102
{ACAD_REACTORS
330
7AA
102
}
330
1F
100
AcDbEntity
  8
実線
100
AcDbCircle
 10
376.4461546393787
 20
461.6844578384301
 30
0.0
 40
3.0
100
AcDbArc
 50
0.0
 51
90.0
  0
ARC
  5
783
102
{ACAD_REACTORS
330
7AA
102
}
330
1F
100
AcDbEntity
  8
実線
100
AcDbCircle
 10
282.4461546393787
 20
461.6844578384301
 30
0.0
 40
3.0
100
AcDbArc
 50
90.0
 51
180.0
  0
LINE
  5
784
102
{ACAD_REACTORS
330
7AA
102
}
330
1F
100
AcDbEntity
  8
実線
100
AcDbLine
 10
347.796154639378
 20
212.9344578384301
 30
0.0
 11
362.7961546393779
 21
212.9344578384301
 31
0.0
  0
LINE
  5
785
102
{ACAD_REACTORS
330
7AA
102
}
330
1F
100
AcDbEntity
  8
実線
100
AcDbLine
 10
347.796154639378
 20
212.9344578384301
 30
0.0
 11
347.796154639378
 21
216.9397180018111
 31
0.0
  0
LINE
  5
786
102
{ACAD_REACTORS
330
7AA
102
}
330
1F
100
AcDbEntity
  8
実線
100
AcDbLine
 10
362.7961546393779
 20
250.2107464949482
 30
0.0
 11
362.7961546393779
 21
212.9344578384301
 31
0.0
  0
LINE
  5
787
102
{ACAD_REACTORS
330
7AA
102
}
330
1F
100
AcDbEntity
  8
実線
100
AcDbLine
 10
296.0961546393778
 20
212.9344578384301
 30
0.0
 11
311.0961546393778
 21
212.9344578384301
 31
0.0
  0
LINE
  5
788
102
{ACAD_REACTORS
330
7AA
102
}
330
1F
100
AcDbEntity
  8
実線
100
AcDbLine
 10
296.0961546393778
 20
212.9344578384301
 30
0.0
 11
296.0961546393778
 21
250.2107464949482
 31
0.0
  0
LINE
  5
789
102
{ACAD_REACTORS
330
7AA
102
}
330
1F
100
AcDbEntity
  8
実線
100
AcDbLine
 10
311.0961546393778
 20
216.9397180018111
 30
0.0
 11
311.0961546393778
 21
212.9344578384301
 31
0.0
  0
LINE
  5
78A
102
{ACAD_REACTORS
330
7AA
102
}
330
1F
100
AcDbEntity
  8
実線
100
AcDbLine
 10
362.7961546393779
 20
243.2592964476786
 30
0.0
 11
368.2763768549728
 21
249.7903709613285
 31
0.0
  0
LINE
  5
78B
102
{ACAD_REACTORS
330
7AA
102
}
330
1F
100
AcDbEntity
  8
実線
100
AcDbLine
 10
290.6159324237832
 20
249.7903709613285
 30
0.0
 11
296.0961546393778
 21
243.2592964476786
 31
0.0
  0
LINE
  5
78C
102
{ACAD_REACTORS
330
7AA
102
}
330
1F
100
AcDbEntity
  8
実線
100
AcDbLine
 10
376.4233244082618
 20
300.1844578384301
 30
0.0
 11
282.4689848704939
 21
300.1844578384301
 31
0.0
  0
LINE
  5
78D
102
{ACAD_REACTORS
330
7AA
102
}
330
1F
100
AcDbEntity
  8
実線
100
AcDbLine
 10
369.4461546393779
 20
253.0043090097612
 30
0.0
 11
369.4461546393779
 21
253.2344578384301
 31
0.0
  0
LINE
  5
78E
102
{ACAD_REACTORS
330
7AA
102
}
330
1F
100
AcDbEntity
  8
実線
100
AcDbLine
 10
289.4461546393778
 20
253.2344578384301
 30
0.0
 11
289.4461546393778
 21
253.0043090097612
 31
0.0
  0
ARC
  5
78F
102
{ACAD_REACTORS
330
7AA
102
}
330
1F
100
AcDbEntity
  8
実線
100
AcDbCircle
 10
294.446154639378
 20
253.0043090097612
 30
0.0
 40
5.0
100
AcDbArc
 50
180.0
 51
220.0000000000001
  0
ARC
  5
790
102
{ACAD_REACTORS
330
7AA
102
}
330
1F
100
AcDbEntity
  8
実線
100
AcDbCircle
 10
364.4461546393778
 20
253.0043090097612
 30
0.0
 40
5.0
100
AcDbArc
 50
319.9999999999999
 51
0.0
  0
LINE
  5
791
102
{ACAD_REACTORS
330
7AA
102
}
330
1F
100
AcDbEntity
  8
実線
100
AcDbLine
 10
282.4689848704939
 20
300.1844578384301
 30
0.0
 11
282.4689848704939
 21
290.18445783843
 31
0.0
  0
LINE
  5
792
102
{ACAD_REACTORS
330
7AA
102
}
330
1F
100
AcDbEntity
  8
実線
100
AcDbLine
 10
282.4689848704939
 20
290.18445783843
 30
0.0
 11
311.4172578289539
 21
290.18445783843
 31
0.0
  0
LINE
  5
793
102
{ACAD_REACTORS
330
7AA
102
}
330
1F
100
AcDbEntity
  8
実線
100
AcDbLine
 10
376.4233244082618
 20
290.18445783843
 30
0.0
 11
347.475051449802
 21
290.18445783843
 31
0.0
  0
LINE
  5
794
102
{ACAD_REACTORS
330
7AA
102
}
330
1F
100
AcDbEntity
  8
実線
100
AcDbLine
 10
376.4233244082618
 20
290.18445783843
 30
0.0
 11
376.4233244082618
 21
300.1844578384301
 31
0.0
  0
LINE
  5
795
102
{ACAD_REACTORS
330
7AA
102
}
330
1F
100
AcDbEntity
  8
実線
100
AcDbLine
 10
347.475051449802
 20
300.1844578384301
 30
0.0
 11
347.475051449802
 21
290.18445783843
 31
0.0
  0
LINE
  5
796
102
{ACAD_REACTORS
330
7AA
102
}
330
1F
100
AcDbEntity
  8
実線
100
AcDbLine
 10
311.4172578289539
 20
300.1844578384301
 30
0.0
 11
311.4172578289539
 21
290.18445783843
 31
0.0
  0
LINE
  5
79E
102
{ACAD_REACTORS
330
7AA
102
}
330
1F
100
AcDbEntity
  8
中心線
100
AcDbLine
 10
257.4461546393822
 20
272.2844578384298
 30
0.0
 11
401.4461546393822
 21
272.2844578384298
 31
0.0
  0
LINE
  5
79F
102
{ACAD_REACTORS
330
7AA
102
}
330
1F
100
AcDbEntity
  8
中心線
100
AcDbLine
 10
329.4461546393786
 20
200.2844578384298
 30
0.0
 11
329.4461546393786
 21
637.2387314026966
 31
0.0
  0
LINE
  5
7A0
102
{ACAD_REACTORS
330
7AA
102
}
330
1F
100
AcDbEntity
  8
中心線
100
AcDbLine
 10
274.4461546393786
 20
234.2844578384301
 30
0.0
 11
384.4461546393786
 21
234.2844578384301
 31
0.0
  0
LINE
  5
7A1
102
{ACAD_REACTORS
330
7A8
102
}
330
1F
100
AcDbEntity
  8
中心線
100
AcDbLine
 10
514.4461546393785
 20
272.2844578384298
 30
0.0
 11
624.4461546393786
 21
272.2844578384298
 31
0.0
  0
LINE
  5
7A2
102
{ACAD_REACTORS
330
7A8
102
}
330
1F
100
AcDbEntity
  8
中心線
100
AcDbLine
 10
569.4461546393752
 20
200.2844578384297
 30
0.0
 11
569.4461546393752
 21
637.2387314026966
 31
0.0
  0
LINE
  5
7A3
102
{ACAD_REACTORS
330
7A8
102
}
330
1F
100
AcDbEntity
  8
中心線
100
AcDbLine
 10
497.4461546393756
 20
234.2844578384301
 30
0.0
 11
641.4461546393757
 21
234.2844578384301
 31
0.0
  0
LINE
  5
7A4
102
{ACAD_REACTORS
330
7A7
102
}
330
1F
100
AcDbEntity
  8
中心線
100
AcDbLine
 10
737.4461546393786
 20
272.2844578384298
 30
0.0
 11
881.4461546393786
 21
272.2844578384298
 31
0.0
  0
LINE
  5
7A5
102
{ACAD_REACTORS
330
7A7
102
}
330
1F
100
AcDbEntity
  8
中心線
100
AcDbLine
 10
809.446154639375
 20
200.2844578384298
 30
0.0
 11
809.446154639375
 21
637.2387314026966
 31
0.0
  0
LINE
  5
7A6
102
{ACAD_REACTORS
330
7A7
102
}
330
1F
100
AcDbEntity
  8
中心線
100
AcDbLine
 10
754.4461546393749
 20
234.2844578384301
 30
0.0
 11
864.4461546393749
 21
234.2844578384301
 31
0.0
  0
ENDSEC
  0
SECTION
  2
OBJECTS
  0
DICTIONARY
  5
C
330
0
100
AcDbDictionary
281
     1
  3
ACAD_CIP_PREVIOUS_PRODUCT_INFO
350
28F
  3
ACAD_COLOR
350
285
  3
ACAD_DETAILVIEWSTYLE
350
288
  3
ACAD_GROUP
350
D
  3
ACAD_LAYOUT
350
1A
  3
ACAD_MATERIAL
350
43
  3
ACAD_MLEADERSTYLE
350
5B
  3
ACAD_MLINESTYLE
350
17
  3
ACAD_PLOTSETTINGS
350
19
  3
ACAD_PLOTSTYLENAME
350
E
  3
ACAD_SCALELIST
350
47
  3
ACAD_SECTIONVIEWSTYLE
350
286
  3
ACAD_TABLESTYLE
350
59
  3
ACAD_VISUALSTYLE
350
2A
  3
ACDB_RECOMPOSE_DATA
350
847
  3
AcDbVariableDictionary
350
23A
  3
DWGPROPS
350
848
  0
DICTIONARY
  5
2A0
330
2
100
AcDbDictionary
280
     1
281
     1
  3
ACAD_LAYERSTATES
360
2A1
  0
DICTIONARY
  5
7AD
330
10
100
AcDbDictionary
280
     1
281
     1
  3
ADSK_XREC_LAYER_RECONCILED
360
7AE
  0
DICTIONARY
  5
29D
330
29C
100
AcDbDictionary
280
     1
281
     1
  3
ADSK_XREC_LAYER_RECONCILED
360
7AF
  0
DICTIONARY
  5
29F
330
29E
100
AcDbDictionary
280
     1
281
     1
  3
ADSK_XREC_LAYER_RECONCILED
360
7B0
  0
DICTIONARY
  5
62C
330
1F
100
AcDbDictionary
280
     1
281
     1
  3
ACAD_SORTENTS
360
62D
  0
XRECORD
  5
28F
102
{ACAD_REACTORS
330
C
102
}
330
C
100
AcDbXrecord
280
     1
300
ACDLT
300
2016
300
ACDLT_F_S
  0
DICTIONARY
  5
285
102
{ACAD_REACTORS
330
C
102
}
330
C
100
AcDbDictionary
281
     1
  0
DICTIONARY
  5
288
102
{ACAD_REACTORS
330
C
102
}
330
C
100
AcDbDictionary
281
     1
  3
Metric50
350
289
  0
DICTIONARY
  5
D
102
{ACAD_REACTORS
330
C
102
}
330
C
100
AcDbDictionary
281
     1
  3
*A1
350
7A7
  3
*A2
350
7A8
  3
*A3
350
7A9
  3
*A4
350
7AA
  3
*A5
350
7AB
  3
*A6
350
7AC
  0
DICTIONARY
  5
1A
102
{ACAD_REACTORS
330
C
102
}
330
C
100
AcDbDictionary
281
     1
  3
Layout1
350
1E
  3
Model
350
22
  3
レイアウト1
350
28A
  0
DICTIONARY
  5
43
102
{ACAD_REACTORS
330
C
102
}
330
C
100
AcDbDictionary
281
     1
  3
ByBlock
350
45
  3
ByLayer
350
44
  3
Global
350
46
  0
DICTIONARY
  5
5B
102
{ACAD_REACTORS
330
C
102
}
330
C
100
AcDbDictionary
281
     1
  3
Standard
350
5C
  0
DICTIONARY
  5
17
102
{ACAD_REACTORS
330
C
102
}
330
C
100
AcDbDictionary
281
     1
  3
Standard
350
18
  0
DICTIONARY
  5
19
102
{ACAD_REACTORS
330
C
102
}
330
C
100
AcDbDictionary
281
     1
  0
ACDBDICTIONARYWDFLT
  5
E
102
{ACAD_REACTORS
330
C
102
}
330
C
100
AcDbDictionary
281
     1
  3
Normal
350
F
100
AcDbDictionaryWithDefault
340
F
  0
DICTIONARY
  5
47
102
{ACAD_REACTORS
330
C
102
}
330
C
100
AcDbDictionary
281
     1
  3
A0
350
48
  3
A1
350
49
  3
A2
350
4A
  3
A3
350
4B
  3
A4
350
4C
  3
A5
350
4D
  3
A6
350
4E
  3
A7
350
4F
  3
A8
350
50
  3
A9
350
51
  3
B0
350
52
  3
B1
350
53
  3
B2
350
54
  3
B3
350
55
  3
B4
350
56
  3
B5
350
57
  3
B6
350
58
  0
DICTIONARY
  5
286
102
{ACAD_REACTORS
330
C
102
}
330
C
100
AcDbDictionary
281
     1
  3
Metric50
350
287
  0
DICTIONARY
  5
59
102
{ACAD_REACTORS
330
C
102
}
330
C
100
AcDbDictionary
281
     1
  3
Standard
350
5A
  0
DICTIONARY
  5
2A
102
{ACAD_REACTORS
330
C
102
}
330
C
100
AcDbDictionary
281
     1
  3
2dWireframe
350
2F
  3
Basic
350
32
  3
Brighten
350
36
  3
ColorChange
350
3A
  3
Conceptual
350
34
  3
Dim
350
35
  3
EdgeColorOff
350
3D
  3
Facepattern
350
39
  3
Flat
350
2B
  3
FlatWithEdges
350
2C
  3
Gouraud
350
2D
  3
GouraudWithEdges
350
2E
  3
Hidden
350
31
  3
JitterOff
350
3B
  3
Linepattern
350
38
  3
OverhangOff
350
3C
  3
Realistic
350
33
  3
Shaded
350
42
  3
Shaded with edges
350
41
  3
Shades of Gray
350
3E
  3
Sketchy
350
3F
  3
Thicken
350
37
  3
Wireframe
350
30
  3
X-Ray
350
40
  0
XRECORD
  5
847
102
{ACAD_REACTORS
330
C
102
}
330
C
100
AcDbXrecord
280
     1
 90
        1
330
5A
  0
DICTIONARY
  5
23A
102
{ACAD_REACTORS
330
C
102
}
330
C
100
AcDbDictionary
281
     1
  3
CANNOSCALE
350
248
  3
CENTEREXE
350
241
  3
CENTERLTYPEFILE
350
242
  3
CMLEADERSTYLE
350
23C
  3
CTABLESTYLE
350
23B
  3
CVIEWDETAILSTYLE
350
7B1
  3
CVIEWSECTIONSTYLE
350
7B2
  3
DIMASSOC
350
243
  3
HIDETEXT
350
244
  3
INDEXCTL
350
801
  3
LAYEREVAL
350
7B4
  3
LAYERNOTIFY
350
7B5
  3
LIGHTINGUNITS
350
7B3
  3
LOFTANG1
350
804
  3
LOFTANG2
350
805
  3
LONGITUDE
350
806
  3
MSLTSCALE
350
249
  3
PSOLHEIGHT
350
803
  3
PSOLWIDTH
350
802
  3
SORTENTS
350
800
  3
XCLIPFRAME
350
807
  0
XRECORD
  5
848
102
{ACAD_REACTORS
330
C
102
}
330
C
100
AcDbXrecord
280
     1
  1
DWGPROPS COOKIE
  2

  3

  4

  6
File was created by TR2_DExp
  7

  8
fujino
  9

300
=
301
=
302
=
303
=
304
=
305
=
306
=
307
=
308
=
309
=
 40
0.0539178472222222
 41
2455188.75
 42
2459747.437399133
  1

 90
        0
  0
DICTIONARY
  5
2A1
102
{ACAD_REACTORS
330
2A0
102
}
330
2A0
100
AcDbDictionary
281
     1
  0
XRECORD
  5
7AE
102
{ACAD_REACTORS
330
7AD
102
}
330
7AD
100
AcDbXrecord
280
     1
290
     1
  0
XRECORD
  5
7AF
102
{ACAD_REACTORS
330
29D
102
}
330
29D
100
AcDbXrecord
280
     1
290
     1
  0
XRECORD
  5
7B0
102
{ACAD_REACTORS
330
29F
102
}
330
29F
100
AcDbXrecord
280
     1
290
     1
  0
SORTENTSTABLE
  5
62D
102
{ACAD_REACTORS
330
62C
102
}
330
62C
100
AcDbSortentsTable
330
1F
331
6D6
  5
4F1
331
715
  5
4A6
331
6D2
  5
4ED
331
711
  5
4A2
331
6A7
  5
558
331
6A3
  5
554
331
6CE
  5
4E9
331
5F6
  5
5C6
331
63D
  5
57C
331
66C
  5
51D
331
70D
  5
49E
331
709
  5
49A
331
69F
  5
550
331
6CA
  5
4E5
331
5CB
  5
788
331
5F2
  5
5C2
331
74E
  5
449
331
78D
  5
488
331
639
  5
578
331
668
  5
5A7
331
664
  5
5A3
331
69B
  5
54C
331
5EE
  5
5BE
331
74A
  5
445
331
789
  5
484
331
635
  5
574
331
631
  5
570
331
660
  5
59F
331
5EA
  5
5BA
331
746
  5
441
331
785
  5
480
331
781
  5
47C
331
742
  5
4D3
331
705
  5
496
331
6C6
  5
4E1
331
6C2
  5
4DD
331
701
  5
492
331
697
  5
548
331
6BE
  5
4D9
331
6FD
  5
518
331
5E6
  5
5B6
331
625
  5
5F5
331
65C
  5
59B
331
693
  5
544
331
68F
  5
540
331
6BA
  5
56B
331
5E2
  5
5B2
331
73E
  5
4CF
331
77D
  5
478
331
621
  5
5F1
331
658
  5
597
331
6F9
  5
514
331
654
  5
593
331
68B
  5
53C
331
62F
  5
56E
331
5DE
  5
5AE
331
73A
  5
4CB
331
779
  5
474
331
61D
  5
5ED
331
619
  5
5E9
331
650
  5
58F
331
62B
  5
5FB
331
5DA
  5
5AA
331
736
  5
4C7
331
775
  5
470
331
771
  5
46C
331
732
  5
4C3
331
6F5
  5
510
331
6B6
  5
567
331
6B2
  5
563
331
6F1
  5
50C
331
687
  5
538
331
6ED
  5
508
331
615
  5
5E5
331
64C
  5
58B
331
683
  5
534
331
67F
  5
530
331
72E
  5
4BF
331
76D
  5
468
331
611
  5
5E1
331
648
  5
587
331
6E9
  5
504
331
67B
  5
52C
331
72A
  5
4BB
331
769
  5
464
331
60D
  5
5DD
331
609
  5
5D9
331
726
  5
4B7
331
765
  5
460
331
761
  5
45C
331
722
  5
4B3
331
6E5
  5
500
331
6E1
  5
4FC
331
677
  5
528
331
6DD
  5
4F8
331
605
  5
5D5
331
673
  5
524
331
71C
  5
4AD
331
718
  5
4A9
331
6AE
  5
55F
331
601
  5
5D1
331
6D9
  5
4F4
331
75D
  5
458
331
793
  5
48E
331
7A3
  5
7A3
331
644
  5
583
331
6AA
  5
55B
331
759
  5
454
331
5FD
  5
5CD
331
640
  5
57F
331
5D2
  5
78F
331
755
  5
450
331
5F9
  5
5C9
331
751
  5
44C
331
6D5
  5
4F0
331
714
  5
4A5
331
6D1
  5
4EC
331
710
  5
4A1
331
66F
  5
520
331
6A6
  5
557
331
6A2
  5
553
331
6CD
  5
4E8
331
5F5
  5
5C5
331
63C
  5
57B
331
66B
  5
51C
331
70C
  5
49D
331
5CE
  5
78B
331
708
  5
499
331
667
  5
5A6
331
69E
  5
54F
331
5F1
  5
5C1
331
74D
  5
448
331
78C
  5
487
331
638
  5
577
331
6C9
  5
4E4
331
663
  5
5A2
331
69A
  5
54B
331
5ED
  5
5BD
331
749
  5
444
331
788
  5
483
331
634
  5
573
331
630
  5
56F
331
784
  5
47F
331
745
  5
4D6
331
5E9
  5
5B9
331
780
  5
47B
331
741
  5
4D2
331
6C5
  5
4E0
331
704
  5
495
331
6C1
  5
4DC
331
700
  5
51B
331
65F
  5
59E
331
696
  5
547
331
692
  5
543
331
6BD
  5
4D8
331
5E5
  5
5B5
331
624
  5
5F4
331
65B
  5
59A
331
6FC
  5
517
331
6F8
  5
513
331
68E
  5
53F
331
6B9
  5
56A
331
5E1
  5
5B1
331
73D
  5
4CE
331
77C
  5
477
331
620
  5
5F0
331
657
  5
596
331
653
  5
592
331
68A
  5
53B
331
62E
  5
56D
331
5DD
  5
5AD
331
739
  5
4CA
331
778
  5
473
331
61C
  5
5EC
331
618
  5
5E8
331
62A
  5
5FA
331
5D9
  5
796
331
735
  5
4C6
331
774
  5
46F
331
770
  5
46B
331
731
  5
4C2
331
6F4
  5
50F
331
6B5
  5
566
331
6B1
  5
562
331
6F0
  5
50B
331
64F
  5
58E
331
686
  5
537
331
6EC
  5
507
331
614
  5
5E4
331
64B
  5
58A
331
682
  5
533
331
67E
  5
52F
331
72D
  5
4BE
331
76C
  5
467
331
610
  5
5E0
331
6E8
  5
503
331
67A
  5
52B
331
729
  5
4BA
331
768
  5
463
331
60C
  5
5DC
331
608
  5
5D8
331
725
  5
4B6
331
764
  5
45F
331
760
  5
45B
331
721
  5
4B2
331
6E4
  5
4FF
331
6E0
  5
4FB
331
676
  5
527
331
71F
  5
4B0
331
6DC
  5
4F7
331
604
  5
5D4
331
796
  5
491
331
672
  5
523
331
71B
  5
4AC
331
7A6
  5
7A6
331
6AD
  5
55E
331
600
  5
5D0
331
647
  5
586
331
6D8
  5
4F3
331
75C
  5
457
331
792
  5
48D
331
7A2
  5
7A2
331
643
  5
582
331
6A9
  5
55A
331
79F
  5
79F
331
5D5
  5
792
331
758
  5
453
331
5FC
  5
5CC
331
5F8
  5
5C8
331
754
  5
44F
331
750
  5
44B
331
717
  5
4A8
331
6D4
  5
4EF
331
713
  5
4A4
331
6D0
  5
4EB
331
70F
  5
4A0
331
63F
  5
57E
331
66E
  5
51F
331
6A5
  5
556
331
6A1
  5
552
331
6CC
  5
4E7
331
5F4
  5
5C4
331
63B
  5
57A
331
66A
  5
5A9
331
70B
  5
49C
331
78F
  5
48A
331
5CD
  5
78A
331
666
  5
5A5
331
69D
  5
54E
331
5F0
  5
5C0
331
74C
  5
447
331
78B
  5
486
331
637
  5
576
331
6C8
  5
4E3
331
633
  5
572
331
662
  5
5A1
331
699
  5
54A
331
5EC
  5
5BC
331
748
  5
443
331
787
  5
482
331
783
  5
47E
331
744
  5
4D5
331
5E8
  5
5B8
331
740
  5
4D1
331
707
  5
498
331
6C4
  5
4DF
331
703
  5
494
331
6C0
  5
4DB
331
6FF
  5
51A
331
627
  5
5F7
331
65E
  5
59D
331
695
  5
546
331
691
  5
542
331
6BC
  5
4D7
331
5E4
  5
5B4
331
77F
  5
47A
331
623
  5
5F3
331
65A
  5
599
331
6FB
  5
516
331
656
  5
595
331
68D
  5
53E
331
5E0
  5
5B0
331
73C
  5
4CD
331
77B
  5
476
331
61F
  5
5EF
331
6B8
  5
569
331
652
  5
591
331
689
  5
53A
331
5DC
  5
5AC
331
738
  5
4C9
331
777
  5
472
331
61B
  5
5EB
331
773
  5
46E
331
629
  5
5F9
331
734
  5
4C5
331
730
  5
4C1
331
6F7
  5
512
331
6B4
  5
565
331
6F3
  5
50E
331
6B0
  5
561
331
6EF
  5
50A
331
617
  5
5E7
331
64E
  5
58D
331
685
  5
536
331
681
  5
532
331
76F
  5
46A
331
613
  5
5E3
331
64A
  5
589
331
6EB
  5
506
331
67D
  5
52E
331
72C
  5
4BD
331
76B
  5
466
331
60F
  5
5DF
331
679
  5
52A
331
728
  5
4B9
331
767
  5
462
331
60B
  5
5DB
331
724
  5
4B5
331
763
  5
45E
331
720
  5
4B1
331
6E7
  5
502
331
6E3
  5
4FE
331
6DF
  5
4FA
331
607
  5
5D7
331
675
  5
526
331
71E
  5
4AF
331
71A
  5
4AB
331
6DB
  5
4F6
331
603
  5
5D3
331
75F
  5
45A
331
795
  5
490
331
671
  5
522
331
7A5
  5
7A5
331
6AC
  5
55D
331
791
  5
48C
331
75B
  5
456
331
5FF
  5
5CF
331
646
  5
585
331
7A1
  5
7A1
331
642
  5
581
331
6A8
  5
559
331
79E
  5
79E
331
757
  5
452
331
5FB
  5
5CB
331
753
  5
44E
331
716
  5
4A7
331
6D7
  5
4F2
331
6D3
  5
4EE
331
712
  5
4A3
331
6CF
  5
4EA
331
70E
  5
49F
331
5F7
  5
5C7
331
63E
  5
57D
331
66D
  5
51E
331
6A4
  5
555
331
6A0
  5
551
331
6CB
  5
4E6
331
5CC
  5
789
331
5F3
  5
5C3
331
74F
  5
44A
331
78E
  5
489
331
63A
  5
579
331
669
  5
5A8
331
70A
  5
49B
331
665
  5
5A4
331
69C
  5
54D
331
5EF
  5
5BF
331
74B
  5
446
331
78A
  5
485
331
636
  5
575
331
632
  5
571
331
661
  5
5A0
331
698
  5
549
331
5EB
  5
5BB
331
747
  5
442
331
786
  5
481
331
782
  5
47D
331
743
  5
4D4
331
706
  5
497
331
6C7
  5
4E2
331
6C3
  5
4DE
331
702
  5
493
331
6BF
  5
4DA
331
6FE
  5
519
331
5E7
  5
5B7
331
626
  5
5F6
331
65D
  5
59C
331
694
  5
545
331
690
  5
541
331
6BB
  5
56C
331
5E3
  5
5B3
331
73F
  5
4D0
331
77E
  5
479
331
622
  5
5F2
331
659
  5
598
331
6FA
  5
515
331
655
  5
594
331
68C
  5
53D
331
5DF
  5
5AF
331
73B
  5
4CC
331
77A
  5
475
331
61E
  5
5EE
331
61A
  5
5EA
331
651
  5
590
331
688
  5
539
331
5DB
  5
5AB
331
737
  5
4C8
331
776
  5
471
331
772
  5
46D
331
628
  5
5F8
331
733
  5
4C4
331
6F6
  5
511
331
6B7
  5
568
331
6B3
  5
564
331
6F2
  5
50D
331
6EE
  5
509
331
616
  5
5E6
331
64D
  5
58C
331
684
  5
535
331
680
  5
531
331
72F
  5
4C0
331
76E
  5
469
331
612
  5
5E2
331
649
  5
588
331
6EA
  5
505
331
67C
  5
52D
331
72B
  5
4BC
331
76A
  5
465
331
60E
  5
5DE
331
678
  5
529
331
727
  5
4B8
331
766
  5
461
331
60A
  5
5DA
331
762
  5
45D
331
723
  5
4B4
331
6E6
  5
501
331
6E2
  5
4FD
331
6DE
  5
4F9
331
606
  5
5D6
331
674
  5
525
331
71D
  5
4AE
331
719
  5
4AA
331
670
  5
521
331
6AF
  5
560
331
602
  5
5D2
331
6DA
  5
4F5
331
75E
  5
459
331
794
  5
48F
331
7A4
  5
7A4
331
6AB
  5
55C
331
790
  5
48B
331
75A
  5
455
331
5FE
  5
5CE
331
645
  5
584
331
7A0
  5
7A0
331
641
  5
580
331
756
  5
451
331
5FA
  5
5CA
331
752
  5
44D
  0
ACDBDETAILVIEWSTYLE
  5
289
102
{ACAD_XDICTIONARY
360
880
102
}
102
{ACAD_REACTORS
330
288
102
}
330
288
100
AcDbModelDocViewStyle
 70
     0
  3
Metric50
290
     0
100
AcDbDetailViewStyle
 70
     0
 71
     0
 90
        3
 71
     1
340
11
 40
5.0
340
0
 40
5.0
300

 40
0.0
280
     1
 71
     2
340
16
 90
       25
 71
     3
340
11
 40
5.0
 90
        0
 40
15.0
 90
        1
300
%<\AcVar ViewDetailId>% (%<\AcVar ViewScale \f "%sn">%)
 71
     4
340
16
 90
       25
340
16
 90
       25
280
     0
  0
GROUP
  5
7A7
102
{ACAD_REACTORS
330
D
102
}
330
D
100
AcDbGroup
300

 70
     1
 71
     1
340
7A6
340
7A5
340
7A4
340
6BB
340
6BA
340
6B9
340
6B8
340
6B7
340
6B6
340
6B5
340
6B4
340
6B3
340
6B2
340
6B1
340
6B0
340
6AF
340
6AE
340
6AD
340
6AC
340
6AB
340
6AA
340
6A9
340
6A8
340
6A7
340
6A6
340
6A5
340
6A4
340
6A3
340
6A2
340
6A1
340
6A0
340
69F
340
69E
340
69D
340
69C
340
69B
340
69A
340
699
340
698
340
697
340
696
340
695
340
694
340
693
340
692
340
691
340
690
340
68F
340
68E
340
68D
340
68C
340
68B
340
68A
340
689
340
688
340
687
340
686
340
685
340
684
340
683
340
682
340
681
340
680
340
67F
340
67E
340
67D
340
67C
340
67B
340
67A
340
679
340
678
340
677
340
676
340
675
340
674
340
673
340
672
340
671
340
670
340
66F
340
66E
340
66D
340
66C
340
66B
  0
GROUP
  5
7A8
102
{ACAD_REACTORS
330
D
102
}
330
D
100
AcDbGroup
300

 70
     1
 71
     1
340
7A3
340
7A2
340
7A1
340
700
340
6FF
340
6FE
340
6FD
340
6FC
340
6FB
340
6FA
340
6F9
340
6F8
340
6F7
340
6F6
340
6F5
340
6F4
340
6F3
340
6F2
340
6F1
340
6F0
340
6EF
340
6EE
340
6ED
340
6EC
340
6EB
340
6EA
340
6E9
340
6E8
340
6E7
340
6E6
340
6E5
340
6E4
340
6E3
340
6E2
340
6E1
340
6E0
340
6DF
340
6DE
340
6DD
340
6DC
340
6DB
340
6DA
340
6D9
340
6D8
340
6D7
340
6D6
340
6D5
340
6D4
340
6D3
340
6D2
340
6D1
340
6D0
340
6CF
340
6CE
340
6CD
340
6CC
340
6CB
340
6CA
340
6C9
340
6C8
340
6C7
340
6C6
340
6C5
340
6C4
340
6C3
340
6C2
340
6C1
340
6C0
340
6BF
340
6BE
340
6BD
340
6BC
  0
GROUP
  5
7A9
102
{ACAD_REACTORS
330
D
102
}
330
D
100
AcDbGroup
300

 70
     1
 71
     1
340
5CE
340
5CD
340
62B
340
62A
340
629
340
628
340
627
340
626
340
625
340
624
340
623
340
622
340
621
340
620
340
61F
340
61E
340
61D
340
61C
340
61B
340
61A
340
619
340
618
340
617
340
616
340
615
340
614
340
613
340
612
340
611
340
610
340
60F
340
60E
340
60D
340
60C
340
60B
340
60A
340
609
340
608
340
607
340
606
340
605
340
604
340
603
340
602
340
601
340
600
340
5FF
340
5FE
340
5FD
340
5FC
340
5FB
340
5FA
340
5F9
340
5F8
340
5F7
340
5F6
340
5F5
340
5F4
340
5F3
340
5F2
340
5F1
340
5F0
340
5EF
340
5EE
340
5ED
340
5EC
340
5EB
340
5EA
340
5E9
340
5E8
340
5E7
340
5E6
340
5E5
340
5E4
340
5E3
340
5E2
340
5E1
340
5E0
340
5DF
340
5DE
340
5DD
340
5DC
340
5DB
340
5DA
  0
GROUP
  5
7AA
102
{ACAD_REACTORS
330
D
102
}
330
D
100
AcDbGroup
300

 70
     1
 71
     1
340
7A0
340
79F
340
79E
340
796
340
795
340
794
340
793
340
792
340
791
340
790
340
78F
340
78E
340
78D
340
78C
340
78B
340
78A
340
789
340
788
340
787
340
786
340
785
340
784
340
783
340
782
340
781
340
780
340
77F
340
77E
340
77D
340
77C
340
77B
340
77A
340
779
340
778
340
777
340
776
340
775
340
774
340
773
340
772
340
771
340
770
340
76F
340
76E
340
76D
340
76C
340
76B
340
76A
340
769
340
768
340
767
340
766
340
765
340
764
340
763
340
762
340
761
340
760
340
75F
340
75E
340
75D
340
75C
340
75B
340
75A
340
759
340
758
340
757
340
756
340
755
340
754
340
753
340
752
340
751
340
750
340
74F
340
74E
340
74D
340
74C
340
74B
340
74A
340
749
340
748
340
747
340
746
  0
GROUP
  5
7AB
102
{ACAD_REACTORS
330
D
102
}
330
D
100
AcDbGroup
300

 70
     1
 71
     1
340
5D9
340
5D5
340
5D2
340
745
340
744
340
743
340
742
340
741
340
740
340
73F
340
73E
340
73D
340
73C
340
73B
340
73A
340
739
340
738
340
737
340
736
340
735
340
734
340
733
340
732
340
731
340
730
340
72F
340
72E
340
72D
340
72C
340
72B
340
72A
340
729
340
728
340
727
340
726
340
725
340
724
340
723
340
722
340
721
340
720
340
71F
340
71E
340
71D
340
71C
340
71B
340
71A
340
719
340
718
340
717
340
716
340
715
340
714
340
713
340
712
340
711
340
710
340
70F
340
70E
340
70D
340
70C
340
70B
340
70A
340
709
340
708
340
707
340
706
340
705
340
704
340
703
340
702
340
701
  0
GROUP
  5
7AC
102
{ACAD_REACTORS
330
D
102
}
330
D
100
AcDbGroup
300

 70
     1
 71
     1
340
5CC
340
5CB
340
66A
340
669
340
668
340
667
340
666
340
665
340
664
340
663
340
662
340
661
340
660
340
65F
340
65E
340
65D
340
65C
340
65B
340
65A
340
659
340
658
340
657
340
656
340
655
340
654
340
653
340
652
340
651
340
650
340
64F
340
64E
340
64D
340
64C
340
64B
340
64A
340
649
340
648
340
647
340
646
340
645
340
644
340
643
340
642
340
641
340
640
340
63F
340
63E
340
63D
340
63C
340
63B
340
63A
340
639
340
638
340
637
340
636
340
635
340
634
340
633
340
632
340
631
340
630
340
62F
340
62E
  0
LAYOUT
  5
1E
102
{ACAD_XDICTIONARY
360
849
102
}
102
{ACAD_REACTORS
330
1A
102
}
330
1A
100
AcDbPlotSettings
  1

  2
none_device
  4

  6

 40
0.0
 41
0.0
 42
0.0
 43
0.0
 44
0.0
 45
0.0
 46
0.0
 47
0.0
 48
0.0
 49
0.0
140
0.0
141
0.0
142
1.0
143
1.0
 70
   688
 72
     1
 73
     0
 74
     5
  7

 75
    16
147
1.0
148
0.0
149
0.0
100
AcDbLayout
  1
Layout1
 70
     1
 71
     1
 10
0.0
 20
0.0
 11
420.0
 21
297.0
 12
0.0
 22
0.0
 32
0.0
 14
1.000000000000000E+20
 24
1.000000000000000E+20
 34
1.000000000000000E+20
 15
-1.000000000000000E+20
 25
-1.000000000000000E+20
 35
-1.000000000000000E+20
146
0.0
 13
0.0
 23
0.0
 33
0.0
 16
1.0
 26
0.0
 36
0.0
 17
0.0
 27
1.0
 37
0.0
 76
     0
330
1B
  0
LAYOUT
  5
22
102
{ACAD_XDICTIONARY
360
84B
102
}
102
{ACAD_REACTORS
330
1A
102
}
330
1A
100
AcDbPlotSettings
  1

  2
none_device
  4
Letter_(8.50_x_11.00_Inches)
  6

 40
6.349999999999998
 41
6.349999999999998
 42
6.350005079999998
 43
6.350005079999998
 44
215.9
 45
279.4
 46
0.0
 47
0.0
 48
0.0
 49
0.0
140
0.0
141
0.0
142
1.0
143
1.0
 70
  1712
 72
     1
 73
     0
 74
     0
  7

 75
     0
147
1.0
148
0.0
149
0.0
100
AcDbLayout
  1
Model
 70
     1
 71
     0
 10
-543.7260112762463
 20
-425.1266174316413
 11
1249.644836425781
 21
709.1151428222665
 12
0.0
 22
0.0
 32
0.0
 14
-543.7260112762463
 24
-425.1266174316413
 34
0.0
 15
1249.644836425781
 25
709.1151428222665
 35
0.0
146
0.0
 13
0.0
 23
0.0
 33
0.0
 16
1.0
 26
0.0
 36
0.0
 17
0.0
 27
1.0
 37
0.0
 76
     0
330
1F
331
29
  0
LAYOUT
  5
28A
102
{ACAD_XDICTIONARY
360
882
102
}
102
{ACAD_REACTORS
330
1A
102
}
330
1A
100
AcDbPlotSettings
  1

  2
青梅 FX DocuCentre-V C2275 T2
  4

  6

 40
0.0
 41
0.0
 42
0.0
 43
0.0
 44
0.0
 45
0.0
 46
0.0
 47
0.0
 48
0.0
 49
0.0
140
0.0
141
0.0
142
1.0
143
1.0
 70
   688
 72
     0
 73
     0
 74
     5
  7
AutoCAD_PEN.ctb
 75
    16
147
1.0
148
0.0
149
0.0
100
AcDbLayout
  1
レイアウト1
 70
     1
 71
     2
 10
0.0
 20
0.0
 11
12.0
 21
9.0
 12
0.0
 22
0.0
 32
0.0
 14
0.0
 24
0.0
 34
0.0
 15
0.0
 25
0.0
 35
0.0
146
0.0
 13
0.0
 23
0.0
 33
0.0
 16
1.0
 26
0.0
 36
0.0
 17
0.0
 27
1.0
 37
0.0
 76
     0
330
23
  0
MATERIAL
  5
45
102
{ACAD_XDICTIONARY
360
27C
102
}
102
{ACAD_REACTORS
330
43
102
}
330
43
100
AcDbMaterial
  1
ByBlock
  0
MATERIAL
  5
44
102
{ACAD_XDICTIONARY
360
27A
102
}
102
{ACAD_REACTORS
330
43
102
}
330
43
100
AcDbMaterial
  1
ByLayer
  0
MATERIAL
  5
46
102
{ACAD_XDICTIONARY
360
27E
102
}
102
{ACAD_REACTORS
330
43
102
}
330
43
100
AcDbMaterial
  1
Global
  0
MLEADERSTYLE
  5
5C
102
{ACAD_REACTORS
330
5B
102
}
330
5B
100
AcDbMLeaderStyle
170
     2
171
     1
172
     0
 90
        2
 40
0.0
 41
0.0
173
     1
 91
-1056964608
340
14
 92
       -2
290
     1
 42
2.0
291
     1
 43
8.0
  3
Standard
 44
4.0
300

342
11
174
     1
178
     6
175
     1
176
     0
 93
-1056964608
 45
4.0
292
     0
297
     0
 46
4.0
 94
-1056964608
 47
1.0
 49
1.0
140
1.0
293
     1
141
0.0
294
     1
177
     0
142
1.0
295
     0
296
     0
143
3.75
1001
ACAD_MLEADERVER
1070
     2
  0
MLINESTYLE
  5
18
102
{ACAD_REACTORS
330
17
102
}
330
17
100
AcDbMlineStyle
  2
STANDARD
 70
     0
  3

 62
   256
 51
90.0
 52
90.0
 71
     2
 49
0.5
 62
   256
  6
BYLAYER
 49
-0.5
 62
   256
  6
BYLAYER
  0
ACDBPLACEHOLDER
  5
F
102
{ACAD_REACTORS
330
E
102
}
330
E
  0
SCALE
  5
48
102
{ACAD_REACTORS
330
47
102
}
330
47
100
AcDbScale
 70
     0
300
1:1
140
1.0
141
1.0
290
     1
  0
SCALE
  5
49
102
{ACAD_REACTORS
330
47
102
}
330
47
100
AcDbScale
 70
     0
300
1:2
140
1.0
141
2.0
290
     0
  0
SCALE
  5
4A
102
{ACAD_REACTORS
330
47
102
}
330
47
100
AcDbScale
 70
     0
300
1:4
140
1.0
141
4.0
290
     0
  0
SCALE
  5
4B
102
{ACAD_REACTORS
330
47
102
}
330
47
100
AcDbScale
 70
     0
300
1:5
140
1.0
141
5.0
290
     0
  0
SCALE
  5
4C
102
{ACAD_REACTORS
330
47
102
}
330
47
100
AcDbScale
 70
     0
300
1:8
140
1.0
141
8.0
290
     0
  0
SCALE
  5
4D
102
{ACAD_REACTORS
330
47
102
}
330
47
100
AcDbScale
 70
     0
300
1:10
140
1.0
141
10.0
290
     0
  0
SCALE
  5
4E
102
{ACAD_REACTORS
330
47
102
}
330
47
100
AcDbScale
 70
     0
300
1:16
140
1.0
141
16.0
290
     0
  0
SCALE
  5
4F
102
{ACAD_REACTORS
330
47
102
}
330
47
100
AcDbScale
 70
     0
300
1:20
140
1.0
141
20.0
290
     0
  0
SCALE
  5
50
102
{ACAD_REACTORS
330
47
102
}
330
47
100
AcDbScale
 70
     0
300
1:30
140
1.0
141
30.0
290
     0
  0
SCALE
  5
51
102
{ACAD_REACTORS
330
47
102
}
330
47
100
AcDbScale
 70
     0
300
1:40
140
1.0
141
40.0
290
     0
  0
SCALE
  5
52
102
{ACAD_REACTORS
330
47
102
}
330
47
100
AcDbScale
 70
     0
300
1:50
140
1.0
141
50.0
290
     0
  0
SCALE
  5
53
102
{ACAD_REACTORS
330
47
102
}
330
47
100
AcDbScale
 70
     0
300
1:100
140
1.0
141
100.0
290
     0
  0
SCALE
  5
54
102
{ACAD_REACTORS
330
47
102
}
330
47
100
AcDbScale
 70
     0
300
2:1
140
2.0
141
1.0
290
     0
  0
SCALE
  5
55
102
{ACAD_REACTORS
330
47
102
}
330
47
100
AcDbScale
 70
     0
300
4:1
140
4.0
141
1.0
290
     0
  0
SCALE
  5
56
102
{ACAD_REACTORS
330
47
102
}
330
47
100
AcDbScale
 70
     0
300
8:1
140
8.0
141
1.0
290
     0
  0
SCALE
  5
57
102
{ACAD_REACTORS
330
47
102
}
330
47
100
AcDbScale
 70
     0
300
10:1
140
10.0
141
1.0
290
     0
  0
SCALE
  5
58
102
{ACAD_REACTORS
330
47
102
}
330
47
100
AcDbScale
 70
     0
300
100:1
140
100.0
141
1.0
290
     0
  0
ACDBSECTIONVIEWSTYLE
  5
287
102
{ACAD_XDICTIONARY
360
87E
102
}
102
{ACAD_REACTORS
330
286
102
}
330
286
100
AcDbModelDocViewStyle
 70
     0
  3
Metric50
290
     0
100
AcDbSectionViewStyle
 70
     0
 71
     0
 90
      102
 71
     1
340
11
 40
5.0
340
0
340
0
 40
5.0
300
I, O, Q, S, X, Z
 40
10.0
 90
        0
 40
2.5
 90
        0
 71
     2
340
16
 90
       25
340
16
 90
       50
 40
5.0
 40
2.5
 40
5.0
 71
     3
340
11
 40
5.0
 90
        0
 40
15.0
 90
        1
300
%<\AcVar ViewSectionStartId>%-%<\AcVar ViewSectionEndId>% (%<\AcVar ViewScale \f "%sn">%)
 71
     4
300
ANSI31
 40
1.0
 90
        0
290
     0
290
     0
 90
        6
 40
0.0
 40
1.570796326794896
 40
0.2617993877991494
 40
1.308996938995747
 40
-0.2617993877991494
 40
1.832595714594045
  0
TABLESTYLE
  5
5A
102
{ACAD_XDICTIONARY
360
7B6
102
}
102
{ACAD_REACTORS
330
59
102
}
330
59
100
AcDbTableStyle
  3
Standard
 70
     0
 71
     0
 40
1.5
 41
1.5
280
     0
281
     0
  7
Standard
140
4.5
170
     2
 62
     0
 63
     7
283
     0
274
    -2
284
     1
 64
     0
275
    -2
285
     1
 65
     0
276
    -2
286
     1
 66
     0
277
    -2
287
     1
 67
     0
278
    -2
288
     1
 68
     0
279
    -2
289
     1
 69
     0
  7
Standard
140
6.0
170
     5
 62
     0
 63
     7
283
     0
274
    -2
284
     1
 64
     0
275
    -2
285
     1
 65
     0
276
    -2
286
     1
 66
     0
277
    -2
287
     1
 67
     0
278
    -2
288
     1
 68
     0
279
    -2
289
     1
 69
     0
  7
Standard
140
4.5
170
     5
 62
     0
 63
     7
283
     0
274
    -2
284
     1
 64
     0
275
    -2
285
     1
 65
     0
276
    -2
286
     1
 66
     0
277
    -2
287
     1
 67
     0
278
    -2
288
     1
 68
     0
279
    -2
289
     1
 69
     0
  0
VISUALSTYLE
  5
2F
102
{ACAD_XDICTIONARY
360
855
102
}
102
{ACAD_REACTORS
330
2A
102
}
330
2A
100
AcDbVisualStyle
  2

 70
     4
 71
     0
 72
     2
 73
     0
 90
        0
 40
-0.6
 41
-30.0
 62
     5
 63
     7
 74
     1
 91
        4
 64
     7
 65
   257
 75
     1
175
     1
 42
1.0
 92
        0
 66
   257
 43
1.0
 76
     1
 77
     6
 78
     2
 67
     7
 79
     5
170
     0
171
     0
290
     0
174
     0
 93
        1
 44
0.0
173
     0
291
     0
 45
0.0
1001
ACAD
1000
AcDbSavedByObjectVersion
1070
     0
  0
VISUALSTYLE
  5
32
102
{ACAD_XDICTIONARY
360
85B
102
}
102
{ACAD_REACTORS
330
2A
102
}
330
2A
100
AcDbVisualStyle
  2

 70
     7
 71
     1
 72
     0
 73
     1
 90
        0
 40
-0.6
 41
-30.0
 62
     5
 63
     7
 74
     0
 91
        4
 64
     7
 65
   257
 75
     1
175
     1
 42
1.0
 92
        8
 66
     7
 43
1.0
 76
     1
 77
     6
 78
     2
 67
     7
 79
     5
170
     0
171
     0
290
     0
174
     0
 93
        1
 44
0.0
173
     0
291
     1
 45
0.0
1001
ACAD
1000
AcDbSavedByObjectVersion
1070
     0
  0
VISUALSTYLE
  5
36
102
{ACAD_XDICTIONARY
360
863
102
}
102
{ACAD_REACTORS
330
2A
102
}
330
2A
100
AcDbVisualStyle
  2

 70
    12
 71
     2
 72
     2
 73
     0
 90
        0
 40
-0.6
 41
-30.0
 62
     5
 63
     7
 74
     1
 91
        4
 64
     7
 65
   257
 75
     1
175
     1
 42
1.0
 92
        8
 66
     7
 43
1.0
 76
     1
 77
     6
 78
     2
 67
     7
 79
     5
170
     0
171
     0
290
     0
174
     0
 93
        1
 44
50.0
173
     0
291
     1
 45
0.0
1001
ACAD
1000
AcDbSavedByObjectVersion
1070
     0
  0
VISUALSTYLE
  5
3A
102
{ACAD_XDICTIONARY
360
86B
102
}
102
{ACAD_REACTORS
330
2A
102
}
330
2A
100
AcDbVisualStyle
  2

 70
    16
 71
     2
 72
     2
 73
     3
 90
        0
 40
-0.6
 41
-30.0
 62
     5
 63
     8
 74
     1
 91
        4
 64
     7
 65
   257
 75
     1
175
     1
 42
1.0
 92
        8
 66
     8
 43
1.0
 76
     1
 77
     6
 78
     2
 67
     7
 79
     5
170
     0
171
     0
290
     0
174
     0
 93
        1
 44
0.0
173
     0
291
     1
 45
0.0
1001
ACAD
1000
AcDbSavedByObjectVersion
1070
     0
  0
VISUALSTYLE
  5
34
102
{ACAD_XDICTIONARY
360
85F
102
}
102
{ACAD_REACTORS
330
2A
102
}
330
2A
100
AcDbVisualStyle
  2

 70
     9
 71
     3
 72
     2
 73
     0
 90
        0
 40
-0.6
 41
-30.0
 62
     5
 63
     7
 74
     2
 91
        2
 64
     7
 65
   257
 75
     1
175
     1
 42
179.0
 92
        8
 66
     7
 43
1.0
 76
     1
 77
     6
 78
     2
 67
     7
 79
     3
170
     0
171
     0
290
     0
174
     0
 93
        1
 44
0.0
173
     0
291
     0
 45
0.0
1001
ACAD
1000
AcDbSavedByObjectVersion
1070
     0
  0
VISUALSTYLE
  5
35
102
{ACAD_XDICTIONARY
360
861
102
}
102
{ACAD_REACTORS
330
2A
102
}
330
2A
100
AcDbVisualStyle
  2

 70
    11
 71
     2
 72
     2
 73
     0
 90
        0
 40
-0.6
 41
-30.0
 62
     5
 63
     7
 74
     1
 91
        4
 64
     7
 65
   257
 75
     1
175
     1
 42
1.0
 92
        8
 66
     7
 43
1.0
 76
     1
 77
     6
 78
     2
 67
     7
 79
     5
170
     0
171
     0
290
     0
174
     0
 93
        1
 44
-50.0
173
     0
291
     1
 45
0.0
1001
ACAD
1000
AcDbSavedByObjectVersion
1070
     0
  0
VISUALSTYLE
  5
3D
102
{ACAD_XDICTIONARY
360
871
102
}
102
{ACAD_REACTORS
330
2A
102
}
330
2A
100
AcDbVisualStyle
  2

 70
    22
 71
     2
 72
     2
 73
     0
 90
        0
 40
-0.6
 41
-30.0
 62
     5
 63
     7
 74
     1
 91
        4
 64
     7
 65
   257
 75
     1
175
     1
 42
1.0
 92
        8
 66
     7
 43
1.0
 76
     1
 77
     6
 78
     2
 67
     7
 79
     5
170
     0
171
     0
290
     0
174
     0
 93
        1
 44
0.0
173
     0
291
     1
 45
0.0
1001
ACAD
1000
AcDbSavedByObjectVersion
1070
     0
  0
VISUALSTYLE
  5
39
102
{ACAD_XDICTIONARY
360
869
102
}
102
{ACAD_REACTORS
330
2A
102
}
330
2A
100
AcDbVisualStyle
  2

 70
    15
 71
     2
 72
     2
 73
     0
 90
        0
 40
-0.6
 41
-30.0
 62
     5
 63
     7
 74
     1
 91
        4
 64
     7
 65
   257
 75
     1
175
     1
 42
1.0
 92
        8
 66
     7
 43
1.0
 76
     1
 77
     6
 78
     2
 67
     7
 79
     5
170
     0
171
     0
290
     0
174
     0
 93
        1
 44
0.0
173
     0
291
     1
 45
0.0
1001
ACAD
1000
AcDbSavedByObjectVersion
1070
     0
  0
VISUALSTYLE
  5
2B
102
{ACAD_XDICTIONARY
360
84D
102
}
102
{ACAD_REACTORS
330
2A
102
}
330
2A
100
AcDbVisualStyle
  2

 70
     0
 71
     2
 72
     1
 73
     1
 90
        2
 40
-0.6
 41
30.0
 62
     5
 63
     7
 74
     0
 91
        0
 64
     7
 65
   257
 75
     1
175
     1
 42
1.0
 92
        8
 66
     7
 43
1.0
 76
     1
 77
     6
 78
     2
 67
     7
 79
     5
170
     0
171
     0
290
     0
174
     0
 93
       13
 44
0.0
173
     0
291
     1
 45
0.0
1001
ACAD
1000
AcDbSavedByObjectVersion
1070
     0
  0
VISUALSTYLE
  5
2C
102
{ACAD_XDICTIONARY
360
84F
102
}
102
{ACAD_REACTORS
330
2A
102
}
330
2A
100
AcDbVisualStyle
  2

 70
     1
 71
     2
 72
     1
 73
     1
 90
        2
 40
-0.6
 41
30.0
 62
     5
 63
     7
 74
     1
 91
        0
 64
     7
 65
   257
 75
     1
175
     1
 42
1.0
 92
        0
 66
   257
 43
1.0
 76
     1
 77
     6
 78
     2
 67
     7
 79
     5
170
     0
171
     0
290
     0
174
     0
 93
       13
 44
0.0
173
     0
291
     1
 45
0.0
1001
ACAD
1000
AcDbSavedByObjectVersion
1070
     0
  0
VISUALSTYLE
  5
2D
102
{ACAD_XDICTIONARY
360
851
102
}
102
{ACAD_REACTORS
330
2A
102
}
330
2A
100
AcDbVisualStyle
  2

 70
     2
 71
     2
 72
     2
 73
     1
 90
        2
 40
-0.6
 41
30.0
 62
     5
 63
     7
 74
     0
 91
        0
 64
     7
 65
   257
 75
     1
175
     1
 42
1.0
 92
        0
 66
     7
 43
1.0
 76
     1
 77
     6
 78
     2
 67
     7
 79
     5
170
     0
171
     0
290
     0
174
     0
 93
       13
 44
0.0
173
     0
291
     1
 45
0.0
1001
ACAD
1000
AcDbSavedByObjectVersion
1070
     0
  0
VISUALSTYLE
  5
2E
102
{ACAD_XDICTIONARY
360
853
102
}
102
{ACAD_REACTORS
330
2A
102
}
330
2A
100
AcDbVisualStyle
  2

 70
     3
 71
     2
 72
     2
 73
     1
 90
        2
 40
-0.6
 41
30.0
 62
     5
 63
     7
 74
     1
 91
        0
 64
     7
 65
   257
 75
     1
175
     1
 42
1.0
 92
        0
 66
   257
 43
1.0
 76
     1
 77
     6
 78
     2
 67
     7
 79
     5
170
     0
171
     0
290
     0
174
     0
 93
       13
 44
0.0
173
     0
291
     1
 45
0.0
1001
ACAD
1000
AcDbSavedByObjectVersion
1070
     0
  0
VISUALSTYLE
  5
31
102
{ACAD_XDICTIONARY
360
859
102
}
102
{ACAD_REACTORS
330
2A
102
}
330
2A
100
AcDbVisualStyle
  2

 70
     6
 71
     1
 72
     2
 73
     2
 90
        0
 40
-0.6
 41
-30.0
 62
     5
 63
     7
 74
     2
 91
        2
 64
     7
 65
   257
 75
     2
175
     1
 42
40.0
 92
        0
 66
   257
 43
1.0
 76
     1
 77
     6
 78
     2
 67
     7
 79
     3
170
     0
171
     0
290
     0
174
     0
 93
        1
 44
0.0
173
     0
291
     0
 45
0.0
1001
ACAD
1000
AcDbSavedByObjectVersion
1070
     0
  0
VISUALSTYLE
  5
3B
102
{ACAD_XDICTIONARY
360
86D
102
}
102
{ACAD_REACTORS
330
2A
102
}
330
2A
100
AcDbVisualStyle
  2

 70
    20
 71
     2
 72
     2
 73
     0
 90
        0
 40
-0.6
 41
-30.0
 62
     5
 63
     7
 74
     1
 91
        4
 64
     7
 65
   257
 75
     1
175
     1
 42
1.0
 92
       10
 66
     7
 43
1.0
 76
     1
 77
     6
 78
     2
 67
     7
 79
     5
170
     0
171
     0
290
     0
174
     0
 93
        1
 44
0.0
173
     0
291
     1
 45
0.0
1001
ACAD
1000
AcDbSavedByObjectVersion
1070
     0
  0
VISUALSTYLE
  5
38
102
{ACAD_XDICTIONARY
360
867
102
}
102
{ACAD_REACTORS
330
2A
102
}
330
2A
100
AcDbVisualStyle
  2

 70
    14
 71
     2
 72
     2
 73
     0
 90
        0
 40
-0.6
 41
-30.0
 62
     5
 63
     7
 74
     1
 91
        4
 64
     7
 65
   257
 75
     7
175
     7
 42
1.0
 92
        8
 66
     7
 43
1.0
 76
     1
 77
     6
 78
     2
 67
     7
 79
     5
170
     0
171
     0
290
     0
174
     0
 93
        1
 44
0.0
173
     0
291
     1
 45
0.0
1001
ACAD
1000
AcDbSavedByObjectVersion
1070
     0
  0
VISUALSTYLE
  5
3C
102
{ACAD_XDICTIONARY
360
86F
102
}
102
{ACAD_REACTORS
330
2A
102
}
330
2A
100
AcDbVisualStyle
  2

 70
    21
 71
     2
 72
     2
 73
     0
 90
        0
 40
-0.6
 41
-30.0
 62
     5
 63
     7
 74
     1
 91
        4
 64
     7
 65
   257
 75
     1
175
     1
 42
1.0
 92
        9
 66
     7
 43
1.0
 76
     1
 77
     6
 78
     2
 67
     7
 79
     5
170
     0
171
     0
290
     0
174
     0
 93
        1
 44
0.0
173
     0
291
     1
 45
0.0
1001
ACAD
1000
AcDbSavedByObjectVersion
1070
     0
  0
VISUALSTYLE
  5
33
102
{ACAD_XDICTIONARY
360
85D
102
}
102
{ACAD_REACTORS
330
2A
102
}
330
2A
100
AcDbVisualStyle
  2

 70
     8
 71
     2
 72
     3
 73
     0
 90
        2
 40
-0.6
 41
30.0
 62
     5
 63
     7
 74
     0
 91
        0
 64
     7
 65
   257
 75
     1
175
     1
 42
1.0
 92
        8
 66
   257
 43
1.0
 76
     1
 77
     6
 78
     2
 67
     7
 79
     3
170
     0
171
     0
290
     0
174
     0
 93
       13
 44
0.0
173
     0
291
     0
 45
0.0
1001
ACAD
1000
AcDbSavedByObjectVersion
1070
     0
  0
VISUALSTYLE
  5
42
102
{ACAD_XDICTIONARY
360
87B
102
}
102
{ACAD_REACTORS
330
2A
102
}
330
2A
100
AcDbVisualStyle
  2

 70
    27
 71
     2
 72
     2
 73
     1
 90
        2
 40
-0.6
 41
30.0
 62
     5
 63
     7
 74
     0
 91
        4
 64
     7
 65
   257
 75
     1
175
     1
 42
1.0
 92
        8
 66
   257
 43
1.0
 76
     1
 77
     6
 78
     2
 67
     8
 79
     3
170
     0
171
     0
290
     0
174
     0
 93
        5
 44
0.0
173
     0
291
     0
 45
0.0
1001
ACAD
1000
AcDbSavedByObjectVersion
1070
     0
  0
VISUALSTYLE
  5
41
102
{ACAD_XDICTIONARY
360
879
102
}
102
{ACAD_REACTORS
330
2A
102
}
330
2A
100
AcDbVisualStyle
  2

 70
    26
 71
     2
 72
     2
 73
     1
 90
        2
 40
-0.6
 41
30.0
 62
     5
 63
     7
 74
     1
 91
       10
 64
     7
 65
   257
 75
     2
175
     1
 42
1.0
 92
        8
 66
   257
 43
1.0
 76
     1
 77
     6
 78
     2
 67
     7
 79
     3
170
     0
171
     0
290
     0
174
     0
 93
        5
 44
0.0
173
     0
291
     0
 45
0.0
1001
ACAD
1000
AcDbSavedByObjectVersion
1070
     0
  0
VISUALSTYLE
  5
3E
102
{ACAD_XDICTIONARY
360
873
102
}
102
{ACAD_REACTORS
330
2A
102
}
330
2A
100
AcDbVisualStyle
  2

 70
    23
 71
     2
 72
     2
 73
     3
 90
        0
 40
-0.6
 41
-30.0
 62
     5
 63
     7
 74
     2
 91
        2
 64
     7
 65
     7
 75
     1
175
     1
 42
40.0
 92
        8
 66
     7
 43
1.0
 76
     1
 77
     6
 78
     2
 67
     7
 79
     3
170
     0
171
     0
290
     0
174
     0
 93
        1
 44
0.0
173
     0
291
     0
 45
0.0
1001
ACAD
1000
AcDbSavedByObjectVersion
1070
     0
  0
VISUALSTYLE
  5
3F
102
{ACAD_XDICTIONARY
360
875
102
}
102
{ACAD_REACTORS
330
2A
102
}
330
2A
100
AcDbVisualStyle
  2

 70
    24
 71
     1
 72
     2
 73
     2
 90
        0
 40
-0.6
 41
-30.0
 62
     5
 63
     7
 74
     2
 91
        2
 64
     7
 65
     7
 75
     1
175
     1
 42
40.0
 92
       11
 66
     7
 43
1.0
 76
     1
 77
     6
 78
     2
 67
     7
 79
     6
170
     0
171
     0
290
     0
174
     0
 93
        1
 44
0.0
173
     0
291
     0
 45
0.0
1001
ACAD
1000
AcDbSavedByObjectVersion
1070
     0
  0
VISUALSTYLE
  5
37
102
{ACAD_XDICTIONARY
360
865
102
}
102
{ACAD_REACTORS
330
2A
102
}
330
2A
100
AcDbVisualStyle
  2

 70
    13
 71
     2
 72
     2
 73
     0
 90
        0
 40
-0.6
 41
-30.0
 62
     5
 63
     7
 74
     1
 91
        4
 64
     7
 65
   257
 75
     1
175
     1
 42
1.0
 92
       12
 66
     7
 43
1.0
 76
     1
 77
     6
 78
     2
 67
     7
 79
     5
170
     0
171
     0
290
     0
174
     0
 93
        1
 44
0.0
173
     0
291
     1
 45
0.0
1001
ACAD
1000
AcDbSavedByObjectVersion
1070
     0
  0
VISUALSTYLE
  5
30
102
{ACAD_XDICTIONARY
360
857
102
}
102
{ACAD_REACTORS
330
2A
102
}
330
2A
100
AcDbVisualStyle
  2

 70
     5
 71
     0
 72
     2
 73
     0
 90
        0
 40
-0.6
 41
-30.0
 62
     5
 63
     7
 74
     1
 91
        4
 64
     7
 65
   257
 75
     1
175
     1
 42
1.0
 92
        0
 66
   257
 43
1.0
 76
     1
 77
     6
 78
     2
 67
     7
 79
     3
170
     0
171
     0
290
     0
174
     0
 93
        1
 44
0.0
173
     0
291
     0
 45
0.0
1001
ACAD
1000
AcDbSavedByObjectVersion
1070
     0
  0
VISUALSTYLE
  5
40
102
{ACAD_XDICTIONARY
360
877
102
}
102
{ACAD_REACTORS
330
2A
102
}
330
2A
100
AcDbVisualStyle
  2

 70
    25
 71
     2
 72
     2
 73
     1
 90
        1
 40
0.5
 41
-30.0
 62
     5
 63
     7
 74
     1
 91
        0
 64
     7
 65
   257
 75
     1
175
     1
 42
1.0
 92
        8
 66
     7
 43
1.0
 76
     1
 77
     6
 78
     2
 67
     7
 79
     3
170
     0
171
     0
290
     0
174
     0
 93
       13
 44
0.0
173
     0
291
     0
 45
0.0
1001
ACAD
1000
AcDbSavedByObjectVersion
1070
     0
  0
DICTIONARYVAR
  5
248
102
{ACAD_REACTORS
330
23A
102
}
330
23A
100
DictionaryVariables
280
     0
  1
1:1
  0
DICTIONARYVAR
  5
241
102
{ACAD_REACTORS
330
23A
102
}
330
23A
100
DictionaryVariables
280
     0
  1
3.500000
  0
DICTIONARYVAR
  5
242
102
{ACAD_REACTORS
330
23A
102
}
330
23A
100
DictionaryVariables
280
     0
  1
acadiso.lin
  0
DICTIONARYVAR
  5
23C
102
{ACAD_REACTORS
330
23A
102
}
330
23A
100
DictionaryVariables
280
     0
  1
STANDARD
  0
DICTIONARYVAR
  5
23B
102
{ACAD_REACTORS
330
23A
102
}
330
23A
100
DictionaryVariables
280
     0
  1
STANDARD
  0
DICTIONARYVAR
  5
7B1
102
{ACAD_REACTORS
330
23A
102
}
330
23A
100
DictionaryVariables
280
     0
  1
Metric50
  0
DICTIONARYVAR
  5
7B2
102
{ACAD_REACTORS
330
23A
102
}
330
23A
100
DictionaryVariables
280
     0
  1
Metric50
  0
DICTIONARYVAR
  5
243
102
{ACAD_REACTORS
330
23A
102
}
330
23A
100
DictionaryVariables
280
     0
  1
2
  0
DICTIONARYVAR
  5
244
102
{ACAD_REACTORS
330
23A
102
}
330
23A
100
DictionaryVariables
280
     0
  1
1
  0
DICTIONARYVAR
  5
801
102
{ACAD_REACTORS
330
23A
102
}
330
23A
100
DictionaryVariables
280
     0
  1
0
  0
DICTIONARYVAR
  5
7B4
102
{ACAD_REACTORS
330
23A
102
}
330
23A
100
DictionaryVariables
280
     0
  1
1
  0
DICTIONARYVAR
  5
7B5
102
{ACAD_REACTORS
330
23A
102
}
330
23A
100
DictionaryVariables
280
     0
  1
15
  0
DICTIONARYVAR
  5
7B3
102
{ACAD_REACTORS
330
23A
102
}
330
23A
100
DictionaryVariables
280
     0
  1
0
  0
DICTIONARYVAR
  5
804
102
{ACAD_REACTORS
330
23A
102
}
330
23A
100
DictionaryVariables
280
     0
  1
1.570796
  0
DICTIONARYVAR
  5
805
102
{ACAD_REACTORS
330
23A
102
}
330
23A
100
DictionaryVariables
280
     0
  1
1.570796
  0
DICTIONARYVAR
  5
806
102
{ACAD_REACTORS
330
23A
102
}
330
23A
100
DictionaryVariables
280
     0
  1
-122.394000
  0
DICTIONARYVAR
  5
249
102
{ACAD_REACTORS
330
23A
102
}
330
23A
100
DictionaryVariables
280
     0
  1
1
  0
DICTIONARYVAR
  5
803
102
{ACAD_REACTORS
330
23A
102
}
330
23A
100
DictionaryVariables
280
     0
  1
80.000000
  0
DICTIONARYVAR
  5
802
102
{ACAD_REACTORS
330
23A
102
}
330
23A
100
DictionaryVariables
280
     0
  1
5.000000
  0
DICTIONARYVAR
  5
800
102
{ACAD_REACTORS
330
23A
102
}
330
23A
100
DictionaryVariables
280
     0
  1
127
  0
DICTIONARYVAR
  5
807
102
{ACAD_REACTORS
330
23A
102
}
330
23A
100
DictionaryVariables
280
     0
  1
2
  0
DICTIONARY
  5
880
330
289
100
AcDbDictionary
280
     1
281
     1
  3
ACAD_XREC_ROUNDTRIP
360
881
  0
DICTIONARY
  5
849
330
1E
100
AcDbDictionary
280
     1
281
     1
  3
ACAD_XREC_ROUNDTRIP
360
84A
  0
DICTIONARY
  5
84B
330
22
100
AcDbDictionary
280
     1
281
     1
  3
ACAD_XREC_ROUNDTRIP
360
84C
  0
DICTIONARY
  5
882
330
28A
100
AcDbDictionary
280
     1
281
     1
  3
ACAD_XREC_ROUNDTRIP
360
883
  0
DICTIONARY
  5
27C
330
45
100
AcDbDictionary
280
     1
281
     1
  3
ACAD_XREC_ROUNDTRIP
360
27D
  0
DICTIONARY
  5
27A
330
44
100
AcDbDictionary
280
     1
281
     1
  3
ACAD_XREC_ROUNDTRIP
360
27B
  0
DICTIONARY
  5
27E
330
46
100
AcDbDictionary
280
     1
281
     1
  3
ACAD_XREC_ROUNDTRIP
360
27F
  0
DICTIONARY
  5
87E
330
287
100
AcDbDictionary
280
     1
281
     1
  3
ACAD_XREC_ROUNDTRIP
360
87F
  0
DICTIONARY
  5
7B6
330
5A
100
AcDbDictionary
280
     1
281
     1
  3
ACAD_ROUNDTRIP_2008_TABLESTYLE_CELLSTYLEMAP
360
846
  3
ACAD_XREC_ROUNDTRIP
360
87D
  0
DICTIONARY
  5
855
330
2F
100
AcDbDictionary
280
     1
281
     1
  3
ACAD_XREC_ROUNDTRIP
360
856
  0
DICTIONARY
  5
85B
330
32
100
AcDbDictionary
280
     1
281
     1
  3
ACAD_XREC_ROUNDTRIP
360
85C
  0
DICTIONARY
  5
863
330
36
100
AcDbDictionary
280
     1
281
     1
  3
ACAD_XREC_ROUNDTRIP
360
864
  0
DICTIONARY
  5
86B
330
3A
100
AcDbDictionary
280
     1
281
     1
  3
ACAD_XREC_ROUNDTRIP
360
86C
  0
DICTIONARY
  5
85F
330
34
100
AcDbDictionary
280
     1
281
     1
  3
ACAD_XREC_ROUNDTRIP
360
860
  0
DICTIONARY
  5
861
330
35
100
AcDbDictionary
280
     1
281
     1
  3
ACAD_XREC_ROUNDTRIP
360
862
  0
DICTIONARY
  5
871
330
3D
100
AcDbDictionary
280
     1
281
     1
  3
ACAD_XREC_ROUNDTRIP
360
872
  0
DICTIONARY
  5
869
330
39
100
AcDbDictionary
280
     1
281
     1
  3
ACAD_XREC_ROUNDTRIP
360
86A
  0
DICTIONARY
  5
84D
330
2B
100
AcDbDictionary
280
     1
281
     1
  3
ACAD_XREC_ROUNDTRIP
360
84E
  0
DICTIONARY
  5
84F
330
2C
100
AcDbDictionary
280
     1
281
     1
  3
ACAD_XREC_ROUNDTRIP
360
850
  0
DICTIONARY
  5
851
330
2D
100
AcDbDictionary
280
     1
281
     1
  3
ACAD_XREC_ROUNDTRIP
360
852
  0
DICTIONARY
  5
853
330
2E
100
AcDbDictionary
280
     1
281
     1
  3
ACAD_XREC_ROUNDTRIP
360
854
  0
DICTIONARY
  5
859
330
31
100
AcDbDictionary
280
     1
281
     1
  3
ACAD_XREC_ROUNDTRIP
360
85A
  0
DICTIONARY
  5
86D
330
3B
100
AcDbDictionary
280
     1
281
     1
  3
ACAD_XREC_ROUNDTRIP
360
86E
  0
DICTIONARY
  5
867
330
38
100
AcDbDictionary
280
     1
281
     1
  3
ACAD_XREC_ROUNDTRIP
360
868
  0
DICTIONARY
  5
86F
330
3C
100
AcDbDictionary
280
     1
281
     1
  3
ACAD_XREC_ROUNDTRIP
360
870
  0
DICTIONARY
  5
85D
330
33
100
AcDbDictionary
280
     1
281
     1
  3
ACAD_XREC_ROUNDTRIP
360
85E
  0
DICTIONARY
  5
87B
330
42
100
AcDbDictionary
280
     1
281
     1
  3
ACAD_XREC_ROUNDTRIP
360
87C
  0
DICTIONARY
  5
879
330
41
100
AcDbDictionary
280
     1
281
     1
  3
ACAD_XREC_ROUNDTRIP
360
87A
  0
DICTIONARY
  5
873
330
3E
100
AcDbDictionary
280
     1
281
     1
  3
ACAD_XREC_ROUNDTRIP
360
874
  0
DICTIONARY
  5
875
330
3F
100
AcDbDictionary
280
     1
281
     1
  3
ACAD_XREC_ROUNDTRIP
360
876
  0
DICTIONARY
  5
865
330
37
100
AcDbDictionary
280
     1
281
     1
  3
ACAD_XREC_ROUNDTRIP
360
866
  0
DICTIONARY
  5
857
330
30
100
AcDbDictionary
280
     1
281
     1
  3
ACAD_XREC_ROUNDTRIP
360
858
  0
DICTIONARY
  5
877
330
40
100
AcDbDictionary
280
     1
281
     1
  3
ACAD_XREC_ROUNDTRIP
360
878
  0
XRECORD
  5
881
102
{ACAD_REACTORS
330
880
102
}
330
880
100
AcDbXrecord
280
     1
102
DISPLAYNAME
  1
Metric50
102
FLAGS
 90
        0
  0
XRECORD
  5
84A
102
{ACAD_REACTORS
330
849
102
}
330
849
100
AcDbXrecord
280
     1
102
SHADEPLOT
 70
     0
102
SHADEPLOTRESLEVEL
 70
     2
102
SHADEPLOTCUSTOMDPI
 70
   300
  0
XRECORD
  5
84C
102
{ACAD_REACTORS
330
84B
102
}
330
84B
100
AcDbXrecord
280
     1
102
SHADEPLOT
 70
     0
102
SHADEPLOTRESLEVEL
 70
     2
102
SHADEPLOTCUSTOMDPI
 70
   300
  0
XRECORD
  5
883
102
{ACAD_REACTORS
330
882
102
}
330
882
100
AcDbXrecord
280
     1
102
SHADEPLOT
 70
     0
102
SHADEPLOTRESLEVEL
 70
     2
102
SHADEPLOTCUSTOMDPI
 70
   300
  0
XRECORD
  5
27D
102
{ACAD_REACTORS
330
27C
102
}
330
27C
100
AcDbXrecord
280
     1
102
MATERIAL
148
0.0
149
0.0
149
0.0
 93
        0
 94
      127
282
     0
 72
     1
 77
     1
171
     1
175
     1
179
     1
273
     0
  0
XRECORD
  5
27B
102
{ACAD_REACTORS
330
27A
102
}
330
27A
100
AcDbXrecord
280
     1
102
MATERIAL
148
0.0
149
0.0
149
0.0
 93
        0
 94
      127
282
     0
 72
     1
 77
     1
171
     1
175
     1
179
     1
273
     0
  0
XRECORD
  5
27F
102
{ACAD_REACTORS
330
27E
102
}
330
27E
100
AcDbXrecord
280
     1
102
MATERIAL
148
0.0
149
0.0
149
0.0
 93
        0
 94
      127
282
     0
 72
     1
 77
     1
171
     1
175
     1
179
     1
273
     0
  0
XRECORD
  5
87F
102
{ACAD_REACTORS
330
87E
102
}
330
87E
100
AcDbXrecord
280
     1
102
DISPLAYNAME
  1
Metric50
102
FLAGS
 90
        0
  0
CELLSTYLEMAP
  5
846
102
{ACAD_REACTORS
330
7B6
102
}
330
7B6
100
AcDbCellStyleMap
 90
        3
300
CELLSTYLE
  1
TABLEFORMAT_BEGIN
 90
        5
170
     1
 91
        0
 92
    32768
 62
   257
 93
        1
300
CONTENTFORMAT
  1
CONTENTFORMAT_BEGIN
 90
        0
 91
        0
 92
        4
 93
        0
300

 40
0.0
140
1.0
 94
        5
 62
     0
340
11
144
6.0
309
CONTENTFORMAT_END
171
     1
301
MARGIN
  1
CELLMARGIN_BEGIN
 40
1.5
 40
1.5
 40
1.5
 40
1.5
 40
0.18
 40
0.18
309
CELLMARGIN_END
 94
        6
 95
        1
302
GRIDFORMAT
  1
GRIDFORMAT_BEGIN
 90
        0
 91
        1
 62
     0
 92
       -2
340
0
 93
        0
 40
0.045
309
GRIDFORMAT_END
 95
        2
302
GRIDFORMAT
  1
GRIDFORMAT_BEGIN
 90
        0
 91
        1
 62
     0
 92
       -2
340
0
 93
        0
 40
0.045
309
GRIDFORMAT_END
 95
        4
302
GRIDFORMAT
  1
GRIDFORMAT_BEGIN
 90
        0
 91
        1
 62
     0
 92
       -2
340
0
 93
        0
 40
0.045
309
GRIDFORMAT_END
 95
        8
302
GRIDFORMAT
  1
GRIDFORMAT_BEGIN
 90
        0
 91
        1
 62
     0
 92
       -2
340
0
 93
        0
 40
0.045
309
GRIDFORMAT_END
 95
       16
302
GRIDFORMAT
  1
GRIDFORMAT_BEGIN
 90
        0
 91
        1
 62
     0
 92
       -2
340
0
 93
        0
 40
0.045
309
GRIDFORMAT_END
 95
       32
302
GRIDFORMAT
  1
GRIDFORMAT_BEGIN
 90
        0
 91
        1
 62
     0
 92
       -2
340
0
 93
        0
 40
0.045
309
GRIDFORMAT_END
309
TABLEFORMAT_END
  1
CELLSTYLE_BEGIN
 90
        1
 91
        1
300
_TITLE
309
CELLSTYLE_END
300
CELLSTYLE
  1
TABLEFORMAT_BEGIN
 90
        5
170
     1
 91
        0
 92
        0
 62
   257
 93
        1
300
CONTENTFORMAT
  1
CONTENTFORMAT_BEGIN
 90
        0
 91
        0
 92
        4
 93
        0
300

 40
0.0
140
1.0
 94
        5
 62
     0
340
11
144
4.5
309
CONTENTFORMAT_END
171
     1
301
MARGIN
  1
CELLMARGIN_BEGIN
 40
1.5
 40
1.5
 40
1.5
 40
1.5
 40
0.18
 40
0.18
309
CELLMARGIN_END
 94
        6
 95
        1
302
GRIDFORMAT
  1
GRIDFORMAT_BEGIN
 90
        0
 91
        1
 62
     0
 92
       -2
340
0
 93
        0
 40
0.045
309
GRIDFORMAT_END
 95
        2
302
GRIDFORMAT
  1
GRIDFORMAT_BEGIN
 90
        0
 91
        1
 62
     0
 92
       -2
340
0
 93
        0
 40
0.045
309
GRIDFORMAT_END
 95
        4
302
GRIDFORMAT
  1
GRIDFORMAT_BEGIN
 90
        0
 91
        1
 62
     0
 92
       -2
340
0
 93
        0
 40
0.045
309
GRIDFORMAT_END
 95
        8
302
GRIDFORMAT
  1
GRIDFORMAT_BEGIN
 90
        0
 91
        1
 62
     0
 92
       -2
340
0
 93
        0
 40
0.045
309
GRIDFORMAT_END
 95
       16
302
GRIDFORMAT
  1
GRIDFORMAT_BEGIN
 90
        0
 91
        1
 62
     0
 92
       -2
340
0
 93
        0
 40
0.045
309
GRIDFORMAT_END
 95
       32
302
GRIDFORMAT
  1
GRIDFORMAT_BEGIN
 90
        0
 91
        1
 62
     0
 92
       -2
340
0
 93
        0
 40
0.045
309
GRIDFORMAT_END
309
TABLEFORMAT_END
  1
CELLSTYLE_BEGIN
 90
        2
 91
        1
300
_HEADER
309
CELLSTYLE_END
300
CELLSTYLE
  1
TABLEFORMAT_BEGIN
 90
        5
170
     1
 91
        0
 92
        0
 62
   257
 93
        1
300
CONTENTFORMAT
  1
CONTENTFORMAT_BEGIN
 90
        0
 91
        0
 92
        4
 93
        0
300

 40
0.0
140
1.0
 94
        2
 62
     0
340
11
144
4.5
309
CONTENTFORMAT_END
171
     1
301
MARGIN
  1
CELLMARGIN_BEGIN
 40
1.5
 40
1.5
 40
1.5
 40
1.5
 40
0.18
 40
0.18
309
CELLMARGIN_END
 94
        6
 95
        1
302
GRIDFORMAT
  1
GRIDFORMAT_BEGIN
 90
        0
 91
        1
 62
     0
 92
       -2
340
0
 93
        0
 40
0.045
309
GRIDFORMAT_END
 95
        2
302
GRIDFORMAT
  1
GRIDFORMAT_BEGIN
 90
        0
 91
        1
 62
     0
 92
       -2
340
0
 93
        0
 40
0.045
309
GRIDFORMAT_END
 95
        4
302
GRIDFORMAT
  1
GRIDFORMAT_BEGIN
 90
        0
 91
        1
 62
     0
 92
       -2
340
0
 93
        0
 40
0.045
309
GRIDFORMAT_END
 95
        8
302
GRIDFORMAT
  1
GRIDFORMAT_BEGIN
 90
        0
 91
        1
 62
     0
 92
       -2
340
0
 93
        0
 40
0.045
309
GRIDFORMAT_END
 95
       16
302
GRIDFORMAT
  1
GRIDFORMAT_BEGIN
 90
        0
 91
        1
 62
     0
 92
       -2
340
0
 93
        0
 40
0.045
309
GRIDFORMAT_END
 95
       32
302
GRIDFORMAT
  1
GRIDFORMAT_BEGIN
 90
        0
 91
        1
 62
     0
 92
       -2
340
0
 93
        0
 40
0.045
309
GRIDFORMAT_END
309
TABLEFORMAT_END
  1
CELLSTYLE_BEGIN
 90
        3
 91
        2
300
_DATA
309
CELLSTYLE_END
  0
XRECORD
  5
87D
102
{ACAD_REACTORS
330
7B6
102
}
330
7B6
100
AcDbXrecord
280
     1
102
ACAD_ROUNDTRIP_PRE2007_TABLESTYLE
 90
        4
 91
        0
  1

 92
        4
 93
        0
  2

 94
        4
 95
        0
  3

  0
XRECORD
  5
856
102
{ACAD_REACTORS
330
855
102
}
330
855
100
AcDbXrecord
280
     1
102
RTVSPost2010Prop28
280
     1
102
RTVSPost2010PropOp28
 70
     1
102
RTVSPost2010Prop29
280
     1
102
RTVSPost2010PropOp29
 70
     1
102
RTVSPost2010Prop30
280
     0
102
RTVSPost2010PropOp30
 70
     1
102
RTVSPost2010Prop31
280
     0
102
RTVSPost2010PropOp31
 70
     1
102
RTVSPost2010Prop32
280
     0
102
RTVSPost2010PropOp32
 70
     1
102
RTVSPost2010Prop33
280
     0
102
RTVSPost2010PropOp33
 70
     1
102
RTVSPost2010Prop34
280
     0
102
RTVSPost2010PropOp34
 70
     1
102
RTVSPost2010Prop35
280
     0
102
RTVSPost2010PropOp35
 70
     1
102
RTVSPost2010Prop36
280
     0
102
RTVSPost2010PropOp36
 70
     1
102
RTVSPost2010Prop37
 90
       50
102
RTVSPost2010PropOp37
 70
     1
102
RTVSPost2010Prop38
140
0.0
102
RTVSPost2010PropOp38
 70
     1
102
RTVSPost2010Prop39
140
1.0
102
RTVSPost2010PropOp39
 70
     1
102
RTVSPost2010Prop40
 90
        0
102
RTVSPost2010PropOp40
 70
     1
102
RTVSPost2010Prop41ColorIndex
 90
       18
102
RTVSPost2010Prop41ColorRGB
 90
        0
102
RTVSPost2010PropOp41
 70
     1
102
RTVSPost2010Prop42
 90
       50
102
RTVSPost2010PropOp42
 70
     1
102
RTVSPost2010Prop43
 90
        3
102
RTVSPost2010PropOp43
 70
     1
102
RTVSPost2010Prop44ColorIndex
 90
        5
102
RTVSPost2010Prop44ColorRGB
 90
      255
102
RTVSPost2010PropOp44
 70
     1
102
RTVSPost2010Prop45
280
     0
102
RTVSPost2010PropOp45
 70
     1
102
RTVSPost2010Prop46
 90
       50
102
RTVSPost2010PropOp46
 70
     1
102
RTVSPost2010Prop47
 90
       50
102
RTVSPost2010PropOp47
 70
     1
102
RTVSPost2010Prop48
 90
       50
102
RTVSPost2010PropOp48
 70
     1
102
RTVSPost2010Prop49
280
     0
102
RTVSPost2010PropOp49
 70
     1
102
RTVSPost2010Prop50
 90
       50
102
RTVSPost2010PropOp50
 70
     1
102
RTVSPost2010Prop51ColorIndex
 90
      256
102
RTVSPost2010Prop51ColorRGB
 90
-16777216
102
RTVSPost2010PropOp51
 70
     0
102
RTVSPost2010Prop52
140
1.0
102
RTVSPost2010PropOp52
 70
     0
102
RTVSPost2010Prop53
 90
        2
102
RTVSPost2010PropOp53
 70
     1
102
RTVSPost2010Prop54
  1
strokes_ogs.tif
102
RTVSPost2010PropOp54
 70
     1
102
RTVSPost2010Prop55
280
     0
102
RTVSPost2010PropOp55
 70
     1
102
RTVSPost2010Prop56
140
1.0
102
RTVSPost2010PropOp56
 70
     1
102
RTVSPost2010Prop57
140
1.0
102
RTVSPost2010PropOp57
 70
     1
102
RTVSPropertyOp0
 70
     1
102
RTVSPropertyOp1
 70
     1
102
RTVSPropertyOp2
 70
     1
102
RTVSPropertyOp3
 70
     1
102
RTVSPropertyOp4
 70
     1
102
RTVSPropertyOp5
 70
     1
102
RTVSPropertyOp6
 70
     1
102
RTVSPropertyOp7
 70
     1
102
RTVSPropertyOp8
 70
     1
102
RTVSPropertyOp9
 70
     1
102
RTVSPropertyOp10
 70
     1
102
RTVSPropertyOp11
 70
     1
102
RTVSPropertyOp12
 70
     1
102
RTVSPropertyOp13
 70
     1
102
RTVSPropertyOp14
 70
     1
102
RTVSPropertyOp15
 70
     1
102
RTVSPropertyOp16
 70
     1
102
RTVSPropertyOp17
 70
     1
102
RTVSPropertyOp18
 70
     1
102
RTVSPropertyOp19
 70
     1
102
RTVSPropertyOp20
 70
     1
102
RTVSPropertyOp21
 70
     1
102
RTVSPropertyOp22
 70
     1
102
RTVSPropertyOp23
 70
     1
102
RTVSPropertyOp24
 70
     1
102
RTVSPropertyOp25
 70
     1
102
RTVSPropertyOp26
 70
     1
102
RTVSPropertyOp27
 70
     1
102
RTVSPropertyOp28
 70
     1
102
RTVSPropertyOp29
 70
     1
102
RTVSPropertyOp30
 70
     1
102
RTVSPropertyOp31
 70
     1
102
RTVSPropertyOp32
 70
     1
102
RTVSPropertyOp33
 70
     1
102
RTVSPropertyOp34
 70
     1
102
RTVSPropertyOp35
 70
     1
102
RTVSPropertyOp36
 70
     1
102
RTVSPropertyOp37
 70
     1
102
RTVSPropertyOp38
 70
     1
102
RTVSPropertyOp39
 70
     1
102
RTVSPropertyOp40
 70
     1
102
RTVSPropertyOp41
 70
     1
102
RTVSPropertyOp42
 70
     1
102
RTVSPropertyOp43
 70
     1
102
RTVSPropertyOp44
 70
     1
102
RTVSPropertyOp45
 70
     1
102
RTVSPropertyOp46
 70
     1
102
RTVSPropertyOp47
 70
     1
102
RTVSPropertyOp48
 70
     1
102
RTVSPropertyOp49
 70
     1
102
RTVSPropertyOp50
 70
     1
102
RTVSPropertyOp51
 70
     0
102
RTVSPropertyOp52
 70
     0
102
RTVSPropertyOp53
 70
     1
102
RTVSPropertyOp54
 70
     1
102
RTVSPropertyOp55
 70
     1
102
RTVSPropertyOp56
 70
     1
102
RTVSPropertyOp57
 70
     1
102
RTVSPropertyOp58
 70
     1
102
RTVSPropertyOp59
 70
     1
102
RTVSPropertyOp60
 70
     1
102
RTVSPropertyOp61
 70
     1
102
RTVSPropertyOp62
 70
     1
  0
XRECORD
  5
85C
102
{ACAD_REACTORS
330
85B
102
}
330
85B
100
AcDbXrecord
280
     1
102
RTVSPost2010Prop28
280
     0
102
RTVSPost2010PropOp28
 70
     1
102
RTVSPost2010Prop29
280
     1
102
RTVSPost2010PropOp29
 70
     1
102
RTVSPost2010Prop30
280
     1
102
RTVSPost2010PropOp30
 70
     1
102
RTVSPost2010Prop31
280
     0
102
RTVSPost2010PropOp31
 70
     1
102
RTVSPost2010Prop32
280
     0
102
RTVSPost2010PropOp32
 70
     1
102
RTVSPost2010Prop33
280
     0
102
RTVSPost2010PropOp33
 70
     1
102
RTVSPost2010Prop34
280
     0
102
RTVSPost2010PropOp34
 70
     1
102
RTVSPost2010Prop35
280
     0
102
RTVSPost2010PropOp35
 70
     1
102
RTVSPost2010Prop36
280
     0
102
RTVSPost2010PropOp36
 70
     1
102
RTVSPost2010Prop37
 90
       50
102
RTVSPost2010PropOp37
 70
     1
102
RTVSPost2010Prop38
140
0.0
102
RTVSPost2010PropOp38
 70
     1
102
RTVSPost2010Prop39
140
1.0
102
RTVSPost2010PropOp39
 70
     1
102
RTVSPost2010Prop40
 90
        0
102
RTVSPost2010PropOp40
 70
     1
102
RTVSPost2010Prop41ColorIndex
 90
       18
102
RTVSPost2010Prop41ColorRGB
 90
        0
102
RTVSPost2010PropOp41
 70
     1
102
RTVSPost2010Prop42
 90
       50
102
RTVSPost2010PropOp42
 70
     1
102
RTVSPost2010Prop43
 90
        3
102
RTVSPost2010PropOp43
 70
     1
102
RTVSPost2010Prop44ColorIndex
 90
        5
102
RTVSPost2010Prop44ColorRGB
 90
      255
102
RTVSPost2010PropOp44
 70
     1
102
RTVSPost2010Prop45
280
     0
102
RTVSPost2010PropOp45
 70
     1
102
RTVSPost2010Prop46
 90
       50
102
RTVSPost2010PropOp46
 70
     1
102
RTVSPost2010Prop47
 90
       50
102
RTVSPost2010PropOp47
 70
     1
102
RTVSPost2010Prop48
 90
       50
102
RTVSPost2010PropOp48
 70
     1
102
RTVSPost2010Prop49
280
     0
102
RTVSPost2010PropOp49
 70
     1
102
RTVSPost2010Prop50
 90
       50
102
RTVSPost2010PropOp50
 70
     1
102
RTVSPost2010Prop51ColorIndex
 90
      256
102
RTVSPost2010Prop51ColorRGB
 90
-16777216
102
RTVSPost2010PropOp51
 70
     0
102
RTVSPost2010Prop52
140
1.0
102
RTVSPost2010PropOp52
 70
     0
102
RTVSPost2010Prop53
 90
        2
102
RTVSPost2010PropOp53
 70
     1
102
RTVSPost2010Prop54
  1
strokes_ogs.tif
102
RTVSPost2010PropOp54
 70
     1
102
RTVSPost2010Prop55
280
     0
102
RTVSPost2010PropOp55
 70
     1
102
RTVSPost2010Prop56
140
1.0
102
RTVSPost2010PropOp56
 70
     1
102
RTVSPost2010Prop57
140
1.0
102
RTVSPost2010PropOp57
 70
     1
102
RTVSPropertyOp0
 70
     1
102
RTVSPropertyOp1
 70
     1
102
RTVSPropertyOp2
 70
     1
102
RTVSPropertyOp3
 70
     1
102
RTVSPropertyOp4
 70
     1
102
RTVSPropertyOp5
 70
     1
102
RTVSPropertyOp6
 70
     1
102
RTVSPropertyOp7
 70
     1
102
RTVSPropertyOp8
 70
     1
102
RTVSPropertyOp9
 70
     1
102
RTVSPropertyOp10
 70
     1
102
RTVSPropertyOp11
 70
     1
102
RTVSPropertyOp12
 70
     1
102
RTVSPropertyOp13
 70
     1
102
RTVSPropertyOp14
 70
     1
102
RTVSPropertyOp15
 70
     1
102
RTVSPropertyOp16
 70
     1
102
RTVSPropertyOp17
 70
     1
102
RTVSPropertyOp18
 70
     1
102
RTVSPropertyOp19
 70
     1
102
RTVSPropertyOp20
 70
     1
102
RTVSPropertyOp21
 70
     1
102
RTVSPropertyOp22
 70
     1
102
RTVSPropertyOp23
 70
     1
102
RTVSPropertyOp24
 70
     1
102
RTVSPropertyOp25
 70
     1
102
RTVSPropertyOp26
 70
     1
102
RTVSPropertyOp27
 70
     1
102
RTVSPropertyOp28
 70
     1
102
RTVSPropertyOp29
 70
     1
102
RTVSPropertyOp30
 70
     1
102
RTVSPropertyOp31
 70
     1
102
RTVSPropertyOp32
 70
     1
102
RTVSPropertyOp33
 70
     1
102
RTVSPropertyOp34
 70
     1
102
RTVSPropertyOp35
 70
     1
102
RTVSPropertyOp36
 70
     1
102
RTVSPropertyOp37
 70
     1
102
RTVSPropertyOp38
 70
     1
102
RTVSPropertyOp39
 70
     1
102
RTVSPropertyOp40
 70
     1
102
RTVSPropertyOp41
 70
     1
102
RTVSPropertyOp42
 70
     1
102
RTVSPropertyOp43
 70
     1
102
RTVSPropertyOp44
 70
     1
102
RTVSPropertyOp45
 70
     1
102
RTVSPropertyOp46
 70
     1
102
RTVSPropertyOp47
 70
     1
102
RTVSPropertyOp48
 70
     1
102
RTVSPropertyOp49
 70
     1
102
RTVSPropertyOp50
 70
     1
102
RTVSPropertyOp51
 70
     0
102
RTVSPropertyOp52
 70
     0
102
RTVSPropertyOp53
 70
     1
102
RTVSPropertyOp54
 70
     1
102
RTVSPropertyOp55
 70
     1
102
RTVSPropertyOp56
 70
     1
102
RTVSPropertyOp57
 70
     1
102
RTVSPropertyOp58
 70
     1
102
RTVSPropertyOp59
 70
     1
102
RTVSPropertyOp60
 70
     1
102
RTVSPropertyOp61
 70
     1
102
RTVSPropertyOp62
 70
     1
  0
XRECORD
  5
864
102
{ACAD_REACTORS
330
863
102
}
330
863
100
AcDbXrecord
280
     1
102
RTVSPost2010Prop28
280
     0
102
RTVSPost2010PropOp28
 70
     1
102
RTVSPost2010Prop29
280
     1
102
RTVSPost2010PropOp29
 70
     1
102
RTVSPost2010Prop30
280
     1
102
RTVSPost2010PropOp30
 70
     1
102
RTVSPost2010Prop31
280
     0
102
RTVSPost2010PropOp31
 70
     1
102
RTVSPost2010Prop32
280
     0
102
RTVSPost2010PropOp32
 70
     1
102
RTVSPost2010Prop33
280
     0
102
RTVSPost2010PropOp33
 70
     1
102
RTVSPost2010Prop34
280
     0
102
RTVSPost2010PropOp34
 70
     1
102
RTVSPost2010Prop35
280
     0
102
RTVSPost2010PropOp35
 70
     1
102
RTVSPost2010Prop36
280
     0
102
RTVSPost2010PropOp36
 70
     1
102
RTVSPost2010Prop37
 90
       50
102
RTVSPost2010PropOp37
 70
     1
102
RTVSPost2010Prop38
140
0.0
102
RTVSPost2010PropOp38
 70
     1
102
RTVSPost2010Prop39
140
1.0
102
RTVSPost2010PropOp39
 70
     1
102
RTVSPost2010Prop40
 90
        0
102
RTVSPost2010PropOp40
 70
     1
102
RTVSPost2010Prop41ColorIndex
 90
       18
102
RTVSPost2010Prop41ColorRGB
 90
        0
102
RTVSPost2010PropOp41
 70
     1
102
RTVSPost2010Prop42
 90
       50
102
RTVSPost2010PropOp42
 70
     1
102
RTVSPost2010Prop43
 90
        3
102
RTVSPost2010PropOp43
 70
     1
102
RTVSPost2010Prop44ColorIndex
 90
        5
102
RTVSPost2010Prop44ColorRGB
 90
      255
102
RTVSPost2010PropOp44
 70
     1
102
RTVSPost2010Prop45
280
     0
102
RTVSPost2010PropOp45
 70
     1
102
RTVSPost2010Prop46
 90
       50
102
RTVSPost2010PropOp46
 70
     1
102
RTVSPost2010Prop47
 90
       50
102
RTVSPost2010PropOp47
 70
     1
102
RTVSPost2010Prop48
 90
       50
102
RTVSPost2010PropOp48
 70
     1
102
RTVSPost2010Prop49
280
     0
102
RTVSPost2010PropOp49
 70
     1
102
RTVSPost2010Prop50
 90
       50
102
RTVSPost2010PropOp50
 70
     1
102
RTVSPost2010Prop51ColorIndex
 90
      256
102
RTVSPost2010Prop51ColorRGB
 90
-16777216
102
RTVSPost2010PropOp51
 70
     0
102
RTVSPost2010Prop52
140
1.0
102
RTVSPost2010PropOp52
 70
     0
102
RTVSPost2010Prop53
 90
        2
102
RTVSPost2010PropOp53
 70
     1
102
RTVSPost2010Prop54
  1
strokes_ogs.tif
102
RTVSPost2010PropOp54
 70
     1
102
RTVSPost2010Prop55
280
     0
102
RTVSPost2010PropOp55
 70
     1
102
RTVSPost2010Prop56
140
1.0
102
RTVSPost2010PropOp56
 70
     1
102
RTVSPost2010Prop57
140
1.0
102
RTVSPost2010PropOp57
 70
     1
102
RTVSPropertyOp0
 70
     1
102
RTVSPropertyOp1
 70
     1
102
RTVSPropertyOp2
 70
     1
102
RTVSPropertyOp3
 70
     1
102
RTVSPropertyOp4
 70
     1
102
RTVSPropertyOp5
 70
     1
102
RTVSPropertyOp6
 70
     1
102
RTVSPropertyOp7
 70
     1
102
RTVSPropertyOp8
 70
     1
102
RTVSPropertyOp9
 70
     1
102
RTVSPropertyOp10
 70
     1
102
RTVSPropertyOp11
 70
     1
102
RTVSPropertyOp12
 70
     1
102
RTVSPropertyOp13
 70
     1
102
RTVSPropertyOp14
 70
     1
102
RTVSPropertyOp15
 70
     1
102
RTVSPropertyOp16
 70
     1
102
RTVSPropertyOp17
 70
     1
102
RTVSPropertyOp18
 70
     1
102
RTVSPropertyOp19
 70
     1
102
RTVSPropertyOp20
 70
     1
102
RTVSPropertyOp21
 70
     1
102
RTVSPropertyOp22
 70
     1
102
RTVSPropertyOp23
 70
     1
102
RTVSPropertyOp24
 70
     1
102
RTVSPropertyOp25
 70
     1
102
RTVSPropertyOp26
 70
     1
102
RTVSPropertyOp27
 70
     1
102
RTVSPropertyOp28
 70
     1
102
RTVSPropertyOp29
 70
     1
102
RTVSPropertyOp30
 70
     1
102
RTVSPropertyOp31
 70
     1
102
RTVSPropertyOp32
 70
     1
102
RTVSPropertyOp33
 70
     1
102
RTVSPropertyOp34
 70
     1
102
RTVSPropertyOp35
 70
     1
102
RTVSPropertyOp36
 70
     1
102
RTVSPropertyOp37
 70
     1
102
RTVSPropertyOp38
 70
     1
102
RTVSPropertyOp39
 70
     1
102
RTVSPropertyOp40
 70
     1
102
RTVSPropertyOp41
 70
     1
102
RTVSPropertyOp42
 70
     1
102
RTVSPropertyOp43
 70
     1
102
RTVSPropertyOp44
 70
     1
102
RTVSPropertyOp45
 70
     1
102
RTVSPropertyOp46
 70
     1
102
RTVSPropertyOp47
 70
     1
102
RTVSPropertyOp48
 70
     1
102
RTVSPropertyOp49
 70
     1
102
RTVSPropertyOp50
 70
     1
102
RTVSPropertyOp51
 70
     0
102
RTVSPropertyOp52
 70
     0
102
RTVSPropertyOp53
 70
     1
102
RTVSPropertyOp54
 70
     1
102
RTVSPropertyOp55
 70
     1
102
RTVSPropertyOp56
 70
     1
102
RTVSPropertyOp57
 70
     1
102
RTVSPropertyOp58
 70
     1
102
RTVSPropertyOp59
 70
     1
102
RTVSPropertyOp60
 70
     1
102
RTVSPropertyOp61
 70
     1
102
RTVSPropertyOp62
 70
     1
  0
XRECORD
  5
86C
102
{ACAD_REACTORS
330
86B
102
}
330
86B
100
AcDbXrecord
280
     1
102
RTVSPost2010Prop28
280
     0
102
RTVSPost2010PropOp28
 70
     1
102
RTVSPost2010Prop29
280
     1
102
RTVSPost2010PropOp29
 70
     1
102
RTVSPost2010Prop30
280
     1
102
RTVSPost2010PropOp30
 70
     1
102
RTVSPost2010Prop31
280
     0
102
RTVSPost2010PropOp31
 70
     1
102
RTVSPost2010Prop32
280
     0
102
RTVSPost2010PropOp32
 70
     1
102
RTVSPost2010Prop33
280
     0
102
RTVSPost2010PropOp33
 70
     1
102
RTVSPost2010Prop34
280
     0
102
RTVSPost2010PropOp34
 70
     1
102
RTVSPost2010Prop35
280
     0
102
RTVSPost2010PropOp35
 70
     1
102
RTVSPost2010Prop36
280
     0
102
RTVSPost2010PropOp36
 70
     1
102
RTVSPost2010Prop37
 90
       50
102
RTVSPost2010PropOp37
 70
     1
102
RTVSPost2010Prop38
140
0.0
102
RTVSPost2010PropOp38
 70
     1
102
RTVSPost2010Prop39
140
1.0
102
RTVSPost2010PropOp39
 70
     1
102
RTVSPost2010Prop40
 90
        0
102
RTVSPost2010PropOp40
 70
     1
102
RTVSPost2010Prop41ColorIndex
 90
       18
102
RTVSPost2010Prop41ColorRGB
 90
        0
102
RTVSPost2010PropOp41
 70
     1
102
RTVSPost2010Prop42
 90
       50
102
RTVSPost2010PropOp42
 70
     1
102
RTVSPost2010Prop43
 90
        3
102
RTVSPost2010PropOp43
 70
     1
102
RTVSPost2010Prop44ColorIndex
 90
        5
102
RTVSPost2010Prop44ColorRGB
 90
      255
102
RTVSPost2010PropOp44
 70
     1
102
RTVSPost2010Prop45
280
     0
102
RTVSPost2010PropOp45
 70
     1
102
RTVSPost2010Prop46
 90
       50
102
RTVSPost2010PropOp46
 70
     1
102
RTVSPost2010Prop47
 90
       50
102
RTVSPost2010PropOp47
 70
     1
102
RTVSPost2010Prop48
 90
       50
102
RTVSPost2010PropOp48
 70
     1
102
RTVSPost2010Prop49
280
     0
102
RTVSPost2010PropOp49
 70
     1
102
RTVSPost2010Prop50
 90
       50
102
RTVSPost2010PropOp50
 70
     1
102
RTVSPost2010Prop51ColorIndex
 90
      256
102
RTVSPost2010Prop51ColorRGB
 90
-16777216
102
RTVSPost2010PropOp51
 70
     0
102
RTVSPost2010Prop52
140
1.0
102
RTVSPost2010PropOp52
 70
     0
102
RTVSPost2010Prop53
 90
        2
102
RTVSPost2010PropOp53
 70
     1
102
RTVSPost2010Prop54
  1
strokes_ogs.tif
102
RTVSPost2010PropOp54
 70
     1
102
RTVSPost2010Prop55
280
     0
102
RTVSPost2010PropOp55
 70
     1
102
RTVSPost2010Prop56
140
1.0
102
RTVSPost2010PropOp56
 70
     1
102
RTVSPost2010Prop57
140
1.0
102
RTVSPost2010PropOp57
 70
     1
102
RTVSPropertyOp0
 70
     1
102
RTVSPropertyOp1
 70
     1
102
RTVSPropertyOp2
 70
     1
102
RTVSPropertyOp3
 70
     1
102
RTVSPropertyOp4
 70
     1
102
RTVSPropertyOp5
 70
     1
102
RTVSPropertyOp6
 70
     1
102
RTVSPropertyOp7
 70
     1
102
RTVSPropertyOp8
 70
     1
102
RTVSPropertyOp9
 70
     1
102
RTVSPropertyOp10
 70
     1
102
RTVSPropertyOp11
 70
     1
102
RTVSPropertyOp12
 70
     1
102
RTVSPropertyOp13
 70
     1
102
RTVSPropertyOp14
 70
     1
102
RTVSPropertyOp15
 70
     1
102
RTVSPropertyOp16
 70
     1
102
RTVSPropertyOp17
 70
     1
102
RTVSPropertyOp18
 70
     1
102
RTVSPropertyOp19
 70
     1
102
RTVSPropertyOp20
 70
     1
102
RTVSPropertyOp21
 70
     1
102
RTVSPropertyOp22
 70
     1
102
RTVSPropertyOp23
 70
     1
102
RTVSPropertyOp24
 70
     1
102
RTVSPropertyOp25
 70
     1
102
RTVSPropertyOp26
 70
     1
102
RTVSPropertyOp27
 70
     1
102
RTVSPropertyOp28
 70
     1
102
RTVSPropertyOp29
 70
     1
102
RTVSPropertyOp30
 70
     1
102
RTVSPropertyOp31
 70
     1
102
RTVSPropertyOp32
 70
     1
102
RTVSPropertyOp33
 70
     1
102
RTVSPropertyOp34
 70
     1
102
RTVSPropertyOp35
 70
     1
102
RTVSPropertyOp36
 70
     1
102
RTVSPropertyOp37
 70
     1
102
RTVSPropertyOp38
 70
     1
102
RTVSPropertyOp39
 70
     1
102
RTVSPropertyOp40
 70
     1
102
RTVSPropertyOp41
 70
     1
102
RTVSPropertyOp42
 70
     1
102
RTVSPropertyOp43
 70
     1
102
RTVSPropertyOp44
 70
     1
102
RTVSPropertyOp45
 70
     1
102
RTVSPropertyOp46
 70
     1
102
RTVSPropertyOp47
 70
     1
102
RTVSPropertyOp48
 70
     1
102
RTVSPropertyOp49
 70
     1
102
RTVSPropertyOp50
 70
     1
102
RTVSPropertyOp51
 70
     0
102
RTVSPropertyOp52
 70
     0
102
RTVSPropertyOp53
 70
     1
102
RTVSPropertyOp54
 70
     1
102
RTVSPropertyOp55
 70
     1
102
RTVSPropertyOp56
 70
     1
102
RTVSPropertyOp57
 70
     1
102
RTVSPropertyOp58
 70
     1
102
RTVSPropertyOp59
 70
     1
102
RTVSPropertyOp60
 70
     1
102
RTVSPropertyOp61
 70
     1
102
RTVSPropertyOp62
 70
     1
  0
XRECORD
  5
860
102
{ACAD_REACTORS
330
85F
102
}
330
85F
100
AcDbXrecord
280
     1
102
RTVSPost2010Prop28
280
     0
102
RTVSPost2010PropOp28
 70
     1
102
RTVSPost2010Prop29
280
     1
102
RTVSPost2010PropOp29
 70
     1
102
RTVSPost2010Prop30
280
     1
102
RTVSPost2010PropOp30
 70
     1
102
RTVSPost2010Prop31
280
     0
102
RTVSPost2010PropOp31
 70
     1
102
RTVSPost2010Prop32
280
     0
102
RTVSPost2010PropOp32
 70
     1
102
RTVSPost2010Prop33
280
     0
102
RTVSPost2010PropOp33
 70
     1
102
RTVSPost2010Prop34
280
     0
102
RTVSPost2010PropOp34
 70
     1
102
RTVSPost2010Prop35
280
     0
102
RTVSPost2010PropOp35
 70
     1
102
RTVSPost2010Prop36
280
     0
102
RTVSPost2010PropOp36
 70
     1
102
RTVSPost2010Prop37
 90
       50
102
RTVSPost2010PropOp37
 70
     1
102
RTVSPost2010Prop38
140
0.0
102
RTVSPost2010PropOp38
 70
     1
102
RTVSPost2010Prop39
140
1.0
102
RTVSPost2010PropOp39
 70
     1
102
RTVSPost2010Prop40
 90
        0
102
RTVSPost2010PropOp40
 70
     1
102
RTVSPost2010Prop41ColorIndex
 90
       18
102
RTVSPost2010Prop41ColorRGB
 90
        0
102
RTVSPost2010PropOp41
 70
     1
102
RTVSPost2010Prop42
 90
       50
102
RTVSPost2010PropOp42
 70
     1
102
RTVSPost2010Prop43
 90
        3
102
RTVSPost2010PropOp43
 70
     1
102
RTVSPost2010Prop44ColorIndex
 90
        5
102
RTVSPost2010Prop44ColorRGB
 90
      255
102
RTVSPost2010PropOp44
 70
     1
102
RTVSPost2010Prop45
280
     0
102
RTVSPost2010PropOp45
 70
     1
102
RTVSPost2010Prop46
 90
       50
102
RTVSPost2010PropOp46
 70
     1
102
RTVSPost2010Prop47
 90
       50
102
RTVSPost2010PropOp47
 70
     1
102
RTVSPost2010Prop48
 90
       50
102
RTVSPost2010PropOp48
 70
     1
102
RTVSPost2010Prop49
280
     0
102
RTVSPost2010PropOp49
 70
     1
102
RTVSPost2010Prop50
 90
       50
102
RTVSPost2010PropOp50
 70
     1
102
RTVSPost2010Prop51ColorIndex
 90
      256
102
RTVSPost2010Prop51ColorRGB
 90
-16777216
102
RTVSPost2010PropOp51
 70
     0
102
RTVSPost2010Prop52
140
1.0
102
RTVSPost2010PropOp52
 70
     0
102
RTVSPost2010Prop53
 90
        2
102
RTVSPost2010PropOp53
 70
     1
102
RTVSPost2010Prop54
  1
strokes_ogs.tif
102
RTVSPost2010PropOp54
 70
     1
102
RTVSPost2010Prop55
280
     0
102
RTVSPost2010PropOp55
 70
     1
102
RTVSPost2010Prop56
140
1.0
102
RTVSPost2010PropOp56
 70
     1
102
RTVSPost2010Prop57
140
1.0
102
RTVSPost2010PropOp57
 70
     1
102
RTVSPropertyOp0
 70
     1
102
RTVSPropertyOp1
 70
     1
102
RTVSPropertyOp2
 70
     1
102
RTVSPropertyOp3
 70
     1
102
RTVSPropertyOp4
 70
     1
102
RTVSPropertyOp5
 70
     1
102
RTVSPropertyOp6
 70
     1
102
RTVSPropertyOp7
 70
     1
102
RTVSPropertyOp8
 70
     1
102
RTVSPropertyOp9
 70
     1
102
RTVSPropertyOp10
 70
     1
102
RTVSPropertyOp11
 70
     1
102
RTVSPropertyOp12
 70
     1
102
RTVSPropertyOp13
 70
     1
102
RTVSPropertyOp14
 70
     1
102
RTVSPropertyOp15
 70
     1
102
RTVSPropertyOp16
 70
     1
102
RTVSPropertyOp17
 70
     1
102
RTVSPropertyOp18
 70
     1
102
RTVSPropertyOp19
 70
     1
102
RTVSPropertyOp20
 70
     1
102
RTVSPropertyOp21
 70
     1
102
RTVSPropertyOp22
 70
     1
102
RTVSPropertyOp23
 70
     1
102
RTVSPropertyOp24
 70
     1
102
RTVSPropertyOp25
 70
     1
102
RTVSPropertyOp26
 70
     1
102
RTVSPropertyOp27
 70
     1
102
RTVSPropertyOp28
 70
     1
102
RTVSPropertyOp29
 70
     1
102
RTVSPropertyOp30
 70
     1
102
RTVSPropertyOp31
 70
     1
102
RTVSPropertyOp32
 70
     1
102
RTVSPropertyOp33
 70
     1
102
RTVSPropertyOp34
 70
     1
102
RTVSPropertyOp35
 70
     1
102
RTVSPropertyOp36
 70
     1
102
RTVSPropertyOp37
 70
     1
102
RTVSPropertyOp38
 70
     1
102
RTVSPropertyOp39
 70
     1
102
RTVSPropertyOp40
 70
     1
102
RTVSPropertyOp41
 70
     1
102
RTVSPropertyOp42
 70
     1
102
RTVSPropertyOp43
 70
     1
102
RTVSPropertyOp44
 70
     1
102
RTVSPropertyOp45
 70
     1
102
RTVSPropertyOp46
 70
     1
102
RTVSPropertyOp47
 70
     1
102
RTVSPropertyOp48
 70
     1
102
RTVSPropertyOp49
 70
     1
102
RTVSPropertyOp50
 70
     1
102
RTVSPropertyOp51
 70
     0
102
RTVSPropertyOp52
 70
     0
102
RTVSPropertyOp53
 70
     1
102
RTVSPropertyOp54
 70
     1
102
RTVSPropertyOp55
 70
     1
102
RTVSPropertyOp56
 70
     1
102
RTVSPropertyOp57
 70
     1
102
RTVSPropertyOp58
 70
     1
102
RTVSPropertyOp59
 70
     1
102
RTVSPropertyOp60
 70
     1
102
RTVSPropertyOp61
 70
     1
102
RTVSPropertyOp62
 70
     1
  0
XRECORD
  5
862
102
{ACAD_REACTORS
330
861
102
}
330
861
100
AcDbXrecord
280
     1
102
RTVSPost2010Prop28
280
     0
102
RTVSPost2010PropOp28
 70
     1
102
RTVSPost2010Prop29
280
     1
102
RTVSPost2010PropOp29
 70
     1
102
RTVSPost2010Prop30
280
     1
102
RTVSPost2010PropOp30
 70
     1
102
RTVSPost2010Prop31
280
     0
102
RTVSPost2010PropOp31
 70
     1
102
RTVSPost2010Prop32
280
     0
102
RTVSPost2010PropOp32
 70
     1
102
RTVSPost2010Prop33
280
     0
102
RTVSPost2010PropOp33
 70
     1
102
RTVSPost2010Prop34
280
     0
102
RTVSPost2010PropOp34
 70
     1
102
RTVSPost2010Prop35
280
     0
102
RTVSPost2010PropOp35
 70
     1
102
RTVSPost2010Prop36
280
     0
102
RTVSPost2010PropOp36
 70
     1
102
RTVSPost2010Prop37
 90
       50
102
RTVSPost2010PropOp37
 70
     1
102
RTVSPost2010Prop38
140
0.0
102
RTVSPost2010PropOp38
 70
     1
102
RTVSPost2010Prop39
140
1.0
102
RTVSPost2010PropOp39
 70
     1
102
RTVSPost2010Prop40
 90
        0
102
RTVSPost2010PropOp40
 70
     1
102
RTVSPost2010Prop41ColorIndex
 90
       18
102
RTVSPost2010Prop41ColorRGB
 90
        0
102
RTVSPost2010PropOp41
 70
     1
102
RTVSPost2010Prop42
 90
       50
102
RTVSPost2010PropOp42
 70
     1
102
RTVSPost2010Prop43
 90
        3
102
RTVSPost2010PropOp43
 70
     1
102
RTVSPost2010Prop44ColorIndex
 90
        5
102
RTVSPost2010Prop44ColorRGB
 90
      255
102
RTVSPost2010PropOp44
 70
     1
102
RTVSPost2010Prop45
280
     0
102
RTVSPost2010PropOp45
 70
     1
102
RTVSPost2010Prop46
 90
       50
102
RTVSPost2010PropOp46
 70
     1
102
RTVSPost2010Prop47
 90
       50
102
RTVSPost2010PropOp47
 70
     1
102
RTVSPost2010Prop48
 90
       50
102
RTVSPost2010PropOp48
 70
     1
102
RTVSPost2010Prop49
280
     0
102
RTVSPost2010PropOp49
 70
     1
102
RTVSPost2010Prop50
 90
       50
102
RTVSPost2010PropOp50
 70
     1
102
RTVSPost2010Prop51ColorIndex
 90
      256
102
RTVSPost2010Prop51ColorRGB
 90
-16777216
102
RTVSPost2010PropOp51
 70
     0
102
RTVSPost2010Prop52
140
1.0
102
RTVSPost2010PropOp52
 70
     0
102
RTVSPost2010Prop53
 90
        2
102
RTVSPost2010PropOp53
 70
     1
102
RTVSPost2010Prop54
  1
strokes_ogs.tif
102
RTVSPost2010PropOp54
 70
     1
102
RTVSPost2010Prop55
280
     0
102
RTVSPost2010PropOp55
 70
     1
102
RTVSPost2010Prop56
140
1.0
102
RTVSPost2010PropOp56
 70
     1
102
RTVSPost2010Prop57
140
1.0
102
RTVSPost2010PropOp57
 70
     1
102
RTVSPropertyOp0
 70
     1
102
RTVSPropertyOp1
 70
     1
102
RTVSPropertyOp2
 70
     1
102
RTVSPropertyOp3
 70
     1
102
RTVSPropertyOp4
 70
     1
102
RTVSPropertyOp5
 70
     1
102
RTVSPropertyOp6
 70
     1
102
RTVSPropertyOp7
 70
     1
102
RTVSPropertyOp8
 70
     1
102
RTVSPropertyOp9
 70
     1
102
RTVSPropertyOp10
 70
     1
102
RTVSPropertyOp11
 70
     1
102
RTVSPropertyOp12
 70
     1
102
RTVSPropertyOp13
 70
     1
102
RTVSPropertyOp14
 70
     1
102
RTVSPropertyOp15
 70
     1
102
RTVSPropertyOp16
 70
     1
102
RTVSPropertyOp17
 70
     1
102
RTVSPropertyOp18
 70
     1
102
RTVSPropertyOp19
 70
     1
102
RTVSPropertyOp20
 70
     1
102
RTVSPropertyOp21
 70
     1
102
RTVSPropertyOp22
 70
     1
102
RTVSPropertyOp23
 70
     1
102
RTVSPropertyOp24
 70
     1
102
RTVSPropertyOp25
 70
     1
102
RTVSPropertyOp26
 70
     1
102
RTVSPropertyOp27
 70
     1
102
RTVSPropertyOp28
 70
     1
102
RTVSPropertyOp29
 70
     1
102
RTVSPropertyOp30
 70
     1
102
RTVSPropertyOp31
 70
     1
102
RTVSPropertyOp32
 70
     1
102
RTVSPropertyOp33
 70
     1
102
RTVSPropertyOp34
 70
     1
102
RTVSPropertyOp35
 70
     1
102
RTVSPropertyOp36
 70
     1
102
RTVSPropertyOp37
 70
     1
102
RTVSPropertyOp38
 70
     1
102
RTVSPropertyOp39
 70
     1
102
RTVSPropertyOp40
 70
     1
102
RTVSPropertyOp41
 70
     1
102
RTVSPropertyOp42
 70
     1
102
RTVSPropertyOp43
 70
     1
102
RTVSPropertyOp44
 70
     1
102
RTVSPropertyOp45
 70
     1
102
RTVSPropertyOp46
 70
     1
102
RTVSPropertyOp47
 70
     1
102
RTVSPropertyOp48
 70
     1
102
RTVSPropertyOp49
 70
     1
102
RTVSPropertyOp50
 70
     1
102
RTVSPropertyOp51
 70
     0
102
RTVSPropertyOp52
 70
     0
102
RTVSPropertyOp53
 70
     1
102
RTVSPropertyOp54
 70
     1
102
RTVSPropertyOp55
 70
     1
102
RTVSPropertyOp56
 70
     1
102
RTVSPropertyOp57
 70
     1
102
RTVSPropertyOp58
 70
     1
102
RTVSPropertyOp59
 70
     1
102
RTVSPropertyOp60
 70
     1
102
RTVSPropertyOp61
 70
     1
102
RTVSPropertyOp62
 70
     1
  0
XRECORD
  5
872
102
{ACAD_REACTORS
330
871
102
}
330
871
100
AcDbXrecord
280
     1
102
RTVSPost2010Prop28
280
     0
102
RTVSPost2010PropOp28
 70
     0
102
RTVSPost2010Prop29
280
     1
102
RTVSPost2010PropOp29
 70
     0
102
RTVSPost2010Prop30
280
     1
102
RTVSPost2010PropOp30
 70
     0
102
RTVSPost2010Prop31
280
     0
102
RTVSPost2010PropOp31
 70
     0
102
RTVSPost2010Prop32
280
     0
102
RTVSPost2010PropOp32
 70
     0
102
RTVSPost2010Prop33
280
     0
102
RTVSPost2010PropOp33
 70
     0
102
RTVSPost2010Prop34
280
     0
102
RTVSPost2010PropOp34
 70
     0
102
RTVSPost2010Prop35
280
     0
102
RTVSPost2010PropOp35
 70
     0
102
RTVSPost2010Prop36
280
     0
102
RTVSPost2010PropOp36
 70
     0
102
RTVSPost2010Prop37
 90
       50
102
RTVSPost2010PropOp37
 70
     0
102
RTVSPost2010Prop38
140
0.0
102
RTVSPost2010PropOp38
 70
     0
102
RTVSPost2010Prop39
140
1.0
102
RTVSPost2010PropOp39
 70
     0
102
RTVSPost2010Prop40
 90
        0
102
RTVSPost2010PropOp40
 70
     0
102
RTVSPost2010Prop41ColorIndex
 90
       18
102
RTVSPost2010Prop41ColorRGB
 90
        0
102
RTVSPost2010PropOp41
 70
     0
102
RTVSPost2010Prop42
 90
       50
102
RTVSPost2010PropOp42
 70
     0
102
RTVSPost2010Prop43
 90
        3
102
RTVSPost2010PropOp43
 70
     0
102
RTVSPost2010Prop44ColorIndex
 90
        5
102
RTVSPost2010Prop44ColorRGB
 90
      255
102
RTVSPost2010PropOp44
 70
     0
102
RTVSPost2010Prop45
280
     0
102
RTVSPost2010PropOp45
 70
     0
102
RTVSPost2010Prop46
 90
       50
102
RTVSPost2010PropOp46
 70
     0
102
RTVSPost2010Prop47
 90
       50
102
RTVSPost2010PropOp47
 70
     0
102
RTVSPost2010Prop48
 90
       50
102
RTVSPost2010PropOp48
 70
     0
102
RTVSPost2010Prop49
280
     0
102
RTVSPost2010PropOp49
 70
     0
102
RTVSPost2010Prop50
 90
       50
102
RTVSPost2010PropOp50
 70
     0
102
RTVSPost2010Prop51ColorIndex
 90
      256
102
RTVSPost2010Prop51ColorRGB
 90
-16777216
102
RTVSPost2010PropOp51
 70
     0
102
RTVSPost2010Prop52
140
1.0
102
RTVSPost2010PropOp52
 70
     0
102
RTVSPost2010Prop53
 90
        2
102
RTVSPost2010PropOp53
 70
     0
102
RTVSPost2010Prop54
  1
strokes_ogs.tif
102
RTVSPost2010PropOp54
 70
     0
102
RTVSPost2010Prop55
280
     0
102
RTVSPost2010PropOp55
 70
     0
102
RTVSPost2010Prop56
140
1.0
102
RTVSPost2010PropOp56
 70
     0
102
RTVSPost2010Prop57
140
1.0
102
RTVSPost2010PropOp57
 70
     0
102
RTVSPropertyOp0
 70
     0
102
RTVSPropertyOp1
 70
     0
102
RTVSPropertyOp2
 70
     0
102
RTVSPropertyOp3
 70
     0
102
RTVSPropertyOp4
 70
     0
102
RTVSPropertyOp5
 70
     0
102
RTVSPropertyOp6
 70
     0
102
RTVSPropertyOp7
 70
     0
102
RTVSPropertyOp8
 70
     0
102
RTVSPropertyOp9
 70
     0
102
RTVSPropertyOp10
 70
     0
102
RTVSPropertyOp11
 70
     0
102
RTVSPropertyOp12
 70
     0
102
RTVSPropertyOp13
 70
     0
102
RTVSPropertyOp14
 70
     2
102
RTVSPropertyOp15
 70
     0
102
RTVSPropertyOp16
 70
     0
102
RTVSPropertyOp17
 70
     0
102
RTVSPropertyOp18
 70
     0
102
RTVSPropertyOp19
 70
     0
102
RTVSPropertyOp20
 70
     0
102
RTVSPropertyOp21
 70
     0
102
RTVSPropertyOp22
 70
     0
102
RTVSPropertyOp23
 70
     0
102
RTVSPropertyOp24
 70
     0
102
RTVSPropertyOp25
 70
     0
102
RTVSPropertyOp26
 70
     0
102
RTVSPropertyOp27
 70
     0
102
RTVSPropertyOp28
 70
     0
102
RTVSPropertyOp29
 70
     0
102
RTVSPropertyOp30
 70
     0
102
RTVSPropertyOp31
 70
     0
102
RTVSPropertyOp32
 70
     0
102
RTVSPropertyOp33
 70
     0
102
RTVSPropertyOp34
 70
     0
102
RTVSPropertyOp35
 70
     0
102
RTVSPropertyOp36
 70
     0
102
RTVSPropertyOp37
 70
     0
102
RTVSPropertyOp38
 70
     0
102
RTVSPropertyOp39
 70
     0
102
RTVSPropertyOp40
 70
     0
102
RTVSPropertyOp41
 70
     0
102
RTVSPropertyOp42
 70
     0
102
RTVSPropertyOp43
 70
     0
102
RTVSPropertyOp44
 70
     0
102
RTVSPropertyOp45
 70
     0
102
RTVSPropertyOp46
 70
     0
102
RTVSPropertyOp47
 70
     0
102
RTVSPropertyOp48
 70
     0
102
RTVSPropertyOp49
 70
     0
102
RTVSPropertyOp50
 70
     0
102
RTVSPropertyOp51
 70
     0
102
RTVSPropertyOp52
 70
     0
102
RTVSPropertyOp53
 70
     0
102
RTVSPropertyOp54
 70
     0
102
RTVSPropertyOp55
 70
     0
102
RTVSPropertyOp56
 70
     0
102
RTVSPropertyOp57
 70
     0
102
RTVSPropertyOp58
 70
     1
102
RTVSPropertyOp59
 70
     1
102
RTVSPropertyOp60
 70
     1
102
RTVSPropertyOp61
 70
     1
102
RTVSPropertyOp62
 70
     1
  0
XRECORD
  5
86A
102
{ACAD_REACTORS
330
869
102
}
330
869
100
AcDbXrecord
280
     1
102
RTVSPost2010Prop28
280
     0
102
RTVSPost2010PropOp28
 70
     1
102
RTVSPost2010Prop29
280
     1
102
RTVSPost2010PropOp29
 70
     1
102
RTVSPost2010Prop30
280
     1
102
RTVSPost2010PropOp30
 70
     1
102
RTVSPost2010Prop31
280
     0
102
RTVSPost2010PropOp31
 70
     1
102
RTVSPost2010Prop32
280
     0
102
RTVSPost2010PropOp32
 70
     1
102
RTVSPost2010Prop33
280
     0
102
RTVSPost2010PropOp33
 70
     1
102
RTVSPost2010Prop34
280
     0
102
RTVSPost2010PropOp34
 70
     1
102
RTVSPost2010Prop35
280
     0
102
RTVSPost2010PropOp35
 70
     1
102
RTVSPost2010Prop36
280
     0
102
RTVSPost2010PropOp36
 70
     1
102
RTVSPost2010Prop37
 90
       50
102
RTVSPost2010PropOp37
 70
     1
102
RTVSPost2010Prop38
140
0.0
102
RTVSPost2010PropOp38
 70
     1
102
RTVSPost2010Prop39
140
1.0
102
RTVSPost2010PropOp39
 70
     1
102
RTVSPost2010Prop40
 90
        0
102
RTVSPost2010PropOp40
 70
     1
102
RTVSPost2010Prop41ColorIndex
 90
       18
102
RTVSPost2010Prop41ColorRGB
 90
        0
102
RTVSPost2010PropOp41
 70
     1
102
RTVSPost2010Prop42
 90
       50
102
RTVSPost2010PropOp42
 70
     1
102
RTVSPost2010Prop43
 90
        3
102
RTVSPost2010PropOp43
 70
     1
102
RTVSPost2010Prop44ColorIndex
 90
        5
102
RTVSPost2010Prop44ColorRGB
 90
      255
102
RTVSPost2010PropOp44
 70
     1
102
RTVSPost2010Prop45
280
     0
102
RTVSPost2010PropOp45
 70
     1
102
RTVSPost2010Prop46
 90
       50
102
RTVSPost2010PropOp46
 70
     1
102
RTVSPost2010Prop47
 90
       50
102
RTVSPost2010PropOp47
 70
     1
102
RTVSPost2010Prop48
 90
       50
102
RTVSPost2010PropOp48
 70
     1
102
RTVSPost2010Prop49
280
     0
102
RTVSPost2010PropOp49
 70
     1
102
RTVSPost2010Prop50
 90
       50
102
RTVSPost2010PropOp50
 70
     1
102
RTVSPost2010Prop51ColorIndex
 90
      256
102
RTVSPost2010Prop51ColorRGB
 90
-16777216
102
RTVSPost2010PropOp51
 70
     0
102
RTVSPost2010Prop52
140
1.0
102
RTVSPost2010PropOp52
 70
     0
102
RTVSPost2010Prop53
 90
        2
102
RTVSPost2010PropOp53
 70
     1
102
RTVSPost2010Prop54
  1
strokes_ogs.tif
102
RTVSPost2010PropOp54
 70
     1
102
RTVSPost2010Prop55
280
     0
102
RTVSPost2010PropOp55
 70
     1
102
RTVSPost2010Prop56
140
1.0
102
RTVSPost2010PropOp56
 70
     1
102
RTVSPost2010Prop57
140
1.0
102
RTVSPost2010PropOp57
 70
     1
102
RTVSPropertyOp0
 70
     1
102
RTVSPropertyOp1
 70
     1
102
RTVSPropertyOp2
 70
     1
102
RTVSPropertyOp3
 70
     1
102
RTVSPropertyOp4
 70
     1
102
RTVSPropertyOp5
 70
     1
102
RTVSPropertyOp6
 70
     1
102
RTVSPropertyOp7
 70
     1
102
RTVSPropertyOp8
 70
     1
102
RTVSPropertyOp9
 70
     1
102
RTVSPropertyOp10
 70
     1
102
RTVSPropertyOp11
 70
     1
102
RTVSPropertyOp12
 70
     1
102
RTVSPropertyOp13
 70
     1
102
RTVSPropertyOp14
 70
     1
102
RTVSPropertyOp15
 70
     1
102
RTVSPropertyOp16
 70
     1
102
RTVSPropertyOp17
 70
     1
102
RTVSPropertyOp18
 70
     1
102
RTVSPropertyOp19
 70
     1
102
RTVSPropertyOp20
 70
     1
102
RTVSPropertyOp21
 70
     1
102
RTVSPropertyOp22
 70
     1
102
RTVSPropertyOp23
 70
     1
102
RTVSPropertyOp24
 70
     1
102
RTVSPropertyOp25
 70
     1
102
RTVSPropertyOp26
 70
     1
102
RTVSPropertyOp27
 70
     1
102
RTVSPropertyOp28
 70
     1
102
RTVSPropertyOp29
 70
     1
102
RTVSPropertyOp30
 70
     1
102
RTVSPropertyOp31
 70
     1
102
RTVSPropertyOp32
 70
     1
102
RTVSPropertyOp33
 70
     1
102
RTVSPropertyOp34
 70
     1
102
RTVSPropertyOp35
 70
     1
102
RTVSPropertyOp36
 70
     1
102
RTVSPropertyOp37
 70
     1
102
RTVSPropertyOp38
 70
     1
102
RTVSPropertyOp39
 70
     1
102
RTVSPropertyOp40
 70
     1
102
RTVSPropertyOp41
 70
     1
102
RTVSPropertyOp42
 70
     1
102
RTVSPropertyOp43
 70
     1
102
RTVSPropertyOp44
 70
     1
102
RTVSPropertyOp45
 70
     1
102
RTVSPropertyOp46
 70
     1
102
RTVSPropertyOp47
 70
     1
102
RTVSPropertyOp48
 70
     1
102
RTVSPropertyOp49
 70
     1
102
RTVSPropertyOp50
 70
     1
102
RTVSPropertyOp51
 70
     0
102
RTVSPropertyOp52
 70
     0
102
RTVSPropertyOp53
 70
     1
102
RTVSPropertyOp54
 70
     1
102
RTVSPropertyOp55
 70
     1
102
RTVSPropertyOp56
 70
     1
102
RTVSPropertyOp57
 70
     1
102
RTVSPropertyOp58
 70
     1
102
RTVSPropertyOp59
 70
     1
102
RTVSPropertyOp60
 70
     1
102
RTVSPropertyOp61
 70
     1
102
RTVSPropertyOp62
 70
     1
  0
XRECORD
  5
84E
102
{ACAD_REACTORS
330
84D
102
}
330
84D
100
AcDbXrecord
280
     1
102
RTVSPost2010Prop28
280
     0
102
RTVSPost2010PropOp28
 70
     1
102
RTVSPost2010Prop29
280
     1
102
RTVSPost2010PropOp29
 70
     1
102
RTVSPost2010Prop30
280
     1
102
RTVSPost2010PropOp30
 70
     1
102
RTVSPost2010Prop31
280
     0
102
RTVSPost2010PropOp31
 70
     1
102
RTVSPost2010Prop32
280
     0
102
RTVSPost2010PropOp32
 70
     1
102
RTVSPost2010Prop33
280
     0
102
RTVSPost2010PropOp33
 70
     1
102
RTVSPost2010Prop34
280
     0
102
RTVSPost2010PropOp34
 70
     1
102
RTVSPost2010Prop35
280
     0
102
RTVSPost2010PropOp35
 70
     1
102
RTVSPost2010Prop36
280
     0
102
RTVSPost2010PropOp36
 70
     1
102
RTVSPost2010Prop37
 90
       50
102
RTVSPost2010PropOp37
 70
     1
102
RTVSPost2010Prop38
140
0.0
102
RTVSPost2010PropOp38
 70
     1
102
RTVSPost2010Prop39
140
1.0
102
RTVSPost2010PropOp39
 70
     1
102
RTVSPost2010Prop40
 90
        0
102
RTVSPost2010PropOp40
 70
     1
102
RTVSPost2010Prop41ColorIndex
 90
       18
102
RTVSPost2010Prop41ColorRGB
 90
        0
102
RTVSPost2010PropOp41
 70
     1
102
RTVSPost2010Prop42
 90
       50
102
RTVSPost2010PropOp42
 70
     1
102
RTVSPost2010Prop43
 90
        3
102
RTVSPost2010PropOp43
 70
     1
102
RTVSPost2010Prop44ColorIndex
 90
        5
102
RTVSPost2010Prop44ColorRGB
 90
      255
102
RTVSPost2010PropOp44
 70
     1
102
RTVSPost2010Prop45
280
     0
102
RTVSPost2010PropOp45
 70
     1
102
RTVSPost2010Prop46
 90
       50
102
RTVSPost2010PropOp46
 70
     1
102
RTVSPost2010Prop47
 90
       50
102
RTVSPost2010PropOp47
 70
     1
102
RTVSPost2010Prop48
 90
       50
102
RTVSPost2010PropOp48
 70
     1
102
RTVSPost2010Prop49
280
     0
102
RTVSPost2010PropOp49
 70
     1
102
RTVSPost2010Prop50
 90
       50
102
RTVSPost2010PropOp50
 70
     1
102
RTVSPost2010Prop51ColorIndex
 90
      256
102
RTVSPost2010Prop51ColorRGB
 90
-16777216
102
RTVSPost2010PropOp51
 70
     0
102
RTVSPost2010Prop52
140
1.0
102
RTVSPost2010PropOp52
 70
     0
102
RTVSPost2010Prop53
 90
        2
102
RTVSPost2010PropOp53
 70
     1
102
RTVSPost2010Prop54
  1
strokes_ogs.tif
102
RTVSPost2010PropOp54
 70
     1
102
RTVSPost2010Prop55
280
     0
102
RTVSPost2010PropOp55
 70
     1
102
RTVSPost2010Prop56
140
1.0
102
RTVSPost2010PropOp56
 70
     1
102
RTVSPost2010Prop57
140
1.0
102
RTVSPost2010PropOp57
 70
     1
102
RTVSPropertyOp0
 70
     1
102
RTVSPropertyOp1
 70
     1
102
RTVSPropertyOp2
 70
     1
102
RTVSPropertyOp3
 70
     1
102
RTVSPropertyOp4
 70
     1
102
RTVSPropertyOp5
 70
     1
102
RTVSPropertyOp6
 70
     1
102
RTVSPropertyOp7
 70
     1
102
RTVSPropertyOp8
 70
     1
102
RTVSPropertyOp9
 70
     1
102
RTVSPropertyOp10
 70
     1
102
RTVSPropertyOp11
 70
     1
102
RTVSPropertyOp12
 70
     1
102
RTVSPropertyOp13
 70
     1
102
RTVSPropertyOp14
 70
     1
102
RTVSPropertyOp15
 70
     1
102
RTVSPropertyOp16
 70
     1
102
RTVSPropertyOp17
 70
     1
102
RTVSPropertyOp18
 70
     1
102
RTVSPropertyOp19
 70
     1
102
RTVSPropertyOp20
 70
     1
102
RTVSPropertyOp21
 70
     1
102
RTVSPropertyOp22
 70
     1
102
RTVSPropertyOp23
 70
     1
102
RTVSPropertyOp24
 70
     1
102
RTVSPropertyOp25
 70
     1
102
RTVSPropertyOp26
 70
     1
102
RTVSPropertyOp27
 70
     1
102
RTVSPropertyOp28
 70
     1
102
RTVSPropertyOp29
 70
     1
102
RTVSPropertyOp30
 70
     1
102
RTVSPropertyOp31
 70
     1
102
RTVSPropertyOp32
 70
     1
102
RTVSPropertyOp33
 70
     1
102
RTVSPropertyOp34
 70
     1
102
RTVSPropertyOp35
 70
     1
102
RTVSPropertyOp36
 70
     1
102
RTVSPropertyOp37
 70
     1
102
RTVSPropertyOp38
 70
     1
102
RTVSPropertyOp39
 70
     1
102
RTVSPropertyOp40
 70
     1
102
RTVSPropertyOp41
 70
     1
102
RTVSPropertyOp42
 70
     1
102
RTVSPropertyOp43
 70
     1
102
RTVSPropertyOp44
 70
     1
102
RTVSPropertyOp45
 70
     1
102
RTVSPropertyOp46
 70
     1
102
RTVSPropertyOp47
 70
     1
102
RTVSPropertyOp48
 70
     1
102
RTVSPropertyOp49
 70
     1
102
RTVSPropertyOp50
 70
     1
102
RTVSPropertyOp51
 70
     0
102
RTVSPropertyOp52
 70
     0
102
RTVSPropertyOp53
 70
     1
102
RTVSPropertyOp54
 70
     1
102
RTVSPropertyOp55
 70
     1
102
RTVSPropertyOp56
 70
     1
102
RTVSPropertyOp57
 70
     1
102
RTVSPropertyOp58
 70
     1
102
RTVSPropertyOp59
 70
     1
102
RTVSPropertyOp60
 70
     1
102
RTVSPropertyOp61
 70
     1
102
RTVSPropertyOp62
 70
     1
  0
XRECORD
  5
850
102
{ACAD_REACTORS
330
84F
102
}
330
84F
100
AcDbXrecord
280
     1
102
RTVSPost2010Prop28
280
     0
102
RTVSPost2010PropOp28
 70
     1
102
RTVSPost2010Prop29
280
     1
102
RTVSPost2010PropOp29
 70
     1
102
RTVSPost2010Prop30
280
     1
102
RTVSPost2010PropOp30
 70
     1
102
RTVSPost2010Prop31
280
     0
102
RTVSPost2010PropOp31
 70
     1
102
RTVSPost2010Prop32
280
     0
102
RTVSPost2010PropOp32
 70
     1
102
RTVSPost2010Prop33
280
     0
102
RTVSPost2010PropOp33
 70
     1
102
RTVSPost2010Prop34
280
     0
102
RTVSPost2010PropOp34
 70
     1
102
RTVSPost2010Prop35
280
     0
102
RTVSPost2010PropOp35
 70
     1
102
RTVSPost2010Prop36
280
     0
102
RTVSPost2010PropOp36
 70
     1
102
RTVSPost2010Prop37
 90
       50
102
RTVSPost2010PropOp37
 70
     1
102
RTVSPost2010Prop38
140
0.0
102
RTVSPost2010PropOp38
 70
     1
102
RTVSPost2010Prop39
140
1.0
102
RTVSPost2010PropOp39
 70
     1
102
RTVSPost2010Prop40
 90
        0
102
RTVSPost2010PropOp40
 70
     1
102
RTVSPost2010Prop41ColorIndex
 90
       18
102
RTVSPost2010Prop41ColorRGB
 90
        0
102
RTVSPost2010PropOp41
 70
     1
102
RTVSPost2010Prop42
 90
       50
102
RTVSPost2010PropOp42
 70
     1
102
RTVSPost2010Prop43
 90
        3
102
RTVSPost2010PropOp43
 70
     1
102
RTVSPost2010Prop44ColorIndex
 90
        5
102
RTVSPost2010Prop44ColorRGB
 90
      255
102
RTVSPost2010PropOp44
 70
     1
102
RTVSPost2010Prop45
280
     0
102
RTVSPost2010PropOp45
 70
     1
102
RTVSPost2010Prop46
 90
       50
102
RTVSPost2010PropOp46
 70
     1
102
RTVSPost2010Prop47
 90
       50
102
RTVSPost2010PropOp47
 70
     1
102
RTVSPost2010Prop48
 90
       50
102
RTVSPost2010PropOp48
 70
     1
102
RTVSPost2010Prop49
280
     0
102
RTVSPost2010PropOp49
 70
     1
102
RTVSPost2010Prop50
 90
       50
102
RTVSPost2010PropOp50
 70
     1
102
RTVSPost2010Prop51ColorIndex
 90
      256
102
RTVSPost2010Prop51ColorRGB
 90
-16777216
102
RTVSPost2010PropOp51
 70
     0
102
RTVSPost2010Prop52
140
1.0
102
RTVSPost2010PropOp52
 70
     0
102
RTVSPost2010Prop53
 90
        2
102
RTVSPost2010PropOp53
 70
     1
102
RTVSPost2010Prop54
  1
strokes_ogs.tif
102
RTVSPost2010PropOp54
 70
     1
102
RTVSPost2010Prop55
280
     0
102
RTVSPost2010PropOp55
 70
     1
102
RTVSPost2010Prop56
140
1.0
102
RTVSPost2010PropOp56
 70
     1
102
RTVSPost2010Prop57
140
1.0
102
RTVSPost2010PropOp57
 70
     1
102
RTVSPropertyOp0
 70
     1
102
RTVSPropertyOp1
 70
     1
102
RTVSPropertyOp2
 70
     1
102
RTVSPropertyOp3
 70
     1
102
RTVSPropertyOp4
 70
     1
102
RTVSPropertyOp5
 70
     1
102
RTVSPropertyOp6
 70
     1
102
RTVSPropertyOp7
 70
     1
102
RTVSPropertyOp8
 70
     1
102
RTVSPropertyOp9
 70
     1
102
RTVSPropertyOp10
 70
     1
102
RTVSPropertyOp11
 70
     1
102
RTVSPropertyOp12
 70
     1
102
RTVSPropertyOp13
 70
     1
102
RTVSPropertyOp14
 70
     1
102
RTVSPropertyOp15
 70
     1
102
RTVSPropertyOp16
 70
     1
102
RTVSPropertyOp17
 70
     1
102
RTVSPropertyOp18
 70
     1
102
RTVSPropertyOp19
 70
     1
102
RTVSPropertyOp20
 70
     1
102
RTVSPropertyOp21
 70
     1
102
RTVSPropertyOp22
 70
     1
102
RTVSPropertyOp23
 70
     1
102
RTVSPropertyOp24
 70
     1
102
RTVSPropertyOp25
 70
     1
102
RTVSPropertyOp26
 70
     1
102
RTVSPropertyOp27
 70
     1
102
RTVSPropertyOp28
 70
     1
102
RTVSPropertyOp29
 70
     1
102
RTVSPropertyOp30
 70
     1
102
RTVSPropertyOp31
 70
     1
102
RTVSPropertyOp32
 70
     1
102
RTVSPropertyOp33
 70
     1
102
RTVSPropertyOp34
 70
     1
102
RTVSPropertyOp35
 70
     1
102
RTVSPropertyOp36
 70
     1
102
RTVSPropertyOp37
 70
     1
102
RTVSPropertyOp38
 70
     1
102
RTVSPropertyOp39
 70
     1
102
RTVSPropertyOp40
 70
     1
102
RTVSPropertyOp41
 70
     1
102
RTVSPropertyOp42
 70
     1
102
RTVSPropertyOp43
 70
     1
102
RTVSPropertyOp44
 70
     1
102
RTVSPropertyOp45
 70
     1
102
RTVSPropertyOp46
 70
     1
102
RTVSPropertyOp47
 70
     1
102
RTVSPropertyOp48
 70
     1
102
RTVSPropertyOp49
 70
     1
102
RTVSPropertyOp50
 70
     1
102
RTVSPropertyOp51
 70
     0
102
RTVSPropertyOp52
 70
     0
102
RTVSPropertyOp53
 70
     1
102
RTVSPropertyOp54
 70
     1
102
RTVSPropertyOp55
 70
     1
102
RTVSPropertyOp56
 70
     1
102
RTVSPropertyOp57
 70
     1
102
RTVSPropertyOp58
 70
     1
102
RTVSPropertyOp59
 70
     1
102
RTVSPropertyOp60
 70
     1
102
RTVSPropertyOp61
 70
     1
102
RTVSPropertyOp62
 70
     1
  0
XRECORD
  5
852
102
{ACAD_REACTORS
330
851
102
}
330
851
100
AcDbXrecord
280
     1
102
RTVSPost2010Prop28
280
     0
102
RTVSPost2010PropOp28
 70
     1
102
RTVSPost2010Prop29
280
     1
102
RTVSPost2010PropOp29
 70
     1
102
RTVSPost2010Prop30
280
     1
102
RTVSPost2010PropOp30
 70
     1
102
RTVSPost2010Prop31
280
     0
102
RTVSPost2010PropOp31
 70
     1
102
RTVSPost2010Prop32
280
     0
102
RTVSPost2010PropOp32
 70
     1
102
RTVSPost2010Prop33
280
     0
102
RTVSPost2010PropOp33
 70
     1
102
RTVSPost2010Prop34
280
     0
102
RTVSPost2010PropOp34
 70
     1
102
RTVSPost2010Prop35
280
     0
102
RTVSPost2010PropOp35
 70
     1
102
RTVSPost2010Prop36
280
     0
102
RTVSPost2010PropOp36
 70
     1
102
RTVSPost2010Prop37
 90
       50
102
RTVSPost2010PropOp37
 70
     1
102
RTVSPost2010Prop38
140
0.0
102
RTVSPost2010PropOp38
 70
     1
102
RTVSPost2010Prop39
140
1.0
102
RTVSPost2010PropOp39
 70
     1
102
RTVSPost2010Prop40
 90
        0
102
RTVSPost2010PropOp40
 70
     1
102
RTVSPost2010Prop41ColorIndex
 90
       18
102
RTVSPost2010Prop41ColorRGB
 90
        0
102
RTVSPost2010PropOp41
 70
     1
102
RTVSPost2010Prop42
 90
       50
102
RTVSPost2010PropOp42
 70
     1
102
RTVSPost2010Prop43
 90
        3
102
RTVSPost2010PropOp43
 70
     1
102
RTVSPost2010Prop44ColorIndex
 90
        5
102
RTVSPost2010Prop44ColorRGB
 90
      255
102
RTVSPost2010PropOp44
 70
     1
102
RTVSPost2010Prop45
280
     0
102
RTVSPost2010PropOp45
 70
     1
102
RTVSPost2010Prop46
 90
       50
102
RTVSPost2010PropOp46
 70
     1
102
RTVSPost2010Prop47
 90
       50
102
RTVSPost2010PropOp47
 70
     1
102
RTVSPost2010Prop48
 90
       50
102
RTVSPost2010PropOp48
 70
     1
102
RTVSPost2010Prop49
280
     0
102
RTVSPost2010PropOp49
 70
     1
102
RTVSPost2010Prop50
 90
       50
102
RTVSPost2010PropOp50
 70
     1
102
RTVSPost2010Prop51ColorIndex
 90
      256
102
RTVSPost2010Prop51ColorRGB
 90
-16777216
102
RTVSPost2010PropOp51
 70
     0
102
RTVSPost2010Prop52
140
1.0
102
RTVSPost2010PropOp52
 70
     0
102
RTVSPost2010Prop53
 90
        2
102
RTVSPost2010PropOp53
 70
     1
102
RTVSPost2010Prop54
  1
strokes_ogs.tif
102
RTVSPost2010PropOp54
 70
     1
102
RTVSPost2010Prop55
280
     0
102
RTVSPost2010PropOp55
 70
     1
102
RTVSPost2010Prop56
140
1.0
102
RTVSPost2010PropOp56
 70
     1
102
RTVSPost2010Prop57
140
1.0
102
RTVSPost2010PropOp57
 70
     1
102
RTVSPropertyOp0
 70
     1
102
RTVSPropertyOp1
 70
     1
102
RTVSPropertyOp2
 70
     1
102
RTVSPropertyOp3
 70
     1
102
RTVSPropertyOp4
 70
     1
102
RTVSPropertyOp5
 70
     1
102
RTVSPropertyOp6
 70
     1
102
RTVSPropertyOp7
 70
     1
102
RTVSPropertyOp8
 70
     1
102
RTVSPropertyOp9
 70
     1
102
RTVSPropertyOp10
 70
     1
102
RTVSPropertyOp11
 70
     1
102
RTVSPropertyOp12
 70
     1
102
RTVSPropertyOp13
 70
     1
102
RTVSPropertyOp14
 70
     1
102
RTVSPropertyOp15
 70
     1
102
RTVSPropertyOp16
 70
     1
102
RTVSPropertyOp17
 70
     1
102
RTVSPropertyOp18
 70
     1
102
RTVSPropertyOp19
 70
     1
102
RTVSPropertyOp20
 70
     1
102
RTVSPropertyOp21
 70
     1
102
RTVSPropertyOp22
 70
     1
102
RTVSPropertyOp23
 70
     1
102
RTVSPropertyOp24
 70
     1
102
RTVSPropertyOp25
 70
     1
102
RTVSPropertyOp26
 70
     1
102
RTVSPropertyOp27
 70
     1
102
RTVSPropertyOp28
 70
     1
102
RTVSPropertyOp29
 70
     1
102
RTVSPropertyOp30
 70
     1
102
RTVSPropertyOp31
 70
     1
102
RTVSPropertyOp32
 70
     1
102
RTVSPropertyOp33
 70
     1
102
RTVSPropertyOp34
 70
     1
102
RTVSPropertyOp35
 70
     1
102
RTVSPropertyOp36
 70
     1
102
RTVSPropertyOp37
 70
     1
102
RTVSPropertyOp38
 70
     1
102
RTVSPropertyOp39
 70
     1
102
RTVSPropertyOp40
 70
     1
102
RTVSPropertyOp41
 70
     1
102
RTVSPropertyOp42
 70
     1
102
RTVSPropertyOp43
 70
     1
102
RTVSPropertyOp44
 70
     1
102
RTVSPropertyOp45
 70
     1
102
RTVSPropertyOp46
 70
     1
102
RTVSPropertyOp47
 70
     1
102
RTVSPropertyOp48
 70
     1
102
RTVSPropertyOp49
 70
     1
102
RTVSPropertyOp50
 70
     1
102
RTVSPropertyOp51
 70
     0
102
RTVSPropertyOp52
 70
     0
102
RTVSPropertyOp53
 70
     1
102
RTVSPropertyOp54
 70
     1
102
RTVSPropertyOp55
 70
     1
102
RTVSPropertyOp56
 70
     1
102
RTVSPropertyOp57
 70
     1
102
RTVSPropertyOp58
 70
     1
102
RTVSPropertyOp59
 70
     1
102
RTVSPropertyOp60
 70
     1
102
RTVSPropertyOp61
 70
     1
102
RTVSPropertyOp62
 70
     1
  0
XRECORD
  5
854
102
{ACAD_REACTORS
330
853
102
}
330
853
100
AcDbXrecord
280
     1
102
RTVSPost2010Prop28
280
     0
102
RTVSPost2010PropOp28
 70
     1
102
RTVSPost2010Prop29
280
     1
102
RTVSPost2010PropOp29
 70
     1
102
RTVSPost2010Prop30
280
     1
102
RTVSPost2010PropOp30
 70
     1
102
RTVSPost2010Prop31
280
     0
102
RTVSPost2010PropOp31
 70
     1
102
RTVSPost2010Prop32
280
     0
102
RTVSPost2010PropOp32
 70
     1
102
RTVSPost2010Prop33
280
     0
102
RTVSPost2010PropOp33
 70
     1
102
RTVSPost2010Prop34
280
     0
102
RTVSPost2010PropOp34
 70
     1
102
RTVSPost2010Prop35
280
     0
102
RTVSPost2010PropOp35
 70
     1
102
RTVSPost2010Prop36
280
     0
102
RTVSPost2010PropOp36
 70
     1
102
RTVSPost2010Prop37
 90
       50
102
RTVSPost2010PropOp37
 70
     1
102
RTVSPost2010Prop38
140
0.0
102
RTVSPost2010PropOp38
 70
     1
102
RTVSPost2010Prop39
140
1.0
102
RTVSPost2010PropOp39
 70
     1
102
RTVSPost2010Prop40
 90
        0
102
RTVSPost2010PropOp40
 70
     1
102
RTVSPost2010Prop41ColorIndex
 90
       18
102
RTVSPost2010Prop41ColorRGB
 90
        0
102
RTVSPost2010PropOp41
 70
     1
102
RTVSPost2010Prop42
 90
       50
102
RTVSPost2010PropOp42
 70
     1
102
RTVSPost2010Prop43
 90
        3
102
RTVSPost2010PropOp43
 70
     1
102
RTVSPost2010Prop44ColorIndex
 90
        5
102
RTVSPost2010Prop44ColorRGB
 90
      255
102
RTVSPost2010PropOp44
 70
     1
102
RTVSPost2010Prop45
280
     0
102
RTVSPost2010PropOp45
 70
     1
102
RTVSPost2010Prop46
 90
       50
102
RTVSPost2010PropOp46
 70
     1
102
RTVSPost2010Prop47
 90
       50
102
RTVSPost2010PropOp47
 70
     1
102
RTVSPost2010Prop48
 90
       50
102
RTVSPost2010PropOp48
 70
     1
102
RTVSPost2010Prop49
280
     0
102
RTVSPost2010PropOp49
 70
     1
102
RTVSPost2010Prop50
 90
       50
102
RTVSPost2010PropOp50
 70
     1
102
RTVSPost2010Prop51ColorIndex
 90
      256
102
RTVSPost2010Prop51ColorRGB
 90
-16777216
102
RTVSPost2010PropOp51
 70
     0
102
RTVSPost2010Prop52
140
1.0
102
RTVSPost2010PropOp52
 70
     0
102
RTVSPost2010Prop53
 90
        2
102
RTVSPost2010PropOp53
 70
     1
102
RTVSPost2010Prop54
  1
strokes_ogs.tif
102
RTVSPost2010PropOp54
 70
     1
102
RTVSPost2010Prop55
280
     0
102
RTVSPost2010PropOp55
 70
     1
102
RTVSPost2010Prop56
140
1.0
102
RTVSPost2010PropOp56
 70
     1
102
RTVSPost2010Prop57
140
1.0
102
RTVSPost2010PropOp57
 70
     1
102
RTVSPropertyOp0
 70
     1
102
RTVSPropertyOp1
 70
     1
102
RTVSPropertyOp2
 70
     1
102
RTVSPropertyOp3
 70
     1
102
RTVSPropertyOp4
 70
     1
102
RTVSPropertyOp5
 70
     1
102
RTVSPropertyOp6
 70
     1
102
RTVSPropertyOp7
 70
     1
102
RTVSPropertyOp8
 70
     1
102
RTVSPropertyOp9
 70
     1
102
RTVSPropertyOp10
 70
     1
102
RTVSPropertyOp11
 70
     1
102
RTVSPropertyOp12
 70
     1
102
RTVSPropertyOp13
 70
     1
102
RTVSPropertyOp14
 70
     1
102
RTVSPropertyOp15
 70
     1
102
RTVSPropertyOp16
 70
     1
102
RTVSPropertyOp17
 70
     1
102
RTVSPropertyOp18
 70
     1
102
RTVSPropertyOp19
 70
     1
102
RTVSPropertyOp20
 70
     1
102
RTVSPropertyOp21
 70
     1
102
RTVSPropertyOp22
 70
     1
102
RTVSPropertyOp23
 70
     1
102
RTVSPropertyOp24
 70
     1
102
RTVSPropertyOp25
 70
     1
102
RTVSPropertyOp26
 70
     1
102
RTVSPropertyOp27
 70
     1
102
RTVSPropertyOp28
 70
     1
102
RTVSPropertyOp29
 70
     1
102
RTVSPropertyOp30
 70
     1
102
RTVSPropertyOp31
 70
     1
102
RTVSPropertyOp32
 70
     1
102
RTVSPropertyOp33
 70
     1
102
RTVSPropertyOp34
 70
     1
102
RTVSPropertyOp35
 70
     1
102
RTVSPropertyOp36
 70
     1
102
RTVSPropertyOp37
 70
     1
102
RTVSPropertyOp38
 70
     1
102
RTVSPropertyOp39
 70
     1
102
RTVSPropertyOp40
 70
     1
102
RTVSPropertyOp41
 70
     1
102
RTVSPropertyOp42
 70
     1
102
RTVSPropertyOp43
 70
     1
102
RTVSPropertyOp44
 70
     1
102
RTVSPropertyOp45
 70
     1
102
RTVSPropertyOp46
 70
     1
102
RTVSPropertyOp47
 70
     1
102
RTVSPropertyOp48
 70
     1
102
RTVSPropertyOp49
 70
     1
102
RTVSPropertyOp50
 70
     1
102
RTVSPropertyOp51
 70
     0
102
RTVSPropertyOp52
 70
     0
102
RTVSPropertyOp53
 70
     1
102
RTVSPropertyOp54
 70
     1
102
RTVSPropertyOp55
 70
     1
102
RTVSPropertyOp56
 70
     1
102
RTVSPropertyOp57
 70
     1
102
RTVSPropertyOp58
 70
     1
102
RTVSPropertyOp59
 70
     1
102
RTVSPropertyOp60
 70
     1
102
RTVSPropertyOp61
 70
     1
102
RTVSPropertyOp62
 70
     1
  0
XRECORD
  5
85A
102
{ACAD_REACTORS
330
859
102
}
330
859
100
AcDbXrecord
280
     1
102
RTVSPost2010Prop28
280
     0
102
RTVSPost2010PropOp28
 70
     1
102
RTVSPost2010Prop29
280
     1
102
RTVSPost2010PropOp29
 70
     1
102
RTVSPost2010Prop30
280
     1
102
RTVSPost2010PropOp30
 70
     1
102
RTVSPost2010Prop31
280
     0
102
RTVSPost2010PropOp31
 70
     1
102
RTVSPost2010Prop32
280
     0
102
RTVSPost2010PropOp32
 70
     1
102
RTVSPost2010Prop33
280
     0
102
RTVSPost2010PropOp33
 70
     1
102
RTVSPost2010Prop34
280
     0
102
RTVSPost2010PropOp34
 70
     1
102
RTVSPost2010Prop35
280
     0
102
RTVSPost2010PropOp35
 70
     1
102
RTVSPost2010Prop36
280
     0
102
RTVSPost2010PropOp36
 70
     1
102
RTVSPost2010Prop37
 90
       50
102
RTVSPost2010PropOp37
 70
     1
102
RTVSPost2010Prop38
140
0.0
102
RTVSPost2010PropOp38
 70
     1
102
RTVSPost2010Prop39
140
1.0
102
RTVSPost2010PropOp39
 70
     1
102
RTVSPost2010Prop40
 90
        0
102
RTVSPost2010PropOp40
 70
     1
102
RTVSPost2010Prop41ColorIndex
 90
       18
102
RTVSPost2010Prop41ColorRGB
 90
        0
102
RTVSPost2010PropOp41
 70
     1
102
RTVSPost2010Prop42
 90
       50
102
RTVSPost2010PropOp42
 70
     1
102
RTVSPost2010Prop43
 90
        3
102
RTVSPost2010PropOp43
 70
     1
102
RTVSPost2010Prop44ColorIndex
 90
        5
102
RTVSPost2010Prop44ColorRGB
 90
      255
102
RTVSPost2010PropOp44
 70
     1
102
RTVSPost2010Prop45
280
     0
102
RTVSPost2010PropOp45
 70
     1
102
RTVSPost2010Prop46
 90
       50
102
RTVSPost2010PropOp46
 70
     1
102
RTVSPost2010Prop47
 90
       50
102
RTVSPost2010PropOp47
 70
     1
102
RTVSPost2010Prop48
 90
       50
102
RTVSPost2010PropOp48
 70
     1
102
RTVSPost2010Prop49
280
     0
102
RTVSPost2010PropOp49
 70
     1
102
RTVSPost2010Prop50
 90
       50
102
RTVSPost2010PropOp50
 70
     1
102
RTVSPost2010Prop51ColorIndex
 90
      256
102
RTVSPost2010Prop51ColorRGB
 90
-16777216
102
RTVSPost2010PropOp51
 70
     0
102
RTVSPost2010Prop52
140
1.0
102
RTVSPost2010PropOp52
 70
     0
102
RTVSPost2010Prop53
 90
        2
102
RTVSPost2010PropOp53
 70
     1
102
RTVSPost2010Prop54
  1
strokes_ogs.tif
102
RTVSPost2010PropOp54
 70
     1
102
RTVSPost2010Prop55
280
     0
102
RTVSPost2010PropOp55
 70
     1
102
RTVSPost2010Prop56
140
1.0
102
RTVSPost2010PropOp56
 70
     1
102
RTVSPost2010Prop57
140
1.0
102
RTVSPost2010PropOp57
 70
     1
102
RTVSPropertyOp0
 70
     1
102
RTVSPropertyOp1
 70
     1
102
RTVSPropertyOp2
 70
     1
102
RTVSPropertyOp3
 70
     1
102
RTVSPropertyOp4
 70
     1
102
RTVSPropertyOp5
 70
     1
102
RTVSPropertyOp6
 70
     1
102
RTVSPropertyOp7
 70
     1
102
RTVSPropertyOp8
 70
     1
102
RTVSPropertyOp9
 70
     1
102
RTVSPropertyOp10
 70
     1
102
RTVSPropertyOp11
 70
     1
102
RTVSPropertyOp12
 70
     1
102
RTVSPropertyOp13
 70
     1
102
RTVSPropertyOp14
 70
     1
102
RTVSPropertyOp15
 70
     1
102
RTVSPropertyOp16
 70
     1
102
RTVSPropertyOp17
 70
     1
102
RTVSPropertyOp18
 70
     1
102
RTVSPropertyOp19
 70
     1
102
RTVSPropertyOp20
 70
     1
102
RTVSPropertyOp21
 70
     1
102
RTVSPropertyOp22
 70
     1
102
RTVSPropertyOp23
 70
     1
102
RTVSPropertyOp24
 70
     1
102
RTVSPropertyOp25
 70
     1
102
RTVSPropertyOp26
 70
     1
102
RTVSPropertyOp27
 70
     1
102
RTVSPropertyOp28
 70
     1
102
RTVSPropertyOp29
 70
     1
102
RTVSPropertyOp30
 70
     1
102
RTVSPropertyOp31
 70
     1
102
RTVSPropertyOp32
 70
     1
102
RTVSPropertyOp33
 70
     1
102
RTVSPropertyOp34
 70
     1
102
RTVSPropertyOp35
 70
     1
102
RTVSPropertyOp36
 70
     1
102
RTVSPropertyOp37
 70
     1
102
RTVSPropertyOp38
 70
     1
102
RTVSPropertyOp39
 70
     1
102
RTVSPropertyOp40
 70
     1
102
RTVSPropertyOp41
 70
     1
102
RTVSPropertyOp42
 70
     1
102
RTVSPropertyOp43
 70
     1
102
RTVSPropertyOp44
 70
     1
102
RTVSPropertyOp45
 70
     1
102
RTVSPropertyOp46
 70
     1
102
RTVSPropertyOp47
 70
     1
102
RTVSPropertyOp48
 70
     1
102
RTVSPropertyOp49
 70
     1
102
RTVSPropertyOp50
 70
     1
102
RTVSPropertyOp51
 70
     0
102
RTVSPropertyOp52
 70
     0
102
RTVSPropertyOp53
 70
     1
102
RTVSPropertyOp54
 70
     1
102
RTVSPropertyOp55
 70
     1
102
RTVSPropertyOp56
 70
     1
102
RTVSPropertyOp57
 70
     1
102
RTVSPropertyOp58
 70
     1
102
RTVSPropertyOp59
 70
     1
102
RTVSPropertyOp60
 70
     1
102
RTVSPropertyOp61
 70
     1
102
RTVSPropertyOp62
 70
     1
  0
XRECORD
  5
86E
102
{ACAD_REACTORS
330
86D
102
}
330
86D
100
AcDbXrecord
280
     1
102
RTVSPost2010Prop28
280
     0
102
RTVSPost2010PropOp28
 70
     0
102
RTVSPost2010Prop29
280
     1
102
RTVSPost2010PropOp29
 70
     0
102
RTVSPost2010Prop30
280
     1
102
RTVSPost2010PropOp30
 70
     0
102
RTVSPost2010Prop31
280
     0
102
RTVSPost2010PropOp31
 70
     0
102
RTVSPost2010Prop32
280
     0
102
RTVSPost2010PropOp32
 70
     0
102
RTVSPost2010Prop33
280
     0
102
RTVSPost2010PropOp33
 70
     0
102
RTVSPost2010Prop34
280
     0
102
RTVSPost2010PropOp34
 70
     0
102
RTVSPost2010Prop35
280
     0
102
RTVSPost2010PropOp35
 70
     0
102
RTVSPost2010Prop36
280
     0
102
RTVSPost2010PropOp36
 70
     0
102
RTVSPost2010Prop37
 90
       50
102
RTVSPost2010PropOp37
 70
     0
102
RTVSPost2010Prop38
140
0.0
102
RTVSPost2010PropOp38
 70
     0
102
RTVSPost2010Prop39
140
1.0
102
RTVSPost2010PropOp39
 70
     0
102
RTVSPost2010Prop40
 90
        0
102
RTVSPost2010PropOp40
 70
     0
102
RTVSPost2010Prop41ColorIndex
 90
       18
102
RTVSPost2010Prop41ColorRGB
 90
        0
102
RTVSPost2010PropOp41
 70
     0
102
RTVSPost2010Prop42
 90
       50
102
RTVSPost2010PropOp42
 70
     0
102
RTVSPost2010Prop43
 90
        3
102
RTVSPost2010PropOp43
 70
     0
102
RTVSPost2010Prop44ColorIndex
 90
        5
102
RTVSPost2010Prop44ColorRGB
 90
      255
102
RTVSPost2010PropOp44
 70
     0
102
RTVSPost2010Prop45
280
     0
102
RTVSPost2010PropOp45
 70
     0
102
RTVSPost2010Prop46
 90
       50
102
RTVSPost2010PropOp46
 70
     0
102
RTVSPost2010Prop47
 90
       50
102
RTVSPost2010PropOp47
 70
     0
102
RTVSPost2010Prop48
 90
       50
102
RTVSPost2010PropOp48
 70
     0
102
RTVSPost2010Prop49
280
     0
102
RTVSPost2010PropOp49
 70
     0
102
RTVSPost2010Prop50
 90
       50
102
RTVSPost2010PropOp50
 70
     0
102
RTVSPost2010Prop51ColorIndex
 90
      256
102
RTVSPost2010Prop51ColorRGB
 90
-16777216
102
RTVSPost2010PropOp51
 70
     0
102
RTVSPost2010Prop52
140
1.0
102
RTVSPost2010PropOp52
 70
     0
102
RTVSPost2010Prop53
 90
        2
102
RTVSPost2010PropOp53
 70
     0
102
RTVSPost2010Prop54
  1
strokes_ogs.tif
102
RTVSPost2010PropOp54
 70
     0
102
RTVSPost2010Prop55
280
     0
102
RTVSPost2010PropOp55
 70
     0
102
RTVSPost2010Prop56
140
1.0
102
RTVSPost2010PropOp56
 70
     0
102
RTVSPost2010Prop57
140
1.0
102
RTVSPost2010PropOp57
 70
     0
102
RTVSPropertyOp0
 70
     0
102
RTVSPropertyOp1
 70
     0
102
RTVSPropertyOp2
 70
     0
102
RTVSPropertyOp3
 70
     0
102
RTVSPropertyOp4
 70
     0
102
RTVSPropertyOp5
 70
     0
102
RTVSPropertyOp6
 70
     0
102
RTVSPropertyOp7
 70
     0
102
RTVSPropertyOp8
 70
     0
102
RTVSPropertyOp9
 70
     0
102
RTVSPropertyOp10
 70
     0
102
RTVSPropertyOp11
 70
     0
102
RTVSPropertyOp12
 70
     0
102
RTVSPropertyOp13
 70
     0
102
RTVSPropertyOp14
 70
     2
102
RTVSPropertyOp15
 70
     0
102
RTVSPropertyOp16
 70
     0
102
RTVSPropertyOp17
 70
     0
102
RTVSPropertyOp18
 70
     0
102
RTVSPropertyOp19
 70
     0
102
RTVSPropertyOp20
 70
     0
102
RTVSPropertyOp21
 70
     0
102
RTVSPropertyOp22
 70
     0
102
RTVSPropertyOp23
 70
     0
102
RTVSPropertyOp24
 70
     0
102
RTVSPropertyOp25
 70
     0
102
RTVSPropertyOp26
 70
     0
102
RTVSPropertyOp27
 70
     0
102
RTVSPropertyOp28
 70
     0
102
RTVSPropertyOp29
 70
     0
102
RTVSPropertyOp30
 70
     0
102
RTVSPropertyOp31
 70
     0
102
RTVSPropertyOp32
 70
     0
102
RTVSPropertyOp33
 70
     0
102
RTVSPropertyOp34
 70
     0
102
RTVSPropertyOp35
 70
     0
102
RTVSPropertyOp36
 70
     0
102
RTVSPropertyOp37
 70
     0
102
RTVSPropertyOp38
 70
     0
102
RTVSPropertyOp39
 70
     0
102
RTVSPropertyOp40
 70
     0
102
RTVSPropertyOp41
 70
     0
102
RTVSPropertyOp42
 70
     0
102
RTVSPropertyOp43
 70
     0
102
RTVSPropertyOp44
 70
     0
102
RTVSPropertyOp45
 70
     0
102
RTVSPropertyOp46
 70
     0
102
RTVSPropertyOp47
 70
     0
102
RTVSPropertyOp48
 70
     0
102
RTVSPropertyOp49
 70
     0
102
RTVSPropertyOp50
 70
     0
102
RTVSPropertyOp51
 70
     0
102
RTVSPropertyOp52
 70
     0
102
RTVSPropertyOp53
 70
     0
102
RTVSPropertyOp54
 70
     0
102
RTVSPropertyOp55
 70
     0
102
RTVSPropertyOp56
 70
     0
102
RTVSPropertyOp57
 70
     0
102
RTVSPropertyOp58
 70
     1
102
RTVSPropertyOp59
 70
     1
102
RTVSPropertyOp60
 70
     1
102
RTVSPropertyOp61
 70
     1
102
RTVSPropertyOp62
 70
     1
  0
XRECORD
  5
868
102
{ACAD_REACTORS
330
867
102
}
330
867
100
AcDbXrecord
280
     1
102
RTVSPost2010Prop28
280
     0
102
RTVSPost2010PropOp28
 70
     1
102
RTVSPost2010Prop29
280
     1
102
RTVSPost2010PropOp29
 70
     1
102
RTVSPost2010Prop30
280
     1
102
RTVSPost2010PropOp30
 70
     1
102
RTVSPost2010Prop31
280
     0
102
RTVSPost2010PropOp31
 70
     1
102
RTVSPost2010Prop32
280
     0
102
RTVSPost2010PropOp32
 70
     1
102
RTVSPost2010Prop33
280
     0
102
RTVSPost2010PropOp33
 70
     1
102
RTVSPost2010Prop34
280
     0
102
RTVSPost2010PropOp34
 70
     1
102
RTVSPost2010Prop35
280
     0
102
RTVSPost2010PropOp35
 70
     1
102
RTVSPost2010Prop36
280
     0
102
RTVSPost2010PropOp36
 70
     1
102
RTVSPost2010Prop37
 90
       50
102
RTVSPost2010PropOp37
 70
     1
102
RTVSPost2010Prop38
140
0.0
102
RTVSPost2010PropOp38
 70
     1
102
RTVSPost2010Prop39
140
1.0
102
RTVSPost2010PropOp39
 70
     1
102
RTVSPost2010Prop40
 90
        0
102
RTVSPost2010PropOp40
 70
     1
102
RTVSPost2010Prop41ColorIndex
 90
       18
102
RTVSPost2010Prop41ColorRGB
 90
        0
102
RTVSPost2010PropOp41
 70
     1
102
RTVSPost2010Prop42
 90
       50
102
RTVSPost2010PropOp42
 70
     1
102
RTVSPost2010Prop43
 90
        3
102
RTVSPost2010PropOp43
 70
     1
102
RTVSPost2010Prop44ColorIndex
 90
        5
102
RTVSPost2010Prop44ColorRGB
 90
      255
102
RTVSPost2010PropOp44
 70
     1
102
RTVSPost2010Prop45
280
     0
102
RTVSPost2010PropOp45
 70
     1
102
RTVSPost2010Prop46
 90
       50
102
RTVSPost2010PropOp46
 70
     1
102
RTVSPost2010Prop47
 90
       50
102
RTVSPost2010PropOp47
 70
     1
102
RTVSPost2010Prop48
 90
       50
102
RTVSPost2010PropOp48
 70
     1
102
RTVSPost2010Prop49
280
     0
102
RTVSPost2010PropOp49
 70
     1
102
RTVSPost2010Prop50
 90
       50
102
RTVSPost2010PropOp50
 70
     1
102
RTVSPost2010Prop51ColorIndex
 90
      256
102
RTVSPost2010Prop51ColorRGB
 90
-16777216
102
RTVSPost2010PropOp51
 70
     0
102
RTVSPost2010Prop52
140
1.0
102
RTVSPost2010PropOp52
 70
     0
102
RTVSPost2010Prop53
 90
        2
102
RTVSPost2010PropOp53
 70
     1
102
RTVSPost2010Prop54
  1
strokes_ogs.tif
102
RTVSPost2010PropOp54
 70
     1
102
RTVSPost2010Prop55
280
     0
102
RTVSPost2010PropOp55
 70
     1
102
RTVSPost2010Prop56
140
1.0
102
RTVSPost2010PropOp56
 70
     1
102
RTVSPost2010Prop57
140
1.0
102
RTVSPost2010PropOp57
 70
     1
102
RTVSPropertyOp0
 70
     1
102
RTVSPropertyOp1
 70
     1
102
RTVSPropertyOp2
 70
     1
102
RTVSPropertyOp3
 70
     1
102
RTVSPropertyOp4
 70
     1
102
RTVSPropertyOp5
 70
     1
102
RTVSPropertyOp6
 70
     1
102
RTVSPropertyOp7
 70
     1
102
RTVSPropertyOp8
 70
     1
102
RTVSPropertyOp9
 70
     1
102
RTVSPropertyOp10
 70
     1
102
RTVSPropertyOp11
 70
     1
102
RTVSPropertyOp12
 70
     1
102
RTVSPropertyOp13
 70
     1
102
RTVSPropertyOp14
 70
     1
102
RTVSPropertyOp15
 70
     1
102
RTVSPropertyOp16
 70
     1
102
RTVSPropertyOp17
 70
     1
102
RTVSPropertyOp18
 70
     1
102
RTVSPropertyOp19
 70
     1
102
RTVSPropertyOp20
 70
     1
102
RTVSPropertyOp21
 70
     1
102
RTVSPropertyOp22
 70
     1
102
RTVSPropertyOp23
 70
     1
102
RTVSPropertyOp24
 70
     1
102
RTVSPropertyOp25
 70
     1
102
RTVSPropertyOp26
 70
     1
102
RTVSPropertyOp27
 70
     1
102
RTVSPropertyOp28
 70
     1
102
RTVSPropertyOp29
 70
     1
102
RTVSPropertyOp30
 70
     1
102
RTVSPropertyOp31
 70
     1
102
RTVSPropertyOp32
 70
     1
102
RTVSPropertyOp33
 70
     1
102
RTVSPropertyOp34
 70
     1
102
RTVSPropertyOp35
 70
     1
102
RTVSPropertyOp36
 70
     1
102
RTVSPropertyOp37
 70
     1
102
RTVSPropertyOp38
 70
     1
102
RTVSPropertyOp39
 70
     1
102
RTVSPropertyOp40
 70
     1
102
RTVSPropertyOp41
 70
     1
102
RTVSPropertyOp42
 70
     1
102
RTVSPropertyOp43
 70
     1
102
RTVSPropertyOp44
 70
     1
102
RTVSPropertyOp45
 70
     1
102
RTVSPropertyOp46
 70
     1
102
RTVSPropertyOp47
 70
     1
102
RTVSPropertyOp48
 70
     1
102
RTVSPropertyOp49
 70
     1
102
RTVSPropertyOp50
 70
     1
102
RTVSPropertyOp51
 70
     0
102
RTVSPropertyOp52
 70
     0
102
RTVSPropertyOp53
 70
     1
102
RTVSPropertyOp54
 70
     1
102
RTVSPropertyOp55
 70
     1
102
RTVSPropertyOp56
 70
     1
102
RTVSPropertyOp57
 70
     1
102
RTVSPropertyOp58
 70
     1
102
RTVSPropertyOp59
 70
     1
102
RTVSPropertyOp60
 70
     1
102
RTVSPropertyOp61
 70
     1
102
RTVSPropertyOp62
 70
     1
  0
XRECORD
  5
870
102
{ACAD_REACTORS
330
86F
102
}
330
86F
100
AcDbXrecord
280
     1
102
RTVSPost2010Prop28
280
     0
102
RTVSPost2010PropOp28
 70
     0
102
RTVSPost2010Prop29
280
     1
102
RTVSPost2010PropOp29
 70
     0
102
RTVSPost2010Prop30
280
     1
102
RTVSPost2010PropOp30
 70
     0
102
RTVSPost2010Prop31
280
     0
102
RTVSPost2010PropOp31
 70
     0
102
RTVSPost2010Prop32
280
     0
102
RTVSPost2010PropOp32
 70
     0
102
RTVSPost2010Prop33
280
     0
102
RTVSPost2010PropOp33
 70
     0
102
RTVSPost2010Prop34
280
     0
102
RTVSPost2010PropOp34
 70
     0
102
RTVSPost2010Prop35
280
     0
102
RTVSPost2010PropOp35
 70
     0
102
RTVSPost2010Prop36
280
     0
102
RTVSPost2010PropOp36
 70
     0
102
RTVSPost2010Prop37
 90
       50
102
RTVSPost2010PropOp37
 70
     0
102
RTVSPost2010Prop38
140
0.0
102
RTVSPost2010PropOp38
 70
     0
102
RTVSPost2010Prop39
140
1.0
102
RTVSPost2010PropOp39
 70
     0
102
RTVSPost2010Prop40
 90
        0
102
RTVSPost2010PropOp40
 70
     0
102
RTVSPost2010Prop41ColorIndex
 90
       18
102
RTVSPost2010Prop41ColorRGB
 90
        0
102
RTVSPost2010PropOp41
 70
     0
102
RTVSPost2010Prop42
 90
       50
102
RTVSPost2010PropOp42
 70
     0
102
RTVSPost2010Prop43
 90
        3
102
RTVSPost2010PropOp43
 70
     0
102
RTVSPost2010Prop44ColorIndex
 90
        5
102
RTVSPost2010Prop44ColorRGB
 90
      255
102
RTVSPost2010PropOp44
 70
     0
102
RTVSPost2010Prop45
280
     0
102
RTVSPost2010PropOp45
 70
     0
102
RTVSPost2010Prop46
 90
       50
102
RTVSPost2010PropOp46
 70
     0
102
RTVSPost2010Prop47
 90
       50
102
RTVSPost2010PropOp47
 70
     0
102
RTVSPost2010Prop48
 90
       50
102
RTVSPost2010PropOp48
 70
     0
102
RTVSPost2010Prop49
280
     0
102
RTVSPost2010PropOp49
 70
     0
102
RTVSPost2010Prop50
 90
       50
102
RTVSPost2010PropOp50
 70
     0
102
RTVSPost2010Prop51ColorIndex
 90
      256
102
RTVSPost2010Prop51ColorRGB
 90
-16777216
102
RTVSPost2010PropOp51
 70
     0
102
RTVSPost2010Prop52
140
1.0
102
RTVSPost2010PropOp52
 70
     0
102
RTVSPost2010Prop53
 90
        2
102
RTVSPost2010PropOp53
 70
     0
102
RTVSPost2010Prop54
  1
strokes_ogs.tif
102
RTVSPost2010PropOp54
 70
     0
102
RTVSPost2010Prop55
280
     0
102
RTVSPost2010PropOp55
 70
     0
102
RTVSPost2010Prop56
140
1.0
102
RTVSPost2010PropOp56
 70
     0
102
RTVSPost2010Prop57
140
1.0
102
RTVSPost2010PropOp57
 70
     0
102
RTVSPropertyOp0
 70
     0
102
RTVSPropertyOp1
 70
     0
102
RTVSPropertyOp2
 70
     0
102
RTVSPropertyOp3
 70
     0
102
RTVSPropertyOp4
 70
     0
102
RTVSPropertyOp5
 70
     0
102
RTVSPropertyOp6
 70
     0
102
RTVSPropertyOp7
 70
     0
102
RTVSPropertyOp8
 70
     0
102
RTVSPropertyOp9
 70
     0
102
RTVSPropertyOp10
 70
     0
102
RTVSPropertyOp11
 70
     0
102
RTVSPropertyOp12
 70
     0
102
RTVSPropertyOp13
 70
     0
102
RTVSPropertyOp14
 70
     2
102
RTVSPropertyOp15
 70
     0
102
RTVSPropertyOp16
 70
     0
102
RTVSPropertyOp17
 70
     0
102
RTVSPropertyOp18
 70
     0
102
RTVSPropertyOp19
 70
     0
102
RTVSPropertyOp20
 70
     0
102
RTVSPropertyOp21
 70
     0
102
RTVSPropertyOp22
 70
     0
102
RTVSPropertyOp23
 70
     0
102
RTVSPropertyOp24
 70
     0
102
RTVSPropertyOp25
 70
     0
102
RTVSPropertyOp26
 70
     0
102
RTVSPropertyOp27
 70
     0
102
RTVSPropertyOp28
 70
     0
102
RTVSPropertyOp29
 70
     0
102
RTVSPropertyOp30
 70
     0
102
RTVSPropertyOp31
 70
     0
102
RTVSPropertyOp32
 70
     0
102
RTVSPropertyOp33
 70
     0
102
RTVSPropertyOp34
 70
     0
102
RTVSPropertyOp35
 70
     0
102
RTVSPropertyOp36
 70
     0
102
RTVSPropertyOp37
 70
     0
102
RTVSPropertyOp38
 70
     0
102
RTVSPropertyOp39
 70
     0
102
RTVSPropertyOp40
 70
     0
102
RTVSPropertyOp41
 70
     0
102
RTVSPropertyOp42
 70
     0
102
RTVSPropertyOp43
 70
     0
102
RTVSPropertyOp44
 70
     0
102
RTVSPropertyOp45
 70
     0
102
RTVSPropertyOp46
 70
     0
102
RTVSPropertyOp47
 70
     0
102
RTVSPropertyOp48
 70
     0
102
RTVSPropertyOp49
 70
     0
102
RTVSPropertyOp50
 70
     0
102
RTVSPropertyOp51
 70
     0
102
RTVSPropertyOp52
 70
     0
102
RTVSPropertyOp53
 70
     0
102
RTVSPropertyOp54
 70
     0
102
RTVSPropertyOp55
 70
     0
102
RTVSPropertyOp56
 70
     0
102
RTVSPropertyOp57
 70
     0
102
RTVSPropertyOp58
 70
     1
102
RTVSPropertyOp59
 70
     1
102
RTVSPropertyOp60
 70
     1
102
RTVSPropertyOp61
 70
     1
102
RTVSPropertyOp62
 70
     1
  0
XRECORD
  5
85E
102
{ACAD_REACTORS
330
85D
102
}
330
85D
100
AcDbXrecord
280
     1
102
RTVSPost2010Prop28
280
     0
102
RTVSPost2010PropOp28
 70
     1
102
RTVSPost2010Prop29
280
     1
102
RTVSPost2010PropOp29
 70
     1
102
RTVSPost2010Prop30
280
     1
102
RTVSPost2010PropOp30
 70
     1
102
RTVSPost2010Prop31
280
     0
102
RTVSPost2010PropOp31
 70
     1
102
RTVSPost2010Prop32
280
     0
102
RTVSPost2010PropOp32
 70
     1
102
RTVSPost2010Prop33
280
     0
102
RTVSPost2010PropOp33
 70
     1
102
RTVSPost2010Prop34
280
     0
102
RTVSPost2010PropOp34
 70
     1
102
RTVSPost2010Prop35
280
     0
102
RTVSPost2010PropOp35
 70
     1
102
RTVSPost2010Prop36
280
     0
102
RTVSPost2010PropOp36
 70
     1
102
RTVSPost2010Prop37
 90
       50
102
RTVSPost2010PropOp37
 70
     1
102
RTVSPost2010Prop38
140
0.0
102
RTVSPost2010PropOp38
 70
     1
102
RTVSPost2010Prop39
140
1.0
102
RTVSPost2010PropOp39
 70
     1
102
RTVSPost2010Prop40
 90
        0
102
RTVSPost2010PropOp40
 70
     1
102
RTVSPost2010Prop41ColorIndex
 90
       18
102
RTVSPost2010Prop41ColorRGB
 90
        0
102
RTVSPost2010PropOp41
 70
     1
102
RTVSPost2010Prop42
 90
       50
102
RTVSPost2010PropOp42
 70
     1
102
RTVSPost2010Prop43
 90
        3
102
RTVSPost2010PropOp43
 70
     1
102
RTVSPost2010Prop44ColorIndex
 90
        5
102
RTVSPost2010Prop44ColorRGB
 90
      255
102
RTVSPost2010PropOp44
 70
     1
102
RTVSPost2010Prop45
280
     0
102
RTVSPost2010PropOp45
 70
     1
102
RTVSPost2010Prop46
 90
       50
102
RTVSPost2010PropOp46
 70
     1
102
RTVSPost2010Prop47
 90
       50
102
RTVSPost2010PropOp47
 70
     1
102
RTVSPost2010Prop48
 90
       50
102
RTVSPost2010PropOp48
 70
     1
102
RTVSPost2010Prop49
280
     0
102
RTVSPost2010PropOp49
 70
     1
102
RTVSPost2010Prop50
 90
       50
102
RTVSPost2010PropOp50
 70
     1
102
RTVSPost2010Prop51ColorIndex
 90
      256
102
RTVSPost2010Prop51ColorRGB
 90
-16777216
102
RTVSPost2010PropOp51
 70
     0
102
RTVSPost2010Prop52
140
1.0
102
RTVSPost2010PropOp52
 70
     0
102
RTVSPost2010Prop53
 90
        2
102
RTVSPost2010PropOp53
 70
     1
102
RTVSPost2010Prop54
  1
strokes_ogs.tif
102
RTVSPost2010PropOp54
 70
     1
102
RTVSPost2010Prop55
280
     0
102
RTVSPost2010PropOp55
 70
     1
102
RTVSPost2010Prop56
140
1.0
102
RTVSPost2010PropOp56
 70
     1
102
RTVSPost2010Prop57
140
1.0
102
RTVSPost2010PropOp57
 70
     1
102
RTVSPropertyOp0
 70
     1
102
RTVSPropertyOp1
 70
     1
102
RTVSPropertyOp2
 70
     1
102
RTVSPropertyOp3
 70
     1
102
RTVSPropertyOp4
 70
     1
102
RTVSPropertyOp5
 70
     1
102
RTVSPropertyOp6
 70
     1
102
RTVSPropertyOp7
 70
     1
102
RTVSPropertyOp8
 70
     1
102
RTVSPropertyOp9
 70
     1
102
RTVSPropertyOp10
 70
     1
102
RTVSPropertyOp11
 70
     1
102
RTVSPropertyOp12
 70
     1
102
RTVSPropertyOp13
 70
     1
102
RTVSPropertyOp14
 70
     1
102
RTVSPropertyOp15
 70
     1
102
RTVSPropertyOp16
 70
     1
102
RTVSPropertyOp17
 70
     1
102
RTVSPropertyOp18
 70
     1
102
RTVSPropertyOp19
 70
     1
102
RTVSPropertyOp20
 70
     1
102
RTVSPropertyOp21
 70
     1
102
RTVSPropertyOp22
 70
     1
102
RTVSPropertyOp23
 70
     1
102
RTVSPropertyOp24
 70
     1
102
RTVSPropertyOp25
 70
     1
102
RTVSPropertyOp26
 70
     1
102
RTVSPropertyOp27
 70
     1
102
RTVSPropertyOp28
 70
     1
102
RTVSPropertyOp29
 70
     1
102
RTVSPropertyOp30
 70
     1
102
RTVSPropertyOp31
 70
     1
102
RTVSPropertyOp32
 70
     1
102
RTVSPropertyOp33
 70
     1
102
RTVSPropertyOp34
 70
     1
102
RTVSPropertyOp35
 70
     1
102
RTVSPropertyOp36
 70
     1
102
RTVSPropertyOp37
 70
     1
102
RTVSPropertyOp38
 70
     1
102
RTVSPropertyOp39
 70
     1
102
RTVSPropertyOp40
 70
     1
102
RTVSPropertyOp41
 70
     1
102
RTVSPropertyOp42
 70
     1
102
RTVSPropertyOp43
 70
     1
102
RTVSPropertyOp44
 70
     1
102
RTVSPropertyOp45
 70
     1
102
RTVSPropertyOp46
 70
     1
102
RTVSPropertyOp47
 70
     1
102
RTVSPropertyOp48
 70
     1
102
RTVSPropertyOp49
 70
     1
102
RTVSPropertyOp50
 70
     1
102
RTVSPropertyOp51
 70
     0
102
RTVSPropertyOp52
 70
     0
102
RTVSPropertyOp53
 70
     1
102
RTVSPropertyOp54
 70
     1
102
RTVSPropertyOp55
 70
     1
102
RTVSPropertyOp56
 70
     1
102
RTVSPropertyOp57
 70
     1
102
RTVSPropertyOp58
 70
     1
102
RTVSPropertyOp59
 70
     1
102
RTVSPropertyOp60
 70
     1
102
RTVSPropertyOp61
 70
     1
102
RTVSPropertyOp62
 70
     1
  0
XRECORD
  5
87C
102
{ACAD_REACTORS
330
87B
102
}
330
87B
100
AcDbXrecord
280
     1
102
RTVSPost2010Prop28
280
     0
102
RTVSPost2010PropOp28
 70
     1
102
RTVSPost2010Prop29
280
     1
102
RTVSPost2010PropOp29
 70
     1
102
RTVSPost2010Prop30
280
     1
102
RTVSPost2010PropOp30
 70
     1
102
RTVSPost2010Prop31
280
     0
102
RTVSPost2010PropOp31
 70
     1
102
RTVSPost2010Prop32
280
     0
102
RTVSPost2010PropOp32
 70
     1
102
RTVSPost2010Prop33
280
     0
102
RTVSPost2010PropOp33
 70
     1
102
RTVSPost2010Prop34
280
     0
102
RTVSPost2010PropOp34
 70
     1
102
RTVSPost2010Prop35
280
     0
102
RTVSPost2010PropOp35
 70
     1
102
RTVSPost2010Prop36
280
     0
102
RTVSPost2010PropOp36
 70
     1
102
RTVSPost2010Prop37
 90
       50
102
RTVSPost2010PropOp37
 70
     1
102
RTVSPost2010Prop38
140
0.0
102
RTVSPost2010PropOp38
 70
     1
102
RTVSPost2010Prop39
140
1.0
102
RTVSPost2010PropOp39
 70
     1
102
RTVSPost2010Prop40
 90
        0
102
RTVSPost2010PropOp40
 70
     1
102
RTVSPost2010Prop41ColorIndex
 90
       18
102
RTVSPost2010Prop41ColorRGB
 90
        0
102
RTVSPost2010PropOp41
 70
     1
102
RTVSPost2010Prop42
 90
       50
102
RTVSPost2010PropOp42
 70
     1
102
RTVSPost2010Prop43
 90
        3
102
RTVSPost2010PropOp43
 70
     1
102
RTVSPost2010Prop44ColorIndex
 90
        5
102
RTVSPost2010Prop44ColorRGB
 90
      255
102
RTVSPost2010PropOp44
 70
     1
102
RTVSPost2010Prop45
280
     0
102
RTVSPost2010PropOp45
 70
     1
102
RTVSPost2010Prop46
 90
       50
102
RTVSPost2010PropOp46
 70
     1
102
RTVSPost2010Prop47
 90
       50
102
RTVSPost2010PropOp47
 70
     1
102
RTVSPost2010Prop48
 90
       50
102
RTVSPost2010PropOp48
 70
     1
102
RTVSPost2010Prop49
280
     0
102
RTVSPost2010PropOp49
 70
     1
102
RTVSPost2010Prop50
 90
       50
102
RTVSPost2010PropOp50
 70
     1
102
RTVSPost2010Prop51ColorIndex
 90
      256
102
RTVSPost2010Prop51ColorRGB
 90
-16777216
102
RTVSPost2010PropOp51
 70
     0
102
RTVSPost2010Prop52
140
1.0
102
RTVSPost2010PropOp52
 70
     0
102
RTVSPost2010Prop53
 90
        2
102
RTVSPost2010PropOp53
 70
     1
102
RTVSPost2010Prop54
  1
strokes_ogs.tif
102
RTVSPost2010PropOp54
 70
     1
102
RTVSPost2010Prop55
280
     0
102
RTVSPost2010PropOp55
 70
     1
102
RTVSPost2010Prop56
140
1.0
102
RTVSPost2010PropOp56
 70
     1
102
RTVSPost2010Prop57
140
1.0
102
RTVSPost2010PropOp57
 70
     1
102
RTVSPropertyOp0
 70
     1
102
RTVSPropertyOp1
 70
     1
102
RTVSPropertyOp2
 70
     1
102
RTVSPropertyOp3
 70
     1
102
RTVSPropertyOp4
 70
     1
102
RTVSPropertyOp5
 70
     1
102
RTVSPropertyOp6
 70
     1
102
RTVSPropertyOp7
 70
     1
102
RTVSPropertyOp8
 70
     1
102
RTVSPropertyOp9
 70
     1
102
RTVSPropertyOp10
 70
     1
102
RTVSPropertyOp11
 70
     1
102
RTVSPropertyOp12
 70
     1
102
RTVSPropertyOp13
 70
     1
102
RTVSPropertyOp14
 70
     1
102
RTVSPropertyOp15
 70
     1
102
RTVSPropertyOp16
 70
     1
102
RTVSPropertyOp17
 70
     1
102
RTVSPropertyOp18
 70
     1
102
RTVSPropertyOp19
 70
     1
102
RTVSPropertyOp20
 70
     1
102
RTVSPropertyOp21
 70
     1
102
RTVSPropertyOp22
 70
     1
102
RTVSPropertyOp23
 70
     1
102
RTVSPropertyOp24
 70
     1
102
RTVSPropertyOp25
 70
     1
102
RTVSPropertyOp26
 70
     1
102
RTVSPropertyOp27
 70
     1
102
RTVSPropertyOp28
 70
     1
102
RTVSPropertyOp29
 70
     1
102
RTVSPropertyOp30
 70
     1
102
RTVSPropertyOp31
 70
     1
102
RTVSPropertyOp32
 70
     1
102
RTVSPropertyOp33
 70
     1
102
RTVSPropertyOp34
 70
     1
102
RTVSPropertyOp35
 70
     1
102
RTVSPropertyOp36
 70
     1
102
RTVSPropertyOp37
 70
     1
102
RTVSPropertyOp38
 70
     1
102
RTVSPropertyOp39
 70
     1
102
RTVSPropertyOp40
 70
     1
102
RTVSPropertyOp41
 70
     1
102
RTVSPropertyOp42
 70
     1
102
RTVSPropertyOp43
 70
     1
102
RTVSPropertyOp44
 70
     1
102
RTVSPropertyOp45
 70
     1
102
RTVSPropertyOp46
 70
     1
102
RTVSPropertyOp47
 70
     1
102
RTVSPropertyOp48
 70
     1
102
RTVSPropertyOp49
 70
     1
102
RTVSPropertyOp50
 70
     1
102
RTVSPropertyOp51
 70
     0
102
RTVSPropertyOp52
 70
     0
102
RTVSPropertyOp53
 70
     1
102
RTVSPropertyOp54
 70
     1
102
RTVSPropertyOp55
 70
     1
102
RTVSPropertyOp56
 70
     1
102
RTVSPropertyOp57
 70
     1
102
RTVSPropertyOp58
 70
     1
102
RTVSPropertyOp59
 70
     1
102
RTVSPropertyOp60
 70
     1
102
RTVSPropertyOp61
 70
     1
102
RTVSPropertyOp62
 70
     1
  0
XRECORD
  5
87A
102
{ACAD_REACTORS
330
879
102
}
330
879
100
AcDbXrecord
280
     1
102
RTVSPost2010Prop28
280
     0
102
RTVSPost2010PropOp28
 70
     1
102
RTVSPost2010Prop29
280
     1
102
RTVSPost2010PropOp29
 70
     1
102
RTVSPost2010Prop30
280
     1
102
RTVSPost2010PropOp30
 70
     1
102
RTVSPost2010Prop31
280
     0
102
RTVSPost2010PropOp31
 70
     1
102
RTVSPost2010Prop32
280
     0
102
RTVSPost2010PropOp32
 70
     1
102
RTVSPost2010Prop33
280
     0
102
RTVSPost2010PropOp33
 70
     1
102
RTVSPost2010Prop34
280
     0
102
RTVSPost2010PropOp34
 70
     1
102
RTVSPost2010Prop35
280
     0
102
RTVSPost2010PropOp35
 70
     1
102
RTVSPost2010Prop36
280
     0
102
RTVSPost2010PropOp36
 70
     1
102
RTVSPost2010Prop37
 90
       50
102
RTVSPost2010PropOp37
 70
     1
102
RTVSPost2010Prop38
140
0.0
102
RTVSPost2010PropOp38
 70
     1
102
RTVSPost2010Prop39
140
1.0
102
RTVSPost2010PropOp39
 70
     1
102
RTVSPost2010Prop40
 90
        0
102
RTVSPost2010PropOp40
 70
     1
102
RTVSPost2010Prop41ColorIndex
 90
       18
102
RTVSPost2010Prop41ColorRGB
 90
        0
102
RTVSPost2010PropOp41
 70
     1
102
RTVSPost2010Prop42
 90
       50
102
RTVSPost2010PropOp42
 70
     1
102
RTVSPost2010Prop43
 90
        3
102
RTVSPost2010PropOp43
 70
     1
102
RTVSPost2010Prop44ColorIndex
 90
        5
102
RTVSPost2010Prop44ColorRGB
 90
      255
102
RTVSPost2010PropOp44
 70
     1
102
RTVSPost2010Prop45
280
     0
102
RTVSPost2010PropOp45
 70
     1
102
RTVSPost2010Prop46
 90
       50
102
RTVSPost2010PropOp46
 70
     1
102
RTVSPost2010Prop47
 90
       50
102
RTVSPost2010PropOp47
 70
     1
102
RTVSPost2010Prop48
 90
       50
102
RTVSPost2010PropOp48
 70
     1
102
RTVSPost2010Prop49
280
     0
102
RTVSPost2010PropOp49
 70
     1
102
RTVSPost2010Prop50
 90
       50
102
RTVSPost2010PropOp50
 70
     1
102
RTVSPost2010Prop51ColorIndex
 90
      256
102
RTVSPost2010Prop51ColorRGB
 90
-16777216
102
RTVSPost2010PropOp51
 70
     0
102
RTVSPost2010Prop52
140
1.0
102
RTVSPost2010PropOp52
 70
     0
102
RTVSPost2010Prop53
 90
        2
102
RTVSPost2010PropOp53
 70
     1
102
RTVSPost2010Prop54
  1
strokes_ogs.tif
102
RTVSPost2010PropOp54
 70
     1
102
RTVSPost2010Prop55
280
     0
102
RTVSPost2010PropOp55
 70
     1
102
RTVSPost2010Prop56
140
1.0
102
RTVSPost2010PropOp56
 70
     1
102
RTVSPost2010Prop57
140
1.0
102
RTVSPost2010PropOp57
 70
     1
102
RTVSPropertyOp0
 70
     1
102
RTVSPropertyOp1
 70
     1
102
RTVSPropertyOp2
 70
     1
102
RTVSPropertyOp3
 70
     1
102
RTVSPropertyOp4
 70
     1
102
RTVSPropertyOp5
 70
     1
102
RTVSPropertyOp6
 70
     1
102
RTVSPropertyOp7
 70
     1
102
RTVSPropertyOp8
 70
     1
102
RTVSPropertyOp9
 70
     1
102
RTVSPropertyOp10
 70
     1
102
RTVSPropertyOp11
 70
     1
102
RTVSPropertyOp12
 70
     1
102
RTVSPropertyOp13
 70
     1
102
RTVSPropertyOp14
 70
     1
102
RTVSPropertyOp15
 70
     1
102
RTVSPropertyOp16
 70
     1
102
RTVSPropertyOp17
 70
     1
102
RTVSPropertyOp18
 70
     1
102
RTVSPropertyOp19
 70
     1
102
RTVSPropertyOp20
 70
     1
102
RTVSPropertyOp21
 70
     1
102
RTVSPropertyOp22
 70
     1
102
RTVSPropertyOp23
 70
     1
102
RTVSPropertyOp24
 70
     1
102
RTVSPropertyOp25
 70
     1
102
RTVSPropertyOp26
 70
     1
102
RTVSPropertyOp27
 70
     1
102
RTVSPropertyOp28
 70
     1
102
RTVSPropertyOp29
 70
     1
102
RTVSPropertyOp30
 70
     1
102
RTVSPropertyOp31
 70
     1
102
RTVSPropertyOp32
 70
     1
102
RTVSPropertyOp33
 70
     1
102
RTVSPropertyOp34
 70
     1
102
RTVSPropertyOp35
 70
     1
102
RTVSPropertyOp36
 70
     1
102
RTVSPropertyOp37
 70
     1
102
RTVSPropertyOp38
 70
     1
102
RTVSPropertyOp39
 70
     1
102
RTVSPropertyOp40
 70
     1
102
RTVSPropertyOp41
 70
     1
102
RTVSPropertyOp42
 70
     1
102
RTVSPropertyOp43
 70
     1
102
RTVSPropertyOp44
 70
     1
102
RTVSPropertyOp45
 70
     1
102
RTVSPropertyOp46
 70
     1
102
RTVSPropertyOp47
 70
     1
102
RTVSPropertyOp48
 70
     1
102
RTVSPropertyOp49
 70
     1
102
RTVSPropertyOp50
 70
     1
102
RTVSPropertyOp51
 70
     0
102
RTVSPropertyOp52
 70
     0
102
RTVSPropertyOp53
 70
     1
102
RTVSPropertyOp54
 70
     1
102
RTVSPropertyOp55
 70
     1
102
RTVSPropertyOp56
 70
     1
102
RTVSPropertyOp57
 70
     1
102
RTVSPropertyOp58
 70
     1
102
RTVSPropertyOp59
 70
     1
102
RTVSPropertyOp60
 70
     1
102
RTVSPropertyOp61
 70
     1
102
RTVSPropertyOp62
 70
     1
  0
XRECORD
  5
874
102
{ACAD_REACTORS
330
873
102
}
330
873
100
AcDbXrecord
280
     1
102
RTVSPost2010Prop28
280
     0
102
RTVSPost2010PropOp28
 70
     1
102
RTVSPost2010Prop29
280
     1
102
RTVSPost2010PropOp29
 70
     1
102
RTVSPost2010Prop30
280
     1
102
RTVSPost2010PropOp30
 70
     1
102
RTVSPost2010Prop31
280
     0
102
RTVSPost2010PropOp31
 70
     1
102
RTVSPost2010Prop32
280
     0
102
RTVSPost2010PropOp32
 70
     1
102
RTVSPost2010Prop33
280
     0
102
RTVSPost2010PropOp33
 70
     1
102
RTVSPost2010Prop34
280
     0
102
RTVSPost2010PropOp34
 70
     1
102
RTVSPost2010Prop35
280
     0
102
RTVSPost2010PropOp35
 70
     1
102
RTVSPost2010Prop36
280
     0
102
RTVSPost2010PropOp36
 70
     1
102
RTVSPost2010Prop37
 90
       50
102
RTVSPost2010PropOp37
 70
     1
102
RTVSPost2010Prop38
140
0.0
102
RTVSPost2010PropOp38
 70
     1
102
RTVSPost2010Prop39
140
1.0
102
RTVSPost2010PropOp39
 70
     1
102
RTVSPost2010Prop40
 90
        0
102
RTVSPost2010PropOp40
 70
     1
102
RTVSPost2010Prop41ColorIndex
 90
       18
102
RTVSPost2010Prop41ColorRGB
 90
        0
102
RTVSPost2010PropOp41
 70
     1
102
RTVSPost2010Prop42
 90
       50
102
RTVSPost2010PropOp42
 70
     1
102
RTVSPost2010Prop43
 90
        3
102
RTVSPost2010PropOp43
 70
     1
102
RTVSPost2010Prop44ColorIndex
 90
        5
102
RTVSPost2010Prop44ColorRGB
 90
      255
102
RTVSPost2010PropOp44
 70
     1
102
RTVSPost2010Prop45
280
     0
102
RTVSPost2010PropOp45
 70
     1
102
RTVSPost2010Prop46
 90
       50
102
RTVSPost2010PropOp46
 70
     1
102
RTVSPost2010Prop47
 90
       50
102
RTVSPost2010PropOp47
 70
     1
102
RTVSPost2010Prop48
 90
       50
102
RTVSPost2010PropOp48
 70
     1
102
RTVSPost2010Prop49
280
     0
102
RTVSPost2010PropOp49
 70
     1
102
RTVSPost2010Prop50
 90
       50
102
RTVSPost2010PropOp50
 70
     1
102
RTVSPost2010Prop51ColorIndex
 90
      256
102
RTVSPost2010Prop51ColorRGB
 90
-16777216
102
RTVSPost2010PropOp51
 70
     0
102
RTVSPost2010Prop52
140
1.0
102
RTVSPost2010PropOp52
 70
     0
102
RTVSPost2010Prop53
 90
        2
102
RTVSPost2010PropOp53
 70
     1
102
RTVSPost2010Prop54
  1
strokes_ogs.tif
102
RTVSPost2010PropOp54
 70
     1
102
RTVSPost2010Prop55
280
     0
102
RTVSPost2010PropOp55
 70
     1
102
RTVSPost2010Prop56
140
1.0
102
RTVSPost2010PropOp56
 70
     1
102
RTVSPost2010Prop57
140
1.0
102
RTVSPost2010PropOp57
 70
     1
102
RTVSPropertyOp0
 70
     1
102
RTVSPropertyOp1
 70
     1
102
RTVSPropertyOp2
 70
     1
102
RTVSPropertyOp3
 70
     1
102
RTVSPropertyOp4
 70
     1
102
RTVSPropertyOp5
 70
     1
102
RTVSPropertyOp6
 70
     1
102
RTVSPropertyOp7
 70
     1
102
RTVSPropertyOp8
 70
     1
102
RTVSPropertyOp9
 70
     1
102
RTVSPropertyOp10
 70
     1
102
RTVSPropertyOp11
 70
     1
102
RTVSPropertyOp12
 70
     1
102
RTVSPropertyOp13
 70
     1
102
RTVSPropertyOp14
 70
     1
102
RTVSPropertyOp15
 70
     1
102
RTVSPropertyOp16
 70
     1
102
RTVSPropertyOp17
 70
     1
102
RTVSPropertyOp18
 70
     1
102
RTVSPropertyOp19
 70
     1
102
RTVSPropertyOp20
 70
     1
102
RTVSPropertyOp21
 70
     1
102
RTVSPropertyOp22
 70
     1
102
RTVSPropertyOp23
 70
     1
102
RTVSPropertyOp24
 70
     1
102
RTVSPropertyOp25
 70
     1
102
RTVSPropertyOp26
 70
     1
102
RTVSPropertyOp27
 70
     1
102
RTVSPropertyOp28
 70
     1
102
RTVSPropertyOp29
 70
     1
102
RTVSPropertyOp30
 70
     1
102
RTVSPropertyOp31
 70
     1
102
RTVSPropertyOp32
 70
     1
102
RTVSPropertyOp33
 70
     1
102
RTVSPropertyOp34
 70
     1
102
RTVSPropertyOp35
 70
     1
102
RTVSPropertyOp36
 70
     1
102
RTVSPropertyOp37
 70
     1
102
RTVSPropertyOp38
 70
     1
102
RTVSPropertyOp39
 70
     1
102
RTVSPropertyOp40
 70
     1
102
RTVSPropertyOp41
 70
     1
102
RTVSPropertyOp42
 70
     1
102
RTVSPropertyOp43
 70
     1
102
RTVSPropertyOp44
 70
     1
102
RTVSPropertyOp45
 70
     1
102
RTVSPropertyOp46
 70
     1
102
RTVSPropertyOp47
 70
     1
102
RTVSPropertyOp48
 70
     1
102
RTVSPropertyOp49
 70
     1
102
RTVSPropertyOp50
 70
     1
102
RTVSPropertyOp51
 70
     0
102
RTVSPropertyOp52
 70
     0
102
RTVSPropertyOp53
 70
     1
102
RTVSPropertyOp54
 70
     1
102
RTVSPropertyOp55
 70
     1
102
RTVSPropertyOp56
 70
     1
102
RTVSPropertyOp57
 70
     1
102
RTVSPropertyOp58
 70
     1
102
RTVSPropertyOp59
 70
     1
102
RTVSPropertyOp60
 70
     1
102
RTVSPropertyOp61
 70
     1
102
RTVSPropertyOp62
 70
     1
  0
XRECORD
  5
876
102
{ACAD_REACTORS
330
875
102
}
330
875
100
AcDbXrecord
280
     1
102
RTVSPost2010Prop28
280
     0
102
RTVSPost2010PropOp28
 70
     1
102
RTVSPost2010Prop29
280
     1
102
RTVSPost2010PropOp29
 70
     1
102
RTVSPost2010Prop30
280
     1
102
RTVSPost2010PropOp30
 70
     1
102
RTVSPost2010Prop31
280
     0
102
RTVSPost2010PropOp31
 70
     1
102
RTVSPost2010Prop32
280
     0
102
RTVSPost2010PropOp32
 70
     1
102
RTVSPost2010Prop33
280
     0
102
RTVSPost2010PropOp33
 70
     1
102
RTVSPost2010Prop34
280
     0
102
RTVSPost2010PropOp34
 70
     1
102
RTVSPost2010Prop35
280
     0
102
RTVSPost2010PropOp35
 70
     1
102
RTVSPost2010Prop36
280
     0
102
RTVSPost2010PropOp36
 70
     1
102
RTVSPost2010Prop37
 90
       50
102
RTVSPost2010PropOp37
 70
     1
102
RTVSPost2010Prop38
140
0.0
102
RTVSPost2010PropOp38
 70
     1
102
RTVSPost2010Prop39
140
1.0
102
RTVSPost2010PropOp39
 70
     1
102
RTVSPost2010Prop40
 90
        0
102
RTVSPost2010PropOp40
 70
     1
102
RTVSPost2010Prop41ColorIndex
 90
       18
102
RTVSPost2010Prop41ColorRGB
 90
        0
102
RTVSPost2010PropOp41
 70
     1
102
RTVSPost2010Prop42
 90
       50
102
RTVSPost2010PropOp42
 70
     1
102
RTVSPost2010Prop43
 90
        3
102
RTVSPost2010PropOp43
 70
     1
102
RTVSPost2010Prop44ColorIndex
 90
        5
102
RTVSPost2010Prop44ColorRGB
 90
      255
102
RTVSPost2010PropOp44
 70
     1
102
RTVSPost2010Prop45
280
     0
102
RTVSPost2010PropOp45
 70
     1
102
RTVSPost2010Prop46
 90
       50
102
RTVSPost2010PropOp46
 70
     1
102
RTVSPost2010Prop47
 90
       50
102
RTVSPost2010PropOp47
 70
     1
102
RTVSPost2010Prop48
 90
       50
102
RTVSPost2010PropOp48
 70
     1
102
RTVSPost2010Prop49
280
     0
102
RTVSPost2010PropOp49
 70
     1
102
RTVSPost2010Prop50
 90
       50
102
RTVSPost2010PropOp50
 70
     1
102
RTVSPost2010Prop51ColorIndex
 90
      256
102
RTVSPost2010Prop51ColorRGB
 90
-16777216
102
RTVSPost2010PropOp51
 70
     0
102
RTVSPost2010Prop52
140
1.0
102
RTVSPost2010PropOp52
 70
     0
102
RTVSPost2010Prop53
 90
        2
102
RTVSPost2010PropOp53
 70
     1
102
RTVSPost2010Prop54
  1
strokes_ogs.tif
102
RTVSPost2010PropOp54
 70
     1
102
RTVSPost2010Prop55
280
     0
102
RTVSPost2010PropOp55
 70
     1
102
RTVSPost2010Prop56
140
1.0
102
RTVSPost2010PropOp56
 70
     1
102
RTVSPost2010Prop57
140
1.0
102
RTVSPost2010PropOp57
 70
     1
102
RTVSPropertyOp0
 70
     1
102
RTVSPropertyOp1
 70
     1
102
RTVSPropertyOp2
 70
     1
102
RTVSPropertyOp3
 70
     1
102
RTVSPropertyOp4
 70
     1
102
RTVSPropertyOp5
 70
     1
102
RTVSPropertyOp6
 70
     1
102
RTVSPropertyOp7
 70
     1
102
RTVSPropertyOp8
 70
     1
102
RTVSPropertyOp9
 70
     1
102
RTVSPropertyOp10
 70
     1
102
RTVSPropertyOp11
 70
     1
102
RTVSPropertyOp12
 70
     1
102
RTVSPropertyOp13
 70
     1
102
RTVSPropertyOp14
 70
     1
102
RTVSPropertyOp15
 70
     1
102
RTVSPropertyOp16
 70
     1
102
RTVSPropertyOp17
 70
     1
102
RTVSPropertyOp18
 70
     1
102
RTVSPropertyOp19
 70
     1
102
RTVSPropertyOp20
 70
     1
102
RTVSPropertyOp21
 70
     1
102
RTVSPropertyOp22
 70
     1
102
RTVSPropertyOp23
 70
     1
102
RTVSPropertyOp24
 70
     1
102
RTVSPropertyOp25
 70
     1
102
RTVSPropertyOp26
 70
     1
102
RTVSPropertyOp27
 70
     1
102
RTVSPropertyOp28
 70
     1
102
RTVSPropertyOp29
 70
     1
102
RTVSPropertyOp30
 70
     1
102
RTVSPropertyOp31
 70
     1
102
RTVSPropertyOp32
 70
     1
102
RTVSPropertyOp33
 70
     1
102
RTVSPropertyOp34
 70
     1
102
RTVSPropertyOp35
 70
     1
102
RTVSPropertyOp36
 70
     1
102
RTVSPropertyOp37
 70
     1
102
RTVSPropertyOp38
 70
     1
102
RTVSPropertyOp39
 70
     1
102
RTVSPropertyOp40
 70
     1
102
RTVSPropertyOp41
 70
     1
102
RTVSPropertyOp42
 70
     1
102
RTVSPropertyOp43
 70
     1
102
RTVSPropertyOp44
 70
     1
102
RTVSPropertyOp45
 70
     1
102
RTVSPropertyOp46
 70
     1
102
RTVSPropertyOp47
 70
     1
102
RTVSPropertyOp48
 70
     1
102
RTVSPropertyOp49
 70
     1
102
RTVSPropertyOp50
 70
     1
102
RTVSPropertyOp51
 70
     0
102
RTVSPropertyOp52
 70
     0
102
RTVSPropertyOp53
 70
     1
102
RTVSPropertyOp54
 70
     1
102
RTVSPropertyOp55
 70
     1
102
RTVSPropertyOp56
 70
     1
102
RTVSPropertyOp57
 70
     1
102
RTVSPropertyOp58
 70
     1
102
RTVSPropertyOp59
 70
     1
102
RTVSPropertyOp60
 70
     1
102
RTVSPropertyOp61
 70
     1
102
RTVSPropertyOp62
 70
     1
  0
XRECORD
  5
866
102
{ACAD_REACTORS
330
865
102
}
330
865
100
AcDbXrecord
280
     1
102
RTVSPost2010Prop28
280
     0
102
RTVSPost2010PropOp28
 70
     1
102
RTVSPost2010Prop29
280
     1
102
RTVSPost2010PropOp29
 70
     1
102
RTVSPost2010Prop30
280
     1
102
RTVSPost2010PropOp30
 70
     1
102
RTVSPost2010Prop31
280
     0
102
RTVSPost2010PropOp31
 70
     1
102
RTVSPost2010Prop32
280
     0
102
RTVSPost2010PropOp32
 70
     1
102
RTVSPost2010Prop33
280
     0
102
RTVSPost2010PropOp33
 70
     1
102
RTVSPost2010Prop34
280
     0
102
RTVSPost2010PropOp34
 70
     1
102
RTVSPost2010Prop35
280
     0
102
RTVSPost2010PropOp35
 70
     1
102
RTVSPost2010Prop36
280
     0
102
RTVSPost2010PropOp36
 70
     1
102
RTVSPost2010Prop37
 90
       50
102
RTVSPost2010PropOp37
 70
     1
102
RTVSPost2010Prop38
140
0.0
102
RTVSPost2010PropOp38
 70
     1
102
RTVSPost2010Prop39
140
1.0
102
RTVSPost2010PropOp39
 70
     1
102
RTVSPost2010Prop40
 90
        0
102
RTVSPost2010PropOp40
 70
     1
102
RTVSPost2010Prop41ColorIndex
 90
       18
102
RTVSPost2010Prop41ColorRGB
 90
        0
102
RTVSPost2010PropOp41
 70
     1
102
RTVSPost2010Prop42
 90
       50
102
RTVSPost2010PropOp42
 70
     1
102
RTVSPost2010Prop43
 90
        3
102
RTVSPost2010PropOp43
 70
     1
102
RTVSPost2010Prop44ColorIndex
 90
        5
102
RTVSPost2010Prop44ColorRGB
 90
      255
102
RTVSPost2010PropOp44
 70
     1
102
RTVSPost2010Prop45
280
     0
102
RTVSPost2010PropOp45
 70
     1
102
RTVSPost2010Prop46
 90
       50
102
RTVSPost2010PropOp46
 70
     1
102
RTVSPost2010Prop47
 90
       50
102
RTVSPost2010PropOp47
 70
     1
102
RTVSPost2010Prop48
 90
       50
102
RTVSPost2010PropOp48
 70
     1
102
RTVSPost2010Prop49
280
     0
102
RTVSPost2010PropOp49
 70
     1
102
RTVSPost2010Prop50
 90
       50
102
RTVSPost2010PropOp50
 70
     1
102
RTVSPost2010Prop51ColorIndex
 90
      256
102
RTVSPost2010Prop51ColorRGB
 90
-16777216
102
RTVSPost2010PropOp51
 70
     0
102
RTVSPost2010Prop52
140
1.0
102
RTVSPost2010PropOp52
 70
     0
102
RTVSPost2010Prop53
 90
        2
102
RTVSPost2010PropOp53
 70
     1
102
RTVSPost2010Prop54
  1
strokes_ogs.tif
102
RTVSPost2010PropOp54
 70
     1
102
RTVSPost2010Prop55
280
     0
102
RTVSPost2010PropOp55
 70
     1
102
RTVSPost2010Prop56
140
1.0
102
RTVSPost2010PropOp56
 70
     1
102
RTVSPost2010Prop57
140
1.0
102
RTVSPost2010PropOp57
 70
     1
102
RTVSPropertyOp0
 70
     1
102
RTVSPropertyOp1
 70
     1
102
RTVSPropertyOp2
 70
     1
102
RTVSPropertyOp3
 70
     1
102
RTVSPropertyOp4
 70
     1
102
RTVSPropertyOp5
 70
     1
102
RTVSPropertyOp6
 70
     1
102
RTVSPropertyOp7
 70
     1
102
RTVSPropertyOp8
 70
     1
102
RTVSPropertyOp9
 70
     1
102
RTVSPropertyOp10
 70
     1
102
RTVSPropertyOp11
 70
     1
102
RTVSPropertyOp12
 70
     1
102
RTVSPropertyOp13
 70
     1
102
RTVSPropertyOp14
 70
     1
102
RTVSPropertyOp15
 70
     1
102
RTVSPropertyOp16
 70
     1
102
RTVSPropertyOp17
 70
     1
102
RTVSPropertyOp18
 70
     1
102
RTVSPropertyOp19
 70
     1
102
RTVSPropertyOp20
 70
     1
102
RTVSPropertyOp21
 70
     1
102
RTVSPropertyOp22
 70
     1
102
RTVSPropertyOp23
 70
     1
102
RTVSPropertyOp24
 70
     1
102
RTVSPropertyOp25
 70
     1
102
RTVSPropertyOp26
 70
     1
102
RTVSPropertyOp27
 70
     1
102
RTVSPropertyOp28
 70
     1
102
RTVSPropertyOp29
 70
     1
102
RTVSPropertyOp30
 70
     1
102
RTVSPropertyOp31
 70
     1
102
RTVSPropertyOp32
 70
     1
102
RTVSPropertyOp33
 70
     1
102
RTVSPropertyOp34
 70
     1
102
RTVSPropertyOp35
 70
     1
102
RTVSPropertyOp36
 70
     1
102
RTVSPropertyOp37
 70
     1
102
RTVSPropertyOp38
 70
     1
102
RTVSPropertyOp39
 70
     1
102
RTVSPropertyOp40
 70
     1
102
RTVSPropertyOp41
 70
     1
102
RTVSPropertyOp42
 70
     1
102
RTVSPropertyOp43
 70
     1
102
RTVSPropertyOp44
 70
     1
102
RTVSPropertyOp45
 70
     1
102
RTVSPropertyOp46
 70
     1
102
RTVSPropertyOp47
 70
     1
102
RTVSPropertyOp48
 70
     1
102
RTVSPropertyOp49
 70
     1
102
RTVSPropertyOp50
 70
     1
102
RTVSPropertyOp51
 70
     0
102
RTVSPropertyOp52
 70
     0
102
RTVSPropertyOp53
 70
     1
102
RTVSPropertyOp54
 70
     1
102
RTVSPropertyOp55
 70
     1
102
RTVSPropertyOp56
 70
     1
102
RTVSPropertyOp57
 70
     1
102
RTVSPropertyOp58
 70
     1
102
RTVSPropertyOp59
 70
     1
102
RTVSPropertyOp60
 70
     1
102
RTVSPropertyOp61
 70
     1
102
RTVSPropertyOp62
 70
     1
  0
XRECORD
  5
858
102
{ACAD_REACTORS
330
857
102
}
330
857
100
AcDbXrecord
280
     1
102
RTVSPost2010Prop28
280
     0
102
RTVSPost2010PropOp28
 70
     1
102
RTVSPost2010Prop29
280
     1
102
RTVSPost2010PropOp29
 70
     1
102
RTVSPost2010Prop30
280
     1
102
RTVSPost2010PropOp30
 70
     1
102
RTVSPost2010Prop31
280
     0
102
RTVSPost2010PropOp31
 70
     1
102
RTVSPost2010Prop32
280
     0
102
RTVSPost2010PropOp32
 70
     1
102
RTVSPost2010Prop33
280
     0
102
RTVSPost2010PropOp33
 70
     1
102
RTVSPost2010Prop34
280
     0
102
RTVSPost2010PropOp34
 70
     1
102
RTVSPost2010Prop35
280
     0
102
RTVSPost2010PropOp35
 70
     1
102
RTVSPost2010Prop36
280
     0
102
RTVSPost2010PropOp36
 70
     1
102
RTVSPost2010Prop37
 90
       50
102
RTVSPost2010PropOp37
 70
     1
102
RTVSPost2010Prop38
140
0.0
102
RTVSPost2010PropOp38
 70
     1
102
RTVSPost2010Prop39
140
1.0
102
RTVSPost2010PropOp39
 70
     1
102
RTVSPost2010Prop40
 90
        0
102
RTVSPost2010PropOp40
 70
     1
102
RTVSPost2010Prop41ColorIndex
 90
       18
102
RTVSPost2010Prop41ColorRGB
 90
        0
102
RTVSPost2010PropOp41
 70
     1
102
RTVSPost2010Prop42
 90
       50
102
RTVSPost2010PropOp42
 70
     1
102
RTVSPost2010Prop43
 90
        3
102
RTVSPost2010PropOp43
 70
     1
102
RTVSPost2010Prop44ColorIndex
 90
        5
102
RTVSPost2010Prop44ColorRGB
 90
      255
102
RTVSPost2010PropOp44
 70
     1
102
RTVSPost2010Prop45
280
     0
102
RTVSPost2010PropOp45
 70
     1
102
RTVSPost2010Prop46
 90
       50
102
RTVSPost2010PropOp46
 70
     1
102
RTVSPost2010Prop47
 90
       50
102
RTVSPost2010PropOp47
 70
     1
102
RTVSPost2010Prop48
 90
       50
102
RTVSPost2010PropOp48
 70
     1
102
RTVSPost2010Prop49
280
     0
102
RTVSPost2010PropOp49
 70
     1
102
RTVSPost2010Prop50
 90
       50
102
RTVSPost2010PropOp50
 70
     1
102
RTVSPost2010Prop51ColorIndex
 90
      256
102
RTVSPost2010Prop51ColorRGB
 90
-16777216
102
RTVSPost2010PropOp51
 70
     0
102
RTVSPost2010Prop52
140
1.0
102
RTVSPost2010PropOp52
 70
     0
102
RTVSPost2010Prop53
 90
        2
102
RTVSPost2010PropOp53
 70
     1
102
RTVSPost2010Prop54
  1
strokes_ogs.tif
102
RTVSPost2010PropOp54
 70
     1
102
RTVSPost2010Prop55
280
     0
102
RTVSPost2010PropOp55
 70
     1
102
RTVSPost2010Prop56
140
1.0
102
RTVSPost2010PropOp56
 70
     1
102
RTVSPost2010Prop57
140
1.0
102
RTVSPost2010PropOp57
 70
     1
102
RTVSPropertyOp0
 70
     1
102
RTVSPropertyOp1
 70
     1
102
RTVSPropertyOp2
 70
     1
102
RTVSPropertyOp3
 70
     1
102
RTVSPropertyOp4
 70
     1
102
RTVSPropertyOp5
 70
     1
102
RTVSPropertyOp6
 70
     1
102
RTVSPropertyOp7
 70
     1
102
RTVSPropertyOp8
 70
     1
102
RTVSPropertyOp9
 70
     1
102
RTVSPropertyOp10
 70
     1
102
RTVSPropertyOp11
 70
     1
102
RTVSPropertyOp12
 70
     1
102
RTVSPropertyOp13
 70
     1
102
RTVSPropertyOp14
 70
     1
102
RTVSPropertyOp15
 70
     1
102
RTVSPropertyOp16
 70
     1
102
RTVSPropertyOp17
 70
     1
102
RTVSPropertyOp18
 70
     1
102
RTVSPropertyOp19
 70
     1
102
RTVSPropertyOp20
 70
     1
102
RTVSPropertyOp21
 70
     1
102
RTVSPropertyOp22
 70
     1
102
RTVSPropertyOp23
 70
     1
102
RTVSPropertyOp24
 70
     1
102
RTVSPropertyOp25
 70
     1
102
RTVSPropertyOp26
 70
     1
102
RTVSPropertyOp27
 70
     1
102
RTVSPropertyOp28
 70
     1
102
RTVSPropertyOp29
 70
     1
102
RTVSPropertyOp30
 70
     1
102
RTVSPropertyOp31
 70
     1
102
RTVSPropertyOp32
 70
     1
102
RTVSPropertyOp33
 70
     1
102
RTVSPropertyOp34
 70
     1
102
RTVSPropertyOp35
 70
     1
102
RTVSPropertyOp36
 70
     1
102
RTVSPropertyOp37
 70
     1
102
RTVSPropertyOp38
 70
     1
102
RTVSPropertyOp39
 70
     1
102
RTVSPropertyOp40
 70
     1
102
RTVSPropertyOp41
 70
     1
102
RTVSPropertyOp42
 70
     1
102
RTVSPropertyOp43
 70
     1
102
RTVSPropertyOp44
 70
     1
102
RTVSPropertyOp45
 70
     1
102
RTVSPropertyOp46
 70
     1
102
RTVSPropertyOp47
 70
     1
102
RTVSPropertyOp48
 70
     1
102
RTVSPropertyOp49
 70
     1
102
RTVSPropertyOp50
 70
     1
102
RTVSPropertyOp51
 70
     0
102
RTVSPropertyOp52
 70
     0
102
RTVSPropertyOp53
 70
     1
102
RTVSPropertyOp54
 70
     1
102
RTVSPropertyOp55
 70
     1
102
RTVSPropertyOp56
 70
     1
102
RTVSPropertyOp57
 70
     1
102
RTVSPropertyOp58
 70
     1
102
RTVSPropertyOp59
 70
     1
102
RTVSPropertyOp60
 70
     1
102
RTVSPropertyOp61
 70
     1
102
RTVSPropertyOp62
 70
     1
  0
XRECORD
  5
878
102
{ACAD_REACTORS
330
877
102
}
330
877
100
AcDbXrecord
280
     1
102
RTVSPost2010Prop28
280
     0
102
RTVSPost2010PropOp28
 70
     1
102
RTVSPost2010Prop29
280
     1
102
RTVSPost2010PropOp29
 70
     1
102
RTVSPost2010Prop30
280
     1
102
RTVSPost2010PropOp30
 70
     1
102
RTVSPost2010Prop31
280
     0
102
RTVSPost2010PropOp31
 70
     1
102
RTVSPost2010Prop32
280
     0
102
RTVSPost2010PropOp32
 70
     1
102
RTVSPost2010Prop33
280
     0
102
RTVSPost2010PropOp33
 70
     1
102
RTVSPost2010Prop34
280
     0
102
RTVSPost2010PropOp34
 70
     1
102
RTVSPost2010Prop35
280
     0
102
RTVSPost2010PropOp35
 70
     1
102
RTVSPost2010Prop36
280
     0
102
RTVSPost2010PropOp36
 70
     1
102
RTVSPost2010Prop37
 90
       50
102
RTVSPost2010PropOp37
 70
     1
102
RTVSPost2010Prop38
140
0.0
102
RTVSPost2010PropOp38
 70
     1
102
RTVSPost2010Prop39
140
1.0
102
RTVSPost2010PropOp39
 70
     1
102
RTVSPost2010Prop40
 90
        0
102
RTVSPost2010PropOp40
 70
     1
102
RTVSPost2010Prop41ColorIndex
 90
       18
102
RTVSPost2010Prop41ColorRGB
 90
        0
102
RTVSPost2010PropOp41
 70
     1
102
RTVSPost2010Prop42
 90
       50
102
RTVSPost2010PropOp42
 70
     1
102
RTVSPost2010Prop43
 90
        3
102
RTVSPost2010PropOp43
 70
     1
102
RTVSPost2010Prop44ColorIndex
 90
        5
102
RTVSPost2010Prop44ColorRGB
 90
      255
102
RTVSPost2010PropOp44
 70
     1
102
RTVSPost2010Prop45
280
     0
102
RTVSPost2010PropOp45
 70
     1
102
RTVSPost2010Prop46
 90
       50
102
RTVSPost2010PropOp46
 70
     1
102
RTVSPost2010Prop47
 90
       50
102
RTVSPost2010PropOp47
 70
     1
102
RTVSPost2010Prop48
 90
       50
102
RTVSPost2010PropOp48
 70
     1
102
RTVSPost2010Prop49
280
     0
102
RTVSPost2010PropOp49
 70
     1
102
RTVSPost2010Prop50
 90
       50
102
RTVSPost2010PropOp50
 70
     1
102
RTVSPost2010Prop51ColorIndex
 90
      256
102
RTVSPost2010Prop51ColorRGB
 90
-16777216
102
RTVSPost2010PropOp51
 70
     0
102
RTVSPost2010Prop52
140
1.0
102
RTVSPost2010PropOp52
 70
     0
102
RTVSPost2010Prop53
 90
        2
102
RTVSPost2010PropOp53
 70
     1
102
RTVSPost2010Prop54
  1
strokes_ogs.tif
102
RTVSPost2010PropOp54
 70
     1
102
RTVSPost2010Prop55
280
     0
102
RTVSPost2010PropOp55
 70
     1
102
RTVSPost2010Prop56
140
1.0
102
RTVSPost2010PropOp56
 70
     1
102
RTVSPost2010Prop57
140
1.0
102
RTVSPost2010PropOp57
 70
     1
102
RTVSPropertyOp0
 70
     1
102
RTVSPropertyOp1
 70
     1
102
RTVSPropertyOp2
 70
     1
102
RTVSPropertyOp3
 70
     1
102
RTVSPropertyOp4
 70
     1
102
RTVSPropertyOp5
 70
     1
102
RTVSPropertyOp6
 70
     1
102
RTVSPropertyOp7
 70
     1
102
RTVSPropertyOp8
 70
     1
102
RTVSPropertyOp9
 70
     1
102
RTVSPropertyOp10
 70
     1
102
RTVSPropertyOp11
 70
     1
102
RTVSPropertyOp12
 70
     1
102
RTVSPropertyOp13
 70
     1
102
RTVSPropertyOp14
 70
     1
102
RTVSPropertyOp15
 70
     1
102
RTVSPropertyOp16
 70
     1
102
RTVSPropertyOp17
 70
     1
102
RTVSPropertyOp18
 70
     1
102
RTVSPropertyOp19
 70
     1
102
RTVSPropertyOp20
 70
     1
102
RTVSPropertyOp21
 70
     1
102
RTVSPropertyOp22
 70
     1
102
RTVSPropertyOp23
 70
     1
102
RTVSPropertyOp24
 70
     1
102
RTVSPropertyOp25
 70
     1
102
RTVSPropertyOp26
 70
     1
102
RTVSPropertyOp27
 70
     1
102
RTVSPropertyOp28
 70
     1
102
RTVSPropertyOp29
 70
     1
102
RTVSPropertyOp30
 70
     1
102
RTVSPropertyOp31
 70
     1
102
RTVSPropertyOp32
 70
     1
102
RTVSPropertyOp33
 70
     1
102
RTVSPropertyOp34
 70
     1
102
RTVSPropertyOp35
 70
     1
102
RTVSPropertyOp36
 70
     1
102
RTVSPropertyOp37
 70
     1
102
RTVSPropertyOp38
 70
     1
102
RTVSPropertyOp39
 70
     1
102
RTVSPropertyOp40
 70
     1
102
RTVSPropertyOp41
 70
     1
102
RTVSPropertyOp42
 70
     1
102
RTVSPropertyOp43
 70
     1
102
RTVSPropertyOp44
 70
     1
102
RTVSPropertyOp45
 70
     1
102
RTVSPropertyOp46
 70
     1
102
RTVSPropertyOp47
 70
     1
102
RTVSPropertyOp48
 70
     1
102
RTVSPropertyOp49
 70
     1
102
RTVSPropertyOp50
 70
     1
102
RTVSPropertyOp51
 70
     0
102
RTVSPropertyOp52
 70
     0
102
RTVSPropertyOp53
 70
     1
102
RTVSPropertyOp54
 70
     1
102
RTVSPropertyOp55
 70
     1
102
RTVSPropertyOp56
 70
     1
102
RTVSPropertyOp57
 70
     1
102
RTVSPropertyOp58
 70
     1
102
RTVSPropertyOp59
 70
     1
102
RTVSPropertyOp60
 70
     1
102
RTVSPropertyOp61
 70
     1
102
RTVSPropertyOp62
 70
     1
  0
ENDSEC
  0
EOF
