  0
SECTION
  2
HEADER
  9
$ACADVER
  1
AC1015
  9
$ACADMAINTVER
 70
    20
  9
$DWGCODEPAGE
  3
ANSI_932
  9
$INSBASE
 10
0.0
 20
0.0
 30
0.0
  9
$EXTMIN
 10
25.34360954003006
 20
13.51659673857796
 30
0.0
  9
$EXTMAX
 10
1513.762091398272
 20
1001.390195466567
 30
0.0
  9
$LIMMIN
 10
-347.1225891113285
 20
-365.1190567016602
  9
$LIMMAX
 10
959.0256195068358
 20
512.1766128540039
  9
$ORTHOMODE
 70
     0
  9
$REGENMODE
 70
     1
  9
$FILLMODE
 70
     1
  9
$QTEXTMODE
 70
     0
  9
$MIRRTEXT
 70
     1
  9
$LTSCALE
 40
0.0431236367213134
  9
$ATTMODE
 70
     1
  9
$TEXTSIZE
 40
2.5
  9
$TRACEWID
 40
1.0
  9
$TEXTSTYLE
  7
Standard
  9
$CLAYER
  8
0
  9
$CELTYPE
  6
ByLayer
  9
$CECOLOR
 62
   256
  9
$CELTSCALE
 40
1.0
  9
$DISPSILH
 70
     0
  9
$DIMSCALE
 40
1.0
  9
$DIMASZ
 40
2.5
  9
$DIMEXO
 40
0.625
  9
$DIMDLI
 40
3.75
  9
$DIMRND
 40
0.0
  9
$DIMDLE
 40
0.0
  9
$DIMEXE
 40
1.25
  9
$DIMTP
 40
0.0
  9
$DIMTM
 40
0.0
  9
$DIMTXT
 40
2.5
  9
$DIMCEN
 40
2.5
  9
$DIMTSZ
 40
0.0
  9
$DIMTOL
 70
     0
  9
$DIMLIM
 70
     0
  9
$DIMTIH
 70
     0
  9
$DIMTOH
 70
     0
  9
$DIMSE1
 70
     0
  9
$DIMSE2
 70
     0
  9
$DIMTAD
 70
     1
  9
$DIMZIN
 70
     0
  9
$DIMBLK
  1

  9
$DIMASO
 70
     1
  9
$DIMSHO
 70
     1
  9
$DIMPOST
  1

  9
$DIMAPOST
  1

  9
$DIMALT
 70
     0
  9
$DIMALTD
 70
     3
  9
$DIMALTF
 40
0.03937007874016
  9
$DIMLFAC
 40
1.0
  9
$DIMTOFL
 70
     1
  9
$DIMTVP
 40
0.0
  9
$DIMTIX
 70
     0
  9
$DIMSOXD
 70
     0
  9
$DIMSAH
 70
     0
  9
$DIMBLK1
  1

  9
$DIMBLK2
  1

  9
$DIMSTYLE
  2
Standard
  9
$DIMCLRD
 70
     0
  9
$DIMCLRE
 70
     0
  9
$DIMCLRT
 70
     0
  9
$DIMTFAC
 40
0.75
  9
$DIMGAP
 40
0.625
  9
$DIMJUST
 70
     0
  9
$DIMSD1
 70
     0
  9
$DIMSD2
 70
     0
  9
$DIMTOLJ
 70
     0
  9
$DIMTZIN
 70
     8
  9
$DIMALTZ
 70
     0
  9
$DIMALTTZ
 70
     0
  9
$DIMUPT
 70
     0
  9
$DIMDEC
 70
     2
  9
$DIMTDEC
 70
     2
  9
$DIMALTU
 70
     2
  9
$DIMALTTD
 70
     3
  9
$DIMTXSTY
  7
Standard
  9
$DIMAUNIT
 70
     0
  9
$DIMADEC
 70
     0
  9
$DIMALTRND
 40
0.0
  9
$DIMAZIN
 70
     0
  9
$DIMDSEP
 70
    46
  9
$DIMATFIT
 70
     3
  9
$DIMFRAC
 70
     0
  9
$DIMLDRBLK
  1

  9
$DIMLUNIT
 70
     2
  9
$DIMLWD
 70
    -2
  9
$DIMLWE
 70
    -2
  9
$DIMTMOVE
 70
     0
  9
$LUNITS
 70
     2
  9
$LUPREC
 70
     4
  9
$SKETCHINC
 40
1.0
  9
$FILLETRAD
 40
0.0
  9
$AUNITS
 70
     0
  9
$AUPREC
 70
     0
  9
$MENU
  1
.
  9
$ELEVATION
 40
0.0
  9
$PELEVATION
 40
0.0
  9
$THICKNESS
 40
0.0
  9
$LIMCHECK
 70
     0
  9
$CHAMFERA
 40
10.0
  9
$CHAMFERB
 40
10.0
  9
$CHAMFERC
 40
20.0
  9
$CHAMFERD
 40
0.0
  9
$SKPOLY
 70
     0
  9
$TDCREATE
 40
2455188.750000000
  9
$TDUCREATE
 40
2455188.375000000
  9
$TDUPDATE
 40
2459747.367786169
  9
$TDUUPDATE
 40
2459746.992786169
  9
$TDINDWG
 40
0.0279525116
  9
$TDUSRTIMER
 40
0.0279520602
  9
$USRTIMER
 70
     1
  9
$ANGBASE
 50
0.0
  9
$ANGDIR
 70
     0
  9
$PDMODE
 70
     0
  9
$PDSIZE
 40
0.0
  9
$PLINEWID
 40
0.0
  9
$SPLFRAME
 70
     0
  9
$SPLINETYPE
 70
     6
  9
$SPLINESEGS
 70
     8
  9
$HANDSEED
  5
874
  9
$SURFTAB1
 70
     6
  9
$SURFTAB2
 70
     6
  9
$SURFTYPE
 70
     6
  9
$SURFU
 70
     6
  9
$SURFV
 70
     6
  9
$UCSBASE
  2

  9
$UCSNAME
  2

  9
$UCSORG
 10
0.0
 20
0.0
 30
0.0
  9
$UCSXDIR
 10
1.0
 20
0.0
 30
0.0
  9
$UCSYDIR
 10
0.0
 20
1.0
 30
0.0
  9
$UCSORTHOREF
  2

  9
$UCSORTHOVIEW
 70
     0
  9
$UCSORGTOP
 10
0.0
 20
0.0
 30
0.0
  9
$UCSORGBOTTOM
 10
0.0
 20
0.0
 30
0.0
  9
$UCSORGLEFT
 10
0.0
 20
0.0
 30
0.0
  9
$UCSORGRIGHT
 10
0.0
 20
0.0
 30
0.0
  9
$UCSORGFRONT
 10
0.0
 20
0.0
 30
0.0
  9
$UCSORGBACK
 10
0.0
 20
0.0
 30
0.0
  9
$PUCSBASE
  2

  9
$PUCSNAME
  2

  9
$PUCSORG
 10
0.0
 20
0.0
 30
0.0
  9
$PUCSXDIR
 10
1.0
 20
0.0
 30
0.0
  9
$PUCSYDIR
 10
0.0
 20
1.0
 30
0.0
  9
$PUCSORTHOREF
  2

  9
$PUCSORTHOVIEW
 70
     0
  9
$PUCSORGTOP
 10
0.0
 20
0.0
 30
0.0
  9
$PUCSORGBOTTOM
 10
0.0
 20
0.0
 30
0.0
  9
$PUCSORGLEFT
 10
0.0
 20
0.0
 30
0.0
  9
$PUCSORGRIGHT
 10
0.0
 20
0.0
 30
0.0
  9
$PUCSORGFRONT
 10
0.0
 20
0.0
 30
0.0
  9
$PUCSORGBACK
 10
0.0
 20
0.0
 30
0.0
  9
$USERI1
 70
     0
  9
$USERI2
 70
     0
  9
$USERI3
 70
     0
  9
$USERI4
 70
     0
  9
$USERI5
 70
     0
  9
$USERR1
 40
0.0
  9
$USERR2
 40
0.0
  9
$USERR3
 40
0.0
  9
$USERR4
 40
0.0
  9
$USERR5
 40
0.0
  9
$WORLDVIEW
 70
     1
  9
$SHADEDGE
 70
     3
  9
$SHADEDIF
 70
    70
  9
$TILEMODE
 70
     1
  9
$MAXACTVP
 70
    64
  9
$PINSBASE
 10
0.0
 20
0.0
 30
0.0
  9
$PLIMCHECK
 70
     0
  9
$PEXTMIN
 10
1.000000000000000E+20
 20
1.000000000000000E+20
 30
1.000000000000000E+20
  9
$PEXTMAX
 10
-1.000000000000000E+20
 20
-1.000000000000000E+20
 30
-1.000000000000000E+20
  9
$PLIMMIN
 10
0.0
 20
0.0
  9
$PLIMMAX
 10
420.0
 20
297.0
  9
$UNITMODE
 70
     0
  9
$VISRETAIN
 70
     1
  9
$PLINEGEN
 70
     0
  9
$PSLTSCALE
 70
     1
  9
$TREEDEPTH
 70
  3020
  9
$CMLSTYLE
  2
Standard
  9
$CMLJUST
 70
     0
  9
$CMLSCALE
 40
20.0
  9
$PROXYGRAPHICS
 70
     1
  9
$MEASUREMENT
 70
     1
  9
$CELWEIGHT
370
    -1
  9
$ENDCAPS
280
     0
  9
$JOINSTYLE
280
     0
  9
$LWDISPLAY
290
     0
  9
$INSUNITS
 70
     4
  9
$HYPERLINKBASE
  1

  9
$STYLESHEET
  1

  9
$XEDIT
290
     1
  9
$CEPSNTYPE
380
     0
  9
$PSTYLEMODE
290
     1
  9
$FINGERPRINTGUID
  2
{4CDC3E2F-E5B5-4BC8-B809-4EAF611CE407}
  9
$VERSIONGUID
  2
{C329692E-5711-4353-8D2E-2B93C3A4B01B}
  9
$EXTNAMES
290
     1
  9
$PSVPSCALE
 40
0.0
  9
$OLESTARTUP
290
     0
  0
ENDSEC
  0
SECTION
  2
CLASSES
  0
CLASS
  1
ACDBDICTIONARYWDFLT
  2
AcDbDictionaryWithDefault
  3
ObjectDBX Classes
 90
        0
280
     0
281
     0
  0
CLASS
  1
VISUALSTYLE
  2
AcDbVisualStyle
  3
ObjectDBX Classes
 90
     4095
280
     0
281
     0
  0
CLASS
  1
MATERIAL
  2
AcDbMaterial
  3
ObjectDBX Classes
 90
     1153
280
     0
281
     0
  0
CLASS
  1
SCALE
  2
AcDbScale
  3
ObjectDBX Classes
 90
     1153
280
     0
281
     0
  0
CLASS
  1
TABLESTYLE
  2
AcDbTableStyle
  3
ObjectDBX Classes
 90
     4095
280
     0
281
     0
  0
CLASS
  1
MLEADERSTYLE
  2
AcDbMLeaderStyle
  3
ACDB_MLEADERSTYLE_CLASS
 90
     4095
280
     0
281
     0
  0
CLASS
  1
SUN
  2
AcDbSun
  3
SCENEOE
 90
    33921
280
     0
281
     0
  0
CLASS
  1
DICTIONARYVAR
  2
AcDbDictionaryVar
  3
ObjectDBX Classes
 90
        0
280
     0
281
     0
  0
CLASS
  1
ACDBSECTIONVIEWSTYLE
  2
AcDbSectionViewStyle
  3
ObjectDBX Classes
 90
     1025
280
     0
281
     0
  0
CLASS
  1
ACDBDETAILVIEWSTYLE
  2
AcDbDetailViewStyle
  3
ObjectDBX Classes
 90
     1025
280
     0
281
     0
  0
CLASS
  1
SORTENTSTABLE
  2
AcDbSortentsTable
  3
ObjectDBX Classes
 90
        0
280
     0
281
     0
  0
CLASS
  1
CELLSTYLEMAP
  2
AcDbCellStyleMap
  3
ObjectDBX Classes
 90
     1152
280
     0
281
     0
  0
CLASS
  1
ACDBPLACEHOLDER
  2
AcDbPlaceHolder
  3
ObjectDBX Classes
 90
        0
280
     0
281
     0
  0
CLASS
  1
LAYOUT
  2
AcDbLayout
  3
ObjectDBX Classes
 90
        0
280
     0
281
     0
  0
ENDSEC
  0
SECTION
  2
TABLES
  0
TABLE
  2
VPORT
  5
8
330
0
100
AcDbSymbolTable
 70
     1
  0
VPORT
  5
29
330
8
100
AcDbSymbolTableRecord
100
AcDbViewportTableRecord
  2
*Active
 70
     0
 10
0.0
 20
0.0
 11
1.0
 21
1.0
 12
714.8286116129232
 22
291.0951855550497
 13
0.0
 23
0.0
 14
10.0
 24
10.0
 15
10.0
 25
10.0
 16
0.0
 26
0.0
 36
1.0
 17
0.0
 27
0.0
 37
0.0
 40
952.9385146918293
 41
2.204301075268817
 42
50.0
 43
0.0
 44
0.0
 50
0.0
 51
0.0
 71
     0
 72
 20000
 73
     1
 74
     3
 75
     0
 76
     0
 77
     0
 78
     0
281
     0
 65
     1
110
0.0
120
0.0
130
0.0
111
1.0
121
0.0
131
0.0
112
0.0
122
1.0
132
0.0
 79
     0
146
0.0
1001
ACAD_NAV_VCDISPLAY
1070
     3
  0
ENDTAB
  0
TABLE
  2
LTYPE
  5
5
330
0
100
AcDbSymbolTable
 70
     2
  0
LTYPE
  5
14
330
5
100
AcDbSymbolTableRecord
100
AcDbLinetypeTableRecord
  2
ByBlock
 70
     0
  3

 72
    65
 73
     0
 40
0.0
  0
LTYPE
  5
15
330
5
100
AcDbSymbolTableRecord
100
AcDbLinetypeTableRecord
  2
ByLayer
 70
     0
  3

 72
    65
 73
     0
 40
0.0
  0
LTYPE
  5
16
330
5
100
AcDbSymbolTableRecord
100
AcDbLinetypeTableRecord
  2
Continuous
 70
     0
  3
Solid line
 72
    65
 73
     0
 40
0.0
  0
LTYPE
  5
44B
330
5
100
AcDbSymbolTableRecord
100
AcDbLinetypeTableRecord
  2
CENTER2
 70
     0
  3
Center (.5x) ___ _ ___ _ ___ _ ___ _ ___ _ ___
 72
    65
 73
     4
 40
28.575
 49
19.05
 74
     0
 49
-3.174999999999998
 74
     0
 49
3.174999999999998
 74
     0
 49
-3.174999999999998
 74
     0
  0
ENDTAB
  0
TABLE
  2
LAYER
  5
2
102
{ACAD_XDICTIONARY
360
451
102
}
330
0
100
AcDbSymbolTable
 70
     4
  0
LAYER
  5
10
102
{ACAD_XDICTIONARY
360
79F
102
}
330
2
100
AcDbSymbolTableRecord
100
AcDbLayerTableRecord
  2
0
 70
     0
 62
     7
  6
Continuous
370
    -3
390
F
  0
LAYER
  5
66
330
2
100
AcDbSymbolTableRecord
100
AcDbLayerTableRecord
  2
Defpoints
 70
     0
 62
     7
  6
Continuous
290
     0
370
    -3
390
F
  0
LAYER
  5
44C
102
{ACAD_XDICTIONARY
360
44D
102
}
330
2
100
AcDbSymbolTableRecord
100
AcDbLayerTableRecord
  2
中心線
 70
     0
 62
     3
  6
CENTER2
370
    -3
390
F
  0
LAYER
  5
44E
102
{ACAD_XDICTIONARY
360
44F
102
}
330
2
100
AcDbSymbolTableRecord
100
AcDbLayerTableRecord
  2
実線
 70
     0
 62
     7
  6
Continuous
370
    -3
390
F
  0
ENDTAB
  0
TABLE
  2
STYLE
  5
3
330
0
100
AcDbSymbolTable
 70
     1
  0
STYLE
  5
11
330
3
100
AcDbSymbolTableRecord
100
AcDbTextStyleTableRecord
  2
Standard
 70
     0
 40
0.0
 41
1.0
 50
0.0
 71
     0
 42
2.5
  3
txt
  4
extfont2
  0
ENDTAB
  0
TABLE
  2
VIEW
  5
6
330
0
100
AcDbSymbolTable
 70
     0
  0
ENDTAB
  0
TABLE
  2
UCS
  5
7
330
0
100
AcDbSymbolTable
 70
     0
  0
ENDTAB
  0
TABLE
  2
APPID
  5
9
330
0
100
AcDbSymbolTable
 70
     3
  0
APPID
  5
12
330
9
100
AcDbSymbolTableRecord
100
AcDbRegAppTableRecord
  2
ACAD
 70
     0
  0
APPID
  5
27F
330
9
100
AcDbSymbolTableRecord
100
AcDbRegAppTableRecord
  2
ACAD_MLEADERVER
 70
     0
  0
APPID
  5
450
330
9
100
AcDbSymbolTableRecord
100
AcDbRegAppTableRecord
  2
ACAD_NAV_VCDISPLAY
 70
     0
  0
ENDTAB
  0
TABLE
  2
DIMSTYLE
  5
A
330
0
100
AcDbSymbolTable
 70
     1
100
AcDbDimStyleTable
 71
     0
  0
DIMSTYLE
105
27
330
A
100
AcDbSymbolTableRecord
100
AcDbDimStyleTableRecord
  2
Standard
 70
     0
 41
2.5
 42
0.625
 43
3.75
 44
1.25
 73
     0
 74
     0
 77
     1
140
2.5
141
2.5
143
0.03937007874016
146
0.75
147
0.625
171
     3
172
     1
271
     2
272
     2
274
     3
283
     0
284
     8
340
11
  0
ENDTAB
  0
TABLE
  2
BLOCK_RECORD
  5
1
330
0
100
AcDbSymbolTable
 70
     1
  0
BLOCK_RECORD
  5
1F
102
{ACAD_XDICTIONARY
360
2C7
102
}
330
1
100
AcDbSymbolTableRecord
100
AcDbBlockTableRecord
  2
*Model_Space
340
22
  0
BLOCK_RECORD
  5
1B
330
1
100
AcDbSymbolTableRecord
100
AcDbBlockTableRecord
  2
*Paper_Space
340
1E
  0
BLOCK_RECORD
  5
23
330
1
100
AcDbSymbolTableRecord
100
AcDbBlockTableRecord
  2
*Paper_Space0
340
289
  0
ENDTAB
  0
ENDSEC
  0
SECTION
  2
BLOCKS
  0
BLOCK
  5
20
330
1F
100
AcDbEntity
  8
0
100
AcDbBlockBegin
  2
*Model_Space
 70
     0
 10
0.0
 20
0.0
 30
0.0
  3
*Model_Space
  1

  0
ENDBLK
  5
21
330
1F
100
AcDbEntity
  8
0
100
AcDbBlockEnd
  0
BLOCK
  5
1C
330
1B
100
AcDbEntity
 67
     1
  8
0
100
AcDbBlockBegin
  2
*Paper_Space
 70
     0
 10
0.0
 20
0.0
 30
0.0
  3
*Paper_Space
  1

  0
ENDBLK
  5
1D
330
1B
100
AcDbEntity
 67
     1
  8
0
100
AcDbBlockEnd
  0
BLOCK
  5
24
330
23
100
AcDbEntity
 67
     1
  8
0
100
AcDbBlockBegin
  2
*Paper_Space0
 70
     0
 10
0.0
 20
0.0
 30
0.0
  3
*Paper_Space0
  1

  0
ENDBLK
  5
25
330
23
100
AcDbEntity
 67
     1
  8
0
100
AcDbBlockEnd
  0
ENDSEC
  0
SECTION
  2
ENTITIES
  0
CIRCLE
  5
28F
102
{ACAD_REACTORS
330
7E6
102
}
330
1F
100
AcDbEntity
  8
実線
100
AcDbCircle
 10
320.343609540031
 20
608.5165967385778
 30
0.0
 40
12.5
  0
CIRCLE
  5
290
102
{ACAD_REACTORS
330
7E6
102
}
330
1F
100
AcDbEntity
  8
実線
100
AcDbCircle
 10
320.343609540031
 20
608.5165967385778
 30
0.0
 40
35.0
  0
ARC
  5
291
102
{ACAD_REACTORS
330
7E6
102
}
330
1F
100
AcDbEntity
  8
実線
100
AcDbCircle
 10
320.343609540031
 20
608.5165967385778
 30
0.0
 40
25.0
100
AcDbArc
 50
233.1301023541544
 51
293.0739180656281
  0
CIRCLE
  5
292
102
{ACAD_REACTORS
330
7E6
102
}
330
1F
100
AcDbEntity
  8
実線
100
AcDbCircle
 10
320.343609540031
 20
608.5165967385778
 30
0.0
 40
7.5
  0
LINE
  5
293
102
{ACAD_REACTORS
330
7E6
102
}
330
1F
100
AcDbEntity
  8
実線
100
AcDbLine
 10
315.343609540031
 20
595.4165967385778
 30
0.0
 11
340.343609540031
 21
595.4165967385778
 31
0.0
  0
LINE
  5
294
102
{ACAD_REACTORS
330
7E6
102
}
330
1F
100
AcDbEntity
  8
実線
100
AcDbLine
 10
335.343609540031
 20
587.5165967385778
 30
0.0
 11
340.343609540031
 21
587.5165967385778
 31
0.0
  0
LINE
  5
295
102
{ACAD_REACTORS
330
7E6
102
}
330
1F
100
AcDbEntity
  8
実線
100
AcDbLine
 10
315.343609540031
 20
595.4165967385778
 30
0.0
 11
315.343609540031
 21
587.5165967385778
 31
0.0
  0
LINE
  5
296
102
{ACAD_REACTORS
330
7E6
102
}
330
1F
100
AcDbEntity
  8
実線
100
AcDbLine
 10
340.343609540031
 20
587.5165967385778
 30
0.0
 11
340.343609540031
 21
595.4165967385778
 31
0.0
  0
LINE
  5
297
102
{ACAD_REACTORS
330
7E6
102
}
330
1F
100
AcDbEntity
  8
実線
100
AcDbLine
 10
255.4436095400304
 20
589.4665967385787
 30
0.0
 11
274.114857664169
 21
589.4665967385787
 31
0.0
  0
LINE
  5
298
102
{ACAD_REACTORS
330
7E6
102
}
330
1F
100
AcDbEntity
  8
実線
100
AcDbLine
 10
274.1148576641695
 20
627.5665967385785
 30
0.0
 11
255.4436095400304
 21
627.5665967385785
 31
0.0
  0
LINE
  5
299
102
{ACAD_REACTORS
330
7E6
102
}
330
1F
100
AcDbEntity
  8
実線
100
AcDbLine
 10
250.3436095400303
 20
583.2665967385784
 30
0.0
 11
253.0936095400303
 21
583.2665967385784
 31
0.0
  0
LINE
  5
29A
102
{ACAD_REACTORS
330
7E6
102
}
330
1F
100
AcDbEntity
  8
実線
100
AcDbLine
 10
253.0936095400303
 20
633.7665967385785
 30
0.0
 11
250.3436095400303
 21
633.7665967385785
 31
0.0
  0
LINE
  5
29B
102
{ACAD_REACTORS
330
7E6
102
}
330
1F
100
AcDbEntity
  8
実線
100
AcDbLine
 10
250.3436095400303
 20
633.7665967385785
 30
0.0
 11
250.3436095400303
 21
583.2665967385784
 31
0.0
  0
LINE
  5
29C
102
{ACAD_REACTORS
330
7E6
102
}
330
1F
100
AcDbEntity
  8
実線
100
AcDbLine
 10
255.4436095400304
 20
627.5665967385785
 30
0.0
 11
253.0936095400303
 21
633.7665967385785
 31
0.0
  0
LINE
  5
29D
102
{ACAD_REACTORS
330
7E6
102
}
330
1F
100
AcDbEntity
  8
実線
100
AcDbLine
 10
253.0936095400303
 20
583.2665967385784
 30
0.0
 11
255.4436095400304
 21
589.4665967385787
 31
0.0
  0
LINE
  5
29E
102
{ACAD_REACTORS
330
7E6
102
}
330
1F
100
AcDbEntity
  8
実線
100
AcDbLine
 10
253.0936095400303
 20
633.7665967385785
 30
0.0
 11
253.0936095400303
 21
583.2665967385784
 31
0.0
  0
LINE
  5
29F
102
{ACAD_REACTORS
330
7E6
102
}
330
1F
100
AcDbEntity
  8
実線
100
AcDbLine
 10
255.4436095400304
 20
627.5665967385785
 30
0.0
 11
255.4436095400304
 21
589.4665967385787
 31
0.0
  0
LINE
  5
2A0
102
{ACAD_REACTORS
330
7E6
102
}
330
1F
100
AcDbEntity
  8
実線
100
AcDbLine
 10
385.2436095400303
 20
627.5665967385785
 30
0.0
 11
366.5723614158925
 21
627.5665967385785
 31
0.0
  0
LINE
  5
2A1
102
{ACAD_REACTORS
330
7E6
102
}
330
1F
100
AcDbEntity
  8
実線
100
AcDbLine
 10
366.5723614158931
 20
589.4665967385787
 30
0.0
 11
385.2436095400303
 21
589.4665967385787
 31
0.0
  0
LINE
  5
2A2
102
{ACAD_REACTORS
330
7E6
102
}
330
1F
100
AcDbEntity
  8
実線
100
AcDbLine
 10
390.3436095400303
 20
633.7665967385785
 30
0.0
 11
387.5936095400303
 21
633.7665967385785
 31
0.0
  0
LINE
  5
2A3
102
{ACAD_REACTORS
330
7E6
102
}
330
1F
100
AcDbEntity
  8
実線
100
AcDbLine
 10
387.5936095400303
 20
583.2665967385784
 30
0.0
 11
390.3436095400303
 21
583.2665967385784
 31
0.0
  0
LINE
  5
2A4
102
{ACAD_REACTORS
330
7E6
102
}
330
1F
100
AcDbEntity
  8
実線
100
AcDbLine
 10
390.3436095400303
 20
583.2665967385784
 30
0.0
 11
390.3436095400303
 21
633.7665967385785
 31
0.0
  0
LINE
  5
2A5
102
{ACAD_REACTORS
330
7E6
102
}
330
1F
100
AcDbEntity
  8
実線
100
AcDbLine
 10
385.2436095400303
 20
589.4665967385787
 30
0.0
 11
387.5936095400303
 21
583.2665967385784
 31
0.0
  0
LINE
  5
2A6
102
{ACAD_REACTORS
330
7E6
102
}
330
1F
100
AcDbEntity
  8
実線
100
AcDbLine
 10
387.5936095400303
 20
633.7665967385785
 30
0.0
 11
385.2436095400303
 21
627.5665967385785
 31
0.0
  0
LINE
  5
2A7
102
{ACAD_REACTORS
330
7E6
102
}
330
1F
100
AcDbEntity
  8
実線
100
AcDbLine
 10
387.5936095400303
 20
583.2665967385784
 30
0.0
 11
387.5936095400303
 21
633.7665967385785
 31
0.0
  0
LINE
  5
2A8
102
{ACAD_REACTORS
330
7E6
102
}
330
1F
100
AcDbEntity
  8
実線
100
AcDbLine
 10
385.2436095400303
 20
589.4665967385787
 30
0.0
 11
385.2436095400303
 21
627.5665967385785
 31
0.0
  0
LINE
  5
2A9
102
{ACAD_REACTORS
330
7E6
102
}
330
1F
100
AcDbEntity
  8
実線
100
AcDbLine
 10
346.843609540031
 20
589.966596738578
 30
0.0
 11
346.843609540031
 21
592.9665967385777
 31
0.0
  0
LINE
  5
2AA
102
{ACAD_REACTORS
330
7E6
102
}
330
1F
100
AcDbEntity
  8
実線
100
AcDbLine
 10
340.343609540031
 20
589.966596738578
 30
0.0
 11
346.843609540031
 21
589.966596738578
 31
0.0
  0
LINE
  5
2AB
102
{ACAD_REACTORS
330
7E6
102
}
330
1F
100
AcDbEntity
  8
実線
100
AcDbLine
 10
346.843609540031
 20
592.9665967385777
 30
0.0
 11
340.343609540031
 21
592.9665967385777
 31
0.0
  0
CIRCLE
  5
2AC
102
{ACAD_REACTORS
330
7E6
102
}
330
1F
100
AcDbEntity
  8
実線
100
AcDbCircle
 10
320.343609540031
 20
608.5165967385778
 30
0.0
 40
50.0
  0
ARC
  5
2AD
102
{ACAD_REACTORS
330
7E6
102
}
330
1F
100
AcDbEntity
  8
実線
100
AcDbCircle
 10
356.990986483103
 20
647.4937665074616
 30
0.0
 40
8.000000000000008
100
AcDbArc
 50
46.76457374289014
 51
124.9999999999974
  0
LINE
  5
2AE
102
{ACAD_REACTORS
330
7E6
102
}
330
1F
100
AcDbEntity
  8
実線
100
AcDbLine
 10
352.4023749922948
 20
654.0469828617736
 30
0.0
 11
347.4143852142098
 21
650.5543548186453
 31
0.0
  0
ARC
  5
2AF
102
{ACAD_REACTORS
330
7E6
102
}
330
1F
100
AcDbEntity
  8
実線
100
AcDbCircle
 10
320.3436095400318
 20
608.516596738577
 30
0.0
 40
61.49999999999885
100
AcDbArc
 50
313.2354262571098
 51
316.7645737428878
  0
ARC
  5
2B0
102
{ACAD_REACTORS
330
7E6
102
}
330
1F
100
AcDbEntity
  8
実線
100
AcDbCircle
 10
359.320779308915
 20
571.8692197955057
 30
0.0
 40
8.000000000000023
100
AcDbArc
 50
316.7645737428832
 51
34.99999999999737
  0
LINE
  5
2B1
102
{ACAD_REACTORS
330
7E6
102
}
330
1F
100
AcDbEntity
  8
実線
100
AcDbLine
 10
365.873995663227
 20
576.4578312863142
 30
0.0
 11
362.3813676200988
 21
581.4458210643992
 31
0.0
  0
LINE
  5
2B2
102
{ACAD_REACTORS
330
7E6
102
}
330
1F
100
AcDbEntity
  8
実線
100
AcDbLine
 10
293.2728338658525
 20
650.5543548186453
 30
0.0
 11
288.2848440877674
 21
654.0469828617736
 31
0.0
  0
ARC
  5
2B3
102
{ACAD_REACTORS
330
7E6
102
}
330
1F
100
AcDbEntity
  8
実線
100
AcDbCircle
 10
283.696232596959
 20
647.4937665074616
 30
0.0
 40
8.000000000000008
100
AcDbArc
 50
55.00000000000264
 51
133.2354262571099
  0
ARC
  5
2B4
102
{ACAD_REACTORS
330
7E6
102
}
330
1F
100
AcDbEntity
  8
実線
100
AcDbCircle
 10
320.3436095400318
 20
608.516596738577
 30
0.0
 40
61.50000000000114
100
AcDbArc
 50
133.2354262571099
 51
136.7645737428878
  0
ARC
  5
2B5
102
{ACAD_REACTORS
330
7E6
102
}
330
1F
100
AcDbEntity
  8
実線
100
AcDbCircle
 10
281.3664397711474
 20
645.1639736816497
 30
0.0
 40
8.000000000000008
100
AcDbArc
 50
136.7645737428878
 51
214.9999999999974
  0
LINE
  5
2B6
102
{ACAD_REACTORS
330
7E6
102
}
330
1F
100
AcDbEntity
  8
実線
100
AcDbLine
 10
274.8132234168352
 20
640.5753621908415
 30
0.0
 11
278.3058514599634
 21
635.5873724127566
 31
0.0
  0
LINE
  5
2B7
102
{ACAD_REACTORS
330
7E6
102
}
330
1F
100
AcDbEntity
  8
実線
100
AcDbLine
 10
278.3058514599634
 20
581.4458210643992
 30
0.0
 11
274.8132234168352
 21
576.4578312863142
 31
0.0
  0
ARC
  5
2B8
102
{ACAD_REACTORS
330
7E6
102
}
330
1F
100
AcDbEntity
  8
実線
100
AcDbCircle
 10
281.3664397711474
 20
571.8692197955057
 30
0.0
 40
7.999999999999996
100
AcDbArc
 50
145.0000000000026
 51
223.2354262571122
  0
ARC
  5
2B9
102
{ACAD_REACTORS
330
7E6
102
}
330
1F
100
AcDbEntity
  8
実線
100
AcDbCircle
 10
320.3436095400312
 20
608.5165967385776
 30
0.0
 40
61.50000000000008
100
AcDbArc
 50
223.2354262571122
 51
226.7645737428855
  0
ARC
  5
2BA
102
{ACAD_REACTORS
330
7E6
102
}
330
1F
100
AcDbEntity
  8
実線
100
AcDbCircle
 10
283.696232596959
 20
569.5394269696938
 30
0.0
 40
8.000000000000021
100
AcDbArc
 50
226.7645737428855
 51
304.9999999999974
  0
LINE
  5
2BB
102
{ACAD_REACTORS
330
7E6
102
}
330
1F
100
AcDbEntity
  8
実線
100
AcDbLine
 10
288.2848440877674
 20
562.9862106153819
 30
0.0
 11
293.2728338658525
 21
566.4788386585102
 31
0.0
  0
LINE
  5
2BC
102
{ACAD_REACTORS
330
7E6
102
}
330
1F
100
AcDbEntity
  8
実線
100
AcDbLine
 10
347.4143852142098
 20
566.4788386585102
 30
0.0
 11
352.4023749922948
 21
562.9862106153819
 31
0.0
  0
ARC
  5
2BD
102
{ACAD_REACTORS
330
7E6
102
}
330
1F
100
AcDbEntity
  8
実線
100
AcDbCircle
 10
356.990986483103
 20
569.5394269696938
 30
0.0
 40
7.999999999999986
100
AcDbArc
 50
235.0000000000026
 51
313.2354262571098
  0
LINE
  5
2BE
102
{ACAD_REACTORS
330
7E6
102
}
330
1F
100
AcDbEntity
  8
実線
100
AcDbLine
 10
362.3813676200988
 20
635.5873724127564
 30
0.0
 11
365.873995663227
 21
640.5753621908415
 31
0.0
  0
ARC
  5
2BF
102
{ACAD_REACTORS
330
7E6
102
}
330
1F
100
AcDbEntity
  8
実線
100
AcDbCircle
 10
359.320779308915
 20
645.1639736816497
 30
0.0
 40
7.999999999999995
100
AcDbArc
 50
325.0000000000026
 51
43.23542625711217
  0
ARC
  5
2C0
102
{ACAD_REACTORS
330
7E6
102
}
330
1F
100
AcDbEntity
  8
実線
100
AcDbCircle
 10
320.3436095400312
 20
608.5165967385776
 30
0.0
 40
61.50000000000009
100
AcDbArc
 50
43.23542625711217
 51
46.76457374289014
  0
LINE
  5
2C1
102
{ACAD_REACTORS
330
7E6
102
}
330
1F
100
AcDbEntity
  8
実線
100
AcDbLine
 10
305.343609540031
 20
588.516596738578
 30
0.0
 11
315.343609540031
 21
588.516596738578
 31
0.0
  0
ARC
  5
2C2
102
{ACAD_REACTORS
330
7E6
102
}
330
1F
100
AcDbEntity
  8
実線
100
AcDbCircle
 10
320.343609540031
 20
608.5165967385778
 30
0.0
 40
25.0
100
AcDbArc
 50
323.1301023541521
 51
233.1301023541544
  0
LINE
  5
2C3
102
{ACAD_REACTORS
330
7E6
102
}
330
1F
100
AcDbEntity
  8
実線
100
AcDbLine
 10
315.343609540031
 20
587.5165967385778
 30
0.0
 11
335.343609540031
 21
587.5165967385778
 31
0.0
  0
LINE
  5
2C4
102
{ACAD_REACTORS
330
7E6
102
}
330
1F
100
AcDbEntity
  8
実線
100
AcDbLine
 10
335.343609540031
 20
585.5165967385778
 30
0.0
 11
315.343609540031
 21
585.5165967385778
 31
0.0
  0
LINE
  5
2C5
102
{ACAD_REACTORS
330
7E6
102
}
330
1F
100
AcDbEntity
  8
実線
100
AcDbLine
 10
315.343609540031
 20
585.5165967385778
 30
0.0
 11
315.343609540031
 21
587.5165967385778
 31
0.0
  0
LINE
  5
2C6
102
{ACAD_REACTORS
330
7E6
102
}
330
1F
100
AcDbEntity
  8
実線
100
AcDbLine
 10
335.343609540031
 20
587.5165967385778
 30
0.0
 11
335.343609540031
 21
585.5165967385778
 31
0.0
  0
ARC
  5
2C9
102
{ACAD_REACTORS
330
7E9
102
}
330
1F
100
AcDbEntity
  8
実線
100
AcDbCircle
 10
320.3436095400307
 20
68.51659673857864
 30
0.0
 40
50.0
100
AcDbArc
 50
57.2199489371374
 51
122.7800510628626
  0
ARC
  5
2CA
102
{ACAD_REACTORS
330
7E9
102
}
330
1F
100
AcDbEntity
  8
実線
100
AcDbCircle
 10
320.3436095400307
 20
68.51659673857864
 30
0.0
 40
50.0
100
AcDbArc
 50
147.2199489371374
 51
157.6043612805122
  0
ARC
  5
2CB
102
{ACAD_REACTORS
330
7E9
102
}
330
1F
100
AcDbEntity
  8
実線
100
AcDbCircle
 10
320.3436095400307
 20
68.51659673857864
 30
0.0
 40
50.0
100
AcDbArc
 50
202.3956387194878
 51
212.7800510628626
  0
ARC
  5
2CC
102
{ACAD_REACTORS
330
7E9
102
}
330
1F
100
AcDbEntity
  8
実線
100
AcDbCircle
 10
320.3436095400307
 20
68.51659673857864
 30
0.0
 40
50.0
100
AcDbArc
 50
237.2199489371374
 51
302.7800510628626
  0
ARC
  5
2CD
102
{ACAD_REACTORS
330
7E9
102
}
330
1F
100
AcDbEntity
  8
実線
100
AcDbCircle
 10
320.3436095400307
 20
68.51659673857864
 30
0.0
 40
50.0
100
AcDbArc
 50
327.2199489371374
 51
337.6043612805123
  0
ARC
  5
2CE
102
{ACAD_REACTORS
330
7E9
102
}
330
1F
100
AcDbEntity
  8
実線
100
AcDbCircle
 10
320.3436095400307
 20
68.51659673857864
 30
0.0
 40
50.0
100
AcDbArc
 50
22.39563871948778
 51
32.78005106286261
  0
CIRCLE
  5
2CF
102
{ACAD_REACTORS
330
7E9
102
}
330
1F
100
AcDbEntity
  8
実線
100
AcDbCircle
 10
320.34360954003
 20
68.51659673857785
 30
0.0
 40
25.25
  0
LINE
  5
2D0
102
{ACAD_REACTORS
330
7E9
102
}
330
1F
100
AcDbEntity
  8
実線
100
AcDbLine
 10
255.44360954003
 20
49.4665967385778
 30
0.0
 11
285.1712126925018
 21
49.4665967385778
 31
0.0
  0
LINE
  5
2D1
102
{ACAD_REACTORS
330
7E9
102
}
330
1F
100
AcDbEntity
  8
実線
100
AcDbLine
 10
285.1712126925018
 20
87.56659673857781
 30
0.0
 11
255.44360954003
 21
87.56659673857781
 31
0.0
  0
LINE
  5
2D2
102
{ACAD_REACTORS
330
7E9
102
}
330
1F
100
AcDbEntity
  8
実線
100
AcDbLine
 10
255.44360954003
 20
49.4665967385778
 30
0.0
 11
255.44360954003
 21
87.56659673857781
 31
0.0
  0
LINE
  5
2D3
102
{ACAD_REACTORS
330
7E9
102
}
330
1F
100
AcDbEntity
  8
実線
100
AcDbLine
 10
255.44360954003
 20
87.56659673857781
 30
0.0
 11
253.09360954003
 21
93.76659673857785
 31
0.0
  0
LINE
  5
2D4
102
{ACAD_REACTORS
330
7E9
102
}
330
1F
100
AcDbEntity
  8
実線
100
AcDbLine
 10
253.09360954003
 20
43.26659673857782
 30
0.0
 11
255.44360954003
 21
49.4665967385778
 31
0.0
  0
LINE
  5
2D5
102
{ACAD_REACTORS
330
7E9
102
}
330
1F
100
AcDbEntity
  8
実線
100
AcDbLine
 10
250.34360954003
 20
43.26659673857782
 30
0.0
 11
250.34360954003
 21
93.76659673857785
 31
0.0
  0
LINE
  5
2D6
102
{ACAD_REACTORS
330
7E9
102
}
330
1F
100
AcDbEntity
  8
実線
100
AcDbLine
 10
253.09360954003
 20
43.26659673857782
 30
0.0
 11
253.09360954003
 21
93.76659673857785
 31
0.0
  0
LINE
  5
2D7
102
{ACAD_REACTORS
330
7E9
102
}
330
1F
100
AcDbEntity
  8
実線
100
AcDbLine
 10
250.34360954003
 20
43.26659673857782
 30
0.0
 11
253.09360954003
 21
43.26659673857782
 31
0.0
  0
LINE
  5
2D8
102
{ACAD_REACTORS
330
7E9
102
}
330
1F
100
AcDbEntity
  8
実線
100
AcDbLine
 10
253.09360954003
 20
93.76659673857785
 30
0.0
 11
250.34360954003
 21
93.76659673857785
 31
0.0
  0
LINE
  5
2D9
102
{ACAD_REACTORS
330
7E9
102
}
330
1F
100
AcDbEntity
  8
実線
100
AcDbLine
 10
385.24360954003
 20
87.56659673857791
 30
0.0
 11
355.5160063875582
 21
87.56659673857791
 31
0.0
  0
LINE
  5
2DA
102
{ACAD_REACTORS
330
7E9
102
}
330
1F
100
AcDbEntity
  8
実線
100
AcDbLine
 10
355.5160063875582
 20
49.4665967385778
 30
0.0
 11
385.24360954003
 21
49.4665967385778
 31
0.0
  0
LINE
  5
2DB
102
{ACAD_REACTORS
330
7E9
102
}
330
1F
100
AcDbEntity
  8
実線
100
AcDbLine
 10
385.24360954003
 20
87.56659673857781
 30
0.0
 11
385.24360954003
 21
49.4665967385778
 31
0.0
  0
LINE
  5
2DC
102
{ACAD_REACTORS
330
7E9
102
}
330
1F
100
AcDbEntity
  8
実線
100
AcDbLine
 10
385.24360954003
 20
49.4665967385778
 30
0.0
 11
387.59360954003
 21
43.26659673857782
 31
0.0
  0
LINE
  5
2DD
102
{ACAD_REACTORS
330
7E9
102
}
330
1F
100
AcDbEntity
  8
実線
100
AcDbLine
 10
387.59360954003
 20
93.76659673857785
 30
0.0
 11
385.24360954003
 21
87.56659673857781
 31
0.0
  0
LINE
  5
2DE
102
{ACAD_REACTORS
330
7E9
102
}
330
1F
100
AcDbEntity
  8
実線
100
AcDbLine
 10
390.34360954003
 20
93.76659673857785
 30
0.0
 11
390.34360954003
 21
43.2665967385779
 31
0.0
  0
LINE
  5
2DF
102
{ACAD_REACTORS
330
7E9
102
}
330
1F
100
AcDbEntity
  8
実線
100
AcDbLine
 10
387.59360954003
 20
93.76659673857785
 30
0.0
 11
387.59360954003
 21
43.2665967385779
 31
0.0
  0
LINE
  5
2E0
102
{ACAD_REACTORS
330
7E9
102
}
330
1F
100
AcDbEntity
  8
実線
100
AcDbLine
 10
390.34360954003
 20
93.76659673857785
 30
0.0
 11
387.59360954003
 21
93.76659673857785
 31
0.0
  0
LINE
  5
2E1
102
{ACAD_REACTORS
330
7E9
102
}
330
1F
100
AcDbEntity
  8
実線
100
AcDbLine
 10
387.59360954003
 20
43.2665967385779
 30
0.0
 11
390.34360954003
 21
43.2665967385779
 31
0.0
  0
LINE
  5
2E2
102
{ACAD_REACTORS
330
7E9
102
}
330
1F
100
AcDbEntity
  8
実線
100
AcDbLine
 10
283.9220590493112
 20
87.56659673857781
 30
0.0
 11
274.8132234168342
 21
100.5753621908413
 31
0.0
  0
LINE
  5
2E3
102
{ACAD_REACTORS
330
7E9
102
}
330
1F
100
AcDbEntity
  8
実線
100
AcDbLine
 10
288.2848440877664
 20
114.0469828617736
 30
0.0
 11
302.3147127296057
 21
104.2231630786655
 31
0.0
  0
ARC
  5
2E4
102
{ACAD_REACTORS
330
7E9
102
}
330
1F
100
AcDbEntity
  8
実線
100
AcDbCircle
 10
281.3664397711461
 20
105.1639736816499
 30
0.0
 40
7.999999999999996
100
AcDbArc
 50
136.7645737428866
 51
214.9999999999987
  0
ARC
  5
2E5
102
{ACAD_REACTORS
330
7E9
102
}
330
1F
100
AcDbEntity
  8
実線
100
AcDbCircle
 10
320.3436095400301
 20
68.51659673857785
 30
0.0
 40
61.50000000000008
100
AcDbArc
 50
133.2354262571168
 51
136.7645737428866
  0
ARC
  5
2E6
102
{ACAD_REACTORS
330
7E9
102
}
330
1F
100
AcDbEntity
  8
実線
100
AcDbCircle
 10
283.696232596958
 20
107.4937665074617
 30
0.0
 40
8.000000000000021
100
AcDbArc
 50
55.00000000000264
 51
133.2354262571168
  0
ARC
  5
2E7
102
{ACAD_REACTORS
330
7E9
102
}
330
1F
100
AcDbEntity
  8
実線
100
AcDbCircle
 10
283.696232596958
 20
29.53942696969398
 30
0.0
 40
8.000000000000008
100
AcDbArc
 50
226.7645737428901
 51
304.9999999999974
  0
ARC
  5
2E8
102
{ACAD_REACTORS
330
7E9
102
}
330
1F
100
AcDbEntity
  8
実線
100
AcDbCircle
 10
320.3436095400309
 20
68.51659673857864
 30
0.0
 40
61.50000000000114
100
AcDbArc
 50
223.2354262571134
 51
226.7645737428832
  0
LINE
  5
2E9
102
{ACAD_REACTORS
330
7E9
102
}
330
1F
100
AcDbEntity
  8
実線
100
AcDbLine
 10
302.3147127296057
 20
32.8100303984902
 30
0.0
 11
288.2848440877664
 21
22.98621061538205
 31
0.0
  0
ARC
  5
2EA
102
{ACAD_REACTORS
330
7E9
102
}
330
1F
100
AcDbEntity
  8
実線
100
AcDbCircle
 10
281.3664397711461
 20
31.8692197955059
 30
0.0
 40
8.000000000000008
100
AcDbArc
 50
145.0000000000013
 51
223.2354262571134
  0
LINE
  5
2EB
102
{ACAD_REACTORS
330
7E9
102
}
330
1F
100
AcDbEntity
  8
実線
100
AcDbLine
 10
274.8132234168342
 20
36.45783128631427
 30
0.0
 11
283.9220590493112
 21
49.4665967385778
 31
0.0
  0
LINE
  5
2EC
102
{ACAD_REACTORS
330
7E9
102
}
330
1F
100
AcDbEntity
  8
実線
100
AcDbLine
 10
352.4023749922936
 20
22.98621061538205
 30
0.0
 11
338.372506350454
 21
32.8100303984902
 31
0.0
  0
ARC
  5
2ED
102
{ACAD_REACTORS
330
7E9
102
}
330
1F
100
AcDbEntity
  8
実線
100
AcDbCircle
 10
356.990986483102
 20
29.53942696969398
 30
0.0
 40
8.000000000000008
100
AcDbArc
 50
235.0000000000026
 51
313.2354262571098
  0
ARC
  5
2EE
102
{ACAD_REACTORS
330
7E9
102
}
330
1F
100
AcDbEntity
  8
実線
100
AcDbCircle
 10
320.3436095400301
 20
68.51659673857795
 30
0.0
 40
61.50000000000009
100
AcDbArc
 50
313.2354262571098
 51
316.7645737428866
  0
ARC
  5
2EF
102
{ACAD_REACTORS
330
7E9
102
}
330
1F
100
AcDbEntity
  8
実線
100
AcDbCircle
 10
359.3207793089137
 20
31.86921979550584
 30
0.0
 40
7.999999999999995
100
AcDbArc
 50
316.7645737428866
 51
34.9999999999987
  0
LINE
  5
2F0
102
{ACAD_REACTORS
330
7E9
102
}
330
1F
100
AcDbEntity
  8
実線
100
AcDbLine
 10
356.7651600307486
 20
49.4665967385778
 30
0.0
 11
365.873995663226
 21
36.45783128631422
 31
0.0
  0
LINE
  5
2F1
102
{ACAD_REACTORS
330
7E9
102
}
330
1F
100
AcDbEntity
  8
実線
100
AcDbLine
 10
365.873995663226
 20
100.5753621908414
 30
0.0
 11
356.7651600307486
 21
87.56659673857781
 31
0.0
  0
ARC
  5
2F2
102
{ACAD_REACTORS
330
7E9
102
}
330
1F
100
AcDbEntity
  8
実線
100
AcDbCircle
 10
359.3207793089137
 20
105.1639736816499
 30
0.0
 40
8.000000000000023
100
AcDbArc
 50
325.0000000000013
 51
43.23542625711335
  0
ARC
  5
2F3
102
{ACAD_REACTORS
330
7E9
102
}
330
1F
100
AcDbEntity
  8
実線
100
AcDbCircle
 10
320.3436095400307
 20
68.51659673857864
 30
0.0
 40
61.49999999999885
100
AcDbArc
 50
43.23542625711335
 51
46.76457374289014
  0
ARC
  5
2F4
102
{ACAD_REACTORS
330
7E9
102
}
330
1F
100
AcDbEntity
  8
実線
100
AcDbCircle
 10
356.990986483102
 20
107.4937665074617
 30
0.0
 40
7.999999999999986
100
AcDbArc
 50
46.76457374289014
 51
124.9999999999974
  0
LINE
  5
2F5
102
{ACAD_REACTORS
330
7E9
102
}
330
1F
100
AcDbEntity
  8
実線
100
AcDbLine
 10
338.372506350454
 20
104.2231630786655
 30
0.0
 11
352.4023749922936
 21
114.0469828617736
 31
0.0
  0
ARC
  5
2F6
102
{ACAD_REACTORS
330
7E9
102
}
330
1F
100
AcDbEntity
  8
実線
100
AcDbCircle
 10
320.34360954003
 20
68.51659673857785
 30
0.0
 40
40.0
100
AcDbArc
 50
204.1042497819163
 51
335.8957502180837
  0
ARC
  5
2F7
102
{ACAD_REACTORS
330
7E9
102
}
330
1F
100
AcDbEntity
  8
実線
100
AcDbCircle
 10
320.34360954003
 20
68.51659673857785
 30
0.0
 40
40.0
100
AcDbArc
 50
24.10424978191627
 51
155.8957502180837
  0
LINE
  5
2F8
102
{ACAD_REACTORS
330
7E4
102
}
330
1F
100
AcDbEntity
  8
実線
100
AcDbLine
 10
787.8436095400293
 20
484.9165967385779
 30
0.0
 11
812.8436095400292
 21
484.9165967385779
 31
0.0
  0
LINE
  5
2F9
102
{ACAD_REACTORS
330
7E4
102
}
330
1F
100
AcDbEntity
  8
実線
100
AcDbLine
 10
812.8436095400292
 20
479.9165967385778
 30
0.0
 11
812.8436095400292
 21
484.9165967385779
 31
0.0
  0
LINE
  5
2FA
102
{ACAD_REACTORS
330
7E4
102
}
330
1F
100
AcDbEntity
  8
実線
100
AcDbLine
 10
787.8436095400293
 20
484.9165967385779
 30
0.0
 11
787.8436095400293
 21
479.9165967385778
 31
0.0
  0
LINE
  5
2FB
102
{ACAD_REACTORS
330
7E4
102
}
330
1F
100
AcDbEntity
  8
実線
100
AcDbLine
 10
812.8436095400292
 20
479.9165967385778
 30
0.0
 11
787.8436095400293
 21
479.9165967385778
 31
0.0
  0
LINE
  5
2FC
102
{ACAD_REACTORS
330
7E4
102
}
330
1F
100
AcDbEntity
  8
実線
100
AcDbLine
 10
806.3436095400293
 20
289.916596738578
 30
0.0
 11
806.3436095400293
 21
316.9165967385777
 31
0.0
  0
LINE
  5
2FD
102
{ACAD_REACTORS
330
7E4
102
}
330
1F
100
AcDbEntity
  8
実線
100
AcDbLine
 10
794.3436095400293
 20
316.9165967385777
 30
0.0
 11
794.3436095400293
 21
289.916596738578
 31
0.0
  0
LINE
  5
2FE
102
{ACAD_REACTORS
330
7E4
102
}
330
1F
100
AcDbEntity
  8
実線
100
AcDbLine
 10
750.3436095400293
 20
436.4165967385779
 30
0.0
 11
850.3436095400292
 21
436.4165967385779
 31
0.0
  0
LINE
  5
2FF
102
{ACAD_REACTORS
330
7E4
102
}
330
1F
100
AcDbEntity
  8
実線
100
AcDbLine
 10
850.3436095400292
 20
360.4165967385779
 30
0.0
 11
850.3436095400292
 21
436.4165967385779
 31
0.0
  0
LINE
  5
300
102
{ACAD_REACTORS
330
7E4
102
}
330
1F
100
AcDbEntity
  8
実線
100
AcDbLine
 10
750.3436095400293
 20
436.4165967385779
 30
0.0
 11
750.3436095400293
 21
360.4165967385779
 31
0.0
  0
LINE
  5
301
102
{ACAD_REACTORS
330
7E4
102
}
330
1F
100
AcDbEntity
  8
実線
100
AcDbLine
 10
750.3436095400293
 20
360.4165967385779
 30
0.0
 11
850.3436095400292
 21
360.4165967385779
 31
0.0
  0
LINE
  5
302
102
{ACAD_REACTORS
330
7E4
102
}
330
1F
100
AcDbEntity
  8
実線
100
AcDbLine
 10
765.3436095400293
 20
451.4165967385779
 30
0.0
 11
835.3436095400294
 21
451.4165967385779
 31
0.0
  0
LINE
  5
303
102
{ACAD_REACTORS
330
7E4
102
}
330
1F
100
AcDbEntity
  8
実線
100
AcDbLine
 10
835.3436095400294
 20
440.9165967385779
 30
0.0
 11
835.3436095400294
 21
451.4165967385779
 31
0.0
  0
LINE
  5
304
102
{ACAD_REACTORS
330
7E4
102
}
330
1F
100
AcDbEntity
  8
実線
100
AcDbLine
 10
765.3436095400293
 20
451.4165967385779
 30
0.0
 11
765.3436095400293
 21
440.9165967385779
 31
0.0
  0
LINE
  5
305
102
{ACAD_REACTORS
330
7E4
102
}
330
1F
100
AcDbEntity
  8
実線
100
AcDbLine
 10
806.3436095400293
 20
458.4165967385778
 30
0.0
 11
806.3436095400293
 21
479.9165967385778
 31
0.0
  0
LINE
  5
306
102
{ACAD_REACTORS
330
7E4
102
}
330
1F
100
AcDbEntity
  8
実線
100
AcDbLine
 10
794.3436095400293
 20
479.9165967385778
 30
0.0
 11
794.3436095400293
 21
458.4165967385778
 31
0.0
  0
LINE
  5
307
102
{ACAD_REACTORS
330
7E4
102
}
330
1F
100
AcDbEntity
  8
実線
100
AcDbLine
 10
775.3436095400293
 20
456.4165967385779
 30
0.0
 11
825.3436095400292
 21
456.4165967385779
 31
0.0
  0
LINE
  5
308
102
{ACAD_REACTORS
330
7E4
102
}
330
1F
100
AcDbEntity
  8
実線
100
AcDbLine
 10
825.3436095400292
 20
451.4165967385779
 30
0.0
 11
825.3436095400292
 21
456.4165967385779
 31
0.0
  0
LINE
  5
309
102
{ACAD_REACTORS
330
7E4
102
}
330
1F
100
AcDbEntity
  8
実線
100
AcDbLine
 10
775.3436095400293
 20
456.4165967385779
 30
0.0
 11
775.3436095400293
 21
451.4165967385779
 31
0.0
  0
LINE
  5
30A
102
{ACAD_REACTORS
330
7E4
102
}
330
1F
100
AcDbEntity
  8
実線
100
AcDbLine
 10
792.8436095400293
 20
490.2165967385777
 30
0.0
 11
807.8436095400293
 21
490.2165967385777
 31
0.0
  0
LINE
  5
30B
102
{ACAD_REACTORS
330
7E4
102
}
330
1F
100
AcDbEntity
  8
実線
100
AcDbLine
 10
807.8436095400293
 20
484.9165967385779
 30
0.0
 11
807.8436095400293
 21
490.2165967385777
 31
0.0
  0
LINE
  5
30C
102
{ACAD_REACTORS
330
7E4
102
}
330
1F
100
AcDbEntity
  8
実線
100
AcDbLine
 10
792.8436095400293
 20
490.2165967385777
 30
0.0
 11
792.8436095400293
 21
484.9165967385779
 31
0.0
  0
LINE
  5
30D
102
{ACAD_REACTORS
330
7E4
102
}
330
1F
100
AcDbEntity
  8
実線
100
AcDbLine
 10
792.8436095400293
 20
486.3665967385777
 30
0.0
 11
780.3436095400293
 21
486.3665967385777
 31
0.0
  0
LINE
  5
30E
102
{ACAD_REACTORS
330
7E4
102
}
330
1F
100
AcDbEntity
  8
実線
100
AcDbLine
 10
780.3436095400293
 20
486.3665967385777
 30
0.0
 11
780.3436095400293
 21
478.4665967385778
 31
0.0
  0
LINE
  5
30F
102
{ACAD_REACTORS
330
7E4
102
}
330
1F
100
AcDbEntity
  8
実線
100
AcDbLine
 10
794.3436095400293
 20
478.4665967385778
 30
0.0
 11
780.3436095400293
 21
478.4665967385778
 31
0.0
  0
LINE
  5
310
102
{ACAD_REACTORS
330
7E4
102
}
330
1F
100
AcDbEntity
  8
実線
100
AcDbLine
 10
780.3436095400293
 20
472.4165967385779
 30
0.0
 11
773.8436095400293
 21
472.4165967385779
 31
0.0
  0
LINE
  5
311
102
{ACAD_REACTORS
330
7E4
102
}
330
1F
100
AcDbEntity
  8
実線
100
AcDbLine
 10
773.8436095400293
 20
469.4165967385779
 30
0.0
 11
780.3436095400293
 21
469.4165967385779
 31
0.0
  0
LINE
  5
312
102
{ACAD_REACTORS
330
7E4
102
}
330
1F
100
AcDbEntity
  8
実線
100
AcDbLine
 10
773.8436095400293
 20
472.4165967385779
 30
0.0
 11
773.8436095400293
 21
469.4165967385779
 31
0.0
  0
LINE
  5
313
102
{ACAD_REACTORS
330
7E4
102
}
330
1F
100
AcDbEntity
  8
実線
100
AcDbLine
 10
819.3936095400301
 20
216.6165967385779
 30
0.0
 11
819.3936095400301
 21
225.7165967385778
 31
0.0
  0
LINE
  5
314
102
{ACAD_REACTORS
330
7E4
102
}
330
1F
100
AcDbEntity
  8
実線
100
AcDbLine
 10
781.2936095400293
 20
225.7165967385778
 30
0.0
 11
781.2936095400293
 21
216.6165967385779
 31
0.0
  0
LINE
  5
315
102
{ACAD_REACTORS
330
7E4
102
}
330
1F
100
AcDbEntity
  8
実線
100
AcDbLine
 10
781.2936095400293
 20
216.6165967385779
 30
0.0
 11
819.3936095400301
 21
216.6165967385779
 31
0.0
  0
LINE
  5
316
102
{ACAD_REACTORS
330
7E4
102
}
330
1F
100
AcDbEntity
  8
実線
100
AcDbLine
 10
781.2936095400293
 20
216.6165967385779
 30
0.0
 11
775.0936095400293
 21
214.2665967385779
 31
0.0
  0
LINE
  5
317
102
{ACAD_REACTORS
330
7E4
102
}
330
1F
100
AcDbEntity
  8
実線
100
AcDbLine
 10
825.5936095400302
 20
214.2665967385779
 30
0.0
 11
819.3936095400301
 21
216.6165967385779
 31
0.0
  0
LINE
  5
318
102
{ACAD_REACTORS
330
7E4
102
}
330
1F
100
AcDbEntity
  8
実線
100
AcDbLine
 10
775.0936095400293
 20
211.5165967385778
 30
0.0
 11
825.5936095400294
 21
211.5165967385778
 31
0.0
  0
LINE
  5
319
102
{ACAD_REACTORS
330
7E4
102
}
330
1F
100
AcDbEntity
  8
実線
100
AcDbLine
 10
775.0936095400293
 20
214.2665967385779
 30
0.0
 11
825.5936095400294
 21
214.2665967385779
 31
0.0
  0
LINE
  5
31A
102
{ACAD_REACTORS
330
7E4
102
}
330
1F
100
AcDbEntity
  8
実線
100
AcDbLine
 10
825.5936095400302
 20
211.5165967385778
 30
0.0
 11
825.5936095400302
 21
214.2665967385779
 31
0.0
  0
LINE
  5
31B
102
{ACAD_REACTORS
330
7E4
102
}
330
1F
100
AcDbEntity
  8
実線
100
AcDbLine
 10
775.0936095400293
 20
214.2665967385779
 30
0.0
 11
775.0936095400293
 21
211.5165967385778
 31
0.0
  0
LINE
  5
31C
102
{ACAD_REACTORS
330
7E4
102
}
330
1F
100
AcDbEntity
  8
実線
100
AcDbLine
 10
865.2436095400302
 20
267.5665967385778
 30
0.0
 11
847.3207793089132
 21
267.5665967385778
 31
0.0
  0
LINE
  5
31D
102
{ACAD_REACTORS
330
7E4
102
}
330
1F
100
AcDbEntity
  8
実線
100
AcDbLine
 10
836.4780224932522
 20
229.466596738578
 30
0.0
 11
865.2436095400302
 21
229.466596738578
 31
0.0
  0
LINE
  5
31E
102
{ACAD_REACTORS
330
7E4
102
}
330
1F
100
AcDbEntity
  8
実線
100
AcDbLine
 10
865.2436095400302
 20
229.466596738578
 30
0.0
 11
865.2436095400302
 21
267.5665967385778
 31
0.0
  0
LINE
  5
31F
102
{ACAD_REACTORS
330
7E4
102
}
330
1F
100
AcDbEntity
  8
実線
100
AcDbLine
 10
865.2436095400302
 20
229.466596738578
 30
0.0
 11
867.5936095400302
 21
223.2665967385779
 31
0.0
  0
LINE
  5
320
102
{ACAD_REACTORS
330
7E4
102
}
330
1F
100
AcDbEntity
  8
実線
100
AcDbLine
 10
867.5936095400302
 20
273.7665967385779
 30
0.0
 11
865.2436095400302
 21
267.5665967385778
 31
0.0
  0
LINE
  5
321
102
{ACAD_REACTORS
330
7E4
102
}
330
1F
100
AcDbEntity
  8
実線
100
AcDbLine
 10
870.3436095400302
 20
223.2665967385779
 30
0.0
 11
870.3436095400302
 21
273.7665967385779
 31
0.0
  0
LINE
  5
322
102
{ACAD_REACTORS
330
7E4
102
}
330
1F
100
AcDbEntity
  8
実線
100
AcDbLine
 10
867.5936095400302
 20
223.2665967385779
 30
0.0
 11
867.5936095400302
 21
273.7665967385779
 31
0.0
  0
LINE
  5
323
102
{ACAD_REACTORS
330
7E4
102
}
330
1F
100
AcDbEntity
  8
実線
100
AcDbLine
 10
870.3436095400302
 20
273.7665967385779
 30
0.0
 11
867.5936095400302
 21
273.7665967385779
 31
0.0
  0
LINE
  5
324
102
{ACAD_REACTORS
330
7E4
102
}
330
1F
100
AcDbEntity
  8
実線
100
AcDbLine
 10
867.5936095400302
 20
223.2665967385779
 30
0.0
 11
870.3436095400302
 21
223.2665967385779
 31
0.0
  0
LINE
  5
325
102
{ACAD_REACTORS
330
7E4
102
}
330
1F
100
AcDbEntity
  8
実線
100
AcDbLine
 10
735.4436095400292
 20
229.466596738578
 30
0.0
 11
764.2091965868074
 21
229.466596738578
 31
0.0
  0
LINE
  5
326
102
{ACAD_REACTORS
330
7E4
102
}
330
1F
100
AcDbEntity
  8
実線
100
AcDbLine
 10
753.3664397711463
 20
267.5665967385778
 30
0.0
 11
735.4436095400292
 21
267.5665967385778
 31
0.0
  0
LINE
  5
327
102
{ACAD_REACTORS
330
7E4
102
}
330
1F
100
AcDbEntity
  8
実線
100
AcDbLine
 10
735.4436095400292
 20
267.5665967385778
 30
0.0
 11
733.0936095400304
 21
273.7665967385779
 31
0.0
  0
LINE
  5
328
102
{ACAD_REACTORS
330
7E4
102
}
330
1F
100
AcDbEntity
  8
実線
100
AcDbLine
 10
733.0936095400304
 20
223.2665967385779
 30
0.0
 11
735.4436095400292
 21
229.466596738578
 31
0.0
  0
LINE
  5
329
102
{ACAD_REACTORS
330
7E4
102
}
330
1F
100
AcDbEntity
  8
実線
100
AcDbLine
 10
735.4436095400292
 20
267.5665967385778
 30
0.0
 11
735.4436095400292
 21
229.466596738578
 31
0.0
  0
LINE
  5
32A
102
{ACAD_REACTORS
330
7E4
102
}
330
1F
100
AcDbEntity
  8
実線
100
AcDbLine
 10
730.3436095400305
 20
223.2665967385779
 30
0.0
 11
733.0936095400304
 21
223.2665967385779
 31
0.0
  0
LINE
  5
32B
102
{ACAD_REACTORS
330
7E4
102
}
330
1F
100
AcDbEntity
  8
実線
100
AcDbLine
 10
733.0936095400304
 20
273.7665967385779
 30
0.0
 11
730.3436095400305
 21
273.7665967385779
 31
0.0
  0
LINE
  5
32C
102
{ACAD_REACTORS
330
7E4
102
}
330
1F
100
AcDbEntity
  8
実線
100
AcDbLine
 10
730.3436095400305
 20
223.2665967385779
 30
0.0
 11
730.3436095400305
 21
273.7665967385779
 31
0.0
  0
LINE
  5
32D
102
{ACAD_REACTORS
330
7E4
102
}
330
1F
100
AcDbEntity
  8
実線
100
AcDbLine
 10
733.0936095400304
 20
223.2665967385779
 30
0.0
 11
733.0936095400304
 21
273.7665967385779
 31
0.0
  0
LINE
  5
32E
102
{ACAD_REACTORS
330
7E4
102
}
330
1F
100
AcDbEntity
  8
実線
100
AcDbLine
 10
794.3436095400293
 20
474.8665967385777
 30
0.0
 11
780.3436095400293
 21
474.8665967385777
 31
0.0
  0
LINE
  5
32F
102
{ACAD_REACTORS
330
7E4
102
}
330
1F
100
AcDbEntity
  8
実線
100
AcDbLine
 10
780.3436095400293
 20
474.8665967385777
 30
0.0
 11
780.3436095400293
 21
466.9665967385777
 31
0.0
  0
LINE
  5
330
102
{ACAD_REACTORS
330
7E4
102
}
330
1F
100
AcDbEntity
  8
実線
100
AcDbLine
 10
794.3436095400293
 20
466.9665967385777
 30
0.0
 11
780.3436095400293
 21
466.9665967385777
 31
0.0
  0
LINE
  5
331
102
{ACAD_REACTORS
330
7E4
102
}
330
1F
100
AcDbEntity
  8
実線
100
AcDbLine
 10
780.3436095400293
 20
483.9165967385778
 30
0.0
 11
773.8436095400293
 21
483.9165967385778
 31
0.0
  0
LINE
  5
332
102
{ACAD_REACTORS
330
7E4
102
}
330
1F
100
AcDbEntity
  8
実線
100
AcDbLine
 10
773.8436095400293
 20
480.9165967385779
 30
0.0
 11
780.3436095400293
 21
480.9165967385779
 31
0.0
  0
LINE
  5
333
102
{ACAD_REACTORS
330
7E4
102
}
330
1F
100
AcDbEntity
  8
実線
100
AcDbLine
 10
773.8436095400293
 20
483.9165967385778
 30
0.0
 11
773.8436095400293
 21
480.9165967385779
 31
0.0
  0
LINE
  5
334
102
{ACAD_REACTORS
330
7E4
102
}
330
1F
100
AcDbEntity
  8
実線
100
AcDbLine
 10
850.3436095400292
 20
436.4165967385779
 30
0.0
 11
850.3436095400292
 21
437.9165967385778
 31
0.0
  0
LINE
  5
335
102
{ACAD_REACTORS
330
7E4
102
}
330
1F
100
AcDbEntity
  8
実線
100
AcDbLine
 10
750.3436095400293
 20
437.9165967385778
 30
0.0
 11
750.3436095400293
 21
436.4165967385779
 31
0.0
  0
LINE
  5
336
102
{ACAD_REACTORS
330
7E4
102
}
330
1F
100
AcDbEntity
  8
実線
100
AcDbLine
 10
847.3436095400293
 20
440.9165967385779
 30
0.0
 11
753.3436095400293
 21
440.9165967385779
 31
0.0
  0
ARC
  5
337
102
{ACAD_REACTORS
330
7E4
102
}
330
1F
100
AcDbEntity
  8
実線
100
AcDbCircle
 10
847.3436095400293
 20
437.9165967385778
 30
0.0
 40
3.0
100
AcDbArc
 50
0.0
 51
90.0
  0
ARC
  5
338
102
{ACAD_REACTORS
330
7E4
102
}
330
1F
100
AcDbEntity
  8
実線
100
AcDbCircle
 10
753.3436095400293
 20
437.9165967385778
 30
0.0
 40
3.0
100
AcDbArc
 50
90.0
 51
180.0
  0
LINE
  5
339
102
{ACAD_REACTORS
330
7E4
102
}
330
1F
100
AcDbEntity
  8
実線
100
AcDbLine
 10
753.3664397711454
 20
289.916596738578
 30
0.0
 11
847.3207793089132
 21
289.916596738578
 31
0.0
  0
LINE
  5
33A
102
{ACAD_REACTORS
330
7E4
102
}
330
1F
100
AcDbEntity
  8
実線
100
AcDbLine
 10
847.3207793089132
 20
276.4165967385779
 30
0.0
 11
847.3207793089132
 21
289.916596738578
 31
0.0
  0
LINE
  5
33B
102
{ACAD_REACTORS
330
7E4
102
}
330
1F
100
AcDbEntity
  8
実線
100
AcDbLine
 10
753.3664397711454
 20
289.916596738578
 30
0.0
 11
753.3664397711454
 21
276.4165967385779
 31
0.0
  0
LINE
  5
33C
102
{ACAD_REACTORS
330
7E4
102
}
330
1F
100
AcDbEntity
  8
実線
100
AcDbLine
 10
782.3147127296054
 20
289.916596738578
 30
0.0
 11
782.3147127296054
 21
276.4165967385779
 31
0.0
  0
LINE
  5
33D
102
{ACAD_REACTORS
330
7E4
102
}
330
1F
100
AcDbEntity
  8
実線
100
AcDbLine
 10
818.3725063504532
 20
289.916596738578
 30
0.0
 11
818.3725063504532
 21
276.4165967385779
 31
0.0
  0
LINE
  5
33E
102
{ACAD_REACTORS
330
7E4
102
}
330
1F
100
AcDbEntity
  8
実線
100
AcDbLine
 10
827.3436095400294
 20
225.7165967385778
 30
0.0
 11
773.3436095413082
 21
225.7165967385778
 31
0.0
  0
ARC
  5
33F
102
{ACAD_REACTORS
330
7E4
102
}
330
1F
100
AcDbEntity
  8
実線
100
AcDbCircle
 10
773.3436095400302
 20
238.7165967385777
 30
0.0
 40
13.0
100
AcDbArc
 50
225.3602270413955
 51
270.0
  0
ARC
  5
340
102
{ACAD_REACTORS
330
7E4
102
}
330
1F
100
AcDbEntity
  8
実線
100
AcDbCircle
 10
827.3436095400303
 20
238.7165967385777
 30
0.0
 40
13.0
100
AcDbArc
 50
270.0
 51
314.6397729586045
  0
LINE
  5
341
102
{ACAD_REACTORS
330
7E4
102
}
330
1F
100
AcDbEntity
  8
実線
100
AcDbLine
 10
753.3664397711463
 20
276.4165967385779
 30
0.0
 11
847.3207793089132
 21
276.4165967385779
 31
0.0
  0
LINE
  5
342
102
{ACAD_REACTORS
330
7E4
102
}
330
1F
100
AcDbEntity
  8
実線
100
AcDbLine
 10
847.3207793089132
 20
266.4165967385778
 30
0.0
 11
818.3725063504532
 21
266.4165967385778
 31
0.0
  0
LINE
  5
343
102
{ACAD_REACTORS
330
7E4
102
}
330
1F
100
AcDbEntity
  8
実線
100
AcDbLine
 10
847.3207793089132
 20
266.4165967385778
 30
0.0
 11
847.3207793089132
 21
276.4165967385779
 31
0.0
  0
LINE
  5
344
102
{ACAD_REACTORS
330
7E4
102
}
330
1F
100
AcDbEntity
  8
実線
100
AcDbLine
 10
753.3664397711463
 20
276.4165967385779
 30
0.0
 11
753.3664397711463
 21
266.4165967385778
 31
0.0
  0
LINE
  5
345
102
{ACAD_REACTORS
330
7E4
102
}
330
1F
100
AcDbEntity
  8
実線
100
AcDbLine
 10
753.3664397711463
 20
266.4165967385778
 30
0.0
 11
782.3147127296063
 21
266.4165967385778
 31
0.0
  0
LINE
  5
346
102
{ACAD_REACTORS
330
7E4
102
}
330
1F
100
AcDbEntity
  8
実線
100
AcDbLine
 10
782.3147127296063
 20
276.4165967385779
 30
0.0
 11
782.3147127296063
 21
266.4165967385778
 31
0.0
  0
LINE
  5
347
102
{ACAD_REACTORS
330
7E4
102
}
330
1F
100
AcDbEntity
  8
実線
100
AcDbLine
 10
818.3725063504532
 20
276.4165967385779
 30
0.0
 11
818.3725063504532
 21
266.4165967385778
 31
0.0
  0
LINE
  5
348
102
{ACAD_REACTORS
330
7E4
102
}
330
1F
100
AcDbEntity
  8
実線
100
AcDbLine
 10
785.3436095400293
 20
486.3665967385777
 30
0.0
 11
785.3436095400293
 21
487.4165967385778
 31
0.0
  0
LINE
  5
349
102
{ACAD_REACTORS
330
7E4
102
}
330
1F
100
AcDbEntity
  8
実線
100
AcDbLine
 10
785.3436095400293
 20
474.8665967385777
 30
0.0
 11
785.3436095400293
 21
478.4665967385778
 31
0.0
  0
LINE
  5
34A
102
{ACAD_REACTORS
330
7E4
102
}
330
1F
100
AcDbEntity
  8
実線
100
AcDbLine
 10
785.3436095400293
 20
458.4165967385306
 30
0.0
 11
785.3436095400293
 21
466.9665967385777
 31
0.0
  0
LINE
  5
34B
102
{ACAD_REACTORS
330
7E4
102
}
330
1F
100
AcDbEntity
  8
実線
100
AcDbLine
 10
792.8436095400293
 20
487.4165967385778
 30
0.0
 11
785.3436095400293
 21
487.4165967385778
 31
0.0
  0
LINE
  5
34C
102
{ACAD_REACTORS
330
7E4
102
}
330
1F
100
AcDbEntity
  8
実線
100
AcDbLine
 10
825.3436095400292
 20
456.4165967385779
 30
0.0
 11
825.3436095400292
 21
458.4165967385778
 31
0.0
  0
LINE
  5
34D
102
{ACAD_REACTORS
330
7E4
102
}
330
1F
100
AcDbEntity
  8
実線
100
AcDbLine
 10
775.3436095400293
 20
458.4165967385778
 30
0.0
 11
775.3436095400293
 21
456.4165967385779
 31
0.0
  0
LINE
  5
34E
102
{ACAD_REACTORS
330
7E4
102
}
330
1F
100
AcDbEntity
  8
実線
100
AcDbLine
 10
825.3436095400292
 20
458.4165967385778
 30
0.0
 11
775.3436095400293
 21
458.4165967385778
 31
0.0
  0
ARC
  5
34F
102
{ACAD_REACTORS
330
7E4
102
}
330
1F
100
AcDbEntity
  8
実線
100
AcDbCircle
 10
776.6436095400292
 20
330.916596738578
 30
0.0
 40
57.99999999999997
100
AcDbArc
 50
315.0170320400987
 51
346.0320373253477
  0
LINE
  5
350
102
{ACAD_REACTORS
330
7E4
102
}
330
1F
100
AcDbEntity
  8
実線
100
AcDbLine
 10
844.6436095400292
 20
360.4165967385779
 30
0.0
 11
844.6436095400292
 21
330.916596738578
 31
0.0
  0
ARC
  5
351
102
{ACAD_REACTORS
330
7E4
102
}
330
1F
100
AcDbEntity
  8
実線
100
AcDbCircle
 10
774.6436095400293
 20
330.916596738578
 30
0.0
 40
70.00000000000003
100
AcDbArc
 50
324.146532936536
 51
0.0
  0
LINE
  5
352
102
{ACAD_REACTORS
330
7E4
102
}
330
1F
100
AcDbEntity
  8
実線
100
AcDbLine
 10
756.0436095400294
 20
360.4165967385779
 30
0.0
 11
756.0436095400294
 21
330.916596738578
 31
0.0
  0
ARC
  5
353
102
{ACAD_REACTORS
330
7E4
102
}
330
1F
100
AcDbEntity
  8
実線
100
AcDbCircle
 10
826.0436095400294
 20
330.916596738578
 30
0.0
 40
70.00000000000003
100
AcDbArc
 50
180.0
 51
215.8534670634641
  0
ARC
  5
354
102
{ACAD_REACTORS
330
7E4
102
}
330
1F
100
AcDbEntity
  8
実線
100
AcDbCircle
 10
824.0436095400294
 20
330.916596738578
 30
0.0
 40
57.99999999999997
100
AcDbArc
 50
193.9679626746523
 51
224.9829679599013
  0
LINE
  5
355
102
{ACAD_REACTORS
330
7E4
102
}
330
1F
100
AcDbEntity
  8
実線
100
AcDbLine
 10
838.7289908719893
 20
360.4165967385779
 30
0.0
 11
838.7289908719893
 21
316.9165967385777
 31
0.0
  0
LINE
  5
356
102
{ACAD_REACTORS
330
7E4
102
}
330
1F
100
AcDbEntity
  8
実線
100
AcDbLine
 10
761.9582282080694
 20
360.4165967385779
 30
0.0
 11
761.9582282080694
 21
316.9165967385777
 31
0.0
  0
LINE
  5
357
102
{ACAD_REACTORS
330
7E4
102
}
330
1F
100
AcDbEntity
  8
実線
100
AcDbLine
 10
761.9582282080694
 20
316.9165967385777
 30
0.0
 11
838.7289908719893
 21
316.9165967385777
 31
0.0
  0
LINE
  5
358
102
{ACAD_REACTORS
330
7E7
102
}
330
1F
100
AcDbEntity
  8
実線
100
AcDbLine
 10
92.84360954003103
 20
479.9165967385778
 30
0.0
 11
92.84360954003103
 21
484.9165967385779
 31
0.0
  0
LINE
  5
359
102
{ACAD_REACTORS
330
7E7
102
}
330
1F
100
AcDbEntity
  8
実線
100
AcDbLine
 10
67.84360954003102
 20
484.9165967385779
 30
0.0
 11
67.84360954003102
 21
479.9165967385778
 31
0.0
  0
LINE
  5
35A
102
{ACAD_REACTORS
330
7E7
102
}
330
1F
100
AcDbEntity
  8
実線
100
AcDbLine
 10
92.84360954003103
 20
484.9165967385779
 30
0.0
 11
67.84360954003102
 21
484.9165967385779
 31
0.0
  0
LINE
  5
35B
102
{ACAD_REACTORS
330
7E7
102
}
330
1F
100
AcDbEntity
  8
実線
100
AcDbLine
 10
67.84360954003102
 20
479.9165967385778
 30
0.0
 11
92.84360954003103
 21
479.9165967385778
 31
0.0
  0
LINE
  5
35C
102
{ACAD_REACTORS
330
7E7
102
}
330
1F
100
AcDbEntity
  8
実線
100
AcDbLine
 10
130.3436095400309
 20
360.4165967385779
 30
0.0
 11
130.3436095400309
 21
436.4165967385779
 31
0.0
  0
LINE
  5
35D
102
{ACAD_REACTORS
330
7E7
102
}
330
1F
100
AcDbEntity
  8
実線
100
AcDbLine
 10
30.34360954003103
 20
436.4165967385779
 30
0.0
 11
30.34360954003103
 21
360.4165967385779
 31
0.0
  0
LINE
  5
35E
102
{ACAD_REACTORS
330
7E7
102
}
330
1F
100
AcDbEntity
  8
実線
100
AcDbLine
 10
130.3436095400309
 20
436.4165967385779
 30
0.0
 11
30.34360954003103
 21
436.4165967385779
 31
0.0
  0
LINE
  5
35F
102
{ACAD_REACTORS
330
7E7
102
}
330
1F
100
AcDbEntity
  8
実線
100
AcDbLine
 10
30.34360954003103
 20
360.4165967385779
 30
0.0
 11
130.3436095400309
 21
360.4165967385779
 31
0.0
  0
LINE
  5
360
102
{ACAD_REACTORS
330
7E7
102
}
330
1F
100
AcDbEntity
  8
実線
100
AcDbLine
 10
115.343609540031
 20
440.9165967385779
 30
0.0
 11
115.343609540031
 21
451.4165967385779
 31
0.0
  0
LINE
  5
361
102
{ACAD_REACTORS
330
7E7
102
}
330
1F
100
AcDbEntity
  8
実線
100
AcDbLine
 10
45.34360954003102
 20
451.4165967385779
 30
0.0
 11
45.34360954003102
 21
440.9165967385779
 31
0.0
  0
LINE
  5
362
102
{ACAD_REACTORS
330
7E7
102
}
330
1F
100
AcDbEntity
  8
実線
100
AcDbLine
 10
115.343609540031
 20
451.4165967385779
 30
0.0
 11
45.34360954003102
 21
451.4165967385779
 31
0.0
  0
LINE
  5
363
102
{ACAD_REACTORS
330
7E7
102
}
330
1F
100
AcDbEntity
  8
実線
100
AcDbLine
 10
86.34360954003103
 20
458.4165967385778
 30
0.0
 11
86.34360954003103
 21
479.9165967385778
 31
0.0
  0
LINE
  5
364
102
{ACAD_REACTORS
330
7E7
102
}
330
1F
100
AcDbEntity
  8
実線
100
AcDbLine
 10
74.34360954003103
 20
479.9165967385778
 30
0.0
 11
74.34360954003103
 21
458.4165967385778
 31
0.0
  0
LINE
  5
365
102
{ACAD_REACTORS
330
7E7
102
}
330
1F
100
AcDbEntity
  8
実線
100
AcDbLine
 10
105.343609540031
 20
451.4165967385779
 30
0.0
 11
105.343609540031
 21
456.4165967385779
 31
0.0
  0
LINE
  5
366
102
{ACAD_REACTORS
330
7E7
102
}
330
1F
100
AcDbEntity
  8
実線
100
AcDbLine
 10
55.34360954003102
 20
456.4165967385779
 30
0.0
 11
55.34360954003102
 21
451.4165967385779
 31
0.0
  0
LINE
  5
367
102
{ACAD_REACTORS
330
7E7
102
}
330
1F
100
AcDbEntity
  8
実線
100
AcDbLine
 10
55.34360954003102
 20
456.4165967385779
 30
0.0
 11
105.343609540031
 21
456.4165967385779
 31
0.0
  0
LINE
  5
368
102
{ACAD_REACTORS
330
7E7
102
}
330
1F
100
AcDbEntity
  8
実線
100
AcDbLine
 10
87.84360954003103
 20
484.9165967385779
 30
0.0
 11
87.84360954003103
 21
490.2165967385777
 31
0.0
  0
LINE
  5
369
102
{ACAD_REACTORS
330
7E7
102
}
330
1F
100
AcDbEntity
  8
実線
100
AcDbLine
 10
72.84360954003102
 20
490.2165967385777
 30
0.0
 11
72.84360954003102
 21
484.9165967385779
 31
0.0
  0
LINE
  5
36A
102
{ACAD_REACTORS
330
7E7
102
}
330
1F
100
AcDbEntity
  8
実線
100
AcDbLine
 10
87.84360954003103
 20
490.2165967385777
 30
0.0
 11
72.84360954003102
 21
490.2165967385777
 31
0.0
  0
LINE
  5
36B
102
{ACAD_REACTORS
330
7E7
102
}
330
1F
100
AcDbEntity
  8
実線
100
AcDbLine
 10
93.44360954003105
 20
486.3665967385777
 30
0.0
 11
101.343609540031
 21
486.3665967385777
 31
0.0
  0
LINE
  5
36C
102
{ACAD_REACTORS
330
7E7
102
}
330
1F
100
AcDbEntity
  8
実線
100
AcDbLine
 10
93.44360954003105
 20
478.4665967385778
 30
0.0
 11
93.44360954003105
 21
486.3665967385777
 31
0.0
  0
LINE
  5
36D
102
{ACAD_REACTORS
330
7E7
102
}
330
1F
100
AcDbEntity
  8
実線
100
AcDbLine
 10
101.343609540031
 20
478.4665967385778
 30
0.0
 11
93.44360954003105
 21
478.4665967385778
 31
0.0
  0
LINE
  5
36E
102
{ACAD_REACTORS
330
7E7
102
}
330
1F
100
AcDbEntity
  8
実線
100
AcDbLine
 10
99.39360954003024
 20
216.6165967385779
 30
0.0
 11
99.39360954003024
 21
225.7165967385778
 31
0.0
  0
LINE
  5
36F
102
{ACAD_REACTORS
330
7E7
102
}
330
1F
100
AcDbEntity
  8
実線
100
AcDbLine
 10
61.29360954003027
 20
225.7165967385778
 30
0.0
 11
61.29360954003027
 21
216.6165967385779
 31
0.0
  0
LINE
  5
370
102
{ACAD_REACTORS
330
7E7
102
}
330
1F
100
AcDbEntity
  8
実線
100
AcDbLine
 10
61.29360954003027
 20
216.6165967385779
 30
0.0
 11
55.09360954003023
 21
214.2665967385779
 31
0.0
  0
LINE
  5
371
102
{ACAD_REACTORS
330
7E7
102
}
330
1F
100
AcDbEntity
  8
実線
100
AcDbLine
 10
105.5936095400302
 20
214.2665967385779
 30
0.0
 11
99.39360954003024
 21
216.6165967385779
 31
0.0
  0
LINE
  5
372
102
{ACAD_REACTORS
330
7E7
102
}
330
1F
100
AcDbEntity
  8
実線
100
AcDbLine
 10
61.29360954003027
 20
216.6165967385779
 30
0.0
 11
99.39360954003024
 21
216.6165967385779
 31
0.0
  0
LINE
  5
373
102
{ACAD_REACTORS
330
7E7
102
}
330
1F
100
AcDbEntity
  8
実線
100
AcDbLine
 10
105.5936095400302
 20
211.5165967385778
 30
0.0
 11
105.5936095400302
 21
214.2665967385779
 31
0.0
  0
LINE
  5
374
102
{ACAD_REACTORS
330
7E7
102
}
330
1F
100
AcDbEntity
  8
実線
100
AcDbLine
 10
55.09360954003023
 20
214.2665967385779
 30
0.0
 11
55.09360954003023
 21
211.5165967385778
 31
0.0
  0
LINE
  5
375
102
{ACAD_REACTORS
330
7E7
102
}
330
1F
100
AcDbEntity
  8
実線
100
AcDbLine
 10
55.09360954003023
 20
211.5165967385778
 30
0.0
 11
105.5936095400302
 21
211.5165967385778
 31
0.0
  0
LINE
  5
376
102
{ACAD_REACTORS
330
7E7
102
}
330
1F
100
AcDbEntity
  8
実線
100
AcDbLine
 10
55.09360954003023
 20
214.2665967385779
 30
0.0
 11
105.5936095400302
 21
214.2665967385779
 31
0.0
  0
CIRCLE
  5
377
102
{ACAD_REACTORS
330
7E7
102
}
330
1F
100
AcDbEntity
  8
実線
100
AcDbCircle
 10
80.34360954003023
 20
248.5165967385778
 30
0.0
 40
25.25
  0
LINE
  5
378
102
{ACAD_REACTORS
330
7E7
102
}
330
1F
100
AcDbEntity
  8
実線
100
AcDbLine
 10
93.44360954003105
 20
474.8665967385777
 30
0.0
 11
101.343609540031
 21
474.8665967385777
 31
0.0
  0
LINE
  5
379
102
{ACAD_REACTORS
330
7E7
102
}
330
1F
100
AcDbEntity
  8
実線
100
AcDbLine
 10
93.44360954003105
 20
466.9665967385777
 30
0.0
 11
93.44360954003105
 21
474.8665967385777
 31
0.0
  0
LINE
  5
37A
102
{ACAD_REACTORS
330
7E7
102
}
330
1F
100
AcDbEntity
  8
実線
100
AcDbLine
 10
101.343609540031
 20
466.9665967385777
 30
0.0
 11
93.44360954003105
 21
466.9665967385777
 31
0.0
  0
LINE
  5
37B
102
{ACAD_REACTORS
330
7E7
102
}
330
1F
100
AcDbEntity
  8
実線
100
AcDbLine
 10
130.3436095400309
 20
436.4165967385779
 30
0.0
 11
130.3436095400309
 21
437.9165967385778
 31
0.0
  0
LINE
  5
37C
102
{ACAD_REACTORS
330
7E7
102
}
330
1F
100
AcDbEntity
  8
実線
100
AcDbLine
 10
30.34360954003103
 20
437.9165967385778
 30
0.0
 11
30.34360954003103
 21
436.4165967385779
 31
0.0
  0
LINE
  5
37D
102
{ACAD_REACTORS
330
7E7
102
}
330
1F
100
AcDbEntity
  8
実線
100
AcDbLine
 10
33.34360954003102
 20
440.9165967385779
 30
0.0
 11
127.3436095398663
 21
440.9165967385779
 31
0.0
  0
ARC
  5
37E
102
{ACAD_REACTORS
330
7E7
102
}
330
1F
100
AcDbEntity
  8
実線
100
AcDbCircle
 10
127.343609540031
 20
437.9165967385778
 30
0.0
 40
3.0
100
AcDbArc
 50
0.0
 51
90.0
  0
ARC
  5
37F
102
{ACAD_REACTORS
330
7E7
102
}
330
1F
100
AcDbEntity
  8
実線
100
AcDbCircle
 10
33.34360954003102
 20
437.9165967385778
 30
0.0
 40
3.0
100
AcDbArc
 50
90.0
 51
180.0
  0
LINE
  5
380
102
{ACAD_REACTORS
330
7E7
102
}
330
1F
100
AcDbEntity
  8
実線
100
AcDbLine
 10
127.320779308915
 20
289.916596738578
 30
0.0
 11
33.36643977114716
 21
289.916596738578
 31
0.0
  0
LINE
  5
381
102
{ACAD_REACTORS
330
7E7
102
}
330
1F
100
AcDbEntity
  8
実線
100
AcDbLine
 10
33.36643977114716
 20
289.916596738578
 30
0.0
 11
33.36643977114716
 21
276.4165967385779
 31
0.0
  0
LINE
  5
382
102
{ACAD_REACTORS
330
7E7
102
}
330
1F
100
AcDbEntity
  8
実線
100
AcDbLine
 10
127.320779308915
 20
276.4165967385779
 30
0.0
 11
127.320779308915
 21
289.916596738578
 31
0.0
  0
LINE
  5
383
102
{ACAD_REACTORS
330
7E7
102
}
330
1F
100
AcDbEntity
  8
実線
100
AcDbLine
 10
62.31471272960703
 20
289.916596738578
 30
0.0
 11
62.31471272960703
 21
276.4165967385779
 31
0.0
  0
LINE
  5
384
102
{ACAD_REACTORS
330
7E7
102
}
330
1F
100
AcDbEntity
  8
実線
100
AcDbLine
 10
98.37250635045519
 20
289.916596738578
 30
0.0
 11
98.37250635045519
 21
276.4165967385779
 31
0.0
  0
LINE
  5
385
102
{ACAD_REACTORS
330
7E7
102
}
330
1F
100
AcDbEntity
  8
実線
100
AcDbLine
 10
69.49360954003021
 20
225.7165967385778
 30
0.0
 11
53.34360954003023
 21
225.7165967385778
 31
0.0
  0
LINE
  5
386
102
{ACAD_REACTORS
330
7E7
102
}
330
1F
100
AcDbEntity
  8
実線
100
AcDbLine
 10
107.3436095400302
 20
225.7165967385778
 30
0.0
 11
91.19360954003026
 21
225.7165967385778
 31
0.0
  0
ARC
  5
387
102
{ACAD_REACTORS
330
7E7
102
}
330
1F
100
AcDbEntity
  8
実線
100
AcDbCircle
 10
53.34360954003023
 20
238.7165967385777
 30
0.0
 40
13.0
100
AcDbArc
 50
180.0
 51
270.0
  0
ARC
  5
388
102
{ACAD_REACTORS
330
7E7
102
}
330
1F
100
AcDbEntity
  8
実線
100
AcDbCircle
 10
107.3436095400302
 20
238.7165967385777
 30
0.0
 40
13.0
100
AcDbArc
 50
270.0
 51
0.0
  0
LINE
  5
389
102
{ACAD_REACTORS
330
7E7
102
}
330
1F
100
AcDbEntity
  8
実線
100
AcDbLine
 10
127.3207793089141
 20
276.4165967385779
 30
0.0
 11
33.36643977114636
 21
276.4165967385779
 31
0.0
  0
LINE
  5
38A
102
{ACAD_REACTORS
330
7E7
102
}
330
1F
100
AcDbEntity
  8
実線
100
AcDbLine
 10
120.3436095400302
 20
238.7165967385777
 30
0.0
 11
120.3436095400302
 21
266.4165967385778
 31
0.0
  0
LINE
  5
38B
102
{ACAD_REACTORS
330
7E7
102
}
330
1F
100
AcDbEntity
  8
実線
100
AcDbLine
 10
40.34360954003017
 20
266.4165967385778
 30
0.0
 11
40.34360954003017
 21
238.7165967385777
 31
0.0
  0
LINE
  5
38C
102
{ACAD_REACTORS
330
7E7
102
}
330
1F
100
AcDbEntity
  8
実線
100
AcDbLine
 10
33.36643977114636
 20
276.4165967385779
 30
0.0
 11
33.36643977114636
 21
266.4165967385778
 31
0.0
  0
LINE
  5
38D
102
{ACAD_REACTORS
330
7E7
102
}
330
1F
100
AcDbEntity
  8
実線
100
AcDbLine
 10
33.36643977114636
 20
266.4165967385778
 30
0.0
 11
62.31471272960624
 21
266.4165967385778
 31
0.0
  0
LINE
  5
38E
102
{ACAD_REACTORS
330
7E7
102
}
330
1F
100
AcDbEntity
  8
実線
100
AcDbLine
 10
127.3207793089141
 20
266.4165967385778
 30
0.0
 11
98.37250635045428
 21
266.4165967385778
 31
0.0
  0
LINE
  5
38F
102
{ACAD_REACTORS
330
7E7
102
}
330
1F
100
AcDbEntity
  8
実線
100
AcDbLine
 10
127.3207793089141
 20
266.4165967385778
 30
0.0
 11
127.3207793089141
 21
276.4165967385779
 31
0.0
  0
LINE
  5
390
102
{ACAD_REACTORS
330
7E7
102
}
330
1F
100
AcDbEntity
  8
実線
100
AcDbLine
 10
62.31471272960624
 20
276.4165967385779
 30
0.0
 11
62.31471272960624
 21
266.4165967385778
 31
0.0
  0
LINE
  5
391
102
{ACAD_REACTORS
330
7E7
102
}
330
1F
100
AcDbEntity
  8
実線
100
AcDbLine
 10
98.37250635045428
 20
276.4165967385779
 30
0.0
 11
98.37250635045428
 21
266.4165967385778
 31
0.0
  0
LINE
  5
392
102
{ACAD_REACTORS
330
7E7
102
}
330
1F
100
AcDbEntity
  8
実線
100
AcDbLine
 10
101.343609540031
 20
458.4165967385306
 30
0.0
 11
55.34360954003102
 21
458.4165967385306
 31
0.0
  0
LINE
  5
393
102
{ACAD_REACTORS
330
7E7
102
}
330
1F
100
AcDbEntity
  8
実線
100
AcDbLine
 10
103.343609540031
 20
456.4165967385779
 30
0.0
 11
103.343609540031
 21
487.4165967385778
 31
0.0
  0
LINE
  5
394
102
{ACAD_REACTORS
330
7E7
102
}
330
1F
100
AcDbEntity
  8
実線
100
AcDbLine
 10
103.343609540031
 20
487.4165967385778
 30
0.0
 11
101.343609540031
 21
487.4165967385778
 31
0.0
  0
LINE
  5
395
102
{ACAD_REACTORS
330
7E7
102
}
330
1F
100
AcDbEntity
  8
実線
100
AcDbLine
 10
101.343609540031
 20
487.4165967385778
 30
0.0
 11
101.343609540031
 21
458.4165967385306
 31
0.0
  0
LINE
  5
396
102
{ACAD_REACTORS
330
7E7
102
}
330
1F
100
AcDbEntity
  8
実線
100
AcDbLine
 10
100.343609540031
 20
458.4165967385778
 30
0.0
 11
100.343609540031
 21
456.4165967385779
 31
0.0
  0
LINE
  5
397
102
{ACAD_REACTORS
330
7E7
102
}
330
1F
100
AcDbEntity
  8
実線
100
AcDbLine
 10
55.34360954003102
 20
458.4165967385778
 30
0.0
 11
55.34360954003102
 21
456.4165967385779
 31
0.0
  0
LINE
  5
398
102
{ACAD_REACTORS
330
7E7
102
}
330
1F
100
AcDbEntity
  8
実線
100
AcDbLine
 10
91.59360954003103
 20
316.9165967385777
 30
0.0
 11
120.343609540031
 21
316.9165967385777
 31
0.0
  0
LINE
  5
399
102
{ACAD_REACTORS
330
7E7
102
}
330
1F
100
AcDbEntity
  8
実線
100
AcDbLine
 10
120.343609540031
 20
316.9165967385777
 30
0.0
 11
120.343609540031
 21
360.4165967385779
 31
0.0
  0
LINE
  5
39A
102
{ACAD_REACTORS
330
7E7
102
}
330
1F
100
AcDbEntity
  8
実線
100
AcDbLine
 10
40.34360954003102
 20
360.4165967385779
 30
0.0
 11
40.34360954003102
 21
316.9165967385777
 31
0.0
  0
LINE
  5
39B
102
{ACAD_REACTORS
330
7E7
102
}
330
1F
100
AcDbEntity
  8
実線
100
AcDbLine
 10
40.34360954003102
 20
316.9165967385777
 30
0.0
 11
69.09360954003102
 21
316.9165967385777
 31
0.0
  0
LINE
  5
39C
102
{ACAD_REACTORS
330
7E7
102
}
330
1F
100
AcDbEntity
  8
実線
100
AcDbLine
 10
91.59360954003103
 20
360.4165967385779
 30
0.0
 11
91.59360954003103
 21
289.916596738578
 31
0.0
  0
LINE
  5
39D
102
{ACAD_REACTORS
330
7E7
102
}
330
1F
100
AcDbEntity
  8
実線
100
AcDbLine
 10
69.09360954003102
 20
360.4165967385779
 30
0.0
 11
69.09360954003102
 21
289.916596738578
 31
0.0
  0
LINE
  5
39E
102
{ACAD_REACTORS
330
7E5
102
}
330
1F
100
AcDbEntity
  8
実線
100
AcDbLine
 10
572.8436095400305
 20
484.9165967385779
 30
0.0
 11
547.8436095400305
 21
484.9165967385779
 31
0.0
  0
LINE
  5
39F
102
{ACAD_REACTORS
330
7E5
102
}
330
1F
100
AcDbEntity
  8
実線
100
AcDbLine
 10
547.8436095400305
 20
479.9165967385778
 30
0.0
 11
572.8436095400305
 21
479.9165967385778
 31
0.0
  0
LINE
  5
3A0
102
{ACAD_REACTORS
330
7E5
102
}
330
1F
100
AcDbEntity
  8
実線
100
AcDbLine
 10
572.8436095400305
 20
479.9165967385778
 30
0.0
 11
572.8436095400305
 21
484.9165967385779
 31
0.0
  0
LINE
  5
3A1
102
{ACAD_REACTORS
330
7E5
102
}
330
1F
100
AcDbEntity
  8
実線
100
AcDbLine
 10
547.8436095400305
 20
484.9165967385779
 30
0.0
 11
547.8436095400305
 21
479.9165967385778
 31
0.0
  0
LINE
  5
3A2
102
{ACAD_REACTORS
330
7E5
102
}
330
1F
100
AcDbEntity
  8
実線
100
AcDbLine
 10
510.3436095400305
 20
360.4165967385779
 30
0.0
 11
610.3436095400303
 21
360.4165967385779
 31
0.0
  0
LINE
  5
3A3
102
{ACAD_REACTORS
330
7E5
102
}
330
1F
100
AcDbEntity
  8
実線
100
AcDbLine
 10
610.3436095400303
 20
436.4165967385779
 30
0.0
 11
510.3436095400305
 21
436.4165967385779
 31
0.0
  0
LINE
  5
3A4
102
{ACAD_REACTORS
330
7E5
102
}
330
1F
100
AcDbEntity
  8
実線
100
AcDbLine
 10
610.3436095400303
 20
360.4165967385779
 30
0.0
 11
610.3436095400303
 21
436.4165967385779
 31
0.0
  0
LINE
  5
3A5
102
{ACAD_REACTORS
330
7E5
102
}
330
1F
100
AcDbEntity
  8
実線
100
AcDbLine
 10
510.3436095400305
 20
436.4165967385779
 30
0.0
 11
510.3436095400305
 21
360.4165967385779
 31
0.0
  0
LINE
  5
3A6
102
{ACAD_REACTORS
330
7E5
102
}
330
1F
100
AcDbEntity
  8
実線
100
AcDbLine
 10
595.3436095400303
 20
451.4165967385779
 30
0.0
 11
525.3436095400306
 21
451.4165967385779
 31
0.0
  0
LINE
  5
3A7
102
{ACAD_REACTORS
330
7E5
102
}
330
1F
100
AcDbEntity
  8
実線
100
AcDbLine
 10
595.3436095400303
 20
440.9165967385779
 30
0.0
 11
595.3436095400303
 21
451.4165967385779
 31
0.0
  0
LINE
  5
3A8
102
{ACAD_REACTORS
330
7E5
102
}
330
1F
100
AcDbEntity
  8
実線
100
AcDbLine
 10
525.3436095400306
 20
451.4165967385779
 30
0.0
 11
525.3436095400306
 21
440.9165967385779
 31
0.0
  0
LINE
  5
3A9
102
{ACAD_REACTORS
330
7E5
102
}
330
1F
100
AcDbEntity
  8
実線
100
AcDbLine
 10
566.3436095400306
 20
458.4165967385778
 30
0.0
 11
566.3436095400306
 21
479.9165967385778
 31
0.0
  0
LINE
  5
3AA
102
{ACAD_REACTORS
330
7E5
102
}
330
1F
100
AcDbEntity
  8
実線
100
AcDbLine
 10
554.3436095400306
 20
479.9165967385778
 30
0.0
 11
554.3436095400306
 21
458.4165967385778
 31
0.0
  0
LINE
  5
3AB
102
{ACAD_REACTORS
330
7E5
102
}
330
1F
100
AcDbEntity
  8
実線
100
AcDbLine
 10
537.3436095400306
 20
456.4165967385779
 30
0.0
 11
535.3436095400305
 21
456.4165967385779
 31
0.0
  0
LINE
  5
3AC
102
{ACAD_REACTORS
330
7E5
102
}
330
1F
100
AcDbEntity
  8
実線
100
AcDbLine
 10
585.3436095400305
 20
451.4165967385779
 30
0.0
 11
585.3436095400305
 21
456.4165967385779
 31
0.0
  0
LINE
  5
3AD
102
{ACAD_REACTORS
330
7E5
102
}
330
1F
100
AcDbEntity
  8
実線
100
AcDbLine
 10
535.3436095400305
 20
456.4165967385779
 30
0.0
 11
535.3436095400305
 21
451.4165967385779
 31
0.0
  0
LINE
  5
3AE
102
{ACAD_REACTORS
330
7E5
102
}
330
1F
100
AcDbEntity
  8
実線
100
AcDbLine
 10
567.8436095400305
 20
490.2165967385777
 30
0.0
 11
552.8436095400305
 21
490.2165967385777
 31
0.0
  0
LINE
  5
3AF
102
{ACAD_REACTORS
330
7E5
102
}
330
1F
100
AcDbEntity
  8
実線
100
AcDbLine
 10
567.8436095400305
 20
484.9165967385779
 30
0.0
 11
567.8436095400305
 21
490.2165967385777
 31
0.0
  0
LINE
  5
3B0
102
{ACAD_REACTORS
330
7E5
102
}
330
1F
100
AcDbEntity
  8
実線
100
AcDbLine
 10
552.8436095400305
 20
490.2165967385777
 30
0.0
 11
552.8436095400305
 21
484.9165967385779
 31
0.0
  0
LINE
  5
3B1
102
{ACAD_REACTORS
330
7E5
102
}
330
1F
100
AcDbEntity
  8
実線
100
AcDbLine
 10
547.2436095400306
 20
478.4665967385778
 30
0.0
 11
539.3436095400305
 21
478.4665967385778
 31
0.0
  0
LINE
  5
3B2
102
{ACAD_REACTORS
330
7E5
102
}
330
1F
100
AcDbEntity
  8
実線
100
AcDbLine
 10
547.2436095400306
 20
486.3665967385777
 30
0.0
 11
547.2436095400306
 21
478.4665967385778
 31
0.0
  0
LINE
  5
3B3
102
{ACAD_REACTORS
330
7E5
102
}
330
1F
100
AcDbEntity
  8
実線
100
AcDbLine
 10
539.3436095400305
 20
478.4665967385778
 30
0.0
 11
539.3436095400305
 21
486.3665967385777
 31
0.0
  0
LINE
  5
3B4
102
{ACAD_REACTORS
330
7E5
102
}
330
1F
100
AcDbEntity
  8
実線
100
AcDbLine
 10
539.3436095400305
 20
486.3665967385777
 30
0.0
 11
547.2436095400306
 21
486.3665967385777
 31
0.0
  0
CIRCLE
  5
3B5
102
{ACAD_REACTORS
330
7E5
102
}
330
1F
100
AcDbEntity
  8
実線
100
AcDbCircle
 10
543.2936095400306
 20
470.9165967385778
 30
0.0
 40
1.5
  0
LINE
  5
3B6
102
{ACAD_REACTORS
330
7E5
102
}
330
1F
100
AcDbEntity
  8
実線
100
AcDbLine
 10
579.3936095400315
 20
216.6165967385779
 30
0.0
 11
579.3936095400315
 21
225.7165967385778
 31
0.0
  0
LINE
  5
3B7
102
{ACAD_REACTORS
330
7E5
102
}
330
1F
100
AcDbEntity
  8
実線
100
AcDbLine
 10
541.2936095400311
 20
225.7165967385778
 30
0.0
 11
541.2936095400311
 21
216.6165967385779
 31
0.0
  0
LINE
  5
3B8
102
{ACAD_REACTORS
330
7E5
102
}
330
1F
100
AcDbEntity
  8
実線
100
AcDbLine
 10
579.3936095400315
 20
216.6165967385779
 30
0.0
 11
541.2936095400311
 21
216.6165967385779
 31
0.0
  0
LINE
  5
3B9
102
{ACAD_REACTORS
330
7E5
102
}
330
1F
100
AcDbEntity
  8
実線
100
AcDbLine
 10
541.2936095400311
 20
216.6165967385779
 30
0.0
 11
535.0936095400308
 21
214.2665967385779
 31
0.0
  0
LINE
  5
3BA
102
{ACAD_REACTORS
330
7E5
102
}
330
1F
100
AcDbEntity
  8
実線
100
AcDbLine
 10
585.5936095400312
 20
214.2665967385779
 30
0.0
 11
579.3936095400315
 21
216.6165967385779
 31
0.0
  0
LINE
  5
3BB
102
{ACAD_REACTORS
330
7E5
102
}
330
1F
100
AcDbEntity
  8
実線
100
AcDbLine
 10
585.5936095400312
 20
211.5165967385778
 30
0.0
 11
535.0936095400308
 21
211.5165967385778
 31
0.0
  0
LINE
  5
3BC
102
{ACAD_REACTORS
330
7E5
102
}
330
1F
100
AcDbEntity
  8
実線
100
AcDbLine
 10
585.5936095400312
 20
214.2665967385779
 30
0.0
 11
535.0936095400308
 21
214.2665967385779
 31
0.0
  0
LINE
  5
3BD
102
{ACAD_REACTORS
330
7E5
102
}
330
1F
100
AcDbEntity
  8
実線
100
AcDbLine
 10
585.5936095400312
 20
211.5165967385778
 30
0.0
 11
585.5936095400312
 21
214.2665967385779
 31
0.0
  0
LINE
  5
3BE
102
{ACAD_REACTORS
330
7E5
102
}
330
1F
100
AcDbEntity
  8
実線
100
AcDbLine
 10
535.0936095400308
 20
214.2665967385779
 30
0.0
 11
535.0936095400308
 21
211.5165967385778
 31
0.0
  0
CIRCLE
  5
3BF
102
{ACAD_REACTORS
330
7E5
102
}
330
1F
100
AcDbEntity
  8
実線
100
AcDbCircle
 10
560.3436095400313
 20
248.5165967385778
 30
0.0
 40
25.25
  0
LINE
  5
3C0
102
{ACAD_REACTORS
330
7E5
102
}
330
1F
100
AcDbEntity
  8
実線
100
AcDbLine
 10
547.2436095400306
 20
474.8665967385777
 30
0.0
 11
547.2436095400306
 21
466.9665967385777
 31
0.0
  0
LINE
  5
3C1
102
{ACAD_REACTORS
330
7E5
102
}
330
1F
100
AcDbEntity
  8
実線
100
AcDbLine
 10
539.3436095400305
 20
474.8665967385777
 30
0.0
 11
547.2436095400306
 21
474.8665967385777
 31
0.0
  0
LINE
  5
3C2
102
{ACAD_REACTORS
330
7E5
102
}
330
1F
100
AcDbEntity
  8
実線
100
AcDbLine
 10
539.3436095400305
 20
466.9665967385777
 30
0.0
 11
539.3436095400305
 21
474.8665967385777
 31
0.0
  0
LINE
  5
3C3
102
{ACAD_REACTORS
330
7E5
102
}
330
1F
100
AcDbEntity
  8
実線
100
AcDbLine
 10
547.2436095400306
 20
466.9665967385777
 30
0.0
 11
539.3436095400305
 21
466.9665967385777
 31
0.0
  0
CIRCLE
  5
3C4
102
{ACAD_REACTORS
330
7E5
102
}
330
1F
100
AcDbEntity
  8
実線
100
AcDbCircle
 10
543.2936095400306
 20
482.4165967385779
 30
0.0
 40
1.5
  0
LINE
  5
3C5
102
{ACAD_REACTORS
330
7E5
102
}
330
1F
100
AcDbEntity
  8
実線
100
AcDbLine
 10
607.3436095400303
 20
440.9165967385779
 30
0.0
 11
513.3436095400305
 21
440.9165967385779
 31
0.0
  0
ARC
  5
3C6
102
{ACAD_REACTORS
330
7E5
102
}
330
1F
100
AcDbEntity
  8
実線
100
AcDbCircle
 10
607.3436095400303
 20
437.9165967385778
 30
0.0
 40
3.0
100
AcDbArc
 50
0.0
 51
90.0
  0
ARC
  5
3C7
102
{ACAD_REACTORS
330
7E5
102
}
330
1F
100
AcDbEntity
  8
実線
100
AcDbCircle
 10
513.3436095400305
 20
437.9165967385778
 30
0.0
 40
3.0
100
AcDbArc
 50
90.0
 51
180.0
  0
LINE
  5
3C8
102
{ACAD_REACTORS
330
7E5
102
}
330
1F
100
AcDbEntity
  8
実線
100
AcDbLine
 10
610.3436095400303
 20
436.4165967385779
 30
0.0
 11
610.3436095400303
 21
437.9165967385778
 31
0.0
  0
LINE
  5
3C9
102
{ACAD_REACTORS
330
7E5
102
}
330
1F
100
AcDbEntity
  8
実線
100
AcDbLine
 10
510.3436095400305
 20
437.9165967385778
 30
0.0
 11
510.3436095400305
 21
436.4165967385779
 31
0.0
  0
LINE
  5
3CA
102
{ACAD_REACTORS
330
7E5
102
}
330
1F
100
AcDbEntity
  8
実線
100
AcDbLine
 10
607.3207793089143
 20
276.4165967385779
 30
0.0
 11
513.3664397711465
 21
276.4165967385779
 31
0.0
  0
LINE
  5
3CB
102
{ACAD_REACTORS
330
7E5
102
}
330
1F
100
AcDbEntity
  8
実線
100
AcDbLine
 10
607.3207793089143
 20
289.916596738578
 30
0.0
 11
513.3664397711465
 21
289.916596738578
 31
0.0
  0
LINE
  5
3CC
102
{ACAD_REACTORS
330
7E5
102
}
330
1F
100
AcDbEntity
  8
実線
100
AcDbLine
 10
513.3664397711465
 20
289.916596738578
 30
0.0
 11
513.3664397711465
 21
276.4165967385779
 31
0.0
  0
LINE
  5
3CD
102
{ACAD_REACTORS
330
7E5
102
}
330
1F
100
AcDbEntity
  8
実線
100
AcDbLine
 10
607.3207793089143
 20
276.4165967385779
 30
0.0
 11
607.3207793089143
 21
289.916596738578
 31
0.0
  0
LINE
  5
3CE
102
{ACAD_REACTORS
330
7E5
102
}
330
1F
100
AcDbEntity
  8
実線
100
AcDbLine
 10
542.3147127296065
 20
289.916596738578
 30
0.0
 11
542.3147127296065
 21
276.4165967385779
 31
0.0
  0
LINE
  5
3CF
102
{ACAD_REACTORS
330
7E5
102
}
330
1F
100
AcDbEntity
  8
実線
100
AcDbLine
 10
578.3725063504544
 20
289.916596738578
 30
0.0
 11
578.3725063504544
 21
276.4165967385779
 31
0.0
  0
LINE
  5
3D0
102
{ACAD_REACTORS
330
7E5
102
}
330
1F
100
AcDbEntity
  8
実線
100
AcDbLine
 10
549.4936095400312
 20
225.7165967385778
 30
0.0
 11
533.3436095400314
 21
225.7165967385778
 31
0.0
  0
LINE
  5
3D1
102
{ACAD_REACTORS
330
7E5
102
}
330
1F
100
AcDbEntity
  8
実線
100
AcDbLine
 10
587.3436095400312
 20
225.7165967385778
 30
0.0
 11
571.1936095400313
 21
225.7165967385778
 31
0.0
  0
ARC
  5
3D2
102
{ACAD_REACTORS
330
7E5
102
}
330
1F
100
AcDbEntity
  8
実線
100
AcDbCircle
 10
533.3436095400314
 20
238.7165967385777
 30
0.0
 40
13.0
100
AcDbArc
 50
180.0
 51
270.0
  0
ARC
  5
3D3
102
{ACAD_REACTORS
330
7E5
102
}
330
1F
100
AcDbEntity
  8
実線
100
AcDbCircle
 10
587.3436095400312
 20
238.7165967385777
 30
0.0
 40
13.0
100
AcDbArc
 50
270.0
 51
0.0
  0
LINE
  5
3D4
102
{ACAD_REACTORS
330
7E5
102
}
330
1F
100
AcDbEntity
  8
実線
100
AcDbLine
 10
600.3436095400314
 20
238.7165967385777
 30
0.0
 11
600.3436095400314
 21
266.4165967385778
 31
0.0
  0
LINE
  5
3D5
102
{ACAD_REACTORS
330
7E5
102
}
330
1F
100
AcDbEntity
  8
実線
100
AcDbLine
 10
520.3436095400312
 20
266.4165967385778
 30
0.0
 11
520.3436095400312
 21
238.7165967385777
 31
0.0
  0
LINE
  5
3D6
102
{ACAD_REACTORS
330
7E5
102
}
330
1F
100
AcDbEntity
  8
実線
100
AcDbLine
 10
513.3664397711473
 20
276.4165967385779
 30
0.0
 11
513.3664397711473
 21
266.4165967385778
 31
0.0
  0
LINE
  5
3D7
102
{ACAD_REACTORS
330
7E5
102
}
330
1F
100
AcDbEntity
  8
実線
100
AcDbLine
 10
513.3664397711473
 20
266.4165967385778
 30
0.0
 11
542.3147127296068
 21
266.4165967385778
 31
0.0
  0
LINE
  5
3D8
102
{ACAD_REACTORS
330
7E5
102
}
330
1F
100
AcDbEntity
  8
実線
100
AcDbLine
 10
607.3207793089153
 20
266.4165967385778
 30
0.0
 11
578.3725063504553
 21
266.4165967385778
 31
0.0
  0
LINE
  5
3D9
102
{ACAD_REACTORS
330
7E5
102
}
330
1F
100
AcDbEntity
  8
実線
100
AcDbLine
 10
607.3207793089153
 20
266.4165967385778
 30
0.0
 11
607.3207793089153
 21
276.4165967385779
 31
0.0
  0
LINE
  5
3DA
102
{ACAD_REACTORS
330
7E5
102
}
330
1F
100
AcDbEntity
  8
実線
100
AcDbLine
 10
542.3147127296068
 20
276.4165967385779
 30
0.0
 11
542.3147127296068
 21
266.4165967385778
 31
0.0
  0
LINE
  5
3DB
102
{ACAD_REACTORS
330
7E5
102
}
330
1F
100
AcDbEntity
  8
実線
100
AcDbLine
 10
578.3725063504553
 20
276.4165967385779
 30
0.0
 11
578.3725063504553
 21
266.4165967385778
 31
0.0
  0
LINE
  5
3DC
102
{ACAD_REACTORS
330
7E5
102
}
330
1F
100
AcDbEntity
  8
実線
100
AcDbLine
 10
539.3436095400305
 20
458.4165967385306
 30
0.0
 11
585.3436095400305
 21
458.4165967385306
 31
0.0
  0
LINE
  5
3DD
102
{ACAD_REACTORS
330
7E5
102
}
330
1F
100
AcDbEntity
  8
実線
100
AcDbLine
 10
537.3436095400306
 20
456.4165967385779
 30
0.0
 11
585.3436095400305
 21
456.4165967385779
 31
0.0
  0
LINE
  5
3DE
102
{ACAD_REACTORS
330
7E5
102
}
330
1F
100
AcDbEntity
  8
実線
100
AcDbLine
 10
539.3436095400305
 20
486.3665967385777
 30
0.0
 11
539.3436095400305
 21
487.4165967385778
 31
0.0
  0
LINE
  5
3DF
102
{ACAD_REACTORS
330
7E5
102
}
330
1F
100
AcDbEntity
  8
実線
100
AcDbLine
 10
539.3436095400305
 20
474.8665967385777
 30
0.0
 11
539.3436095400305
 21
478.4665967385778
 31
0.0
  0
LINE
  5
3E0
102
{ACAD_REACTORS
330
7E5
102
}
330
1F
100
AcDbEntity
  8
実線
100
AcDbLine
 10
539.3436095400305
 20
458.4165967385306
 30
0.0
 11
539.3436095400305
 21
466.9665967385777
 31
0.0
  0
LINE
  5
3E1
102
{ACAD_REACTORS
330
7E5
102
}
330
1F
100
AcDbEntity
  8
実線
100
AcDbLine
 10
539.3436095400305
 20
487.4165967385778
 30
0.0
 11
537.3436095400306
 21
487.4165967385778
 31
0.0
  0
LINE
  5
3E2
102
{ACAD_REACTORS
330
7E5
102
}
330
1F
100
AcDbEntity
  8
実線
100
AcDbLine
 10
537.3436095400306
 20
456.4165967385779
 30
0.0
 11
537.3436095400306
 21
487.4165967385778
 31
0.0
  0
LINE
  5
3E3
102
{ACAD_REACTORS
330
7E5
102
}
330
1F
100
AcDbEntity
  8
実線
100
AcDbLine
 10
540.3436095400484
 20
456.4165967385779
 30
0.0
 11
540.3436095400484
 21
458.4165967385306
 31
0.0
  0
LINE
  5
3E4
102
{ACAD_REACTORS
330
7E5
102
}
330
1F
100
AcDbEntity
  8
実線
100
AcDbLine
 10
585.3436095400305
 20
456.4165967385779
 30
0.0
 11
585.3436095400305
 21
458.4165967385778
 31
0.0
  0
LINE
  5
3E5
102
{ACAD_REACTORS
330
7E5
102
}
330
1F
100
AcDbEntity
  8
実線
100
AcDbLine
 10
520.3436095400303
 20
360.4165967385779
 30
0.0
 11
520.3436095400303
 21
316.9165967385777
 31
0.0
  0
LINE
  5
3E6
102
{ACAD_REACTORS
330
7E5
102
}
330
1F
100
AcDbEntity
  8
実線
100
AcDbLine
 10
520.3436095400303
 20
316.9165967385777
 30
0.0
 11
549.0936095400305
 21
316.9165967385777
 31
0.0
  0
LINE
  5
3E7
102
{ACAD_REACTORS
330
7E5
102
}
330
1F
100
AcDbEntity
  8
実線
100
AcDbLine
 10
571.5936095400305
 20
316.9165967385777
 30
0.0
 11
600.3436095400303
 21
316.9165967385777
 31
0.0
  0
LINE
  5
3E8
102
{ACAD_REACTORS
330
7E5
102
}
330
1F
100
AcDbEntity
  8
実線
100
AcDbLine
 10
600.3436095400303
 20
316.9165967385777
 30
0.0
 11
600.3436095400303
 21
360.4165967385779
 31
0.0
  0
LINE
  5
3E9
102
{ACAD_REACTORS
330
7E5
102
}
330
1F
100
AcDbEntity
  8
実線
100
AcDbLine
 10
571.5936095400305
 20
360.4165967385779
 30
0.0
 11
571.5936095400305
 21
289.916596738578
 31
0.0
  0
LINE
  5
3EA
102
{ACAD_REACTORS
330
7E5
102
}
330
1F
100
AcDbEntity
  8
実線
100
AcDbLine
 10
549.0936095400305
 20
360.4165967385779
 30
0.0
 11
549.0936095400305
 21
289.916596738578
 31
0.0
  0
LINE
  5
3EB
102
{ACAD_REACTORS
330
7E8
102
}
330
1F
100
AcDbEntity
  8
実線
100
AcDbLine
 10
307.843609540031
 20
484.9165967385779
 30
0.0
 11
307.843609540031
 21
479.9165967385778
 31
0.0
  0
LINE
  5
3EC
102
{ACAD_REACTORS
330
7E8
102
}
330
1F
100
AcDbEntity
  8
実線
100
AcDbLine
 10
315.343609540031
 20
484.9165967385779
 30
0.0
 11
307.843609540031
 21
484.9165967385779
 31
0.0
  0
LINE
  5
3ED
102
{ACAD_REACTORS
330
7E8
102
}
330
1F
100
AcDbEntity
  8
実線
100
AcDbLine
 10
315.343609540031
 20
479.9165967385778
 30
0.0
 11
307.843609540031
 21
479.9165967385778
 31
0.0
  0
LINE
  5
3EE
102
{ACAD_REACTORS
330
7E8
102
}
330
1F
100
AcDbEntity
  8
実線
100
AcDbLine
 10
326.343609540031
 20
289.916596738578
 30
0.0
 11
326.343609540031
 21
316.9165967385777
 31
0.0
  0
LINE
  5
3EF
102
{ACAD_REACTORS
330
7E8
102
}
330
1F
100
AcDbEntity
  8
実線
100
AcDbLine
 10
314.343609540031
 20
316.9165967385777
 30
0.0
 11
314.343609540031
 21
289.916596738578
 31
0.0
  0
LINE
  5
3F0
102
{ACAD_REACTORS
330
7E8
102
}
330
1F
100
AcDbEntity
  8
実線
100
AcDbLine
 10
370.343609540031
 20
360.4165967385779
 30
0.0
 11
270.343609540031
 21
360.4165967385779
 31
0.0
  0
LINE
  5
3F1
102
{ACAD_REACTORS
330
7E8
102
}
330
1F
100
AcDbEntity
  8
実線
100
AcDbLine
 10
370.343609540031
 20
360.4165967385779
 30
0.0
 11
370.343609540031
 21
436.4165967385779
 31
0.0
  0
LINE
  5
3F2
102
{ACAD_REACTORS
330
7E8
102
}
330
1F
100
AcDbEntity
  8
実線
100
AcDbLine
 10
270.343609540031
 20
436.4165967385779
 30
0.0
 11
270.343609540031
 21
360.4165967385779
 31
0.0
  0
LINE
  5
3F3
102
{ACAD_REACTORS
330
7E8
102
}
330
1F
100
AcDbEntity
  8
実線
100
AcDbLine
 10
370.343609540031
 20
436.4165967385779
 30
0.0
 11
270.343609540031
 21
436.4165967385779
 31
0.0
  0
LINE
  5
3F4
102
{ACAD_REACTORS
330
7E8
102
}
330
1F
100
AcDbEntity
  8
実線
100
AcDbLine
 10
355.343609540031
 20
440.9165967385779
 30
0.0
 11
355.343609540031
 21
451.4165967385779
 31
0.0
  0
LINE
  5
3F5
102
{ACAD_REACTORS
330
7E8
102
}
330
1F
100
AcDbEntity
  8
実線
100
AcDbLine
 10
285.343609540031
 20
451.4165967385779
 30
0.0
 11
285.343609540031
 21
440.9165967385779
 31
0.0
  0
LINE
  5
3F6
102
{ACAD_REACTORS
330
7E8
102
}
330
1F
100
AcDbEntity
  8
実線
100
AcDbLine
 10
355.343609540031
 20
451.4165967385779
 30
0.0
 11
285.343609540031
 21
451.4165967385779
 31
0.0
  0
LINE
  5
3F7
102
{ACAD_REACTORS
330
7E8
102
}
330
1F
100
AcDbEntity
  8
実線
100
AcDbLine
 10
314.343609540031
 20
479.9165967385778
 30
0.0
 11
314.343609540031
 21
458.4165967385778
 31
0.0
  0
LINE
  5
3F8
102
{ACAD_REACTORS
330
7E8
102
}
330
1F
100
AcDbEntity
  8
実線
100
AcDbLine
 10
345.343609540031
 20
451.4165967385779
 30
0.0
 11
345.343609540031
 21
456.4165967385779
 31
0.0
  0
LINE
  5
3F9
102
{ACAD_REACTORS
330
7E8
102
}
330
1F
100
AcDbEntity
  8
実線
100
AcDbLine
 10
295.343609540031
 20
456.4165967385779
 30
0.0
 11
295.343609540031
 21
451.4165967385779
 31
0.0
  0
LINE
  5
3FA
102
{ACAD_REACTORS
330
7E8
102
}
330
1F
100
AcDbEntity
  8
実線
100
AcDbLine
 10
295.343609540031
 20
456.4165967385779
 30
0.0
 11
330.141568511164
 21
456.4165967385779
 31
0.0
  0
LINE
  5
3FB
102
{ACAD_REACTORS
330
7E8
102
}
330
1F
100
AcDbEntity
  8
実線
100
AcDbLine
 10
327.843609540031
 20
487.4165967385778
 30
0.0
 11
327.843609540031
 21
490.2165967385777
 31
0.0
  0
LINE
  5
3FC
102
{ACAD_REACTORS
330
7E8
102
}
330
1F
100
AcDbEntity
  8
実線
100
AcDbLine
 10
312.843609540031
 20
490.2165967385777
 30
0.0
 11
312.843609540031
 21
484.9165967385779
 31
0.0
  0
LINE
  5
3FD
102
{ACAD_REACTORS
330
7E8
102
}
330
1F
100
AcDbEntity
  8
実線
100
AcDbLine
 10
327.843609540031
 20
490.2165967385777
 30
0.0
 11
312.843609540031
 21
490.2165967385777
 31
0.0
  0
LINE
  5
3FE
102
{ACAD_REACTORS
330
7E8
102
}
330
1F
100
AcDbEntity
  8
実線
100
AcDbLine
 10
340.343609540031
 20
478.4665967385778
 30
0.0
 11
340.343609540031
 21
486.3665967385777
 31
0.0
  0
LINE
  5
3FF
102
{ACAD_REACTORS
330
7E8
102
}
330
1F
100
AcDbEntity
  8
実線
100
AcDbLine
 10
335.343609540031
 20
486.3665967385777
 30
0.0
 11
340.343609540031
 21
486.3665967385777
 31
0.0
  0
LINE
  5
400
102
{ACAD_REACTORS
330
7E8
102
}
330
1F
100
AcDbEntity
  8
実線
100
AcDbLine
 10
335.343609540031
 20
478.4665967385778
 30
0.0
 11
340.343609540031
 21
478.4665967385778
 31
0.0
  0
LINE
  5
401
102
{ACAD_REACTORS
330
7E8
102
}
330
1F
100
AcDbEntity
  8
実線
100
AcDbLine
 10
346.843609540031
 20
472.4165967385779
 30
0.0
 11
346.843609540031
 21
469.4165967385779
 31
0.0
  0
LINE
  5
402
102
{ACAD_REACTORS
330
7E8
102
}
330
1F
100
AcDbEntity
  8
実線
100
AcDbLine
 10
340.343609540031
 20
469.4165967385779
 30
0.0
 11
346.843609540031
 21
469.4165967385779
 31
0.0
  0
LINE
  5
403
102
{ACAD_REACTORS
330
7E8
102
}
330
1F
100
AcDbEntity
  8
実線
100
AcDbLine
 10
346.843609540031
 20
472.4165967385779
 30
0.0
 11
340.343609540031
 21
472.4165967385779
 31
0.0
  0
LINE
  5
404
102
{ACAD_REACTORS
330
7E8
102
}
330
1F
100
AcDbEntity
  8
実線
100
AcDbLine
 10
339.3936095400303
 20
216.6165967385779
 30
0.0
 11
339.3936095400303
 21
225.7165967385778
 31
0.0
  0
LINE
  5
405
102
{ACAD_REACTORS
330
7E8
102
}
330
1F
100
AcDbEntity
  8
実線
100
AcDbLine
 10
301.2936095400303
 20
225.7165967385778
 30
0.0
 11
301.2936095400303
 21
216.6165967385779
 31
0.0
  0
LINE
  5
406
102
{ACAD_REACTORS
330
7E8
102
}
330
1F
100
AcDbEntity
  8
実線
100
AcDbLine
 10
345.5936095400303
 20
211.5165967385778
 30
0.0
 11
345.5936095400303
 21
214.2665967385779
 31
0.0
  0
LINE
  5
407
102
{ACAD_REACTORS
330
7E8
102
}
330
1F
100
AcDbEntity
  8
実線
100
AcDbLine
 10
295.0936095400304
 20
214.2665967385779
 30
0.0
 11
295.0936095400304
 21
211.5165967385778
 31
0.0
  0
LINE
  5
408
102
{ACAD_REACTORS
330
7E8
102
}
330
1F
100
AcDbEntity
  8
実線
100
AcDbLine
 10
345.5936095400303
 20
211.5165967385778
 30
0.0
 11
295.0936095400304
 21
211.5165967385778
 31
0.0
  0
LINE
  5
409
102
{ACAD_REACTORS
330
7E8
102
}
330
1F
100
AcDbEntity
  8
実線
100
AcDbLine
 10
301.2936095400303
 20
216.6165967385779
 30
0.0
 11
295.0936095400304
 21
214.2665967385779
 31
0.0
  0
LINE
  5
40A
102
{ACAD_REACTORS
330
7E8
102
}
330
1F
100
AcDbEntity
  8
実線
100
AcDbLine
 10
345.5936095400303
 20
214.2665967385779
 30
0.0
 11
339.3936095400303
 21
216.6165967385779
 31
0.0
  0
LINE
  5
40B
102
{ACAD_REACTORS
330
7E8
102
}
330
1F
100
AcDbEntity
  8
実線
100
AcDbLine
 10
295.0936095400304
 20
214.2665967385779
 30
0.0
 11
345.5936095400303
 21
214.2665967385779
 31
0.0
  0
LINE
  5
40C
102
{ACAD_REACTORS
330
7E8
102
}
330
1F
100
AcDbEntity
  8
実線
100
AcDbLine
 10
301.2936095400303
 20
216.6165967385779
 30
0.0
 11
339.3936095400303
 21
216.6165967385779
 31
0.0
  0
LINE
  5
40D
102
{ACAD_REACTORS
330
7E8
102
}
330
1F
100
AcDbEntity
  8
実線
100
AcDbLine
 10
255.4436095400304
 20
229.466596738578
 30
0.0
 11
284.2091965868078
 21
229.466596738578
 31
0.0
  0
LINE
  5
40E
102
{ACAD_REACTORS
330
7E8
102
}
330
1F
100
AcDbEntity
  8
実線
100
AcDbLine
 10
273.3664397711465
 20
267.5665967385778
 30
0.0
 11
255.4436095400304
 21
267.5665967385778
 31
0.0
  0
LINE
  5
40F
102
{ACAD_REACTORS
330
7E8
102
}
330
1F
100
AcDbEntity
  8
実線
100
AcDbLine
 10
255.4436095400304
 20
267.5665967385778
 30
0.0
 11
253.0936095400303
 21
273.7665967385779
 31
0.0
  0
LINE
  5
410
102
{ACAD_REACTORS
330
7E8
102
}
330
1F
100
AcDbEntity
  8
実線
100
AcDbLine
 10
253.0936095400303
 20
223.2665967385779
 30
0.0
 11
255.4436095400304
 21
229.466596738578
 31
0.0
  0
LINE
  5
411
102
{ACAD_REACTORS
330
7E8
102
}
330
1F
100
AcDbEntity
  8
実線
100
AcDbLine
 10
255.4436095400304
 20
267.5665967385778
 30
0.0
 11
255.4436095400304
 21
229.466596738578
 31
0.0
  0
LINE
  5
412
102
{ACAD_REACTORS
330
7E8
102
}
330
1F
100
AcDbEntity
  8
実線
100
AcDbLine
 10
250.3436095400303
 20
223.2665967385779
 30
0.0
 11
253.0936095400303
 21
223.2665967385779
 31
0.0
  0
LINE
  5
413
102
{ACAD_REACTORS
330
7E8
102
}
330
1F
100
AcDbEntity
  8
実線
100
AcDbLine
 10
253.0936095400303
 20
273.7665967385779
 30
0.0
 11
250.3436095400303
 21
273.7665967385779
 31
0.0
  0
LINE
  5
414
102
{ACAD_REACTORS
330
7E8
102
}
330
1F
100
AcDbEntity
  8
実線
100
AcDbLine
 10
250.3436095400303
 20
223.2665967385779
 30
0.0
 11
250.3436095400303
 21
273.7665967385779
 31
0.0
  0
LINE
  5
415
102
{ACAD_REACTORS
330
7E8
102
}
330
1F
100
AcDbEntity
  8
実線
100
AcDbLine
 10
253.0936095400303
 20
223.2665967385779
 30
0.0
 11
253.0936095400303
 21
273.7665967385779
 31
0.0
  0
LINE
  5
416
102
{ACAD_REACTORS
330
7E8
102
}
330
1F
100
AcDbEntity
  8
実線
100
AcDbLine
 10
385.2436095400303
 20
267.5665967385778
 30
0.0
 11
367.320779308914
 21
267.5665967385778
 31
0.0
  0
LINE
  5
417
102
{ACAD_REACTORS
330
7E8
102
}
330
1F
100
AcDbEntity
  8
実線
100
AcDbLine
 10
356.478022493253
 20
229.466596738578
 30
0.0
 11
385.2436095400303
 21
229.466596738578
 31
0.0
  0
LINE
  5
418
102
{ACAD_REACTORS
330
7E8
102
}
330
1F
100
AcDbEntity
  8
実線
100
AcDbLine
 10
390.3436095400303
 20
223.2665967385779
 30
0.0
 11
390.3436095400303
 21
273.7665967385779
 31
0.0
  0
LINE
  5
419
102
{ACAD_REACTORS
330
7E8
102
}
330
1F
100
AcDbEntity
  8
実線
100
AcDbLine
 10
390.3436095400303
 20
273.7665967385779
 30
0.0
 11
387.5936095400303
 21
273.7665967385779
 31
0.0
  0
LINE
  5
41A
102
{ACAD_REACTORS
330
7E8
102
}
330
1F
100
AcDbEntity
  8
実線
100
AcDbLine
 10
387.5936095400303
 20
223.2665967385779
 30
0.0
 11
390.3436095400303
 21
223.2665967385779
 31
0.0
  0
LINE
  5
41B
102
{ACAD_REACTORS
330
7E8
102
}
330
1F
100
AcDbEntity
  8
実線
100
AcDbLine
 10
387.5936095400303
 20
223.2665967385779
 30
0.0
 11
387.5936095400303
 21
273.7665967385779
 31
0.0
  0
LINE
  5
41C
102
{ACAD_REACTORS
330
7E8
102
}
330
1F
100
AcDbEntity
  8
実線
100
AcDbLine
 10
385.2436095400303
 20
229.466596738578
 30
0.0
 11
385.2436095400303
 21
267.5665967385778
 31
0.0
  0
LINE
  5
41D
102
{ACAD_REACTORS
330
7E8
102
}
330
1F
100
AcDbEntity
  8
実線
100
AcDbLine
 10
385.2436095400303
 20
229.466596738578
 30
0.0
 11
387.5936095400303
 21
223.2665967385779
 31
0.0
  0
LINE
  5
41E
102
{ACAD_REACTORS
330
7E8
102
}
330
1F
100
AcDbEntity
  8
実線
100
AcDbLine
 10
387.5936095400303
 20
273.7665967385779
 30
0.0
 11
385.2436095400303
 21
267.5665967385778
 31
0.0
  0
LINE
  5
41F
102
{ACAD_REACTORS
330
7E8
102
}
330
1F
100
AcDbEntity
  8
実線
100
AcDbLine
 10
335.343609540031
 20
466.9665967385777
 30
0.0
 11
340.343609540031
 21
466.9665967385777
 31
0.0
  0
LINE
  5
420
102
{ACAD_REACTORS
330
7E8
102
}
330
1F
100
AcDbEntity
  8
実線
100
AcDbLine
 10
340.343609540031
 20
466.9665967385777
 30
0.0
 11
340.343609540031
 21
474.8665967385777
 31
0.0
  0
LINE
  5
421
102
{ACAD_REACTORS
330
7E8
102
}
330
1F
100
AcDbEntity
  8
実線
100
AcDbLine
 10
335.343609540031
 20
474.8665967385777
 30
0.0
 11
340.343609540031
 21
474.8665967385777
 31
0.0
  0
LINE
  5
422
102
{ACAD_REACTORS
330
7E8
102
}
330
1F
100
AcDbEntity
  8
実線
100
AcDbLine
 10
346.843609540031
 20
483.9165967385778
 30
0.0
 11
346.843609540031
 21
480.9165967385779
 31
0.0
  0
LINE
  5
423
102
{ACAD_REACTORS
330
7E8
102
}
330
1F
100
AcDbEntity
  8
実線
100
AcDbLine
 10
340.343609540031
 20
480.9165967385779
 30
0.0
 11
346.843609540031
 21
480.9165967385779
 31
0.0
  0
LINE
  5
424
102
{ACAD_REACTORS
330
7E8
102
}
330
1F
100
AcDbEntity
  8
実線
100
AcDbLine
 10
346.843609540031
 20
483.9165967385778
 30
0.0
 11
340.343609540031
 21
483.9165967385778
 31
0.0
  0
LINE
  5
425
102
{ACAD_REACTORS
330
7E8
102
}
330
1F
100
AcDbEntity
  8
実線
100
AcDbLine
 10
370.343609540031
 20
436.4165967385779
 30
0.0
 11
370.343609540031
 21
437.9165967385778
 31
0.0
  0
LINE
  5
426
102
{ACAD_REACTORS
330
7E8
102
}
330
1F
100
AcDbEntity
  8
実線
100
AcDbLine
 10
270.343609540031
 20
437.9165967385778
 30
0.0
 11
270.343609540031
 21
436.4165967385779
 31
0.0
  0
LINE
  5
427
102
{ACAD_REACTORS
330
7E8
102
}
330
1F
100
AcDbEntity
  8
実線
100
AcDbLine
 10
273.343609540031
 20
440.9165967385779
 30
0.0
 11
367.343609540031
 21
440.9165967385779
 31
0.0
  0
ARC
  5
428
102
{ACAD_REACTORS
330
7E8
102
}
330
1F
100
AcDbEntity
  8
実線
100
AcDbCircle
 10
367.343609540031
 20
437.9165967385778
 30
0.0
 40
3.0
100
AcDbArc
 50
0.0
 51
90.0
  0
ARC
  5
429
102
{ACAD_REACTORS
330
7E8
102
}
330
1F
100
AcDbEntity
  8
実線
100
AcDbCircle
 10
273.343609540031
 20
437.9165967385778
 30
0.0
 40
3.0
100
AcDbArc
 50
90.0
 51
180.0
  0
LINE
  5
42A
102
{ACAD_REACTORS
330
7E8
102
}
330
1F
100
AcDbEntity
  8
実線
100
AcDbLine
 10
367.320779308915
 20
289.916596738578
 30
0.0
 11
273.3664397711474
 21
289.916596738578
 31
0.0
  0
LINE
  5
42B
102
{ACAD_REACTORS
330
7E8
102
}
330
1F
100
AcDbEntity
  8
実線
100
AcDbLine
 10
273.3664397711474
 20
289.916596738578
 30
0.0
 11
273.3664397711474
 21
276.4165967385779
 31
0.0
  0
LINE
  5
42C
102
{ACAD_REACTORS
330
7E8
102
}
330
1F
100
AcDbEntity
  8
実線
100
AcDbLine
 10
367.320779308915
 20
276.4165967385779
 30
0.0
 11
367.320779308915
 21
289.916596738578
 31
0.0
  0
LINE
  5
42D
102
{ACAD_REACTORS
330
7E8
102
}
330
1F
100
AcDbEntity
  8
実線
100
AcDbLine
 10
338.372506350455
 20
289.916596738578
 30
0.0
 11
338.372506350455
 21
276.4165967385779
 31
0.0
  0
LINE
  5
42E
102
{ACAD_REACTORS
330
7E8
102
}
330
1F
100
AcDbEntity
  8
実線
100
AcDbLine
 10
302.314712729607
 20
289.916596738578
 30
0.0
 11
302.314712729607
 21
276.4165967385779
 31
0.0
  0
LINE
  5
42F
102
{ACAD_REACTORS
330
7E8
102
}
330
1F
100
AcDbEntity
  8
実線
100
AcDbLine
 10
367.320779308914
 20
276.4165967385779
 30
0.0
 11
273.3664397711465
 21
276.4165967385779
 31
0.0
  0
LINE
  5
430
102
{ACAD_REACTORS
330
7E8
102
}
330
1F
100
AcDbEntity
  8
実線
100
AcDbLine
 10
293.3436095400304
 20
225.7165967385778
 30
0.0
 11
347.3436095400304
 21
225.7165967385778
 31
0.0
  0
ARC
  5
431
102
{ACAD_REACTORS
330
7E8
102
}
330
1F
100
AcDbEntity
  8
実線
100
AcDbCircle
 10
293.3436095400304
 20
238.7165967385777
 30
0.0
 40
13.0
100
AcDbArc
 50
225.3602270413955
 51
270.0
  0
ARC
  5
432
102
{ACAD_REACTORS
330
7E8
102
}
330
1F
100
AcDbEntity
  8
実線
100
AcDbCircle
 10
347.3436095400304
 20
238.7165967385777
 30
0.0
 40
13.0
100
AcDbArc
 50
270.0
 51
314.6397729586045
  0
LINE
  5
433
102
{ACAD_REACTORS
330
7E8
102
}
330
1F
100
AcDbEntity
  8
実線
100
AcDbLine
 10
273.3664397711465
 20
276.4165967385779
 30
0.0
 11
273.3664397711465
 21
266.4165967385778
 31
0.0
  0
LINE
  5
434
102
{ACAD_REACTORS
330
7E8
102
}
330
1F
100
AcDbEntity
  8
実線
100
AcDbLine
 10
273.3664397711465
 20
266.4165967385778
 30
0.0
 11
302.3147127296061
 21
266.4165967385778
 31
0.0
  0
LINE
  5
435
102
{ACAD_REACTORS
330
7E8
102
}
330
1F
100
AcDbEntity
  8
実線
100
AcDbLine
 10
367.320779308914
 20
266.4165967385778
 30
0.0
 11
338.3725063504544
 21
266.4165967385778
 31
0.0
  0
LINE
  5
436
102
{ACAD_REACTORS
330
7E8
102
}
330
1F
100
AcDbEntity
  8
実線
100
AcDbLine
 10
367.320779308914
 20
266.4165967385778
 30
0.0
 11
367.320779308914
 21
276.4165967385779
 31
0.0
  0
LINE
  5
437
102
{ACAD_REACTORS
330
7E8
102
}
330
1F
100
AcDbEntity
  8
実線
100
AcDbLine
 10
338.3725063504544
 20
276.4165967385779
 30
0.0
 11
338.3725063504544
 21
266.4165967385778
 31
0.0
  0
LINE
  5
438
102
{ACAD_REACTORS
330
7E8
102
}
330
1F
100
AcDbEntity
  8
実線
100
AcDbLine
 10
302.3147127296061
 20
276.4165967385779
 30
0.0
 11
302.3147127296061
 21
266.4165967385778
 31
0.0
  0
LINE
  5
439
102
{ACAD_REACTORS
330
7E8
102
}
330
1F
100
AcDbEntity
  8
実線
100
AcDbLine
 10
315.343609540031
 20
458.4165967385778
 30
0.0
 11
295.343609540031
 21
458.4165967385778
 31
0.0
  0
LINE
  5
43A
102
{ACAD_REACTORS
330
7E8
102
}
330
1F
100
AcDbEntity
  8
実線
100
AcDbLine
 10
345.343609540031
 20
456.4165967385779
 30
0.0
 11
330.141568511164
 21
456.4165967385779
 31
0.0
  0
LINE
  5
43B
102
{ACAD_REACTORS
330
7E8
102
}
330
1F
100
AcDbEntity
  8
実線
100
AcDbLine
 10
305.343609540031
 20
458.4165967385778
 30
0.0
 11
305.343609540031
 21
456.4165967385779
 31
0.0
  0
LINE
  5
43C
102
{ACAD_REACTORS
330
7E8
102
}
330
1F
100
AcDbEntity
  8
実線
100
AcDbLine
 10
345.343609540031
 20
456.4165967385779
 30
0.0
 11
345.343609540031
 21
458.4165967385778
 31
0.0
  0
LINE
  5
43D
102
{ACAD_REACTORS
330
7E8
102
}
330
1F
100
AcDbEntity
  8
実線
100
AcDbLine
 10
295.343609540031
 20
458.4165967385778
 30
0.0
 11
295.343609540031
 21
456.4165967385779
 31
0.0
  0
LINE
  5
43E
102
{ACAD_REACTORS
330
7E8
102
}
330
1F
100
AcDbEntity
  8
実線
100
AcDbLine
 10
345.343609540031
 20
458.4165967385778
 30
0.0
 11
335.343609540031
 21
458.4165967385306
 31
0.0
  0
LINE
  5
43F
102
{ACAD_REACTORS
330
7E8
102
}
330
1F
100
AcDbEntity
  8
実線
100
AcDbLine
 10
315.343609540031
 20
456.4165967385779
 30
0.0
 11
315.343609540031
 21
487.4165967385778
 31
0.0
  0
LINE
  5
440
102
{ACAD_REACTORS
330
7E8
102
}
330
1F
100
AcDbEntity
  8
実線
100
AcDbLine
 10
335.343609540031
 20
487.4165967385778
 30
0.0
 11
315.343609540031
 21
487.4165967385778
 31
0.0
  0
LINE
  5
441
102
{ACAD_REACTORS
330
7E8
102
}
330
1F
100
AcDbEntity
  8
実線
100
AcDbLine
 10
335.343609540031
 20
456.4165967385779
 30
0.0
 11
335.343609540031
 21
487.4165967385778
 31
0.0
  0
LINE
  5
442
102
{ACAD_REACTORS
330
7E8
102
}
330
1F
100
AcDbEntity
  8
実線
100
AcDbLine
 10
364.643609540031
 20
360.4165967385779
 30
0.0
 11
364.643609540031
 21
330.916596738578
 31
0.0
  0
ARC
  5
443
102
{ACAD_REACTORS
330
7E8
102
}
330
1F
100
AcDbEntity
  8
実線
100
AcDbCircle
 10
296.643609540031
 20
330.916596738578
 30
0.0
 40
57.99999999999997
100
AcDbArc
 50
315.0170320400987
 51
346.0320373253493
  0
ARC
  5
444
102
{ACAD_REACTORS
330
7E8
102
}
330
1F
100
AcDbEntity
  8
実線
100
AcDbCircle
 10
294.6436095400311
 20
330.916596738578
 30
0.0
 40
70.00000000000003
100
AcDbArc
 50
324.1465329365346
 51
0.0
  0
LINE
  5
445
102
{ACAD_REACTORS
330
7E8
102
}
330
1F
100
AcDbEntity
  8
実線
100
AcDbLine
 10
276.0436095400312
 20
360.4165967385779
 30
0.0
 11
276.0436095400312
 21
330.916596738578
 31
0.0
  0
ARC
  5
446
102
{ACAD_REACTORS
330
7E8
102
}
330
1F
100
AcDbEntity
  8
実線
100
AcDbCircle
 10
346.0436095400309
 20
330.916596738578
 30
0.0
 40
70.00000000000003
100
AcDbArc
 50
180.0
 51
215.8534670634654
  0
ARC
  5
447
102
{ACAD_REACTORS
330
7E8
102
}
330
1F
100
AcDbEntity
  8
実線
100
AcDbCircle
 10
344.0436095400311
 20
330.916596738578
 30
0.0
 40
57.99999999999997
100
AcDbArc
 50
193.9679626746507
 51
224.9829679599013
  0
LINE
  5
448
102
{ACAD_REACTORS
330
7E8
102
}
330
1F
100
AcDbEntity
  8
実線
100
AcDbLine
 10
281.9582282080709
 20
316.9165967385777
 30
0.0
 11
358.7289908719914
 21
316.9165967385777
 31
0.0
  0
LINE
  5
449
102
{ACAD_REACTORS
330
7E8
102
}
330
1F
100
AcDbEntity
  8
実線
100
AcDbLine
 10
281.9582282080709
 20
360.4165967385779
 30
0.0
 11
281.9582282080709
 21
316.9165967385777
 31
0.0
  0
LINE
  5
44A
102
{ACAD_REACTORS
330
7E8
102
}
330
1F
100
AcDbEntity
  8
実線
100
AcDbLine
 10
358.7289908719914
 20
360.4165967385779
 30
0.0
 11
358.7289908719914
 21
316.9165967385777
 31
0.0
  0
LINE
  5
793
102
{ACAD_REACTORS
330
7E7
102
}
330
1F
100
AcDbEntity
  8
中心線
100
AcDbLine
 10
80.34360954003005
 20
193.5165967385778
 30
0.0
 11
80.34360954003005
 21
497.1257372750029
 31
0.0
  0
LINE
  5
794
102
{ACAD_REACTORS
330
7E6
102
}
330
1F
100
AcDbEntity
  8
中心線
100
AcDbLine
 10
248.3436095400309
 20
608.5165967385782
 30
0.0
 11
392.3436095400309
 21
608.5165967385782
 31
0.0
  0
LINE
  5
795
102
{ACAD_REACTORS
330
7E6
102
}
330
1F
100
AcDbEntity
  8
中心線
100
AcDbLine
 10
320.343609540031
 20
553.5165967385778
 30
0.0
 11
320.343609540031
 21
663.5165967385778
 31
0.0
  0
LINE
  5
796
102
{ACAD_REACTORS
330
7E9
102
}
330
1F
100
AcDbEntity
  8
中心線
100
AcDbLine
 10
248.343609540031
 20
68.51659673857795
 30
0.0
 11
392.343609540031
 21
68.51659673857795
 31
0.0
  0
LINE
  5
797
102
{ACAD_REACTORS
330
7E9
102
}
330
1F
100
AcDbEntity
  8
中心線
100
AcDbLine
 10
320.3436095400299
 20
13.51659673857796
 30
0.0
 11
320.34360954003
 21
123.5165967385779
 31
0.0
  0
LINE
  5
798
102
{ACAD_REACTORS
330
7E7
102
}
330
1F
100
AcDbEntity
  8
中心線
100
AcDbLine
 10
25.34360954003006
 20
248.5165967385778
 30
0.0
 11
135.34360954003
 21
248.5165967385778
 31
0.0
  0
LINE
  5
799
102
{ACAD_REACTORS
330
7E8
102
}
330
1F
100
AcDbEntity
  8
中心線
100
AcDbLine
 10
248.343609540031
 20
248.5165967385778
 30
0.0
 11
392.343609540031
 21
248.5165967385778
 31
0.0
  0
LINE
  5
79A
102
{ACAD_REACTORS
330
7E5
102
}
330
1F
100
AcDbEntity
  8
中心線
100
AcDbLine
 10
505.3436095400309
 20
248.5165967385778
 30
0.0
 11
615.3436095400309
 21
248.5165967385778
 31
0.0
  0
LINE
  5
79B
102
{ACAD_REACTORS
330
7E4
102
}
330
1F
100
AcDbEntity
  8
中心線
100
AcDbLine
 10
728.3436095400302
 20
248.5165967385778
 30
0.0
 11
872.3436095400302
 21
248.5165967385778
 31
0.0
  0
LINE
  5
79C
102
{ACAD_REACTORS
330
7E8
102
}
330
1F
100
AcDbEntity
  8
中心線
100
AcDbLine
 10
320.3436095400302
 20
193.5165967385778
 30
0.0
 11
320.3436095400302
 21
497.1257372750029
 31
0.0
  0
LINE
  5
79D
102
{ACAD_REACTORS
330
7E5
102
}
330
1F
100
AcDbEntity
  8
中心線
100
AcDbLine
 10
560.3436095400309
 20
193.5165967385778
 30
0.0
 11
560.3436095400309
 21
497.1257372750029
 31
0.0
  0
LINE
  5
79E
102
{ACAD_REACTORS
330
7E4
102
}
330
1F
100
AcDbEntity
  8
中心線
100
AcDbLine
 10
800.3436095400301
 20
193.5165967385778
 30
0.0
 11
800.3436095400301
 21
497.1257372750029
 31
0.0
  0
ENDSEC
  0
SECTION
  2
OBJECTS
  0
DICTIONARY
  5
C
330
0
100
AcDbDictionary
281
     1
  3
ACAD_CIP_PREVIOUS_PRODUCT_INFO
350
28E
  3
ACAD_COLOR
350
284
  3
ACAD_DETAILVIEWSTYLE
350
287
  3
ACAD_GROUP
350
D
  3
ACAD_LAYOUT
350
1A
  3
ACAD_MATERIAL
350
43
  3
ACAD_MLEADERSTYLE
350
5B
  3
ACAD_MLINESTYLE
350
17
  3
ACAD_PLOTSETTINGS
350
19
  3
ACAD_PLOTSTYLENAME
350
E
  3
ACAD_SCALELIST
350
47
  3
ACAD_SECTIONVIEWSTYLE
350
285
  3
ACAD_TABLESTYLE
350
59
  3
ACAD_VISUALSTYLE
350
2A
  3
ACDB_RECOMPOSE_DATA
350
837
  3
AcDbVariableDictionary
350
239
  3
DWGPROPS
350
838
  0
DICTIONARY
  5
451
330
2
100
AcDbDictionary
280
     1
281
     1
  3
ACAD_LAYERSTATES
360
452
  0
DICTIONARY
  5
79F
330
10
100
AcDbDictionary
280
     1
281
     1
  3
ADSK_XREC_LAYER_RECONCILED
360
7A0
  0
DICTIONARY
  5
44D
330
44C
100
AcDbDictionary
280
     1
281
     1
  3
ADSK_XREC_LAYER_RECONCILED
360
7A1
  0
DICTIONARY
  5
44F
330
44E
100
AcDbDictionary
280
     1
281
     1
  3
ADSK_XREC_LAYER_RECONCILED
360
7A2
  0
DICTIONARY
  5
2C7
330
1F
100
AcDbDictionary
280
     1
281
     1
  3
ACAD_SORTENTS
360
2C8
  0
XRECORD
  5
28E
102
{ACAD_REACTORS
330
C
102
}
330
C
100
AcDbXrecord
280
     1
300
ACDLT
300
2016
300
ACDLT_F_S
  0
DICTIONARY
  5
284
102
{ACAD_REACTORS
330
C
102
}
330
C
100
AcDbDictionary
281
     1
  0
DICTIONARY
  5
287
102
{ACAD_REACTORS
330
C
102
}
330
C
100
AcDbDictionary
281
     1
  3
Metric50
350
288
  0
DICTIONARY
  5
D
102
{ACAD_REACTORS
330
C
102
}
330
C
100
AcDbDictionary
281
     1
  3
*A1
350
7E4
  3
*A2
350
7E5
  3
*A3
350
7E6
  3
*A4
350
7E7
  3
*A5
350
7E8
  3
*A6
350
7E9
  0
DICTIONARY
  5
1A
102
{ACAD_REACTORS
330
C
102
}
330
C
100
AcDbDictionary
281
     1
  3
Layout1
350
1E
  3
Model
350
22
  3
レイアウト1
350
289
  0
DICTIONARY
  5
43
102
{ACAD_REACTORS
330
C
102
}
330
C
100
AcDbDictionary
281
     1
  3
ByBlock
350
45
  3
ByLayer
350
44
  3
Global
350
46
  0
DICTIONARY
  5
5B
102
{ACAD_REACTORS
330
C
102
}
330
C
100
AcDbDictionary
281
     1
  3
Standard
350
5C
  0
DICTIONARY
  5
17
102
{ACAD_REACTORS
330
C
102
}
330
C
100
AcDbDictionary
281
     1
  3
Standard
350
18
  0
DICTIONARY
  5
19
102
{ACAD_REACTORS
330
C
102
}
330
C
100
AcDbDictionary
281
     1
  0
ACDBDICTIONARYWDFLT
  5
E
102
{ACAD_REACTORS
330
C
102
}
330
C
100
AcDbDictionary
281
     1
  3
Normal
350
F
100
AcDbDictionaryWithDefault
340
F
  0
DICTIONARY
  5
47
102
{ACAD_REACTORS
330
C
102
}
330
C
100
AcDbDictionary
281
     1
  3
A0
350
48
  3
A1
350
49
  3
A2
350
4A
  3
A3
350
4B
  3
A4
350
4C
  3
A5
350
4D
  3
A6
350
4E
  3
A7
350
4F
  3
A8
350
50
  3
A9
350
51
  3
B0
350
52
  3
B1
350
53
  3
B2
350
54
  3
B3
350
55
  3
B4
350
56
  3
B5
350
57
  3
B6
350
58
  0
DICTIONARY
  5
285
102
{ACAD_REACTORS
330
C
102
}
330
C
100
AcDbDictionary
281
     1
  3
Metric50
350
286
  0
DICTIONARY
  5
59
102
{ACAD_REACTORS
330
C
102
}
330
C
100
AcDbDictionary
281
     1
  3
Standard
350
5A
  0
DICTIONARY
  5
2A
102
{ACAD_REACTORS
330
C
102
}
330
C
100
AcDbDictionary
281
     1
  3
2dWireframe
350
2F
  3
Basic
350
32
  3
Brighten
350
36
  3
ColorChange
350
3A
  3
Conceptual
350
34
  3
Dim
350
35
  3
EdgeColorOff
350
3D
  3
Facepattern
350
39
  3
Flat
350
2B
  3
FlatWithEdges
350
2C
  3
Gouraud
350
2D
  3
GouraudWithEdges
350
2E
  3
Hidden
350
31
  3
JitterOff
350
3B
  3
Linepattern
350
38
  3
OverhangOff
350
3C
  3
Realistic
350
33
  3
Shaded
350
42
  3
Shaded with edges
350
41
  3
Shades of Gray
350
3E
  3
Sketchy
350
3F
  3
Thicken
350
37
  3
Wireframe
350
30
  3
X-Ray
350
40
  0
XRECORD
  5
837
102
{ACAD_REACTORS
330
C
102
}
330
C
100
AcDbXrecord
280
     1
 90
        1
330
5A
  0
DICTIONARY
  5
239
102
{ACAD_REACTORS
330
C
102
}
330
C
100
AcDbDictionary
281
     1
  3
CANNOSCALE
350
247
  3
CENTEREXE
350
240
  3
CENTERLTYPEFILE
350
241
  3
CMLEADERSTYLE
350
23B
  3
CTABLESTYLE
350
23A
  3
CVIEWDETAILSTYLE
350
7A3
  3
CVIEWSECTIONSTYLE
350
7A4
  3
DIMASSOC
350
242
  3
HIDETEXT
350
243
  3
INDEXCTL
350
82F
  3
LAYEREVAL
350
7A6
  3
LAYERNOTIFY
350
7A7
  3
LIGHTINGUNITS
350
7A5
  3
LOFTANG1
350
832
  3
LOFTANG2
350
833
  3
LONGITUDE
350
834
  3
MSLTSCALE
350
248
  3
PSOLHEIGHT
350
831
  3
PSOLWIDTH
350
830
  3
SORTENTS
350
82E
  3
XCLIPFRAME
350
835
  0
XRECORD
  5
838
102
{ACAD_REACTORS
330
C
102
}
330
C
100
AcDbXrecord
280
     1
  1
DWGPROPS COOKIE
  2

  3

  4

  6
File was created by TR2_DExp
  7

  8
fujino
  9

300
=
301
=
302
=
303
=
304
=
305
=
306
=
307
=
308
=
309
=
 40
0.0279516898148148
 41
2455188.75
 42
2459747.367786169
  1

 90
        0
  0
DICTIONARY
  5
452
102
{ACAD_REACTORS
330
451
102
}
330
451
100
AcDbDictionary
281
     1
  0
XRECORD
  5
7A0
102
{ACAD_REACTORS
330
79F
102
}
330
79F
100
AcDbXrecord
280
     1
290
     1
  0
XRECORD
  5
7A1
102
{ACAD_REACTORS
330
44D
102
}
330
44D
100
AcDbXrecord
280
     1
290
     1
  0
XRECORD
  5
7A2
102
{ACAD_REACTORS
330
44F
102
}
330
44F
100
AcDbXrecord
280
     1
290
     1
  0
SORTENTSTABLE
  5
2C8
102
{ACAD_REACTORS
330
2C7
102
}
330
2C7
100
AcDbSortentsTable
330
1F
331
306
  5
392
331
335
  5
3C1
331
374
  5
35A
331
302
  5
38E
331
2FE
  5
38A
331
331
  5
3BD
331
3A5
  5
2F8
331
3E4
  5
337
331
41F
  5
2C3
331
370
  5
356
331
2BF
  5
443
331
2BB
  5
43F
331
2FA
  5
386
331
32D
  5
3B9
331
3A1
  5
2F4
331
3E0
  5
333
331
41B
  5
2BF
331
36C
  5
352
331
368
  5
34E
331
329
  5
3B5
331
39D
  5
383
331
3DC
  5
32F
331
417
  5
2BB
331
3D8
  5
32B
331
413
  5
2B7
331
399
  5
37F
331
29E
  5
422
331
29A
  5
41E
331
296
  5
41A
331
292
  5
416
331
2B7
  5
43B
331
2F6
  5
411
331
364
  5
34A
331
2B3
  5
437
331
2F2
  5
40D
331
325
  5
3B1
331
2EE
  5
409
331
321
  5
3AD
331
796
  5
796
331
395
  5
37B
331
3D4
  5
327
331
40F
  5
2B3
331
360
  5
346
331
2AF
  5
433
331
2AB
  5
42F
331
2EA
  5
405
331
31D
  5
3A9
331
391
  5
377
331
3D0
  5
323
331
40B
  5
2AF
331
35C
  5
342
331
319
  5
3A5
331
446
  5
2EC
331
38D
  5
373
331
3CC
  5
31F
331
407
  5
2AB
331
358
  5
33E
331
3C8
  5
31B
331
403
  5
2A7
331
442
  5
2E8
331
389
  5
36F
331
79B
  5
79B
331
2E6
  5
401
331
354
  5
3E0
331
2E2
  5
3FD
331
315
  5
3A1
331
2DE
  5
3F9
331
311
  5
39D
331
3C4
  5
317
331
350
  5
3DC
331
3FF
  5
2A3
331
43E
  5
2E4
331
385
  5
36B
331
2DA
  5
3F5
331
381
  5
367
331
3C0
  5
313
331
34C
  5
3D8
331
3FB
  5
29F
331
43A
  5
2E0
331
436
  5
2DC
331
3BC
  5
30F
331
3F7
  5
29B
331
348
  5
3D4
331
3F3
  5
297
331
432
  5
2D8
331
3B8
  5
30B
331
2C6
  5
44A
331
2C2
  5
446
331
2D6
  5
3F1
331
344
  5
3D0
331
2D2
  5
3ED
331
30D
  5
399
331
3B4
  5
307
331
340
  5
3CC
331
42E
  5
2D4
331
37F
  5
365
331
2CE
  5
3E9
331
2CA
  5
3E5
331
309
  5
395
331
33C
  5
3C8
331
3B0
  5
303
331
3EF
  5
293
331
42A
  5
2D0
331
37B
  5
361
331
338
  5
3C4
331
426
  5
2CC
331
3AC
  5
2FF
331
3EB
  5
28F
331
422
  5
2C6
331
3A8
  5
2FB
331
2A5
  5
429
331
2A1
  5
425
331
377
  5
35D
331
305
  5
391
331
334
  5
3C0
331
3E7
  5
33A
331
373
  5
359
331
301
  5
38D
331
2FD
  5
389
331
330
  5
3BC
331
3A4
  5
2F7
331
3E3
  5
336
331
41E
  5
2C2
331
36F
  5
355
331
2BE
  5
442
331
2BA
  5
43E
331
2F9
  5
385
331
32C
  5
3B8
331
3A0
  5
2F3
331
3DF
  5
332
331
41A
  5
2BE
331
36B
  5
351
331
328
  5
3B4
331
416
  5
2BA
331
39C
  5
382
331
3DB
  5
32E
331
412
  5
2B6
331
398
  5
37E
331
29D
  5
421
331
299
  5
41D
331
295
  5
419
331
291
  5
415
331
367
  5
34D
331
2B6
  5
43A
331
2F5
  5
410
331
324
  5
3B0
331
3D7
  5
32A
331
363
  5
349
331
2B2
  5
436
331
2F1
  5
40C
331
2ED
  5
408
331
320
  5
3AC
331
795
  5
795
331
394
  5
37A
331
3D3
  5
326
331
40E
  5
2B2
331
35F
  5
345
331
2AE
  5
432
331
2AA
  5
42E
331
2E9
  5
404
331
31C
  5
3A8
331
390
  5
376
331
3CF
  5
322
331
40A
  5
2AE
331
35B
  5
341
331
318
  5
3A4
331
445
  5
2EB
331
38C
  5
372
331
3CB
  5
31E
331
406
  5
2AA
331
402
  5
2A6
331
441
  5
2E7
331
388
  5
36E
331
44A
  5
2F0
331
79E
  5
79E
331
79A
  5
79A
331
357
  5
3E3
331
2E5
  5
400
331
353
  5
3DF
331
2E1
  5
3FC
331
3C7
  5
31A
331
314
  5
3A0
331
2DD
  5
3F8
331
310
  5
39C
331
384
  5
36A
331
3C3
  5
316
331
34F
  5
3DB
331
3FE
  5
2A2
331
43D
  5
2E3
331
2D9
  5
3F4
331
380
  5
366
331
3BF
  5
312
331
34B
  5
3D7
331
3FA
  5
29E
331
439
  5
2DF
331
435
  5
2DB
331
3BB
  5
30E
331
3F6
  5
29A
331
3F2
  5
296
331
431
  5
2D7
331
2C5
  5
449
331
2C1
  5
445
331
2D5
  5
3F0
331
347
  5
3D3
331
3B7
  5
30A
331
343
  5
3CF
331
2D1
  5
3EC
331
2CD
  5
3E8
331
30C
  5
398
331
3B3
  5
306
331
33F
  5
3CB
331
42D
  5
2D3
331
37E
  5
364
331
2C9
  5
3E4
331
308
  5
394
331
33B
  5
3C7
331
3AF
  5
302
331
3EE
  5
292
331
429
  5
2CF
331
37A
  5
360
331
3EA
  5
33D
331
425
  5
2CB
331
3AB
  5
2FE
331
421
  5
2C5
331
2A4
  5
428
331
2A0
  5
424
331
376
  5
35C
331
304
  5
390
331
337
  5
3C3
331
300
  5
38C
331
333
  5
3BF
331
3E6
  5
339
331
372
  5
358
331
3A7
  5
2FA
331
2FC
  5
388
331
32F
  5
3BB
331
3A3
  5
2F6
331
3E2
  5
335
331
41D
  5
2C1
331
36E
  5
354
331
2BD
  5
441
331
2B9
  5
43D
331
2F8
  5
384
331
32B
  5
3B7
331
39F
  5
2F2
331
3DE
  5
331
331
419
  5
2BD
331
36A
  5
350
331
415
  5
2B9
331
39B
  5
381
331
3DA
  5
32D
331
411
  5
2B5
331
29C
  5
420
331
298
  5
41C
331
294
  5
418
331
290
  5
414
331
366
  5
34C
331
2B5
  5
439
331
2F4
  5
40F
331
327
  5
3B3
331
323
  5
3AF
331
3D6
  5
329
331
362
  5
348
331
2B1
  5
435
331
397
  5
37D
331
2F0
  5
40B
331
2EC
  5
407
331
31F
  5
3AB
331
794
  5
794
331
393
  5
379
331
3D2
  5
325
331
40D
  5
2B1
331
35E
  5
344
331
2AD
  5
431
331
2A9
  5
42D
331
2E8
  5
403
331
31B
  5
3A7
331
38F
  5
375
331
3CE
  5
321
331
409
  5
2AD
331
35A
  5
340
331
405
  5
2A9
331
444
  5
2EA
331
38B
  5
371
331
3CA
  5
31D
331
401
  5
2A5
331
440
  5
2E6
331
449
  5
2EF
331
79D
  5
79D
331
799
  5
799
331
356
  5
3E2
331
2E4
  5
3FF
331
317
  5
3A3
331
313
  5
39F
331
3C6
  5
319
331
352
  5
3DE
331
387
  5
36D
331
2E0
  5
3FB
331
2DC
  5
3F7
331
383
  5
369
331
3C2
  5
315
331
34E
  5
3DA
331
3FD
  5
2A1
331
43C
  5
2E2
331
2D8
  5
3F3
331
438
  5
2DE
331
3BE
  5
311
331
3F9
  5
29D
331
34A
  5
3D6
331
434
  5
2DA
331
3BA
  5
30D
331
3F5
  5
299
331
3F1
  5
295
331
430
  5
2D6
331
2C4
  5
448
331
2C0
  5
444
331
346
  5
3D2
331
2D4
  5
3EF
331
30F
  5
39B
331
3B6
  5
309
331
342
  5
3CE
331
2D0
  5
3EB
331
2CC
  5
3E7
331
30B
  5
397
331
3B2
  5
305
331
33E
  5
3CA
331
42C
  5
2D2
331
37D
  5
363
331
379
  5
35F
331
33A
  5
3C6
331
3AE
  5
301
331
3ED
  5
291
331
428
  5
2CE
331
3E9
  5
33C
331
424
  5
2CA
331
3AA
  5
2FD
331
420
  5
2C4
331
2A7
  5
42B
331
2A3
  5
427
331
307
  5
393
331
375
  5
35B
331
303
  5
38F
331
336
  5
3C2
331
2FF
  5
38B
331
332
  5
3BE
331
3A6
  5
2F9
331
3E5
  5
338
331
371
  5
357
331
2BC
  5
440
331
2FB
  5
387
331
32E
  5
3BA
331
3A2
  5
2F5
331
3E1
  5
334
331
41C
  5
2C0
331
36D
  5
353
331
2B8
  5
43C
331
32A
  5
3B6
331
39E
  5
2F1
331
3DD
  5
330
331
418
  5
2BC
331
369
  5
34F
331
3D9
  5
32C
331
414
  5
2B8
331
39A
  5
380
331
410
  5
2B4
331
29F
  5
423
331
29B
  5
41F
331
297
  5
41B
331
293
  5
417
331
2F7
  5
412
331
365
  5
34B
331
2B4
  5
438
331
2F3
  5
40E
331
326
  5
3B2
331
2EF
  5
40A
331
322
  5
3AE
331
3D5
  5
328
331
361
  5
347
331
2B0
  5
434
331
797
  5
797
331
396
  5
37C
331
2EB
  5
406
331
31E
  5
3AA
331
793
  5
793
331
392
  5
378
331
3D1
  5
324
331
40C
  5
2B0
331
35D
  5
343
331
2AC
  5
430
331
2A8
  5
42C
331
31A
  5
3A6
331
447
  5
2ED
331
38E
  5
374
331
3CD
  5
320
331
408
  5
2AC
331
359
  5
33F
331
404
  5
2A8
331
443
  5
2E9
331
38A
  5
370
331
3C9
  5
31C
331
400
  5
2A4
331
448
  5
2EE
331
28F
  5
413
331
79C
  5
79C
331
798
  5
798
331
2E7
  5
402
331
355
  5
3E1
331
2E3
  5
3FE
331
316
  5
3A2
331
312
  5
39E
331
3C5
  5
318
331
351
  5
3DD
331
43F
  5
2E5
331
386
  5
36C
331
2DF
  5
3FA
331
2DB
  5
3F6
331
382
  5
368
331
3C1
  5
314
331
34D
  5
3D9
331
3FC
  5
2A0
331
43B
  5
2E1
331
437
  5
2DD
331
3BD
  5
310
331
3F8
  5
29C
331
349
  5
3D5
331
3F4
  5
298
331
433
  5
2D9
331
3B9
  5
30C
331
3F0
  5
294
331
2C3
  5
447
331
2D7
  5
3F2
331
345
  5
3D1
331
2D3
  5
3EE
331
30E
  5
39A
331
3B5
  5
308
331
341
  5
3CD
331
42F
  5
2D5
331
2CF
  5
3EA
331
2CB
  5
3E6
331
30A
  5
396
331
3B1
  5
304
331
33D
  5
3C9
331
42B
  5
2D1
331
37C
  5
362
331
378
  5
35E
331
339
  5
3C5
331
427
  5
2CD
331
3AD
  5
300
331
3EC
  5
290
331
3E8
  5
33B
331
423
  5
2C9
331
3A9
  5
2FC
331
2A6
  5
42A
331
2A2
  5
426
  0
ACDBDETAILVIEWSTYLE
  5
288
102
{ACAD_XDICTIONARY
360
870
102
}
102
{ACAD_REACTORS
330
287
102
}
330
287
100
AcDbModelDocViewStyle
 70
     0
  3
Metric50
290
     0
100
AcDbDetailViewStyle
 70
     0
 71
     0
 90
        3
 71
     1
340
11
 40
5.0
340
0
 40
5.0
300

 40
0.0
280
     1
 71
     2
340
16
 90
       25
 71
     3
340
11
 40
5.0
 90
        0
 40
15.0
 90
        1
300
%<\AcVar ViewDetailId>% (%<\AcVar ViewScale \f "%sn">%)
 71
     4
340
16
 90
       25
340
16
 90
       25
280
     0
  0
GROUP
  5
7E4
102
{ACAD_REACTORS
330
D
102
}
330
D
100
AcDbGroup
300

 70
     1
 71
     1
340
79E
340
79B
340
357
340
356
340
355
340
354
340
353
340
352
340
351
340
350
340
34F
340
34E
340
34D
340
34C
340
34B
340
34A
340
349
340
348
340
347
340
346
340
345
340
344
340
343
340
342
340
341
340
340
340
33F
340
33E
340
33D
340
33C
340
33B
340
33A
340
339
340
338
340
337
340
336
340
335
340
334
340
333
340
332
340
331
340
330
340
32F
340
32E
340
32D
340
32C
340
32B
340
32A
340
329
340
328
340
327
340
326
340
325
340
324
340
323
340
322
340
321
340
320
340
31F
340
31E
340
31D
340
31C
340
31B
340
31A
340
319
340
318
340
317
340
316
340
315
340
314
340
313
340
312
340
311
340
310
340
30F
340
30E
340
30D
340
30C
340
30B
340
30A
340
309
340
308
340
307
340
306
340
305
340
304
340
303
340
302
340
301
340
300
340
2FF
340
2FE
340
2FD
340
2FC
340
2FB
340
2FA
340
2F9
340
2F8
  0
GROUP
  5
7E5
102
{ACAD_REACTORS
330
D
102
}
330
D
100
AcDbGroup
300

 70
     1
 71
     1
340
79D
340
79A
340
3EA
340
3E9
340
3E8
340
3E7
340
3E6
340
3E5
340
3E4
340
3E3
340
3E2
340
3E1
340
3E0
340
3DF
340
3DE
340
3DD
340
3DC
340
3DB
340
3DA
340
3D9
340
3D8
340
3D7
340
3D6
340
3D5
340
3D4
340
3D3
340
3D2
340
3D1
340
3D0
340
3CF
340
3CE
340
3CD
340
3CC
340
3CB
340
3CA
340
3C9
340
3C8
340
3C7
340
3C6
340
3C5
340
3C4
340
3C3
340
3C2
340
3C1
340
3C0
340
3BF
340
3BE
340
3BD
340
3BC
340
3BB
340
3BA
340
3B9
340
3B8
340
3B7
340
3B6
340
3B5
340
3B4
340
3B3
340
3B2
340
3B1
340
3B0
340
3AF
340
3AE
340
3AD
340
3AC
340
3AB
340
3AA
340
3A9
340
3A8
340
3A7
340
3A6
340
3A5
340
3A4
340
3A3
340
3A2
340
3A1
340
3A0
340
39F
340
39E
  0
GROUP
  5
7E6
102
{ACAD_REACTORS
330
D
102
}
330
D
100
AcDbGroup
300

 70
     1
 71
     1
340
795
340
794
340
2C6
340
2C5
340
2C4
340
2C3
340
2C2
340
2C1
340
2C0
340
2BF
340
2BE
340
2BD
340
2BC
340
2BB
340
2BA
340
2B9
340
2B8
340
2B7
340
2B6
340
2B5
340
2B4
340
2B3
340
2B2
340
2B1
340
2B0
340
2AF
340
2AE
340
2AD
340
2AC
340
2AB
340
2AA
340
2A9
340
2A8
340
2A7
340
2A6
340
2A5
340
2A4
340
2A3
340
2A2
340
2A1
340
2A0
340
29F
340
29E
340
29D
340
29C
340
29B
340
29A
340
299
340
298
340
297
340
296
340
295
340
294
340
293
340
292
340
291
340
290
340
28F
  0
GROUP
  5
7E7
102
{ACAD_REACTORS
330
D
102
}
330
D
100
AcDbGroup
300

 70
     1
 71
     1
340
798
340
793
340
39D
340
39C
340
39B
340
39A
340
399
340
398
340
397
340
396
340
395
340
394
340
393
340
392
340
391
340
390
340
38F
340
38E
340
38D
340
38C
340
38B
340
38A
340
389
340
388
340
387
340
386
340
385
340
384
340
383
340
382
340
381
340
380
340
37F
340
37E
340
37D
340
37C
340
37B
340
37A
340
379
340
378
340
377
340
376
340
375
340
374
340
373
340
372
340
371
340
370
340
36F
340
36E
340
36D
340
36C
340
36B
340
36A
340
369
340
368
340
367
340
366
340
365
340
364
340
363
340
362
340
361
340
360
340
35F
340
35E
340
35D
340
35C
340
35B
340
35A
340
359
340
358
  0
GROUP
  5
7E8
102
{ACAD_REACTORS
330
D
102
}
330
D
100
AcDbGroup
300

 70
     1
 71
     1
340
79C
340
799
340
44A
340
449
340
448
340
447
340
446
340
445
340
444
340
443
340
442
340
441
340
440
340
43F
340
43E
340
43D
340
43C
340
43B
340
43A
340
439
340
438
340
437
340
436
340
435
340
434
340
433
340
432
340
431
340
430
340
42F
340
42E
340
42D
340
42C
340
42B
340
42A
340
429
340
428
340
427
340
426
340
425
340
424
340
423
340
422
340
421
340
420
340
41F
340
41E
340
41D
340
41C
340
41B
340
41A
340
419
340
418
340
417
340
416
340
415
340
414
340
413
340
412
340
411
340
410
340
40F
340
40E
340
40D
340
40C
340
40B
340
40A
340
409
340
408
340
407
340
406
340
405
340
404
340
403
340
402
340
401
340
400
340
3FF
340
3FE
340
3FD
340
3FC
340
3FB
340
3FA
340
3F9
340
3F8
340
3F7
340
3F6
340
3F5
340
3F4
340
3F3
340
3F2
340
3F1
340
3F0
340
3EF
340
3EE
340
3ED
340
3EC
340
3EB
  0
GROUP
  5
7E9
102
{ACAD_REACTORS
330
D
102
}
330
D
100
AcDbGroup
300

 70
     1
 71
     1
340
797
340
796
340
2F7
340
2F6
340
2F5
340
2F4
340
2F3
340
2F2
340
2F1
340
2F0
340
2EF
340
2EE
340
2ED
340
2EC
340
2EB
340
2EA
340
2E9
340
2E8
340
2E7
340
2E6
340
2E5
340
2E4
340
2E3
340
2E2
340
2E1
340
2E0
340
2DF
340
2DE
340
2DD
340
2DC
340
2DB
340
2DA
340
2D9
340
2D8
340
2D7
340
2D6
340
2D5
340
2D4
340
2D3
340
2D2
340
2D1
340
2D0
340
2CF
340
2CE
340
2CD
340
2CC
340
2CB
340
2CA
340
2C9
  0
LAYOUT
  5
1E
102
{ACAD_XDICTIONARY
360
839
102
}
102
{ACAD_REACTORS
330
1A
102
}
330
1A
100
AcDbPlotSettings
  1

  2
none_device
  4

  6

 40
0.0
 41
0.0
 42
0.0
 43
0.0
 44
0.0
 45
0.0
 46
0.0
 47
0.0
 48
0.0
 49
0.0
140
0.0
141
0.0
142
1.0
143
1.0
 70
   688
 72
     1
 73
     0
 74
     5
  7

 75
    16
147
1.0
148
0.0
149
0.0
100
AcDbLayout
  1
Layout1
 70
     1
 71
     1
 10
0.0
 20
0.0
 11
420.0
 21
297.0
 12
0.0
 22
0.0
 32
0.0
 14
1.000000000000000E+20
 24
1.000000000000000E+20
 34
1.000000000000000E+20
 15
-1.000000000000000E+20
 25
-1.000000000000000E+20
 35
-1.000000000000000E+20
146
0.0
 13
0.0
 23
0.0
 33
0.0
 16
1.0
 26
0.0
 36
0.0
 17
0.0
 27
1.0
 37
0.0
 76
     0
330
1B
  0
LAYOUT
  5
22
102
{ACAD_XDICTIONARY
360
83B
102
}
102
{ACAD_REACTORS
330
1A
102
}
330
1A
100
AcDbPlotSettings
  1

  2
none_device
  4
Letter_(8.50_x_11.00_Inches)
  6

 40
6.349999999999997
 41
6.349999999999997
 42
6.350005079999997
 43
6.350005079999997
 44
215.9
 45
279.4
 46
0.0
 47
0.0
 48
0.0
 49
0.0
140
0.0
141
0.0
142
1.0
143
1.0
 70
  1712
 72
     1
 73
     0
 74
     0
  7

 75
     0
147
1.0
148
0.0
149
0.0
100
AcDbLayout
  1
Model
 70
     1
 71
     0
 10
-347.1225891113285
 20
-365.1190567016602
 11
959.0256195068358
 21
512.1766128540039
 12
0.0
 22
0.0
 32
0.0
 14
-347.1225891113285
 24
-365.1190567016602
 34
0.0
 15
959.0256195068358
 25
512.1766128540039
 35
0.0
146
0.0
 13
0.0
 23
0.0
 33
0.0
 16
1.0
 26
0.0
 36
0.0
 17
0.0
 27
1.0
 37
0.0
 76
     0
330
1F
331
29
  0
LAYOUT
  5
289
102
{ACAD_XDICTIONARY
360
872
102
}
102
{ACAD_REACTORS
330
1A
102
}
330
1A
100
AcDbPlotSettings
  1

  2
青梅 FX DocuCentre-V C2275 T2
  4

  6

 40
0.0
 41
0.0
 42
0.0
 43
0.0
 44
0.0
 45
0.0
 46
0.0
 47
0.0
 48
0.0
 49
0.0
140
0.0
141
0.0
142
1.0
143
1.0
 70
   688
 72
     0
 73
     0
 74
     5
  7
AutoCAD_PEN.ctb
 75
    16
147
1.0
148
0.0
149
0.0
100
AcDbLayout
  1
レイアウト1
 70
     1
 71
     2
 10
0.0
 20
0.0
 11
12.0
 21
9.0
 12
0.0
 22
0.0
 32
0.0
 14
0.0
 24
0.0
 34
0.0
 15
0.0
 25
0.0
 35
0.0
146
0.0
 13
0.0
 23
0.0
 33
0.0
 16
1.0
 26
0.0
 36
0.0
 17
0.0
 27
1.0
 37
0.0
 76
     0
330
23
  0
MATERIAL
  5
45
102
{ACAD_XDICTIONARY
360
27B
102
}
102
{ACAD_REACTORS
330
43
102
}
330
43
100
AcDbMaterial
  1
ByBlock
  0
MATERIAL
  5
44
102
{ACAD_XDICTIONARY
360
279
102
}
102
{ACAD_REACTORS
330
43
102
}
330
43
100
AcDbMaterial
  1
ByLayer
  0
MATERIAL
  5
46
102
{ACAD_XDICTIONARY
360
27D
102
}
102
{ACAD_REACTORS
330
43
102
}
330
43
100
AcDbMaterial
  1
Global
  0
MLEADERSTYLE
  5
5C
102
{ACAD_REACTORS
330
5B
102
}
330
5B
100
AcDbMLeaderStyle
170
     2
171
     1
172
     0
 90
        2
 40
0.0
 41
0.0
173
     1
 91
-1056964608
340
14
 92
       -2
290
     1
 42
2.0
291
     1
 43
8.0
  3
Standard
 44
4.0
300

342
11
174
     1
178
     6
175
     1
176
     0
 93
-1056964608
 45
4.0
292
     0
297
     0
 46
4.0
 94
-1056964608
 47
1.0
 49
1.0
140
1.0
293
     1
141
0.0
294
     1
177
     0
142
1.0
295
     0
296
     0
143
3.75
1001
ACAD_MLEADERVER
1070
     2
  0
MLINESTYLE
  5
18
102
{ACAD_REACTORS
330
17
102
}
330
17
100
AcDbMlineStyle
  2
STANDARD
 70
     0
  3

 62
   256
 51
90.0
 52
90.0
 71
     2
 49
0.5
 62
   256
  6
BYLAYER
 49
-0.5
 62
   256
  6
BYLAYER
  0
ACDBPLACEHOLDER
  5
F
102
{ACAD_REACTORS
330
E
102
}
330
E
  0
SCALE
  5
48
102
{ACAD_REACTORS
330
47
102
}
330
47
100
AcDbScale
 70
     0
300
1:1
140
1.0
141
1.0
290
     1
  0
SCALE
  5
49
102
{ACAD_REACTORS
330
47
102
}
330
47
100
AcDbScale
 70
     0
300
1:2
140
1.0
141
2.0
290
     0
  0
SCALE
  5
4A
102
{ACAD_REACTORS
330
47
102
}
330
47
100
AcDbScale
 70
     0
300
1:4
140
1.0
141
4.0
290
     0
  0
SCALE
  5
4B
102
{ACAD_REACTORS
330
47
102
}
330
47
100
AcDbScale
 70
     0
300
1:5
140
1.0
141
5.0
290
     0
  0
SCALE
  5
4C
102
{ACAD_REACTORS
330
47
102
}
330
47
100
AcDbScale
 70
     0
300
1:8
140
1.0
141
8.0
290
     0
  0
SCALE
  5
4D
102
{ACAD_REACTORS
330
47
102
}
330
47
100
AcDbScale
 70
     0
300
1:10
140
1.0
141
10.0
290
     0
  0
SCALE
  5
4E
102
{ACAD_REACTORS
330
47
102
}
330
47
100
AcDbScale
 70
     0
300
1:16
140
1.0
141
16.0
290
     0
  0
SCALE
  5
4F
102
{ACAD_REACTORS
330
47
102
}
330
47
100
AcDbScale
 70
     0
300
1:20
140
1.0
141
20.0
290
     0
  0
SCALE
  5
50
102
{ACAD_REACTORS
330
47
102
}
330
47
100
AcDbScale
 70
     0
300
1:30
140
1.0
141
30.0
290
     0
  0
SCALE
  5
51
102
{ACAD_REACTORS
330
47
102
}
330
47
100
AcDbScale
 70
     0
300
1:40
140
1.0
141
40.0
290
     0
  0
SCALE
  5
52
102
{ACAD_REACTORS
330
47
102
}
330
47
100
AcDbScale
 70
     0
300
1:50
140
1.0
141
50.0
290
     0
  0
SCALE
  5
53
102
{ACAD_REACTORS
330
47
102
}
330
47
100
AcDbScale
 70
     0
300
1:100
140
1.0
141
100.0
290
     0
  0
SCALE
  5
54
102
{ACAD_REACTORS
330
47
102
}
330
47
100
AcDbScale
 70
     0
300
2:1
140
2.0
141
1.0
290
     0
  0
SCALE
  5
55
102
{ACAD_REACTORS
330
47
102
}
330
47
100
AcDbScale
 70
     0
300
4:1
140
4.0
141
1.0
290
     0
  0
SCALE
  5
56
102
{ACAD_REACTORS
330
47
102
}
330
47
100
AcDbScale
 70
     0
300
8:1
140
8.0
141
1.0
290
     0
  0
SCALE
  5
57
102
{ACAD_REACTORS
330
47
102
}
330
47
100
AcDbScale
 70
     0
300
10:1
140
10.0
141
1.0
290
     0
  0
SCALE
  5
58
102
{ACAD_REACTORS
330
47
102
}
330
47
100
AcDbScale
 70
     0
300
100:1
140
100.0
141
1.0
290
     0
  0
ACDBSECTIONVIEWSTYLE
  5
286
102
{ACAD_XDICTIONARY
360
86E
102
}
102
{ACAD_REACTORS
330
285
102
}
330
285
100
AcDbModelDocViewStyle
 70
     0
  3
Metric50
290
     0
100
AcDbSectionViewStyle
 70
     0
 71
     0
 90
      102
 71
     1
340
11
 40
5.0
340
0
340
0
 40
5.0
300
I, O, Q, S, X, Z
 40
10.0
 90
        0
 40
2.5
 90
        0
 71
     2
340
16
 90
       25
340
16
 90
       50
 40
5.0
 40
2.5
 40
5.0
 71
     3
340
11
 40
5.0
 90
        0
 40
15.0
 90
        1
300
%<\AcVar ViewSectionStartId>%-%<\AcVar ViewSectionEndId>% (%<\AcVar ViewScale \f "%sn">%)
 71
     4
300
ANSI31
 40
1.0
 90
        0
290
     0
290
     0
 90
        6
 40
0.0
 40
1.570796326794896
 40
0.2617993877991494
 40
1.308996938995747
 40
-0.2617993877991494
 40
1.832595714594044
  0
TABLESTYLE
  5
5A
102
{ACAD_XDICTIONARY
360
7A8
102
}
102
{ACAD_REACTORS
330
59
102
}
330
59
100
AcDbTableStyle
  3
Standard
 70
     0
 71
     0
 40
1.5
 41
1.5
280
     0
281
     0
  7
Standard
140
4.5
170
     2
 62
     0
 63
     7
283
     0
274
    -2
284
     1
 64
     0
275
    -2
285
     1
 65
     0
276
    -2
286
     1
 66
     0
277
    -2
287
     1
 67
     0
278
    -2
288
     1
 68
     0
279
    -2
289
     1
 69
     0
  7
Standard
140
6.0
170
     5
 62
     0
 63
     7
283
     0
274
    -2
284
     1
 64
     0
275
    -2
285
     1
 65
     0
276
    -2
286
     1
 66
     0
277
    -2
287
     1
 67
     0
278
    -2
288
     1
 68
     0
279
    -2
289
     1
 69
     0
  7
Standard
140
4.5
170
     5
 62
     0
 63
     7
283
     0
274
    -2
284
     1
 64
     0
275
    -2
285
     1
 65
     0
276
    -2
286
     1
 66
     0
277
    -2
287
     1
 67
     0
278
    -2
288
     1
 68
     0
279
    -2
289
     1
 69
     0
  0
VISUALSTYLE
  5
2F
102
{ACAD_XDICTIONARY
360
845
102
}
102
{ACAD_REACTORS
330
2A
102
}
330
2A
100
AcDbVisualStyle
  2

 70
     4
 71
     0
 72
     2
 73
     0
 90
        0
 40
-0.6
 41
-30.0
 62
     5
 63
     7
 74
     1
 91
        4
 64
     7
 65
   257
 75
     1
175
     1
 42
1.0
 92
        0
 66
   257
 43
1.0
 76
     1
 77
     6
 78
     2
 67
     7
 79
     5
170
     0
171
     0
290
     0
174
     0
 93
        1
 44
0.0
173
     0
291
     0
 45
0.0
1001
ACAD
1000
AcDbSavedByObjectVersion
1070
     0
  0
VISUALSTYLE
  5
32
102
{ACAD_XDICTIONARY
360
84B
102
}
102
{ACAD_REACTORS
330
2A
102
}
330
2A
100
AcDbVisualStyle
  2

 70
     7
 71
     1
 72
     0
 73
     1
 90
        0
 40
-0.6
 41
-30.0
 62
     5
 63
     7
 74
     0
 91
        4
 64
     7
 65
   257
 75
     1
175
     1
 42
1.0
 92
        8
 66
     7
 43
1.0
 76
     1
 77
     6
 78
     2
 67
     7
 79
     5
170
     0
171
     0
290
     0
174
     0
 93
        1
 44
0.0
173
     0
291
     1
 45
0.0
1001
ACAD
1000
AcDbSavedByObjectVersion
1070
     0
  0
VISUALSTYLE
  5
36
102
{ACAD_XDICTIONARY
360
853
102
}
102
{ACAD_REACTORS
330
2A
102
}
330
2A
100
AcDbVisualStyle
  2

 70
    12
 71
     2
 72
     2
 73
     0
 90
        0
 40
-0.6
 41
-30.0
 62
     5
 63
     7
 74
     1
 91
        4
 64
     7
 65
   257
 75
     1
175
     1
 42
1.0
 92
        8
 66
     7
 43
1.0
 76
     1
 77
     6
 78
     2
 67
     7
 79
     5
170
     0
171
     0
290
     0
174
     0
 93
        1
 44
50.0
173
     0
291
     1
 45
0.0
1001
ACAD
1000
AcDbSavedByObjectVersion
1070
     0
  0
VISUALSTYLE
  5
3A
102
{ACAD_XDICTIONARY
360
85B
102
}
102
{ACAD_REACTORS
330
2A
102
}
330
2A
100
AcDbVisualStyle
  2

 70
    16
 71
     2
 72
     2
 73
     3
 90
        0
 40
-0.6
 41
-30.0
 62
     5
 63
     8
 74
     1
 91
        4
 64
     7
 65
   257
 75
     1
175
     1
 42
1.0
 92
        8
 66
     8
 43
1.0
 76
     1
 77
     6
 78
     2
 67
     7
 79
     5
170
     0
171
     0
290
     0
174
     0
 93
        1
 44
0.0
173
     0
291
     1
 45
0.0
1001
ACAD
1000
AcDbSavedByObjectVersion
1070
     0
  0
VISUALSTYLE
  5
34
102
{ACAD_XDICTIONARY
360
84F
102
}
102
{ACAD_REACTORS
330
2A
102
}
330
2A
100
AcDbVisualStyle
  2

 70
     9
 71
     3
 72
     2
 73
     0
 90
        0
 40
-0.6
 41
-30.0
 62
     5
 63
     7
 74
     2
 91
        2
 64
     7
 65
   257
 75
     1
175
     1
 42
179.0
 92
        8
 66
     7
 43
1.0
 76
     1
 77
     6
 78
     2
 67
     7
 79
     3
170
     0
171
     0
290
     0
174
     0
 93
        1
 44
0.0
173
     0
291
     0
 45
0.0
1001
ACAD
1000
AcDbSavedByObjectVersion
1070
     0
  0
VISUALSTYLE
  5
35
102
{ACAD_XDICTIONARY
360
851
102
}
102
{ACAD_REACTORS
330
2A
102
}
330
2A
100
AcDbVisualStyle
  2

 70
    11
 71
     2
 72
     2
 73
     0
 90
        0
 40
-0.6
 41
-30.0
 62
     5
 63
     7
 74
     1
 91
        4
 64
     7
 65
   257
 75
     1
175
     1
 42
1.0
 92
        8
 66
     7
 43
1.0
 76
     1
 77
     6
 78
     2
 67
     7
 79
     5
170
     0
171
     0
290
     0
174
     0
 93
        1
 44
-50.0
173
     0
291
     1
 45
0.0
1001
ACAD
1000
AcDbSavedByObjectVersion
1070
     0
  0
VISUALSTYLE
  5
3D
102
{ACAD_XDICTIONARY
360
861
102
}
102
{ACAD_REACTORS
330
2A
102
}
330
2A
100
AcDbVisualStyle
  2

 70
    22
 71
     2
 72
     2
 73
     0
 90
        0
 40
-0.6
 41
-30.0
 62
     5
 63
     7
 74
     1
 91
        4
 64
     7
 65
   257
 75
     1
175
     1
 42
1.0
 92
        8
 66
     7
 43
1.0
 76
     1
 77
     6
 78
     2
 67
     7
 79
     5
170
     0
171
     0
290
     0
174
     0
 93
        1
 44
0.0
173
     0
291
     1
 45
0.0
1001
ACAD
1000
AcDbSavedByObjectVersion
1070
     0
  0
VISUALSTYLE
  5
39
102
{ACAD_XDICTIONARY
360
859
102
}
102
{ACAD_REACTORS
330
2A
102
}
330
2A
100
AcDbVisualStyle
  2

 70
    15
 71
     2
 72
     2
 73
     0
 90
        0
 40
-0.6
 41
-30.0
 62
     5
 63
     7
 74
     1
 91
        4
 64
     7
 65
   257
 75
     1
175
     1
 42
1.0
 92
        8
 66
     7
 43
1.0
 76
     1
 77
     6
 78
     2
 67
     7
 79
     5
170
     0
171
     0
290
     0
174
     0
 93
        1
 44
0.0
173
     0
291
     1
 45
0.0
1001
ACAD
1000
AcDbSavedByObjectVersion
1070
     0
  0
VISUALSTYLE
  5
2B
102
{ACAD_XDICTIONARY
360
83D
102
}
102
{ACAD_REACTORS
330
2A
102
}
330
2A
100
AcDbVisualStyle
  2

 70
     0
 71
     2
 72
     1
 73
     1
 90
        2
 40
-0.6
 41
30.0
 62
     5
 63
     7
 74
     0
 91
        0
 64
     7
 65
   257
 75
     1
175
     1
 42
1.0
 92
        8
 66
     7
 43
1.0
 76
     1
 77
     6
 78
     2
 67
     7
 79
     5
170
     0
171
     0
290
     0
174
     0
 93
       13
 44
0.0
173
     0
291
     1
 45
0.0
1001
ACAD
1000
AcDbSavedByObjectVersion
1070
     0
  0
VISUALSTYLE
  5
2C
102
{ACAD_XDICTIONARY
360
83F
102
}
102
{ACAD_REACTORS
330
2A
102
}
330
2A
100
AcDbVisualStyle
  2

 70
     1
 71
     2
 72
     1
 73
     1
 90
        2
 40
-0.6
 41
30.0
 62
     5
 63
     7
 74
     1
 91
        0
 64
     7
 65
   257
 75
     1
175
     1
 42
1.0
 92
        0
 66
   257
 43
1.0
 76
     1
 77
     6
 78
     2
 67
     7
 79
     5
170
     0
171
     0
290
     0
174
     0
 93
       13
 44
0.0
173
     0
291
     1
 45
0.0
1001
ACAD
1000
AcDbSavedByObjectVersion
1070
     0
  0
VISUALSTYLE
  5
2D
102
{ACAD_XDICTIONARY
360
841
102
}
102
{ACAD_REACTORS
330
2A
102
}
330
2A
100
AcDbVisualStyle
  2

 70
     2
 71
     2
 72
     2
 73
     1
 90
        2
 40
-0.6
 41
30.0
 62
     5
 63
     7
 74
     0
 91
        0
 64
     7
 65
   257
 75
     1
175
     1
 42
1.0
 92
        0
 66
     7
 43
1.0
 76
     1
 77
     6
 78
     2
 67
     7
 79
     5
170
     0
171
     0
290
     0
174
     0
 93
       13
 44
0.0
173
     0
291
     1
 45
0.0
1001
ACAD
1000
AcDbSavedByObjectVersion
1070
     0
  0
VISUALSTYLE
  5
2E
102
{ACAD_XDICTIONARY
360
843
102
}
102
{ACAD_REACTORS
330
2A
102
}
330
2A
100
AcDbVisualStyle
  2

 70
     3
 71
     2
 72
     2
 73
     1
 90
        2
 40
-0.6
 41
30.0
 62
     5
 63
     7
 74
     1
 91
        0
 64
     7
 65
   257
 75
     1
175
     1
 42
1.0
 92
        0
 66
   257
 43
1.0
 76
     1
 77
     6
 78
     2
 67
     7
 79
     5
170
     0
171
     0
290
     0
174
     0
 93
       13
 44
0.0
173
     0
291
     1
 45
0.0
1001
ACAD
1000
AcDbSavedByObjectVersion
1070
     0
  0
VISUALSTYLE
  5
31
102
{ACAD_XDICTIONARY
360
849
102
}
102
{ACAD_REACTORS
330
2A
102
}
330
2A
100
AcDbVisualStyle
  2

 70
     6
 71
     1
 72
     2
 73
     2
 90
        0
 40
-0.6
 41
-30.0
 62
     5
 63
     7
 74
     2
 91
        2
 64
     7
 65
   257
 75
     2
175
     1
 42
40.0
 92
        0
 66
   257
 43
1.0
 76
     1
 77
     6
 78
     2
 67
     7
 79
     3
170
     0
171
     0
290
     0
174
     0
 93
        1
 44
0.0
173
     0
291
     0
 45
0.0
1001
ACAD
1000
AcDbSavedByObjectVersion
1070
     0
  0
VISUALSTYLE
  5
3B
102
{ACAD_XDICTIONARY
360
85D
102
}
102
{ACAD_REACTORS
330
2A
102
}
330
2A
100
AcDbVisualStyle
  2

 70
    20
 71
     2
 72
     2
 73
     0
 90
        0
 40
-0.6
 41
-30.0
 62
     5
 63
     7
 74
     1
 91
        4
 64
     7
 65
   257
 75
     1
175
     1
 42
1.0
 92
       10
 66
     7
 43
1.0
 76
     1
 77
     6
 78
     2
 67
     7
 79
     5
170
     0
171
     0
290
     0
174
     0
 93
        1
 44
0.0
173
     0
291
     1
 45
0.0
1001
ACAD
1000
AcDbSavedByObjectVersion
1070
     0
  0
VISUALSTYLE
  5
38
102
{ACAD_XDICTIONARY
360
857
102
}
102
{ACAD_REACTORS
330
2A
102
}
330
2A
100
AcDbVisualStyle
  2

 70
    14
 71
     2
 72
     2
 73
     0
 90
        0
 40
-0.6
 41
-30.0
 62
     5
 63
     7
 74
     1
 91
        4
 64
     7
 65
   257
 75
     7
175
     7
 42
1.0
 92
        8
 66
     7
 43
1.0
 76
     1
 77
     6
 78
     2
 67
     7
 79
     5
170
     0
171
     0
290
     0
174
     0
 93
        1
 44
0.0
173
     0
291
     1
 45
0.0
1001
ACAD
1000
AcDbSavedByObjectVersion
1070
     0
  0
VISUALSTYLE
  5
3C
102
{ACAD_XDICTIONARY
360
85F
102
}
102
{ACAD_REACTORS
330
2A
102
}
330
2A
100
AcDbVisualStyle
  2

 70
    21
 71
     2
 72
     2
 73
     0
 90
        0
 40
-0.6
 41
-30.0
 62
     5
 63
     7
 74
     1
 91
        4
 64
     7
 65
   257
 75
     1
175
     1
 42
1.0
 92
        9
 66
     7
 43
1.0
 76
     1
 77
     6
 78
     2
 67
     7
 79
     5
170
     0
171
     0
290
     0
174
     0
 93
        1
 44
0.0
173
     0
291
     1
 45
0.0
1001
ACAD
1000
AcDbSavedByObjectVersion
1070
     0
  0
VISUALSTYLE
  5
33
102
{ACAD_XDICTIONARY
360
84D
102
}
102
{ACAD_REACTORS
330
2A
102
}
330
2A
100
AcDbVisualStyle
  2

 70
     8
 71
     2
 72
     3
 73
     0
 90
        2
 40
-0.6
 41
30.0
 62
     5
 63
     7
 74
     0
 91
        0
 64
     7
 65
   257
 75
     1
175
     1
 42
1.0
 92
        8
 66
   257
 43
1.0
 76
     1
 77
     6
 78
     2
 67
     7
 79
     3
170
     0
171
     0
290
     0
174
     0
 93
       13
 44
0.0
173
     0
291
     0
 45
0.0
1001
ACAD
1000
AcDbSavedByObjectVersion
1070
     0
  0
VISUALSTYLE
  5
42
102
{ACAD_XDICTIONARY
360
86B
102
}
102
{ACAD_REACTORS
330
2A
102
}
330
2A
100
AcDbVisualStyle
  2

 70
    27
 71
     2
 72
     2
 73
     1
 90
        2
 40
-0.6
 41
30.0
 62
     5
 63
     7
 74
     0
 91
        4
 64
     7
 65
   257
 75
     1
175
     1
 42
1.0
 92
        8
 66
   257
 43
1.0
 76
     1
 77
     6
 78
     2
 67
     8
 79
     3
170
     0
171
     0
290
     0
174
     0
 93
        5
 44
0.0
173
     0
291
     0
 45
0.0
1001
ACAD
1000
AcDbSavedByObjectVersion
1070
     0
  0
VISUALSTYLE
  5
41
102
{ACAD_XDICTIONARY
360
869
102
}
102
{ACAD_REACTORS
330
2A
102
}
330
2A
100
AcDbVisualStyle
  2

 70
    26
 71
     2
 72
     2
 73
     1
 90
        2
 40
-0.6
 41
30.0
 62
     5
 63
     7
 74
     1
 91
       10
 64
     7
 65
   257
 75
     2
175
     1
 42
1.0
 92
        8
 66
   257
 43
1.0
 76
     1
 77
     6
 78
     2
 67
     7
 79
     3
170
     0
171
     0
290
     0
174
     0
 93
        5
 44
0.0
173
     0
291
     0
 45
0.0
1001
ACAD
1000
AcDbSavedByObjectVersion
1070
     0
  0
VISUALSTYLE
  5
3E
102
{ACAD_XDICTIONARY
360
863
102
}
102
{ACAD_REACTORS
330
2A
102
}
330
2A
100
AcDbVisualStyle
  2

 70
    23
 71
     2
 72
     2
 73
     3
 90
        0
 40
-0.6
 41
-30.0
 62
     5
 63
     7
 74
     2
 91
        2
 64
     7
 65
     7
 75
     1
175
     1
 42
40.0
 92
        8
 66
     7
 43
1.0
 76
     1
 77
     6
 78
     2
 67
     7
 79
     3
170
     0
171
     0
290
     0
174
     0
 93
        1
 44
0.0
173
     0
291
     0
 45
0.0
1001
ACAD
1000
AcDbSavedByObjectVersion
1070
     0
  0
VISUALSTYLE
  5
3F
102
{ACAD_XDICTIONARY
360
865
102
}
102
{ACAD_REACTORS
330
2A
102
}
330
2A
100
AcDbVisualStyle
  2

 70
    24
 71
     1
 72
     2
 73
     2
 90
        0
 40
-0.6
 41
-30.0
 62
     5
 63
     7
 74
     2
 91
        2
 64
     7
 65
     7
 75
     1
175
     1
 42
40.0
 92
       11
 66
     7
 43
1.0
 76
     1
 77
     6
 78
     2
 67
     7
 79
     6
170
     0
171
     0
290
     0
174
     0
 93
        1
 44
0.0
173
     0
291
     0
 45
0.0
1001
ACAD
1000
AcDbSavedByObjectVersion
1070
     0
  0
VISUALSTYLE
  5
37
102
{ACAD_XDICTIONARY
360
855
102
}
102
{ACAD_REACTORS
330
2A
102
}
330
2A
100
AcDbVisualStyle
  2

 70
    13
 71
     2
 72
     2
 73
     0
 90
        0
 40
-0.6
 41
-30.0
 62
     5
 63
     7
 74
     1
 91
        4
 64
     7
 65
   257
 75
     1
175
     1
 42
1.0
 92
       12
 66
     7
 43
1.0
 76
     1
 77
     6
 78
     2
 67
     7
 79
     5
170
     0
171
     0
290
     0
174
     0
 93
        1
 44
0.0
173
     0
291
     1
 45
0.0
1001
ACAD
1000
AcDbSavedByObjectVersion
1070
     0
  0
VISUALSTYLE
  5
30
102
{ACAD_XDICTIONARY
360
847
102
}
102
{ACAD_REACTORS
330
2A
102
}
330
2A
100
AcDbVisualStyle
  2

 70
     5
 71
     0
 72
     2
 73
     0
 90
        0
 40
-0.6
 41
-30.0
 62
     5
 63
     7
 74
     1
 91
        4
 64
     7
 65
   257
 75
     1
175
     1
 42
1.0
 92
        0
 66
   257
 43
1.0
 76
     1
 77
     6
 78
     2
 67
     7
 79
     3
170
     0
171
     0
290
     0
174
     0
 93
        1
 44
0.0
173
     0
291
     0
 45
0.0
1001
ACAD
1000
AcDbSavedByObjectVersion
1070
     0
  0
VISUALSTYLE
  5
40
102
{ACAD_XDICTIONARY
360
867
102
}
102
{ACAD_REACTORS
330
2A
102
}
330
2A
100
AcDbVisualStyle
  2

 70
    25
 71
     2
 72
     2
 73
     1
 90
        1
 40
0.5
 41
-30.0
 62
     5
 63
     7
 74
     1
 91
        0
 64
     7
 65
   257
 75
     1
175
     1
 42
1.0
 92
        8
 66
     7
 43
1.0
 76
     1
 77
     6
 78
     2
 67
     7
 79
     3
170
     0
171
     0
290
     0
174
     0
 93
       13
 44
0.0
173
     0
291
     0
 45
0.0
1001
ACAD
1000
AcDbSavedByObjectVersion
1070
     0
  0
DICTIONARYVAR
  5
247
102
{ACAD_REACTORS
330
239
102
}
330
239
100
DictionaryVariables
280
     0
  1
1:1
  0
DICTIONARYVAR
  5
240
102
{ACAD_REACTORS
330
239
102
}
330
239
100
DictionaryVariables
280
     0
  1
3.500000
  0
DICTIONARYVAR
  5
241
102
{ACAD_REACTORS
330
239
102
}
330
239
100
DictionaryVariables
280
     0
  1
acadiso.lin
  0
DICTIONARYVAR
  5
23B
102
{ACAD_REACTORS
330
239
102
}
330
239
100
DictionaryVariables
280
     0
  1
STANDARD
  0
DICTIONARYVAR
  5
23A
102
{ACAD_REACTORS
330
239
102
}
330
239
100
DictionaryVariables
280
     0
  1
STANDARD
  0
DICTIONARYVAR
  5
7A3
102
{ACAD_REACTORS
330
239
102
}
330
239
100
DictionaryVariables
280
     0
  1
Metric50
  0
DICTIONARYVAR
  5
7A4
102
{ACAD_REACTORS
330
239
102
}
330
239
100
DictionaryVariables
280
     0
  1
Metric50
  0
DICTIONARYVAR
  5
242
102
{ACAD_REACTORS
330
239
102
}
330
239
100
DictionaryVariables
280
     0
  1
2
  0
DICTIONARYVAR
  5
243
102
{ACAD_REACTORS
330
239
102
}
330
239
100
DictionaryVariables
280
     0
  1
1
  0
DICTIONARYVAR
  5
82F
102
{ACAD_REACTORS
330
239
102
}
330
239
100
DictionaryVariables
280
     0
  1
0
  0
DICTIONARYVAR
  5
7A6
102
{ACAD_REACTORS
330
239
102
}
330
239
100
DictionaryVariables
280
     0
  1
1
  0
DICTIONARYVAR
  5
7A7
102
{ACAD_REACTORS
330
239
102
}
330
239
100
DictionaryVariables
280
     0
  1
15
  0
DICTIONARYVAR
  5
7A5
102
{ACAD_REACTORS
330
239
102
}
330
239
100
DictionaryVariables
280
     0
  1
0
  0
DICTIONARYVAR
  5
832
102
{ACAD_REACTORS
330
239
102
}
330
239
100
DictionaryVariables
280
     0
  1
1.570796
  0
DICTIONARYVAR
  5
833
102
{ACAD_REACTORS
330
239
102
}
330
239
100
DictionaryVariables
280
     0
  1
1.570796
  0
DICTIONARYVAR
  5
834
102
{ACAD_REACTORS
330
239
102
}
330
239
100
DictionaryVariables
280
     0
  1
-122.394000
  0
DICTIONARYVAR
  5
248
102
{ACAD_REACTORS
330
239
102
}
330
239
100
DictionaryVariables
280
     0
  1
1
  0
DICTIONARYVAR
  5
831
102
{ACAD_REACTORS
330
239
102
}
330
239
100
DictionaryVariables
280
     0
  1
80.000000
  0
DICTIONARYVAR
  5
830
102
{ACAD_REACTORS
330
239
102
}
330
239
100
DictionaryVariables
280
     0
  1
5.000000
  0
DICTIONARYVAR
  5
82E
102
{ACAD_REACTORS
330
239
102
}
330
239
100
DictionaryVariables
280
     0
  1
127
  0
DICTIONARYVAR
  5
835
102
{ACAD_REACTORS
330
239
102
}
330
239
100
DictionaryVariables
280
     0
  1
2
  0
DICTIONARY
  5
870
330
288
100
AcDbDictionary
280
     1
281
     1
  3
ACAD_XREC_ROUNDTRIP
360
871
  0
DICTIONARY
  5
839
330
1E
100
AcDbDictionary
280
     1
281
     1
  3
ACAD_XREC_ROUNDTRIP
360
83A
  0
DICTIONARY
  5
83B
330
22
100
AcDbDictionary
280
     1
281
     1
  3
ACAD_XREC_ROUNDTRIP
360
83C
  0
DICTIONARY
  5
872
330
289
100
AcDbDictionary
280
     1
281
     1
  3
ACAD_XREC_ROUNDTRIP
360
873
  0
DICTIONARY
  5
27B
330
45
100
AcDbDictionary
280
     1
281
     1
  3
ACAD_XREC_ROUNDTRIP
360
27C
  0
DICTIONARY
  5
279
330
44
100
AcDbDictionary
280
     1
281
     1
  3
ACAD_XREC_ROUNDTRIP
360
27A
  0
DICTIONARY
  5
27D
330
46
100
AcDbDictionary
280
     1
281
     1
  3
ACAD_XREC_ROUNDTRIP
360
27E
  0
DICTIONARY
  5
86E
330
286
100
AcDbDictionary
280
     1
281
     1
  3
ACAD_XREC_ROUNDTRIP
360
86F
  0
DICTIONARY
  5
7A8
330
5A
100
AcDbDictionary
280
     1
281
     1
  3
ACAD_ROUNDTRIP_2008_TABLESTYLE_CELLSTYLEMAP
360
836
  3
ACAD_XREC_ROUNDTRIP
360
86D
  0
DICTIONARY
  5
845
330
2F
100
AcDbDictionary
280
     1
281
     1
  3
ACAD_XREC_ROUNDTRIP
360
846
  0
DICTIONARY
  5
84B
330
32
100
AcDbDictionary
280
     1
281
     1
  3
ACAD_XREC_ROUNDTRIP
360
84C
  0
DICTIONARY
  5
853
330
36
100
AcDbDictionary
280
     1
281
     1
  3
ACAD_XREC_ROUNDTRIP
360
854
  0
DICTIONARY
  5
85B
330
3A
100
AcDbDictionary
280
     1
281
     1
  3
ACAD_XREC_ROUNDTRIP
360
85C
  0
DICTIONARY
  5
84F
330
34
100
AcDbDictionary
280
     1
281
     1
  3
ACAD_XREC_ROUNDTRIP
360
850
  0
DICTIONARY
  5
851
330
35
100
AcDbDictionary
280
     1
281
     1
  3
ACAD_XREC_ROUNDTRIP
360
852
  0
DICTIONARY
  5
861
330
3D
100
AcDbDictionary
280
     1
281
     1
  3
ACAD_XREC_ROUNDTRIP
360
862
  0
DICTIONARY
  5
859
330
39
100
AcDbDictionary
280
     1
281
     1
  3
ACAD_XREC_ROUNDTRIP
360
85A
  0
DICTIONARY
  5
83D
330
2B
100
AcDbDictionary
280
     1
281
     1
  3
ACAD_XREC_ROUNDTRIP
360
83E
  0
DICTIONARY
  5
83F
330
2C
100
AcDbDictionary
280
     1
281
     1
  3
ACAD_XREC_ROUNDTRIP
360
840
  0
DICTIONARY
  5
841
330
2D
100
AcDbDictionary
280
     1
281
     1
  3
ACAD_XREC_ROUNDTRIP
360
842
  0
DICTIONARY
  5
843
330
2E
100
AcDbDictionary
280
     1
281
     1
  3
ACAD_XREC_ROUNDTRIP
360
844
  0
DICTIONARY
  5
849
330
31
100
AcDbDictionary
280
     1
281
     1
  3
ACAD_XREC_ROUNDTRIP
360
84A
  0
DICTIONARY
  5
85D
330
3B
100
AcDbDictionary
280
     1
281
     1
  3
ACAD_XREC_ROUNDTRIP
360
85E
  0
DICTIONARY
  5
857
330
38
100
AcDbDictionary
280
     1
281
     1
  3
ACAD_XREC_ROUNDTRIP
360
858
  0
DICTIONARY
  5
85F
330
3C
100
AcDbDictionary
280
     1
281
     1
  3
ACAD_XREC_ROUNDTRIP
360
860
  0
DICTIONARY
  5
84D
330
33
100
AcDbDictionary
280
     1
281
     1
  3
ACAD_XREC_ROUNDTRIP
360
84E
  0
DICTIONARY
  5
86B
330
42
100
AcDbDictionary
280
     1
281
     1
  3
ACAD_XREC_ROUNDTRIP
360
86C
  0
DICTIONARY
  5
869
330
41
100
AcDbDictionary
280
     1
281
     1
  3
ACAD_XREC_ROUNDTRIP
360
86A
  0
DICTIONARY
  5
863
330
3E
100
AcDbDictionary
280
     1
281
     1
  3
ACAD_XREC_ROUNDTRIP
360
864
  0
DICTIONARY
  5
865
330
3F
100
AcDbDictionary
280
     1
281
     1
  3
ACAD_XREC_ROUNDTRIP
360
866
  0
DICTIONARY
  5
855
330
37
100
AcDbDictionary
280
     1
281
     1
  3
ACAD_XREC_ROUNDTRIP
360
856
  0
DICTIONARY
  5
847
330
30
100
AcDbDictionary
280
     1
281
     1
  3
ACAD_XREC_ROUNDTRIP
360
848
  0
DICTIONARY
  5
867
330
40
100
AcDbDictionary
280
     1
281
     1
  3
ACAD_XREC_ROUNDTRIP
360
868
  0
XRECORD
  5
871
102
{ACAD_REACTORS
330
870
102
}
330
870
100
AcDbXrecord
280
     1
102
DISPLAYNAME
  1
Metric50
102
FLAGS
 90
        0
  0
XRECORD
  5
83A
102
{ACAD_REACTORS
330
839
102
}
330
839
100
AcDbXrecord
280
     1
102
SHADEPLOT
 70
     0
102
SHADEPLOTRESLEVEL
 70
     2
102
SHADEPLOTCUSTOMDPI
 70
   300
  0
XRECORD
  5
83C
102
{ACAD_REACTORS
330
83B
102
}
330
83B
100
AcDbXrecord
280
     1
102
SHADEPLOT
 70
     0
102
SHADEPLOTRESLEVEL
 70
     2
102
SHADEPLOTCUSTOMDPI
 70
   300
  0
XRECORD
  5
873
102
{ACAD_REACTORS
330
872
102
}
330
872
100
AcDbXrecord
280
     1
102
SHADEPLOT
 70
     0
102
SHADEPLOTRESLEVEL
 70
     2
102
SHADEPLOTCUSTOMDPI
 70
   300
  0
XRECORD
  5
27C
102
{ACAD_REACTORS
330
27B
102
}
330
27B
100
AcDbXrecord
280
     1
102
MATERIAL
148
0.0
149
0.0
149
0.0
 93
        0
 94
      127
282
     0
 72
     1
 77
     1
171
     1
175
     1
179
     1
273
     0
  0
XRECORD
  5
27A
102
{ACAD_REACTORS
330
279
102
}
330
279
100
AcDbXrecord
280
     1
102
MATERIAL
148
0.0
149
0.0
149
0.0
 93
        0
 94
      127
282
     0
 72
     1
 77
     1
171
     1
175
     1
179
     1
273
     0
  0
XRECORD
  5
27E
102
{ACAD_REACTORS
330
27D
102
}
330
27D
100
AcDbXrecord
280
     1
102
MATERIAL
148
0.0
149
0.0
149
0.0
 93
        0
 94
      127
282
     0
 72
     1
 77
     1
171
     1
175
     1
179
     1
273
     0
  0
XRECORD
  5
86F
102
{ACAD_REACTORS
330
86E
102
}
330
86E
100
AcDbXrecord
280
     1
102
DISPLAYNAME
  1
Metric50
102
FLAGS
 90
        0
  0
CELLSTYLEMAP
  5
836
102
{ACAD_REACTORS
330
7A8
102
}
330
7A8
100
AcDbCellStyleMap
 90
        3
300
CELLSTYLE
  1
TABLEFORMAT_BEGIN
 90
        5
170
     1
 91
        0
 92
    32768
 62
   257
 93
        1
300
CONTENTFORMAT
  1
CONTENTFORMAT_BEGIN
 90
        0
 91
        0
 92
        4
 93
        0
300

 40
0.0
140
1.0
 94
        5
 62
     0
340
11
144
6.0
309
CONTENTFORMAT_END
171
     1
301
MARGIN
  1
CELLMARGIN_BEGIN
 40
1.5
 40
1.5
 40
1.5
 40
1.5
 40
0.18
 40
0.18
309
CELLMARGIN_END
 94
        6
 95
        1
302
GRIDFORMAT
  1
GRIDFORMAT_BEGIN
 90
        0
 91
        1
 62
     0
 92
       -2
340
0
 93
        0
 40
0.045
309
GRIDFORMAT_END
 95
        2
302
GRIDFORMAT
  1
GRIDFORMAT_BEGIN
 90
        0
 91
        1
 62
     0
 92
       -2
340
0
 93
        0
 40
0.045
309
GRIDFORMAT_END
 95
        4
302
GRIDFORMAT
  1
GRIDFORMAT_BEGIN
 90
        0
 91
        1
 62
     0
 92
       -2
340
0
 93
        0
 40
0.045
309
GRIDFORMAT_END
 95
        8
302
GRIDFORMAT
  1
GRIDFORMAT_BEGIN
 90
        0
 91
        1
 62
     0
 92
       -2
340
0
 93
        0
 40
0.045
309
GRIDFORMAT_END
 95
       16
302
GRIDFORMAT
  1
GRIDFORMAT_BEGIN
 90
        0
 91
        1
 62
     0
 92
       -2
340
0
 93
        0
 40
0.045
309
GRIDFORMAT_END
 95
       32
302
GRIDFORMAT
  1
GRIDFORMAT_BEGIN
 90
        0
 91
        1
 62
     0
 92
       -2
340
0
 93
        0
 40
0.045
309
GRIDFORMAT_END
309
TABLEFORMAT_END
  1
CELLSTYLE_BEGIN
 90
        1
 91
        1
300
_TITLE
309
CELLSTYLE_END
300
CELLSTYLE
  1
TABLEFORMAT_BEGIN
 90
        5
170
     1
 91
        0
 92
        0
 62
   257
 93
        1
300
CONTENTFORMAT
  1
CONTENTFORMAT_BEGIN
 90
        0
 91
        0
 92
        4
 93
        0
300

 40
0.0
140
1.0
 94
        5
 62
     0
340
11
144
4.5
309
CONTENTFORMAT_END
171
     1
301
MARGIN
  1
CELLMARGIN_BEGIN
 40
1.5
 40
1.5
 40
1.5
 40
1.5
 40
0.18
 40
0.18
309
CELLMARGIN_END
 94
        6
 95
        1
302
GRIDFORMAT
  1
GRIDFORMAT_BEGIN
 90
        0
 91
        1
 62
     0
 92
       -2
340
0
 93
        0
 40
0.045
309
GRIDFORMAT_END
 95
        2
302
GRIDFORMAT
  1
GRIDFORMAT_BEGIN
 90
        0
 91
        1
 62
     0
 92
       -2
340
0
 93
        0
 40
0.045
309
GRIDFORMAT_END
 95
        4
302
GRIDFORMAT
  1
GRIDFORMAT_BEGIN
 90
        0
 91
        1
 62
     0
 92
       -2
340
0
 93
        0
 40
0.045
309
GRIDFORMAT_END
 95
        8
302
GRIDFORMAT
  1
GRIDFORMAT_BEGIN
 90
        0
 91
        1
 62
     0
 92
       -2
340
0
 93
        0
 40
0.045
309
GRIDFORMAT_END
 95
       16
302
GRIDFORMAT
  1
GRIDFORMAT_BEGIN
 90
        0
 91
        1
 62
     0
 92
       -2
340
0
 93
        0
 40
0.045
309
GRIDFORMAT_END
 95
       32
302
GRIDFORMAT
  1
GRIDFORMAT_BEGIN
 90
        0
 91
        1
 62
     0
 92
       -2
340
0
 93
        0
 40
0.045
309
GRIDFORMAT_END
309
TABLEFORMAT_END
  1
CELLSTYLE_BEGIN
 90
        2
 91
        1
300
_HEADER
309
CELLSTYLE_END
300
CELLSTYLE
  1
TABLEFORMAT_BEGIN
 90
        5
170
     1
 91
        0
 92
        0
 62
   257
 93
        1
300
CONTENTFORMAT
  1
CONTENTFORMAT_BEGIN
 90
        0
 91
        0
 92
        4
 93
        0
300

 40
0.0
140
1.0
 94
        2
 62
     0
340
11
144
4.5
309
CONTENTFORMAT_END
171
     1
301
MARGIN
  1
CELLMARGIN_BEGIN
 40
1.5
 40
1.5
 40
1.5
 40
1.5
 40
0.18
 40
0.18
309
CELLMARGIN_END
 94
        6
 95
        1
302
GRIDFORMAT
  1
GRIDFORMAT_BEGIN
 90
        0
 91
        1
 62
     0
 92
       -2
340
0
 93
        0
 40
0.045
309
GRIDFORMAT_END
 95
        2
302
GRIDFORMAT
  1
GRIDFORMAT_BEGIN
 90
        0
 91
        1
 62
     0
 92
       -2
340
0
 93
        0
 40
0.045
309
GRIDFORMAT_END
 95
        4
302
GRIDFORMAT
  1
GRIDFORMAT_BEGIN
 90
        0
 91
        1
 62
     0
 92
       -2
340
0
 93
        0
 40
0.045
309
GRIDFORMAT_END
 95
        8
302
GRIDFORMAT
  1
GRIDFORMAT_BEGIN
 90
        0
 91
        1
 62
     0
 92
       -2
340
0
 93
        0
 40
0.045
309
GRIDFORMAT_END
 95
       16
302
GRIDFORMAT
  1
GRIDFORMAT_BEGIN
 90
        0
 91
        1
 62
     0
 92
       -2
340
0
 93
        0
 40
0.045
309
GRIDFORMAT_END
 95
       32
302
GRIDFORMAT
  1
GRIDFORMAT_BEGIN
 90
        0
 91
        1
 62
     0
 92
       -2
340
0
 93
        0
 40
0.045
309
GRIDFORMAT_END
309
TABLEFORMAT_END
  1
CELLSTYLE_BEGIN
 90
        3
 91
        2
300
_DATA
309
CELLSTYLE_END
  0
XRECORD
  5
86D
102
{ACAD_REACTORS
330
7A8
102
}
330
7A8
100
AcDbXrecord
280
     1
102
ACAD_ROUNDTRIP_PRE2007_TABLESTYLE
 90
        4
 91
        0
  1

 92
        4
 93
        0
  2

 94
        4
 95
        0
  3

  0
XRECORD
  5
846
102
{ACAD_REACTORS
330
845
102
}
330
845
100
AcDbXrecord
280
     1
102
RTVSPost2010Prop28
280
     1
102
RTVSPost2010PropOp28
 70
     1
102
RTVSPost2010Prop29
280
     1
102
RTVSPost2010PropOp29
 70
     1
102
RTVSPost2010Prop30
280
     0
102
RTVSPost2010PropOp30
 70
     1
102
RTVSPost2010Prop31
280
     0
102
RTVSPost2010PropOp31
 70
     1
102
RTVSPost2010Prop32
280
     0
102
RTVSPost2010PropOp32
 70
     1
102
RTVSPost2010Prop33
280
     0
102
RTVSPost2010PropOp33
 70
     1
102
RTVSPost2010Prop34
280
     0
102
RTVSPost2010PropOp34
 70
     1
102
RTVSPost2010Prop35
280
     0
102
RTVSPost2010PropOp35
 70
     1
102
RTVSPost2010Prop36
280
     0
102
RTVSPost2010PropOp36
 70
     1
102
RTVSPost2010Prop37
 90
       50
102
RTVSPost2010PropOp37
 70
     1
102
RTVSPost2010Prop38
140
0.0
102
RTVSPost2010PropOp38
 70
     1
102
RTVSPost2010Prop39
140
1.0
102
RTVSPost2010PropOp39
 70
     1
102
RTVSPost2010Prop40
 90
        0
102
RTVSPost2010PropOp40
 70
     1
102
RTVSPost2010Prop41ColorIndex
 90
       18
102
RTVSPost2010Prop41ColorRGB
 90
        0
102
RTVSPost2010PropOp41
 70
     1
102
RTVSPost2010Prop42
 90
       50
102
RTVSPost2010PropOp42
 70
     1
102
RTVSPost2010Prop43
 90
        3
102
RTVSPost2010PropOp43
 70
     1
102
RTVSPost2010Prop44ColorIndex
 90
        5
102
RTVSPost2010Prop44ColorRGB
 90
      255
102
RTVSPost2010PropOp44
 70
     1
102
RTVSPost2010Prop45
280
     0
102
RTVSPost2010PropOp45
 70
     1
102
RTVSPost2010Prop46
 90
       50
102
RTVSPost2010PropOp46
 70
     1
102
RTVSPost2010Prop47
 90
       50
102
RTVSPost2010PropOp47
 70
     1
102
RTVSPost2010Prop48
 90
       50
102
RTVSPost2010PropOp48
 70
     1
102
RTVSPost2010Prop49
280
     0
102
RTVSPost2010PropOp49
 70
     1
102
RTVSPost2010Prop50
 90
       50
102
RTVSPost2010PropOp50
 70
     1
102
RTVSPost2010Prop51ColorIndex
 90
      256
102
RTVSPost2010Prop51ColorRGB
 90
-16777216
102
RTVSPost2010PropOp51
 70
     0
102
RTVSPost2010Prop52
140
1.0
102
RTVSPost2010PropOp52
 70
     0
102
RTVSPost2010Prop53
 90
        2
102
RTVSPost2010PropOp53
 70
     1
102
RTVSPost2010Prop54
  1
strokes_ogs.tif
102
RTVSPost2010PropOp54
 70
     1
102
RTVSPost2010Prop55
280
     0
102
RTVSPost2010PropOp55
 70
     1
102
RTVSPost2010Prop56
140
1.0
102
RTVSPost2010PropOp56
 70
     1
102
RTVSPost2010Prop57
140
1.0
102
RTVSPost2010PropOp57
 70
     1
102
RTVSPropertyOp0
 70
     1
102
RTVSPropertyOp1
 70
     1
102
RTVSPropertyOp2
 70
     1
102
RTVSPropertyOp3
 70
     1
102
RTVSPropertyOp4
 70
     1
102
RTVSPropertyOp5
 70
     1
102
RTVSPropertyOp6
 70
     1
102
RTVSPropertyOp7
 70
     1
102
RTVSPropertyOp8
 70
     1
102
RTVSPropertyOp9
 70
     1
102
RTVSPropertyOp10
 70
     1
102
RTVSPropertyOp11
 70
     1
102
RTVSPropertyOp12
 70
     1
102
RTVSPropertyOp13
 70
     1
102
RTVSPropertyOp14
 70
     1
102
RTVSPropertyOp15
 70
     1
102
RTVSPropertyOp16
 70
     1
102
RTVSPropertyOp17
 70
     1
102
RTVSPropertyOp18
 70
     1
102
RTVSPropertyOp19
 70
     1
102
RTVSPropertyOp20
 70
     1
102
RTVSPropertyOp21
 70
     1
102
RTVSPropertyOp22
 70
     1
102
RTVSPropertyOp23
 70
     1
102
RTVSPropertyOp24
 70
     1
102
RTVSPropertyOp25
 70
     1
102
RTVSPropertyOp26
 70
     1
102
RTVSPropertyOp27
 70
     1
102
RTVSPropertyOp28
 70
     1
102
RTVSPropertyOp29
 70
     1
102
RTVSPropertyOp30
 70
     1
102
RTVSPropertyOp31
 70
     1
102
RTVSPropertyOp32
 70
     1
102
RTVSPropertyOp33
 70
     1
102
RTVSPropertyOp34
 70
     1
102
RTVSPropertyOp35
 70
     1
102
RTVSPropertyOp36
 70
     1
102
RTVSPropertyOp37
 70
     1
102
RTVSPropertyOp38
 70
     1
102
RTVSPropertyOp39
 70
     1
102
RTVSPropertyOp40
 70
     1
102
RTVSPropertyOp41
 70
     1
102
RTVSPropertyOp42
 70
     1
102
RTVSPropertyOp43
 70
     1
102
RTVSPropertyOp44
 70
     1
102
RTVSPropertyOp45
 70
     1
102
RTVSPropertyOp46
 70
     1
102
RTVSPropertyOp47
 70
     1
102
RTVSPropertyOp48
 70
     1
102
RTVSPropertyOp49
 70
     1
102
RTVSPropertyOp50
 70
     1
102
RTVSPropertyOp51
 70
     0
102
RTVSPropertyOp52
 70
     0
102
RTVSPropertyOp53
 70
     1
102
RTVSPropertyOp54
 70
     1
102
RTVSPropertyOp55
 70
     1
102
RTVSPropertyOp56
 70
     1
102
RTVSPropertyOp57
 70
     1
102
RTVSPropertyOp58
 70
     1
102
RTVSPropertyOp59
 70
     1
102
RTVSPropertyOp60
 70
     1
102
RTVSPropertyOp61
 70
     1
102
RTVSPropertyOp62
 70
     1
  0
XRECORD
  5
84C
102
{ACAD_REACTORS
330
84B
102
}
330
84B
100
AcDbXrecord
280
     1
102
RTVSPost2010Prop28
280
     0
102
RTVSPost2010PropOp28
 70
     1
102
RTVSPost2010Prop29
280
     1
102
RTVSPost2010PropOp29
 70
     1
102
RTVSPost2010Prop30
280
     1
102
RTVSPost2010PropOp30
 70
     1
102
RTVSPost2010Prop31
280
     0
102
RTVSPost2010PropOp31
 70
     1
102
RTVSPost2010Prop32
280
     0
102
RTVSPost2010PropOp32
 70
     1
102
RTVSPost2010Prop33
280
     0
102
RTVSPost2010PropOp33
 70
     1
102
RTVSPost2010Prop34
280
     0
102
RTVSPost2010PropOp34
 70
     1
102
RTVSPost2010Prop35
280
     0
102
RTVSPost2010PropOp35
 70
     1
102
RTVSPost2010Prop36
280
     0
102
RTVSPost2010PropOp36
 70
     1
102
RTVSPost2010Prop37
 90
       50
102
RTVSPost2010PropOp37
 70
     1
102
RTVSPost2010Prop38
140
0.0
102
RTVSPost2010PropOp38
 70
     1
102
RTVSPost2010Prop39
140
1.0
102
RTVSPost2010PropOp39
 70
     1
102
RTVSPost2010Prop40
 90
        0
102
RTVSPost2010PropOp40
 70
     1
102
RTVSPost2010Prop41ColorIndex
 90
       18
102
RTVSPost2010Prop41ColorRGB
 90
        0
102
RTVSPost2010PropOp41
 70
     1
102
RTVSPost2010Prop42
 90
       50
102
RTVSPost2010PropOp42
 70
     1
102
RTVSPost2010Prop43
 90
        3
102
RTVSPost2010PropOp43
 70
     1
102
RTVSPost2010Prop44ColorIndex
 90
        5
102
RTVSPost2010Prop44ColorRGB
 90
      255
102
RTVSPost2010PropOp44
 70
     1
102
RTVSPost2010Prop45
280
     0
102
RTVSPost2010PropOp45
 70
     1
102
RTVSPost2010Prop46
 90
       50
102
RTVSPost2010PropOp46
 70
     1
102
RTVSPost2010Prop47
 90
       50
102
RTVSPost2010PropOp47
 70
     1
102
RTVSPost2010Prop48
 90
       50
102
RTVSPost2010PropOp48
 70
     1
102
RTVSPost2010Prop49
280
     0
102
RTVSPost2010PropOp49
 70
     1
102
RTVSPost2010Prop50
 90
       50
102
RTVSPost2010PropOp50
 70
     1
102
RTVSPost2010Prop51ColorIndex
 90
      256
102
RTVSPost2010Prop51ColorRGB
 90
-16777216
102
RTVSPost2010PropOp51
 70
     0
102
RTVSPost2010Prop52
140
1.0
102
RTVSPost2010PropOp52
 70
     0
102
RTVSPost2010Prop53
 90
        2
102
RTVSPost2010PropOp53
 70
     1
102
RTVSPost2010Prop54
  1
strokes_ogs.tif
102
RTVSPost2010PropOp54
 70
     1
102
RTVSPost2010Prop55
280
     0
102
RTVSPost2010PropOp55
 70
     1
102
RTVSPost2010Prop56
140
1.0
102
RTVSPost2010PropOp56
 70
     1
102
RTVSPost2010Prop57
140
1.0
102
RTVSPost2010PropOp57
 70
     1
102
RTVSPropertyOp0
 70
     1
102
RTVSPropertyOp1
 70
     1
102
RTVSPropertyOp2
 70
     1
102
RTVSPropertyOp3
 70
     1
102
RTVSPropertyOp4
 70
     1
102
RTVSPropertyOp5
 70
     1
102
RTVSPropertyOp6
 70
     1
102
RTVSPropertyOp7
 70
     1
102
RTVSPropertyOp8
 70
     1
102
RTVSPropertyOp9
 70
     1
102
RTVSPropertyOp10
 70
     1
102
RTVSPropertyOp11
 70
     1
102
RTVSPropertyOp12
 70
     1
102
RTVSPropertyOp13
 70
     1
102
RTVSPropertyOp14
 70
     1
102
RTVSPropertyOp15
 70
     1
102
RTVSPropertyOp16
 70
     1
102
RTVSPropertyOp17
 70
     1
102
RTVSPropertyOp18
 70
     1
102
RTVSPropertyOp19
 70
     1
102
RTVSPropertyOp20
 70
     1
102
RTVSPropertyOp21
 70
     1
102
RTVSPropertyOp22
 70
     1
102
RTVSPropertyOp23
 70
     1
102
RTVSPropertyOp24
 70
     1
102
RTVSPropertyOp25
 70
     1
102
RTVSPropertyOp26
 70
     1
102
RTVSPropertyOp27
 70
     1
102
RTVSPropertyOp28
 70
     1
102
RTVSPropertyOp29
 70
     1
102
RTVSPropertyOp30
 70
     1
102
RTVSPropertyOp31
 70
     1
102
RTVSPropertyOp32
 70
     1
102
RTVSPropertyOp33
 70
     1
102
RTVSPropertyOp34
 70
     1
102
RTVSPropertyOp35
 70
     1
102
RTVSPropertyOp36
 70
     1
102
RTVSPropertyOp37
 70
     1
102
RTVSPropertyOp38
 70
     1
102
RTVSPropertyOp39
 70
     1
102
RTVSPropertyOp40
 70
     1
102
RTVSPropertyOp41
 70
     1
102
RTVSPropertyOp42
 70
     1
102
RTVSPropertyOp43
 70
     1
102
RTVSPropertyOp44
 70
     1
102
RTVSPropertyOp45
 70
     1
102
RTVSPropertyOp46
 70
     1
102
RTVSPropertyOp47
 70
     1
102
RTVSPropertyOp48
 70
     1
102
RTVSPropertyOp49
 70
     1
102
RTVSPropertyOp50
 70
     1
102
RTVSPropertyOp51
 70
     0
102
RTVSPropertyOp52
 70
     0
102
RTVSPropertyOp53
 70
     1
102
RTVSPropertyOp54
 70
     1
102
RTVSPropertyOp55
 70
     1
102
RTVSPropertyOp56
 70
     1
102
RTVSPropertyOp57
 70
     1
102
RTVSPropertyOp58
 70
     1
102
RTVSPropertyOp59
 70
     1
102
RTVSPropertyOp60
 70
     1
102
RTVSPropertyOp61
 70
     1
102
RTVSPropertyOp62
 70
     1
  0
XRECORD
  5
854
102
{ACAD_REACTORS
330
853
102
}
330
853
100
AcDbXrecord
280
     1
102
RTVSPost2010Prop28
280
     0
102
RTVSPost2010PropOp28
 70
     1
102
RTVSPost2010Prop29
280
     1
102
RTVSPost2010PropOp29
 70
     1
102
RTVSPost2010Prop30
280
     1
102
RTVSPost2010PropOp30
 70
     1
102
RTVSPost2010Prop31
280
     0
102
RTVSPost2010PropOp31
 70
     1
102
RTVSPost2010Prop32
280
     0
102
RTVSPost2010PropOp32
 70
     1
102
RTVSPost2010Prop33
280
     0
102
RTVSPost2010PropOp33
 70
     1
102
RTVSPost2010Prop34
280
     0
102
RTVSPost2010PropOp34
 70
     1
102
RTVSPost2010Prop35
280
     0
102
RTVSPost2010PropOp35
 70
     1
102
RTVSPost2010Prop36
280
     0
102
RTVSPost2010PropOp36
 70
     1
102
RTVSPost2010Prop37
 90
       50
102
RTVSPost2010PropOp37
 70
     1
102
RTVSPost2010Prop38
140
0.0
102
RTVSPost2010PropOp38
 70
     1
102
RTVSPost2010Prop39
140
1.0
102
RTVSPost2010PropOp39
 70
     1
102
RTVSPost2010Prop40
 90
        0
102
RTVSPost2010PropOp40
 70
     1
102
RTVSPost2010Prop41ColorIndex
 90
       18
102
RTVSPost2010Prop41ColorRGB
 90
        0
102
RTVSPost2010PropOp41
 70
     1
102
RTVSPost2010Prop42
 90
       50
102
RTVSPost2010PropOp42
 70
     1
102
RTVSPost2010Prop43
 90
        3
102
RTVSPost2010PropOp43
 70
     1
102
RTVSPost2010Prop44ColorIndex
 90
        5
102
RTVSPost2010Prop44ColorRGB
 90
      255
102
RTVSPost2010PropOp44
 70
     1
102
RTVSPost2010Prop45
280
     0
102
RTVSPost2010PropOp45
 70
     1
102
RTVSPost2010Prop46
 90
       50
102
RTVSPost2010PropOp46
 70
     1
102
RTVSPost2010Prop47
 90
       50
102
RTVSPost2010PropOp47
 70
     1
102
RTVSPost2010Prop48
 90
       50
102
RTVSPost2010PropOp48
 70
     1
102
RTVSPost2010Prop49
280
     0
102
RTVSPost2010PropOp49
 70
     1
102
RTVSPost2010Prop50
 90
       50
102
RTVSPost2010PropOp50
 70
     1
102
RTVSPost2010Prop51ColorIndex
 90
      256
102
RTVSPost2010Prop51ColorRGB
 90
-16777216
102
RTVSPost2010PropOp51
 70
     0
102
RTVSPost2010Prop52
140
1.0
102
RTVSPost2010PropOp52
 70
     0
102
RTVSPost2010Prop53
 90
        2
102
RTVSPost2010PropOp53
 70
     1
102
RTVSPost2010Prop54
  1
strokes_ogs.tif
102
RTVSPost2010PropOp54
 70
     1
102
RTVSPost2010Prop55
280
     0
102
RTVSPost2010PropOp55
 70
     1
102
RTVSPost2010Prop56
140
1.0
102
RTVSPost2010PropOp56
 70
     1
102
RTVSPost2010Prop57
140
1.0
102
RTVSPost2010PropOp57
 70
     1
102
RTVSPropertyOp0
 70
     1
102
RTVSPropertyOp1
 70
     1
102
RTVSPropertyOp2
 70
     1
102
RTVSPropertyOp3
 70
     1
102
RTVSPropertyOp4
 70
     1
102
RTVSPropertyOp5
 70
     1
102
RTVSPropertyOp6
 70
     1
102
RTVSPropertyOp7
 70
     1
102
RTVSPropertyOp8
 70
     1
102
RTVSPropertyOp9
 70
     1
102
RTVSPropertyOp10
 70
     1
102
RTVSPropertyOp11
 70
     1
102
RTVSPropertyOp12
 70
     1
102
RTVSPropertyOp13
 70
     1
102
RTVSPropertyOp14
 70
     1
102
RTVSPropertyOp15
 70
     1
102
RTVSPropertyOp16
 70
     1
102
RTVSPropertyOp17
 70
     1
102
RTVSPropertyOp18
 70
     1
102
RTVSPropertyOp19
 70
     1
102
RTVSPropertyOp20
 70
     1
102
RTVSPropertyOp21
 70
     1
102
RTVSPropertyOp22
 70
     1
102
RTVSPropertyOp23
 70
     1
102
RTVSPropertyOp24
 70
     1
102
RTVSPropertyOp25
 70
     1
102
RTVSPropertyOp26
 70
     1
102
RTVSPropertyOp27
 70
     1
102
RTVSPropertyOp28
 70
     1
102
RTVSPropertyOp29
 70
     1
102
RTVSPropertyOp30
 70
     1
102
RTVSPropertyOp31
 70
     1
102
RTVSPropertyOp32
 70
     1
102
RTVSPropertyOp33
 70
     1
102
RTVSPropertyOp34
 70
     1
102
RTVSPropertyOp35
 70
     1
102
RTVSPropertyOp36
 70
     1
102
RTVSPropertyOp37
 70
     1
102
RTVSPropertyOp38
 70
     1
102
RTVSPropertyOp39
 70
     1
102
RTVSPropertyOp40
 70
     1
102
RTVSPropertyOp41
 70
     1
102
RTVSPropertyOp42
 70
     1
102
RTVSPropertyOp43
 70
     1
102
RTVSPropertyOp44
 70
     1
102
RTVSPropertyOp45
 70
     1
102
RTVSPropertyOp46
 70
     1
102
RTVSPropertyOp47
 70
     1
102
RTVSPropertyOp48
 70
     1
102
RTVSPropertyOp49
 70
     1
102
RTVSPropertyOp50
 70
     1
102
RTVSPropertyOp51
 70
     0
102
RTVSPropertyOp52
 70
     0
102
RTVSPropertyOp53
 70
     1
102
RTVSPropertyOp54
 70
     1
102
RTVSPropertyOp55
 70
     1
102
RTVSPropertyOp56
 70
     1
102
RTVSPropertyOp57
 70
     1
102
RTVSPropertyOp58
 70
     1
102
RTVSPropertyOp59
 70
     1
102
RTVSPropertyOp60
 70
     1
102
RTVSPropertyOp61
 70
     1
102
RTVSPropertyOp62
 70
     1
  0
XRECORD
  5
85C
102
{ACAD_REACTORS
330
85B
102
}
330
85B
100
AcDbXrecord
280
     1
102
RTVSPost2010Prop28
280
     0
102
RTVSPost2010PropOp28
 70
     1
102
RTVSPost2010Prop29
280
     1
102
RTVSPost2010PropOp29
 70
     1
102
RTVSPost2010Prop30
280
     1
102
RTVSPost2010PropOp30
 70
     1
102
RTVSPost2010Prop31
280
     0
102
RTVSPost2010PropOp31
 70
     1
102
RTVSPost2010Prop32
280
     0
102
RTVSPost2010PropOp32
 70
     1
102
RTVSPost2010Prop33
280
     0
102
RTVSPost2010PropOp33
 70
     1
102
RTVSPost2010Prop34
280
     0
102
RTVSPost2010PropOp34
 70
     1
102
RTVSPost2010Prop35
280
     0
102
RTVSPost2010PropOp35
 70
     1
102
RTVSPost2010Prop36
280
     0
102
RTVSPost2010PropOp36
 70
     1
102
RTVSPost2010Prop37
 90
       50
102
RTVSPost2010PropOp37
 70
     1
102
RTVSPost2010Prop38
140
0.0
102
RTVSPost2010PropOp38
 70
     1
102
RTVSPost2010Prop39
140
1.0
102
RTVSPost2010PropOp39
 70
     1
102
RTVSPost2010Prop40
 90
        0
102
RTVSPost2010PropOp40
 70
     1
102
RTVSPost2010Prop41ColorIndex
 90
       18
102
RTVSPost2010Prop41ColorRGB
 90
        0
102
RTVSPost2010PropOp41
 70
     1
102
RTVSPost2010Prop42
 90
       50
102
RTVSPost2010PropOp42
 70
     1
102
RTVSPost2010Prop43
 90
        3
102
RTVSPost2010PropOp43
 70
     1
102
RTVSPost2010Prop44ColorIndex
 90
        5
102
RTVSPost2010Prop44ColorRGB
 90
      255
102
RTVSPost2010PropOp44
 70
     1
102
RTVSPost2010Prop45
280
     0
102
RTVSPost2010PropOp45
 70
     1
102
RTVSPost2010Prop46
 90
       50
102
RTVSPost2010PropOp46
 70
     1
102
RTVSPost2010Prop47
 90
       50
102
RTVSPost2010PropOp47
 70
     1
102
RTVSPost2010Prop48
 90
       50
102
RTVSPost2010PropOp48
 70
     1
102
RTVSPost2010Prop49
280
     0
102
RTVSPost2010PropOp49
 70
     1
102
RTVSPost2010Prop50
 90
       50
102
RTVSPost2010PropOp50
 70
     1
102
RTVSPost2010Prop51ColorIndex
 90
      256
102
RTVSPost2010Prop51ColorRGB
 90
-16777216
102
RTVSPost2010PropOp51
 70
     0
102
RTVSPost2010Prop52
140
1.0
102
RTVSPost2010PropOp52
 70
     0
102
RTVSPost2010Prop53
 90
        2
102
RTVSPost2010PropOp53
 70
     1
102
RTVSPost2010Prop54
  1
strokes_ogs.tif
102
RTVSPost2010PropOp54
 70
     1
102
RTVSPost2010Prop55
280
     0
102
RTVSPost2010PropOp55
 70
     1
102
RTVSPost2010Prop56
140
1.0
102
RTVSPost2010PropOp56
 70
     1
102
RTVSPost2010Prop57
140
1.0
102
RTVSPost2010PropOp57
 70
     1
102
RTVSPropertyOp0
 70
     1
102
RTVSPropertyOp1
 70
     1
102
RTVSPropertyOp2
 70
     1
102
RTVSPropertyOp3
 70
     1
102
RTVSPropertyOp4
 70
     1
102
RTVSPropertyOp5
 70
     1
102
RTVSPropertyOp6
 70
     1
102
RTVSPropertyOp7
 70
     1
102
RTVSPropertyOp8
 70
     1
102
RTVSPropertyOp9
 70
     1
102
RTVSPropertyOp10
 70
     1
102
RTVSPropertyOp11
 70
     1
102
RTVSPropertyOp12
 70
     1
102
RTVSPropertyOp13
 70
     1
102
RTVSPropertyOp14
 70
     1
102
RTVSPropertyOp15
 70
     1
102
RTVSPropertyOp16
 70
     1
102
RTVSPropertyOp17
 70
     1
102
RTVSPropertyOp18
 70
     1
102
RTVSPropertyOp19
 70
     1
102
RTVSPropertyOp20
 70
     1
102
RTVSPropertyOp21
 70
     1
102
RTVSPropertyOp22
 70
     1
102
RTVSPropertyOp23
 70
     1
102
RTVSPropertyOp24
 70
     1
102
RTVSPropertyOp25
 70
     1
102
RTVSPropertyOp26
 70
     1
102
RTVSPropertyOp27
 70
     1
102
RTVSPropertyOp28
 70
     1
102
RTVSPropertyOp29
 70
     1
102
RTVSPropertyOp30
 70
     1
102
RTVSPropertyOp31
 70
     1
102
RTVSPropertyOp32
 70
     1
102
RTVSPropertyOp33
 70
     1
102
RTVSPropertyOp34
 70
     1
102
RTVSPropertyOp35
 70
     1
102
RTVSPropertyOp36
 70
     1
102
RTVSPropertyOp37
 70
     1
102
RTVSPropertyOp38
 70
     1
102
RTVSPropertyOp39
 70
     1
102
RTVSPropertyOp40
 70
     1
102
RTVSPropertyOp41
 70
     1
102
RTVSPropertyOp42
 70
     1
102
RTVSPropertyOp43
 70
     1
102
RTVSPropertyOp44
 70
     1
102
RTVSPropertyOp45
 70
     1
102
RTVSPropertyOp46
 70
     1
102
RTVSPropertyOp47
 70
     1
102
RTVSPropertyOp48
 70
     1
102
RTVSPropertyOp49
 70
     1
102
RTVSPropertyOp50
 70
     1
102
RTVSPropertyOp51
 70
     0
102
RTVSPropertyOp52
 70
     0
102
RTVSPropertyOp53
 70
     1
102
RTVSPropertyOp54
 70
     1
102
RTVSPropertyOp55
 70
     1
102
RTVSPropertyOp56
 70
     1
102
RTVSPropertyOp57
 70
     1
102
RTVSPropertyOp58
 70
     1
102
RTVSPropertyOp59
 70
     1
102
RTVSPropertyOp60
 70
     1
102
RTVSPropertyOp61
 70
     1
102
RTVSPropertyOp62
 70
     1
  0
XRECORD
  5
850
102
{ACAD_REACTORS
330
84F
102
}
330
84F
100
AcDbXrecord
280
     1
102
RTVSPost2010Prop28
280
     0
102
RTVSPost2010PropOp28
 70
     1
102
RTVSPost2010Prop29
280
     1
102
RTVSPost2010PropOp29
 70
     1
102
RTVSPost2010Prop30
280
     1
102
RTVSPost2010PropOp30
 70
     1
102
RTVSPost2010Prop31
280
     0
102
RTVSPost2010PropOp31
 70
     1
102
RTVSPost2010Prop32
280
     0
102
RTVSPost2010PropOp32
 70
     1
102
RTVSPost2010Prop33
280
     0
102
RTVSPost2010PropOp33
 70
     1
102
RTVSPost2010Prop34
280
     0
102
RTVSPost2010PropOp34
 70
     1
102
RTVSPost2010Prop35
280
     0
102
RTVSPost2010PropOp35
 70
     1
102
RTVSPost2010Prop36
280
     0
102
RTVSPost2010PropOp36
 70
     1
102
RTVSPost2010Prop37
 90
       50
102
RTVSPost2010PropOp37
 70
     1
102
RTVSPost2010Prop38
140
0.0
102
RTVSPost2010PropOp38
 70
     1
102
RTVSPost2010Prop39
140
1.0
102
RTVSPost2010PropOp39
 70
     1
102
RTVSPost2010Prop40
 90
        0
102
RTVSPost2010PropOp40
 70
     1
102
RTVSPost2010Prop41ColorIndex
 90
       18
102
RTVSPost2010Prop41ColorRGB
 90
        0
102
RTVSPost2010PropOp41
 70
     1
102
RTVSPost2010Prop42
 90
       50
102
RTVSPost2010PropOp42
 70
     1
102
RTVSPost2010Prop43
 90
        3
102
RTVSPost2010PropOp43
 70
     1
102
RTVSPost2010Prop44ColorIndex
 90
        5
102
RTVSPost2010Prop44ColorRGB
 90
      255
102
RTVSPost2010PropOp44
 70
     1
102
RTVSPost2010Prop45
280
     0
102
RTVSPost2010PropOp45
 70
     1
102
RTVSPost2010Prop46
 90
       50
102
RTVSPost2010PropOp46
 70
     1
102
RTVSPost2010Prop47
 90
       50
102
RTVSPost2010PropOp47
 70
     1
102
RTVSPost2010Prop48
 90
       50
102
RTVSPost2010PropOp48
 70
     1
102
RTVSPost2010Prop49
280
     0
102
RTVSPost2010PropOp49
 70
     1
102
RTVSPost2010Prop50
 90
       50
102
RTVSPost2010PropOp50
 70
     1
102
RTVSPost2010Prop51ColorIndex
 90
      256
102
RTVSPost2010Prop51ColorRGB
 90
-16777216
102
RTVSPost2010PropOp51
 70
     0
102
RTVSPost2010Prop52
140
1.0
102
RTVSPost2010PropOp52
 70
     0
102
RTVSPost2010Prop53
 90
        2
102
RTVSPost2010PropOp53
 70
     1
102
RTVSPost2010Prop54
  1
strokes_ogs.tif
102
RTVSPost2010PropOp54
 70
     1
102
RTVSPost2010Prop55
280
     0
102
RTVSPost2010PropOp55
 70
     1
102
RTVSPost2010Prop56
140
1.0
102
RTVSPost2010PropOp56
 70
     1
102
RTVSPost2010Prop57
140
1.0
102
RTVSPost2010PropOp57
 70
     1
102
RTVSPropertyOp0
 70
     1
102
RTVSPropertyOp1
 70
     1
102
RTVSPropertyOp2
 70
     1
102
RTVSPropertyOp3
 70
     1
102
RTVSPropertyOp4
 70
     1
102
RTVSPropertyOp5
 70
     1
102
RTVSPropertyOp6
 70
     1
102
RTVSPropertyOp7
 70
     1
102
RTVSPropertyOp8
 70
     1
102
RTVSPropertyOp9
 70
     1
102
RTVSPropertyOp10
 70
     1
102
RTVSPropertyOp11
 70
     1
102
RTVSPropertyOp12
 70
     1
102
RTVSPropertyOp13
 70
     1
102
RTVSPropertyOp14
 70
     1
102
RTVSPropertyOp15
 70
     1
102
RTVSPropertyOp16
 70
     1
102
RTVSPropertyOp17
 70
     1
102
RTVSPropertyOp18
 70
     1
102
RTVSPropertyOp19
 70
     1
102
RTVSPropertyOp20
 70
     1
102
RTVSPropertyOp21
 70
     1
102
RTVSPropertyOp22
 70
     1
102
RTVSPropertyOp23
 70
     1
102
RTVSPropertyOp24
 70
     1
102
RTVSPropertyOp25
 70
     1
102
RTVSPropertyOp26
 70
     1
102
RTVSPropertyOp27
 70
     1
102
RTVSPropertyOp28
 70
     1
102
RTVSPropertyOp29
 70
     1
102
RTVSPropertyOp30
 70
     1
102
RTVSPropertyOp31
 70
     1
102
RTVSPropertyOp32
 70
     1
102
RTVSPropertyOp33
 70
     1
102
RTVSPropertyOp34
 70
     1
102
RTVSPropertyOp35
 70
     1
102
RTVSPropertyOp36
 70
     1
102
RTVSPropertyOp37
 70
     1
102
RTVSPropertyOp38
 70
     1
102
RTVSPropertyOp39
 70
     1
102
RTVSPropertyOp40
 70
     1
102
RTVSPropertyOp41
 70
     1
102
RTVSPropertyOp42
 70
     1
102
RTVSPropertyOp43
 70
     1
102
RTVSPropertyOp44
 70
     1
102
RTVSPropertyOp45
 70
     1
102
RTVSPropertyOp46
 70
     1
102
RTVSPropertyOp47
 70
     1
102
RTVSPropertyOp48
 70
     1
102
RTVSPropertyOp49
 70
     1
102
RTVSPropertyOp50
 70
     1
102
RTVSPropertyOp51
 70
     0
102
RTVSPropertyOp52
 70
     0
102
RTVSPropertyOp53
 70
     1
102
RTVSPropertyOp54
 70
     1
102
RTVSPropertyOp55
 70
     1
102
RTVSPropertyOp56
 70
     1
102
RTVSPropertyOp57
 70
     1
102
RTVSPropertyOp58
 70
     1
102
RTVSPropertyOp59
 70
     1
102
RTVSPropertyOp60
 70
     1
102
RTVSPropertyOp61
 70
     1
102
RTVSPropertyOp62
 70
     1
  0
XRECORD
  5
852
102
{ACAD_REACTORS
330
851
102
}
330
851
100
AcDbXrecord
280
     1
102
RTVSPost2010Prop28
280
     0
102
RTVSPost2010PropOp28
 70
     1
102
RTVSPost2010Prop29
280
     1
102
RTVSPost2010PropOp29
 70
     1
102
RTVSPost2010Prop30
280
     1
102
RTVSPost2010PropOp30
 70
     1
102
RTVSPost2010Prop31
280
     0
102
RTVSPost2010PropOp31
 70
     1
102
RTVSPost2010Prop32
280
     0
102
RTVSPost2010PropOp32
 70
     1
102
RTVSPost2010Prop33
280
     0
102
RTVSPost2010PropOp33
 70
     1
102
RTVSPost2010Prop34
280
     0
102
RTVSPost2010PropOp34
 70
     1
102
RTVSPost2010Prop35
280
     0
102
RTVSPost2010PropOp35
 70
     1
102
RTVSPost2010Prop36
280
     0
102
RTVSPost2010PropOp36
 70
     1
102
RTVSPost2010Prop37
 90
       50
102
RTVSPost2010PropOp37
 70
     1
102
RTVSPost2010Prop38
140
0.0
102
RTVSPost2010PropOp38
 70
     1
102
RTVSPost2010Prop39
140
1.0
102
RTVSPost2010PropOp39
 70
     1
102
RTVSPost2010Prop40
 90
        0
102
RTVSPost2010PropOp40
 70
     1
102
RTVSPost2010Prop41ColorIndex
 90
       18
102
RTVSPost2010Prop41ColorRGB
 90
        0
102
RTVSPost2010PropOp41
 70
     1
102
RTVSPost2010Prop42
 90
       50
102
RTVSPost2010PropOp42
 70
     1
102
RTVSPost2010Prop43
 90
        3
102
RTVSPost2010PropOp43
 70
     1
102
RTVSPost2010Prop44ColorIndex
 90
        5
102
RTVSPost2010Prop44ColorRGB
 90
      255
102
RTVSPost2010PropOp44
 70
     1
102
RTVSPost2010Prop45
280
     0
102
RTVSPost2010PropOp45
 70
     1
102
RTVSPost2010Prop46
 90
       50
102
RTVSPost2010PropOp46
 70
     1
102
RTVSPost2010Prop47
 90
       50
102
RTVSPost2010PropOp47
 70
     1
102
RTVSPost2010Prop48
 90
       50
102
RTVSPost2010PropOp48
 70
     1
102
RTVSPost2010Prop49
280
     0
102
RTVSPost2010PropOp49
 70
     1
102
RTVSPost2010Prop50
 90
       50
102
RTVSPost2010PropOp50
 70
     1
102
RTVSPost2010Prop51ColorIndex
 90
      256
102
RTVSPost2010Prop51ColorRGB
 90
-16777216
102
RTVSPost2010PropOp51
 70
     0
102
RTVSPost2010Prop52
140
1.0
102
RTVSPost2010PropOp52
 70
     0
102
RTVSPost2010Prop53
 90
        2
102
RTVSPost2010PropOp53
 70
     1
102
RTVSPost2010Prop54
  1
strokes_ogs.tif
102
RTVSPost2010PropOp54
 70
     1
102
RTVSPost2010Prop55
280
     0
102
RTVSPost2010PropOp55
 70
     1
102
RTVSPost2010Prop56
140
1.0
102
RTVSPost2010PropOp56
 70
     1
102
RTVSPost2010Prop57
140
1.0
102
RTVSPost2010PropOp57
 70
     1
102
RTVSPropertyOp0
 70
     1
102
RTVSPropertyOp1
 70
     1
102
RTVSPropertyOp2
 70
     1
102
RTVSPropertyOp3
 70
     1
102
RTVSPropertyOp4
 70
     1
102
RTVSPropertyOp5
 70
     1
102
RTVSPropertyOp6
 70
     1
102
RTVSPropertyOp7
 70
     1
102
RTVSPropertyOp8
 70
     1
102
RTVSPropertyOp9
 70
     1
102
RTVSPropertyOp10
 70
     1
102
RTVSPropertyOp11
 70
     1
102
RTVSPropertyOp12
 70
     1
102
RTVSPropertyOp13
 70
     1
102
RTVSPropertyOp14
 70
     1
102
RTVSPropertyOp15
 70
     1
102
RTVSPropertyOp16
 70
     1
102
RTVSPropertyOp17
 70
     1
102
RTVSPropertyOp18
 70
     1
102
RTVSPropertyOp19
 70
     1
102
RTVSPropertyOp20
 70
     1
102
RTVSPropertyOp21
 70
     1
102
RTVSPropertyOp22
 70
     1
102
RTVSPropertyOp23
 70
     1
102
RTVSPropertyOp24
 70
     1
102
RTVSPropertyOp25
 70
     1
102
RTVSPropertyOp26
 70
     1
102
RTVSPropertyOp27
 70
     1
102
RTVSPropertyOp28
 70
     1
102
RTVSPropertyOp29
 70
     1
102
RTVSPropertyOp30
 70
     1
102
RTVSPropertyOp31
 70
     1
102
RTVSPropertyOp32
 70
     1
102
RTVSPropertyOp33
 70
     1
102
RTVSPropertyOp34
 70
     1
102
RTVSPropertyOp35
 70
     1
102
RTVSPropertyOp36
 70
     1
102
RTVSPropertyOp37
 70
     1
102
RTVSPropertyOp38
 70
     1
102
RTVSPropertyOp39
 70
     1
102
RTVSPropertyOp40
 70
     1
102
RTVSPropertyOp41
 70
     1
102
RTVSPropertyOp42
 70
     1
102
RTVSPropertyOp43
 70
     1
102
RTVSPropertyOp44
 70
     1
102
RTVSPropertyOp45
 70
     1
102
RTVSPropertyOp46
 70
     1
102
RTVSPropertyOp47
 70
     1
102
RTVSPropertyOp48
 70
     1
102
RTVSPropertyOp49
 70
     1
102
RTVSPropertyOp50
 70
     1
102
RTVSPropertyOp51
 70
     0
102
RTVSPropertyOp52
 70
     0
102
RTVSPropertyOp53
 70
     1
102
RTVSPropertyOp54
 70
     1
102
RTVSPropertyOp55
 70
     1
102
RTVSPropertyOp56
 70
     1
102
RTVSPropertyOp57
 70
     1
102
RTVSPropertyOp58
 70
     1
102
RTVSPropertyOp59
 70
     1
102
RTVSPropertyOp60
 70
     1
102
RTVSPropertyOp61
 70
     1
102
RTVSPropertyOp62
 70
     1
  0
XRECORD
  5
862
102
{ACAD_REACTORS
330
861
102
}
330
861
100
AcDbXrecord
280
     1
102
RTVSPost2010Prop28
280
     0
102
RTVSPost2010PropOp28
 70
     0
102
RTVSPost2010Prop29
280
     1
102
RTVSPost2010PropOp29
 70
     0
102
RTVSPost2010Prop30
280
     1
102
RTVSPost2010PropOp30
 70
     0
102
RTVSPost2010Prop31
280
     0
102
RTVSPost2010PropOp31
 70
     0
102
RTVSPost2010Prop32
280
     0
102
RTVSPost2010PropOp32
 70
     0
102
RTVSPost2010Prop33
280
     0
102
RTVSPost2010PropOp33
 70
     0
102
RTVSPost2010Prop34
280
     0
102
RTVSPost2010PropOp34
 70
     0
102
RTVSPost2010Prop35
280
     0
102
RTVSPost2010PropOp35
 70
     0
102
RTVSPost2010Prop36
280
     0
102
RTVSPost2010PropOp36
 70
     0
102
RTVSPost2010Prop37
 90
       50
102
RTVSPost2010PropOp37
 70
     0
102
RTVSPost2010Prop38
140
0.0
102
RTVSPost2010PropOp38
 70
     0
102
RTVSPost2010Prop39
140
1.0
102
RTVSPost2010PropOp39
 70
     0
102
RTVSPost2010Prop40
 90
        0
102
RTVSPost2010PropOp40
 70
     0
102
RTVSPost2010Prop41ColorIndex
 90
       18
102
RTVSPost2010Prop41ColorRGB
 90
        0
102
RTVSPost2010PropOp41
 70
     0
102
RTVSPost2010Prop42
 90
       50
102
RTVSPost2010PropOp42
 70
     0
102
RTVSPost2010Prop43
 90
        3
102
RTVSPost2010PropOp43
 70
     0
102
RTVSPost2010Prop44ColorIndex
 90
        5
102
RTVSPost2010Prop44ColorRGB
 90
      255
102
RTVSPost2010PropOp44
 70
     0
102
RTVSPost2010Prop45
280
     0
102
RTVSPost2010PropOp45
 70
     0
102
RTVSPost2010Prop46
 90
       50
102
RTVSPost2010PropOp46
 70
     0
102
RTVSPost2010Prop47
 90
       50
102
RTVSPost2010PropOp47
 70
     0
102
RTVSPost2010Prop48
 90
       50
102
RTVSPost2010PropOp48
 70
     0
102
RTVSPost2010Prop49
280
     0
102
RTVSPost2010PropOp49
 70
     0
102
RTVSPost2010Prop50
 90
       50
102
RTVSPost2010PropOp50
 70
     0
102
RTVSPost2010Prop51ColorIndex
 90
      256
102
RTVSPost2010Prop51ColorRGB
 90
-16777216
102
RTVSPost2010PropOp51
 70
     0
102
RTVSPost2010Prop52
140
1.0
102
RTVSPost2010PropOp52
 70
     0
102
RTVSPost2010Prop53
 90
        2
102
RTVSPost2010PropOp53
 70
     0
102
RTVSPost2010Prop54
  1
strokes_ogs.tif
102
RTVSPost2010PropOp54
 70
     0
102
RTVSPost2010Prop55
280
     0
102
RTVSPost2010PropOp55
 70
     0
102
RTVSPost2010Prop56
140
1.0
102
RTVSPost2010PropOp56
 70
     0
102
RTVSPost2010Prop57
140
1.0
102
RTVSPost2010PropOp57
 70
     0
102
RTVSPropertyOp0
 70
     0
102
RTVSPropertyOp1
 70
     0
102
RTVSPropertyOp2
 70
     0
102
RTVSPropertyOp3
 70
     0
102
RTVSPropertyOp4
 70
     0
102
RTVSPropertyOp5
 70
     0
102
RTVSPropertyOp6
 70
     0
102
RTVSPropertyOp7
 70
     0
102
RTVSPropertyOp8
 70
     0
102
RTVSPropertyOp9
 70
     0
102
RTVSPropertyOp10
 70
     0
102
RTVSPropertyOp11
 70
     0
102
RTVSPropertyOp12
 70
     0
102
RTVSPropertyOp13
 70
     0
102
RTVSPropertyOp14
 70
     2
102
RTVSPropertyOp15
 70
     0
102
RTVSPropertyOp16
 70
     0
102
RTVSPropertyOp17
 70
     0
102
RTVSPropertyOp18
 70
     0
102
RTVSPropertyOp19
 70
     0
102
RTVSPropertyOp20
 70
     0
102
RTVSPropertyOp21
 70
     0
102
RTVSPropertyOp22
 70
     0
102
RTVSPropertyOp23
 70
     0
102
RTVSPropertyOp24
 70
     0
102
RTVSPropertyOp25
 70
     0
102
RTVSPropertyOp26
 70
     0
102
RTVSPropertyOp27
 70
     0
102
RTVSPropertyOp28
 70
     0
102
RTVSPropertyOp29
 70
     0
102
RTVSPropertyOp30
 70
     0
102
RTVSPropertyOp31
 70
     0
102
RTVSPropertyOp32
 70
     0
102
RTVSPropertyOp33
 70
     0
102
RTVSPropertyOp34
 70
     0
102
RTVSPropertyOp35
 70
     0
102
RTVSPropertyOp36
 70
     0
102
RTVSPropertyOp37
 70
     0
102
RTVSPropertyOp38
 70
     0
102
RTVSPropertyOp39
 70
     0
102
RTVSPropertyOp40
 70
     0
102
RTVSPropertyOp41
 70
     0
102
RTVSPropertyOp42
 70
     0
102
RTVSPropertyOp43
 70
     0
102
RTVSPropertyOp44
 70
     0
102
RTVSPropertyOp45
 70
     0
102
RTVSPropertyOp46
 70
     0
102
RTVSPropertyOp47
 70
     0
102
RTVSPropertyOp48
 70
     0
102
RTVSPropertyOp49
 70
     0
102
RTVSPropertyOp50
 70
     0
102
RTVSPropertyOp51
 70
     0
102
RTVSPropertyOp52
 70
     0
102
RTVSPropertyOp53
 70
     0
102
RTVSPropertyOp54
 70
     0
102
RTVSPropertyOp55
 70
     0
102
RTVSPropertyOp56
 70
     0
102
RTVSPropertyOp57
 70
     0
102
RTVSPropertyOp58
 70
     1
102
RTVSPropertyOp59
 70
     1
102
RTVSPropertyOp60
 70
     1
102
RTVSPropertyOp61
 70
     1
102
RTVSPropertyOp62
 70
     1
  0
XRECORD
  5
85A
102
{ACAD_REACTORS
330
859
102
}
330
859
100
AcDbXrecord
280
     1
102
RTVSPost2010Prop28
280
     0
102
RTVSPost2010PropOp28
 70
     1
102
RTVSPost2010Prop29
280
     1
102
RTVSPost2010PropOp29
 70
     1
102
RTVSPost2010Prop30
280
     1
102
RTVSPost2010PropOp30
 70
     1
102
RTVSPost2010Prop31
280
     0
102
RTVSPost2010PropOp31
 70
     1
102
RTVSPost2010Prop32
280
     0
102
RTVSPost2010PropOp32
 70
     1
102
RTVSPost2010Prop33
280
     0
102
RTVSPost2010PropOp33
 70
     1
102
RTVSPost2010Prop34
280
     0
102
RTVSPost2010PropOp34
 70
     1
102
RTVSPost2010Prop35
280
     0
102
RTVSPost2010PropOp35
 70
     1
102
RTVSPost2010Prop36
280
     0
102
RTVSPost2010PropOp36
 70
     1
102
RTVSPost2010Prop37
 90
       50
102
RTVSPost2010PropOp37
 70
     1
102
RTVSPost2010Prop38
140
0.0
102
RTVSPost2010PropOp38
 70
     1
102
RTVSPost2010Prop39
140
1.0
102
RTVSPost2010PropOp39
 70
     1
102
RTVSPost2010Prop40
 90
        0
102
RTVSPost2010PropOp40
 70
     1
102
RTVSPost2010Prop41ColorIndex
 90
       18
102
RTVSPost2010Prop41ColorRGB
 90
        0
102
RTVSPost2010PropOp41
 70
     1
102
RTVSPost2010Prop42
 90
       50
102
RTVSPost2010PropOp42
 70
     1
102
RTVSPost2010Prop43
 90
        3
102
RTVSPost2010PropOp43
 70
     1
102
RTVSPost2010Prop44ColorIndex
 90
        5
102
RTVSPost2010Prop44ColorRGB
 90
      255
102
RTVSPost2010PropOp44
 70
     1
102
RTVSPost2010Prop45
280
     0
102
RTVSPost2010PropOp45
 70
     1
102
RTVSPost2010Prop46
 90
       50
102
RTVSPost2010PropOp46
 70
     1
102
RTVSPost2010Prop47
 90
       50
102
RTVSPost2010PropOp47
 70
     1
102
RTVSPost2010Prop48
 90
       50
102
RTVSPost2010PropOp48
 70
     1
102
RTVSPost2010Prop49
280
     0
102
RTVSPost2010PropOp49
 70
     1
102
RTVSPost2010Prop50
 90
       50
102
RTVSPost2010PropOp50
 70
     1
102
RTVSPost2010Prop51ColorIndex
 90
      256
102
RTVSPost2010Prop51ColorRGB
 90
-16777216
102
RTVSPost2010PropOp51
 70
     0
102
RTVSPost2010Prop52
140
1.0
102
RTVSPost2010PropOp52
 70
     0
102
RTVSPost2010Prop53
 90
        2
102
RTVSPost2010PropOp53
 70
     1
102
RTVSPost2010Prop54
  1
strokes_ogs.tif
102
RTVSPost2010PropOp54
 70
     1
102
RTVSPost2010Prop55
280
     0
102
RTVSPost2010PropOp55
 70
     1
102
RTVSPost2010Prop56
140
1.0
102
RTVSPost2010PropOp56
 70
     1
102
RTVSPost2010Prop57
140
1.0
102
RTVSPost2010PropOp57
 70
     1
102
RTVSPropertyOp0
 70
     1
102
RTVSPropertyOp1
 70
     1
102
RTVSPropertyOp2
 70
     1
102
RTVSPropertyOp3
 70
     1
102
RTVSPropertyOp4
 70
     1
102
RTVSPropertyOp5
 70
     1
102
RTVSPropertyOp6
 70
     1
102
RTVSPropertyOp7
 70
     1
102
RTVSPropertyOp8
 70
     1
102
RTVSPropertyOp9
 70
     1
102
RTVSPropertyOp10
 70
     1
102
RTVSPropertyOp11
 70
     1
102
RTVSPropertyOp12
 70
     1
102
RTVSPropertyOp13
 70
     1
102
RTVSPropertyOp14
 70
     1
102
RTVSPropertyOp15
 70
     1
102
RTVSPropertyOp16
 70
     1
102
RTVSPropertyOp17
 70
     1
102
RTVSPropertyOp18
 70
     1
102
RTVSPropertyOp19
 70
     1
102
RTVSPropertyOp20
 70
     1
102
RTVSPropertyOp21
 70
     1
102
RTVSPropertyOp22
 70
     1
102
RTVSPropertyOp23
 70
     1
102
RTVSPropertyOp24
 70
     1
102
RTVSPropertyOp25
 70
     1
102
RTVSPropertyOp26
 70
     1
102
RTVSPropertyOp27
 70
     1
102
RTVSPropertyOp28
 70
     1
102
RTVSPropertyOp29
 70
     1
102
RTVSPropertyOp30
 70
     1
102
RTVSPropertyOp31
 70
     1
102
RTVSPropertyOp32
 70
     1
102
RTVSPropertyOp33
 70
     1
102
RTVSPropertyOp34
 70
     1
102
RTVSPropertyOp35
 70
     1
102
RTVSPropertyOp36
 70
     1
102
RTVSPropertyOp37
 70
     1
102
RTVSPropertyOp38
 70
     1
102
RTVSPropertyOp39
 70
     1
102
RTVSPropertyOp40
 70
     1
102
RTVSPropertyOp41
 70
     1
102
RTVSPropertyOp42
 70
     1
102
RTVSPropertyOp43
 70
     1
102
RTVSPropertyOp44
 70
     1
102
RTVSPropertyOp45
 70
     1
102
RTVSPropertyOp46
 70
     1
102
RTVSPropertyOp47
 70
     1
102
RTVSPropertyOp48
 70
     1
102
RTVSPropertyOp49
 70
     1
102
RTVSPropertyOp50
 70
     1
102
RTVSPropertyOp51
 70
     0
102
RTVSPropertyOp52
 70
     0
102
RTVSPropertyOp53
 70
     1
102
RTVSPropertyOp54
 70
     1
102
RTVSPropertyOp55
 70
     1
102
RTVSPropertyOp56
 70
     1
102
RTVSPropertyOp57
 70
     1
102
RTVSPropertyOp58
 70
     1
102
RTVSPropertyOp59
 70
     1
102
RTVSPropertyOp60
 70
     1
102
RTVSPropertyOp61
 70
     1
102
RTVSPropertyOp62
 70
     1
  0
XRECORD
  5
83E
102
{ACAD_REACTORS
330
83D
102
}
330
83D
100
AcDbXrecord
280
     1
102
RTVSPost2010Prop28
280
     0
102
RTVSPost2010PropOp28
 70
     1
102
RTVSPost2010Prop29
280
     1
102
RTVSPost2010PropOp29
 70
     1
102
RTVSPost2010Prop30
280
     1
102
RTVSPost2010PropOp30
 70
     1
102
RTVSPost2010Prop31
280
     0
102
RTVSPost2010PropOp31
 70
     1
102
RTVSPost2010Prop32
280
     0
102
RTVSPost2010PropOp32
 70
     1
102
RTVSPost2010Prop33
280
     0
102
RTVSPost2010PropOp33
 70
     1
102
RTVSPost2010Prop34
280
     0
102
RTVSPost2010PropOp34
 70
     1
102
RTVSPost2010Prop35
280
     0
102
RTVSPost2010PropOp35
 70
     1
102
RTVSPost2010Prop36
280
     0
102
RTVSPost2010PropOp36
 70
     1
102
RTVSPost2010Prop37
 90
       50
102
RTVSPost2010PropOp37
 70
     1
102
RTVSPost2010Prop38
140
0.0
102
RTVSPost2010PropOp38
 70
     1
102
RTVSPost2010Prop39
140
1.0
102
RTVSPost2010PropOp39
 70
     1
102
RTVSPost2010Prop40
 90
        0
102
RTVSPost2010PropOp40
 70
     1
102
RTVSPost2010Prop41ColorIndex
 90
       18
102
RTVSPost2010Prop41ColorRGB
 90
        0
102
RTVSPost2010PropOp41
 70
     1
102
RTVSPost2010Prop42
 90
       50
102
RTVSPost2010PropOp42
 70
     1
102
RTVSPost2010Prop43
 90
        3
102
RTVSPost2010PropOp43
 70
     1
102
RTVSPost2010Prop44ColorIndex
 90
        5
102
RTVSPost2010Prop44ColorRGB
 90
      255
102
RTVSPost2010PropOp44
 70
     1
102
RTVSPost2010Prop45
280
     0
102
RTVSPost2010PropOp45
 70
     1
102
RTVSPost2010Prop46
 90
       50
102
RTVSPost2010PropOp46
 70
     1
102
RTVSPost2010Prop47
 90
       50
102
RTVSPost2010PropOp47
 70
     1
102
RTVSPost2010Prop48
 90
       50
102
RTVSPost2010PropOp48
 70
     1
102
RTVSPost2010Prop49
280
     0
102
RTVSPost2010PropOp49
 70
     1
102
RTVSPost2010Prop50
 90
       50
102
RTVSPost2010PropOp50
 70
     1
102
RTVSPost2010Prop51ColorIndex
 90
      256
102
RTVSPost2010Prop51ColorRGB
 90
-16777216
102
RTVSPost2010PropOp51
 70
     0
102
RTVSPost2010Prop52
140
1.0
102
RTVSPost2010PropOp52
 70
     0
102
RTVSPost2010Prop53
 90
        2
102
RTVSPost2010PropOp53
 70
     1
102
RTVSPost2010Prop54
  1
strokes_ogs.tif
102
RTVSPost2010PropOp54
 70
     1
102
RTVSPost2010Prop55
280
     0
102
RTVSPost2010PropOp55
 70
     1
102
RTVSPost2010Prop56
140
1.0
102
RTVSPost2010PropOp56
 70
     1
102
RTVSPost2010Prop57
140
1.0
102
RTVSPost2010PropOp57
 70
     1
102
RTVSPropertyOp0
 70
     1
102
RTVSPropertyOp1
 70
     1
102
RTVSPropertyOp2
 70
     1
102
RTVSPropertyOp3
 70
     1
102
RTVSPropertyOp4
 70
     1
102
RTVSPropertyOp5
 70
     1
102
RTVSPropertyOp6
 70
     1
102
RTVSPropertyOp7
 70
     1
102
RTVSPropertyOp8
 70
     1
102
RTVSPropertyOp9
 70
     1
102
RTVSPropertyOp10
 70
     1
102
RTVSPropertyOp11
 70
     1
102
RTVSPropertyOp12
 70
     1
102
RTVSPropertyOp13
 70
     1
102
RTVSPropertyOp14
 70
     1
102
RTVSPropertyOp15
 70
     1
102
RTVSPropertyOp16
 70
     1
102
RTVSPropertyOp17
 70
     1
102
RTVSPropertyOp18
 70
     1
102
RTVSPropertyOp19
 70
     1
102
RTVSPropertyOp20
 70
     1
102
RTVSPropertyOp21
 70
     1
102
RTVSPropertyOp22
 70
     1
102
RTVSPropertyOp23
 70
     1
102
RTVSPropertyOp24
 70
     1
102
RTVSPropertyOp25
 70
     1
102
RTVSPropertyOp26
 70
     1
102
RTVSPropertyOp27
 70
     1
102
RTVSPropertyOp28
 70
     1
102
RTVSPropertyOp29
 70
     1
102
RTVSPropertyOp30
 70
     1
102
RTVSPropertyOp31
 70
     1
102
RTVSPropertyOp32
 70
     1
102
RTVSPropertyOp33
 70
     1
102
RTVSPropertyOp34
 70
     1
102
RTVSPropertyOp35
 70
     1
102
RTVSPropertyOp36
 70
     1
102
RTVSPropertyOp37
 70
     1
102
RTVSPropertyOp38
 70
     1
102
RTVSPropertyOp39
 70
     1
102
RTVSPropertyOp40
 70
     1
102
RTVSPropertyOp41
 70
     1
102
RTVSPropertyOp42
 70
     1
102
RTVSPropertyOp43
 70
     1
102
RTVSPropertyOp44
 70
     1
102
RTVSPropertyOp45
 70
     1
102
RTVSPropertyOp46
 70
     1
102
RTVSPropertyOp47
 70
     1
102
RTVSPropertyOp48
 70
     1
102
RTVSPropertyOp49
 70
     1
102
RTVSPropertyOp50
 70
     1
102
RTVSPropertyOp51
 70
     0
102
RTVSPropertyOp52
 70
     0
102
RTVSPropertyOp53
 70
     1
102
RTVSPropertyOp54
 70
     1
102
RTVSPropertyOp55
 70
     1
102
RTVSPropertyOp56
 70
     1
102
RTVSPropertyOp57
 70
     1
102
RTVSPropertyOp58
 70
     1
102
RTVSPropertyOp59
 70
     1
102
RTVSPropertyOp60
 70
     1
102
RTVSPropertyOp61
 70
     1
102
RTVSPropertyOp62
 70
     1
  0
XRECORD
  5
840
102
{ACAD_REACTORS
330
83F
102
}
330
83F
100
AcDbXrecord
280
     1
102
RTVSPost2010Prop28
280
     0
102
RTVSPost2010PropOp28
 70
     1
102
RTVSPost2010Prop29
280
     1
102
RTVSPost2010PropOp29
 70
     1
102
RTVSPost2010Prop30
280
     1
102
RTVSPost2010PropOp30
 70
     1
102
RTVSPost2010Prop31
280
     0
102
RTVSPost2010PropOp31
 70
     1
102
RTVSPost2010Prop32
280
     0
102
RTVSPost2010PropOp32
 70
     1
102
RTVSPost2010Prop33
280
     0
102
RTVSPost2010PropOp33
 70
     1
102
RTVSPost2010Prop34
280
     0
102
RTVSPost2010PropOp34
 70
     1
102
RTVSPost2010Prop35
280
     0
102
RTVSPost2010PropOp35
 70
     1
102
RTVSPost2010Prop36
280
     0
102
RTVSPost2010PropOp36
 70
     1
102
RTVSPost2010Prop37
 90
       50
102
RTVSPost2010PropOp37
 70
     1
102
RTVSPost2010Prop38
140
0.0
102
RTVSPost2010PropOp38
 70
     1
102
RTVSPost2010Prop39
140
1.0
102
RTVSPost2010PropOp39
 70
     1
102
RTVSPost2010Prop40
 90
        0
102
RTVSPost2010PropOp40
 70
     1
102
RTVSPost2010Prop41ColorIndex
 90
       18
102
RTVSPost2010Prop41ColorRGB
 90
        0
102
RTVSPost2010PropOp41
 70
     1
102
RTVSPost2010Prop42
 90
       50
102
RTVSPost2010PropOp42
 70
     1
102
RTVSPost2010Prop43
 90
        3
102
RTVSPost2010PropOp43
 70
     1
102
RTVSPost2010Prop44ColorIndex
 90
        5
102
RTVSPost2010Prop44ColorRGB
 90
      255
102
RTVSPost2010PropOp44
 70
     1
102
RTVSPost2010Prop45
280
     0
102
RTVSPost2010PropOp45
 70
     1
102
RTVSPost2010Prop46
 90
       50
102
RTVSPost2010PropOp46
 70
     1
102
RTVSPost2010Prop47
 90
       50
102
RTVSPost2010PropOp47
 70
     1
102
RTVSPost2010Prop48
 90
       50
102
RTVSPost2010PropOp48
 70
     1
102
RTVSPost2010Prop49
280
     0
102
RTVSPost2010PropOp49
 70
     1
102
RTVSPost2010Prop50
 90
       50
102
RTVSPost2010PropOp50
 70
     1
102
RTVSPost2010Prop51ColorIndex
 90
      256
102
RTVSPost2010Prop51ColorRGB
 90
-16777216
102
RTVSPost2010PropOp51
 70
     0
102
RTVSPost2010Prop52
140
1.0
102
RTVSPost2010PropOp52
 70
     0
102
RTVSPost2010Prop53
 90
        2
102
RTVSPost2010PropOp53
 70
     1
102
RTVSPost2010Prop54
  1
strokes_ogs.tif
102
RTVSPost2010PropOp54
 70
     1
102
RTVSPost2010Prop55
280
     0
102
RTVSPost2010PropOp55
 70
     1
102
RTVSPost2010Prop56
140
1.0
102
RTVSPost2010PropOp56
 70
     1
102
RTVSPost2010Prop57
140
1.0
102
RTVSPost2010PropOp57
 70
     1
102
RTVSPropertyOp0
 70
     1
102
RTVSPropertyOp1
 70
     1
102
RTVSPropertyOp2
 70
     1
102
RTVSPropertyOp3
 70
     1
102
RTVSPropertyOp4
 70
     1
102
RTVSPropertyOp5
 70
     1
102
RTVSPropertyOp6
 70
     1
102
RTVSPropertyOp7
 70
     1
102
RTVSPropertyOp8
 70
     1
102
RTVSPropertyOp9
 70
     1
102
RTVSPropertyOp10
 70
     1
102
RTVSPropertyOp11
 70
     1
102
RTVSPropertyOp12
 70
     1
102
RTVSPropertyOp13
 70
     1
102
RTVSPropertyOp14
 70
     1
102
RTVSPropertyOp15
 70
     1
102
RTVSPropertyOp16
 70
     1
102
RTVSPropertyOp17
 70
     1
102
RTVSPropertyOp18
 70
     1
102
RTVSPropertyOp19
 70
     1
102
RTVSPropertyOp20
 70
     1
102
RTVSPropertyOp21
 70
     1
102
RTVSPropertyOp22
 70
     1
102
RTVSPropertyOp23
 70
     1
102
RTVSPropertyOp24
 70
     1
102
RTVSPropertyOp25
 70
     1
102
RTVSPropertyOp26
 70
     1
102
RTVSPropertyOp27
 70
     1
102
RTVSPropertyOp28
 70
     1
102
RTVSPropertyOp29
 70
     1
102
RTVSPropertyOp30
 70
     1
102
RTVSPropertyOp31
 70
     1
102
RTVSPropertyOp32
 70
     1
102
RTVSPropertyOp33
 70
     1
102
RTVSPropertyOp34
 70
     1
102
RTVSPropertyOp35
 70
     1
102
RTVSPropertyOp36
 70
     1
102
RTVSPropertyOp37
 70
     1
102
RTVSPropertyOp38
 70
     1
102
RTVSPropertyOp39
 70
     1
102
RTVSPropertyOp40
 70
     1
102
RTVSPropertyOp41
 70
     1
102
RTVSPropertyOp42
 70
     1
102
RTVSPropertyOp43
 70
     1
102
RTVSPropertyOp44
 70
     1
102
RTVSPropertyOp45
 70
     1
102
RTVSPropertyOp46
 70
     1
102
RTVSPropertyOp47
 70
     1
102
RTVSPropertyOp48
 70
     1
102
RTVSPropertyOp49
 70
     1
102
RTVSPropertyOp50
 70
     1
102
RTVSPropertyOp51
 70
     0
102
RTVSPropertyOp52
 70
     0
102
RTVSPropertyOp53
 70
     1
102
RTVSPropertyOp54
 70
     1
102
RTVSPropertyOp55
 70
     1
102
RTVSPropertyOp56
 70
     1
102
RTVSPropertyOp57
 70
     1
102
RTVSPropertyOp58
 70
     1
102
RTVSPropertyOp59
 70
     1
102
RTVSPropertyOp60
 70
     1
102
RTVSPropertyOp61
 70
     1
102
RTVSPropertyOp62
 70
     1
  0
XRECORD
  5
842
102
{ACAD_REACTORS
330
841
102
}
330
841
100
AcDbXrecord
280
     1
102
RTVSPost2010Prop28
280
     0
102
RTVSPost2010PropOp28
 70
     1
102
RTVSPost2010Prop29
280
     1
102
RTVSPost2010PropOp29
 70
     1
102
RTVSPost2010Prop30
280
     1
102
RTVSPost2010PropOp30
 70
     1
102
RTVSPost2010Prop31
280
     0
102
RTVSPost2010PropOp31
 70
     1
102
RTVSPost2010Prop32
280
     0
102
RTVSPost2010PropOp32
 70
     1
102
RTVSPost2010Prop33
280
     0
102
RTVSPost2010PropOp33
 70
     1
102
RTVSPost2010Prop34
280
     0
102
RTVSPost2010PropOp34
 70
     1
102
RTVSPost2010Prop35
280
     0
102
RTVSPost2010PropOp35
 70
     1
102
RTVSPost2010Prop36
280
     0
102
RTVSPost2010PropOp36
 70
     1
102
RTVSPost2010Prop37
 90
       50
102
RTVSPost2010PropOp37
 70
     1
102
RTVSPost2010Prop38
140
0.0
102
RTVSPost2010PropOp38
 70
     1
102
RTVSPost2010Prop39
140
1.0
102
RTVSPost2010PropOp39
 70
     1
102
RTVSPost2010Prop40
 90
        0
102
RTVSPost2010PropOp40
 70
     1
102
RTVSPost2010Prop41ColorIndex
 90
       18
102
RTVSPost2010Prop41ColorRGB
 90
        0
102
RTVSPost2010PropOp41
 70
     1
102
RTVSPost2010Prop42
 90
       50
102
RTVSPost2010PropOp42
 70
     1
102
RTVSPost2010Prop43
 90
        3
102
RTVSPost2010PropOp43
 70
     1
102
RTVSPost2010Prop44ColorIndex
 90
        5
102
RTVSPost2010Prop44ColorRGB
 90
      255
102
RTVSPost2010PropOp44
 70
     1
102
RTVSPost2010Prop45
280
     0
102
RTVSPost2010PropOp45
 70
     1
102
RTVSPost2010Prop46
 90
       50
102
RTVSPost2010PropOp46
 70
     1
102
RTVSPost2010Prop47
 90
       50
102
RTVSPost2010PropOp47
 70
     1
102
RTVSPost2010Prop48
 90
       50
102
RTVSPost2010PropOp48
 70
     1
102
RTVSPost2010Prop49
280
     0
102
RTVSPost2010PropOp49
 70
     1
102
RTVSPost2010Prop50
 90
       50
102
RTVSPost2010PropOp50
 70
     1
102
RTVSPost2010Prop51ColorIndex
 90
      256
102
RTVSPost2010Prop51ColorRGB
 90
-16777216
102
RTVSPost2010PropOp51
 70
     0
102
RTVSPost2010Prop52
140
1.0
102
RTVSPost2010PropOp52
 70
     0
102
RTVSPost2010Prop53
 90
        2
102
RTVSPost2010PropOp53
 70
     1
102
RTVSPost2010Prop54
  1
strokes_ogs.tif
102
RTVSPost2010PropOp54
 70
     1
102
RTVSPost2010Prop55
280
     0
102
RTVSPost2010PropOp55
 70
     1
102
RTVSPost2010Prop56
140
1.0
102
RTVSPost2010PropOp56
 70
     1
102
RTVSPost2010Prop57
140
1.0
102
RTVSPost2010PropOp57
 70
     1
102
RTVSPropertyOp0
 70
     1
102
RTVSPropertyOp1
 70
     1
102
RTVSPropertyOp2
 70
     1
102
RTVSPropertyOp3
 70
     1
102
RTVSPropertyOp4
 70
     1
102
RTVSPropertyOp5
 70
     1
102
RTVSPropertyOp6
 70
     1
102
RTVSPropertyOp7
 70
     1
102
RTVSPropertyOp8
 70
     1
102
RTVSPropertyOp9
 70
     1
102
RTVSPropertyOp10
 70
     1
102
RTVSPropertyOp11
 70
     1
102
RTVSPropertyOp12
 70
     1
102
RTVSPropertyOp13
 70
     1
102
RTVSPropertyOp14
 70
     1
102
RTVSPropertyOp15
 70
     1
102
RTVSPropertyOp16
 70
     1
102
RTVSPropertyOp17
 70
     1
102
RTVSPropertyOp18
 70
     1
102
RTVSPropertyOp19
 70
     1
102
RTVSPropertyOp20
 70
     1
102
RTVSPropertyOp21
 70
     1
102
RTVSPropertyOp22
 70
     1
102
RTVSPropertyOp23
 70
     1
102
RTVSPropertyOp24
 70
     1
102
RTVSPropertyOp25
 70
     1
102
RTVSPropertyOp26
 70
     1
102
RTVSPropertyOp27
 70
     1
102
RTVSPropertyOp28
 70
     1
102
RTVSPropertyOp29
 70
     1
102
RTVSPropertyOp30
 70
     1
102
RTVSPropertyOp31
 70
     1
102
RTVSPropertyOp32
 70
     1
102
RTVSPropertyOp33
 70
     1
102
RTVSPropertyOp34
 70
     1
102
RTVSPropertyOp35
 70
     1
102
RTVSPropertyOp36
 70
     1
102
RTVSPropertyOp37
 70
     1
102
RTVSPropertyOp38
 70
     1
102
RTVSPropertyOp39
 70
     1
102
RTVSPropertyOp40
 70
     1
102
RTVSPropertyOp41
 70
     1
102
RTVSPropertyOp42
 70
     1
102
RTVSPropertyOp43
 70
     1
102
RTVSPropertyOp44
 70
     1
102
RTVSPropertyOp45
 70
     1
102
RTVSPropertyOp46
 70
     1
102
RTVSPropertyOp47
 70
     1
102
RTVSPropertyOp48
 70
     1
102
RTVSPropertyOp49
 70
     1
102
RTVSPropertyOp50
 70
     1
102
RTVSPropertyOp51
 70
     0
102
RTVSPropertyOp52
 70
     0
102
RTVSPropertyOp53
 70
     1
102
RTVSPropertyOp54
 70
     1
102
RTVSPropertyOp55
 70
     1
102
RTVSPropertyOp56
 70
     1
102
RTVSPropertyOp57
 70
     1
102
RTVSPropertyOp58
 70
     1
102
RTVSPropertyOp59
 70
     1
102
RTVSPropertyOp60
 70
     1
102
RTVSPropertyOp61
 70
     1
102
RTVSPropertyOp62
 70
     1
  0
XRECORD
  5
844
102
{ACAD_REACTORS
330
843
102
}
330
843
100
AcDbXrecord
280
     1
102
RTVSPost2010Prop28
280
     0
102
RTVSPost2010PropOp28
 70
     1
102
RTVSPost2010Prop29
280
     1
102
RTVSPost2010PropOp29
 70
     1
102
RTVSPost2010Prop30
280
     1
102
RTVSPost2010PropOp30
 70
     1
102
RTVSPost2010Prop31
280
     0
102
RTVSPost2010PropOp31
 70
     1
102
RTVSPost2010Prop32
280
     0
102
RTVSPost2010PropOp32
 70
     1
102
RTVSPost2010Prop33
280
     0
102
RTVSPost2010PropOp33
 70
     1
102
RTVSPost2010Prop34
280
     0
102
RTVSPost2010PropOp34
 70
     1
102
RTVSPost2010Prop35
280
     0
102
RTVSPost2010PropOp35
 70
     1
102
RTVSPost2010Prop36
280
     0
102
RTVSPost2010PropOp36
 70
     1
102
RTVSPost2010Prop37
 90
       50
102
RTVSPost2010PropOp37
 70
     1
102
RTVSPost2010Prop38
140
0.0
102
RTVSPost2010PropOp38
 70
     1
102
RTVSPost2010Prop39
140
1.0
102
RTVSPost2010PropOp39
 70
     1
102
RTVSPost2010Prop40
 90
        0
102
RTVSPost2010PropOp40
 70
     1
102
RTVSPost2010Prop41ColorIndex
 90
       18
102
RTVSPost2010Prop41ColorRGB
 90
        0
102
RTVSPost2010PropOp41
 70
     1
102
RTVSPost2010Prop42
 90
       50
102
RTVSPost2010PropOp42
 70
     1
102
RTVSPost2010Prop43
 90
        3
102
RTVSPost2010PropOp43
 70
     1
102
RTVSPost2010Prop44ColorIndex
 90
        5
102
RTVSPost2010Prop44ColorRGB
 90
      255
102
RTVSPost2010PropOp44
 70
     1
102
RTVSPost2010Prop45
280
     0
102
RTVSPost2010PropOp45
 70
     1
102
RTVSPost2010Prop46
 90
       50
102
RTVSPost2010PropOp46
 70
     1
102
RTVSPost2010Prop47
 90
       50
102
RTVSPost2010PropOp47
 70
     1
102
RTVSPost2010Prop48
 90
       50
102
RTVSPost2010PropOp48
 70
     1
102
RTVSPost2010Prop49
280
     0
102
RTVSPost2010PropOp49
 70
     1
102
RTVSPost2010Prop50
 90
       50
102
RTVSPost2010PropOp50
 70
     1
102
RTVSPost2010Prop51ColorIndex
 90
      256
102
RTVSPost2010Prop51ColorRGB
 90
-16777216
102
RTVSPost2010PropOp51
 70
     0
102
RTVSPost2010Prop52
140
1.0
102
RTVSPost2010PropOp52
 70
     0
102
RTVSPost2010Prop53
 90
        2
102
RTVSPost2010PropOp53
 70
     1
102
RTVSPost2010Prop54
  1
strokes_ogs.tif
102
RTVSPost2010PropOp54
 70
     1
102
RTVSPost2010Prop55
280
     0
102
RTVSPost2010PropOp55
 70
     1
102
RTVSPost2010Prop56
140
1.0
102
RTVSPost2010PropOp56
 70
     1
102
RTVSPost2010Prop57
140
1.0
102
RTVSPost2010PropOp57
 70
     1
102
RTVSPropertyOp0
 70
     1
102
RTVSPropertyOp1
 70
     1
102
RTVSPropertyOp2
 70
     1
102
RTVSPropertyOp3
 70
     1
102
RTVSPropertyOp4
 70
     1
102
RTVSPropertyOp5
 70
     1
102
RTVSPropertyOp6
 70
     1
102
RTVSPropertyOp7
 70
     1
102
RTVSPropertyOp8
 70
     1
102
RTVSPropertyOp9
 70
     1
102
RTVSPropertyOp10
 70
     1
102
RTVSPropertyOp11
 70
     1
102
RTVSPropertyOp12
 70
     1
102
RTVSPropertyOp13
 70
     1
102
RTVSPropertyOp14
 70
     1
102
RTVSPropertyOp15
 70
     1
102
RTVSPropertyOp16
 70
     1
102
RTVSPropertyOp17
 70
     1
102
RTVSPropertyOp18
 70
     1
102
RTVSPropertyOp19
 70
     1
102
RTVSPropertyOp20
 70
     1
102
RTVSPropertyOp21
 70
     1
102
RTVSPropertyOp22
 70
     1
102
RTVSPropertyOp23
 70
     1
102
RTVSPropertyOp24
 70
     1
102
RTVSPropertyOp25
 70
     1
102
RTVSPropertyOp26
 70
     1
102
RTVSPropertyOp27
 70
     1
102
RTVSPropertyOp28
 70
     1
102
RTVSPropertyOp29
 70
     1
102
RTVSPropertyOp30
 70
     1
102
RTVSPropertyOp31
 70
     1
102
RTVSPropertyOp32
 70
     1
102
RTVSPropertyOp33
 70
     1
102
RTVSPropertyOp34
 70
     1
102
RTVSPropertyOp35
 70
     1
102
RTVSPropertyOp36
 70
     1
102
RTVSPropertyOp37
 70
     1
102
RTVSPropertyOp38
 70
     1
102
RTVSPropertyOp39
 70
     1
102
RTVSPropertyOp40
 70
     1
102
RTVSPropertyOp41
 70
     1
102
RTVSPropertyOp42
 70
     1
102
RTVSPropertyOp43
 70
     1
102
RTVSPropertyOp44
 70
     1
102
RTVSPropertyOp45
 70
     1
102
RTVSPropertyOp46
 70
     1
102
RTVSPropertyOp47
 70
     1
102
RTVSPropertyOp48
 70
     1
102
RTVSPropertyOp49
 70
     1
102
RTVSPropertyOp50
 70
     1
102
RTVSPropertyOp51
 70
     0
102
RTVSPropertyOp52
 70
     0
102
RTVSPropertyOp53
 70
     1
102
RTVSPropertyOp54
 70
     1
102
RTVSPropertyOp55
 70
     1
102
RTVSPropertyOp56
 70
     1
102
RTVSPropertyOp57
 70
     1
102
RTVSPropertyOp58
 70
     1
102
RTVSPropertyOp59
 70
     1
102
RTVSPropertyOp60
 70
     1
102
RTVSPropertyOp61
 70
     1
102
RTVSPropertyOp62
 70
     1
  0
XRECORD
  5
84A
102
{ACAD_REACTORS
330
849
102
}
330
849
100
AcDbXrecord
280
     1
102
RTVSPost2010Prop28
280
     0
102
RTVSPost2010PropOp28
 70
     1
102
RTVSPost2010Prop29
280
     1
102
RTVSPost2010PropOp29
 70
     1
102
RTVSPost2010Prop30
280
     1
102
RTVSPost2010PropOp30
 70
     1
102
RTVSPost2010Prop31
280
     0
102
RTVSPost2010PropOp31
 70
     1
102
RTVSPost2010Prop32
280
     0
102
RTVSPost2010PropOp32
 70
     1
102
RTVSPost2010Prop33
280
     0
102
RTVSPost2010PropOp33
 70
     1
102
RTVSPost2010Prop34
280
     0
102
RTVSPost2010PropOp34
 70
     1
102
RTVSPost2010Prop35
280
     0
102
RTVSPost2010PropOp35
 70
     1
102
RTVSPost2010Prop36
280
     0
102
RTVSPost2010PropOp36
 70
     1
102
RTVSPost2010Prop37
 90
       50
102
RTVSPost2010PropOp37
 70
     1
102
RTVSPost2010Prop38
140
0.0
102
RTVSPost2010PropOp38
 70
     1
102
RTVSPost2010Prop39
140
1.0
102
RTVSPost2010PropOp39
 70
     1
102
RTVSPost2010Prop40
 90
        0
102
RTVSPost2010PropOp40
 70
     1
102
RTVSPost2010Prop41ColorIndex
 90
       18
102
RTVSPost2010Prop41ColorRGB
 90
        0
102
RTVSPost2010PropOp41
 70
     1
102
RTVSPost2010Prop42
 90
       50
102
RTVSPost2010PropOp42
 70
     1
102
RTVSPost2010Prop43
 90
        3
102
RTVSPost2010PropOp43
 70
     1
102
RTVSPost2010Prop44ColorIndex
 90
        5
102
RTVSPost2010Prop44ColorRGB
 90
      255
102
RTVSPost2010PropOp44
 70
     1
102
RTVSPost2010Prop45
280
     0
102
RTVSPost2010PropOp45
 70
     1
102
RTVSPost2010Prop46
 90
       50
102
RTVSPost2010PropOp46
 70
     1
102
RTVSPost2010Prop47
 90
       50
102
RTVSPost2010PropOp47
 70
     1
102
RTVSPost2010Prop48
 90
       50
102
RTVSPost2010PropOp48
 70
     1
102
RTVSPost2010Prop49
280
     0
102
RTVSPost2010PropOp49
 70
     1
102
RTVSPost2010Prop50
 90
       50
102
RTVSPost2010PropOp50
 70
     1
102
RTVSPost2010Prop51ColorIndex
 90
      256
102
RTVSPost2010Prop51ColorRGB
 90
-16777216
102
RTVSPost2010PropOp51
 70
     0
102
RTVSPost2010Prop52
140
1.0
102
RTVSPost2010PropOp52
 70
     0
102
RTVSPost2010Prop53
 90
        2
102
RTVSPost2010PropOp53
 70
     1
102
RTVSPost2010Prop54
  1
strokes_ogs.tif
102
RTVSPost2010PropOp54
 70
     1
102
RTVSPost2010Prop55
280
     0
102
RTVSPost2010PropOp55
 70
     1
102
RTVSPost2010Prop56
140
1.0
102
RTVSPost2010PropOp56
 70
     1
102
RTVSPost2010Prop57
140
1.0
102
RTVSPost2010PropOp57
 70
     1
102
RTVSPropertyOp0
 70
     1
102
RTVSPropertyOp1
 70
     1
102
RTVSPropertyOp2
 70
     1
102
RTVSPropertyOp3
 70
     1
102
RTVSPropertyOp4
 70
     1
102
RTVSPropertyOp5
 70
     1
102
RTVSPropertyOp6
 70
     1
102
RTVSPropertyOp7
 70
     1
102
RTVSPropertyOp8
 70
     1
102
RTVSPropertyOp9
 70
     1
102
RTVSPropertyOp10
 70
     1
102
RTVSPropertyOp11
 70
     1
102
RTVSPropertyOp12
 70
     1
102
RTVSPropertyOp13
 70
     1
102
RTVSPropertyOp14
 70
     1
102
RTVSPropertyOp15
 70
     1
102
RTVSPropertyOp16
 70
     1
102
RTVSPropertyOp17
 70
     1
102
RTVSPropertyOp18
 70
     1
102
RTVSPropertyOp19
 70
     1
102
RTVSPropertyOp20
 70
     1
102
RTVSPropertyOp21
 70
     1
102
RTVSPropertyOp22
 70
     1
102
RTVSPropertyOp23
 70
     1
102
RTVSPropertyOp24
 70
     1
102
RTVSPropertyOp25
 70
     1
102
RTVSPropertyOp26
 70
     1
102
RTVSPropertyOp27
 70
     1
102
RTVSPropertyOp28
 70
     1
102
RTVSPropertyOp29
 70
     1
102
RTVSPropertyOp30
 70
     1
102
RTVSPropertyOp31
 70
     1
102
RTVSPropertyOp32
 70
     1
102
RTVSPropertyOp33
 70
     1
102
RTVSPropertyOp34
 70
     1
102
RTVSPropertyOp35
 70
     1
102
RTVSPropertyOp36
 70
     1
102
RTVSPropertyOp37
 70
     1
102
RTVSPropertyOp38
 70
     1
102
RTVSPropertyOp39
 70
     1
102
RTVSPropertyOp40
 70
     1
102
RTVSPropertyOp41
 70
     1
102
RTVSPropertyOp42
 70
     1
102
RTVSPropertyOp43
 70
     1
102
RTVSPropertyOp44
 70
     1
102
RTVSPropertyOp45
 70
     1
102
RTVSPropertyOp46
 70
     1
102
RTVSPropertyOp47
 70
     1
102
RTVSPropertyOp48
 70
     1
102
RTVSPropertyOp49
 70
     1
102
RTVSPropertyOp50
 70
     1
102
RTVSPropertyOp51
 70
     0
102
RTVSPropertyOp52
 70
     0
102
RTVSPropertyOp53
 70
     1
102
RTVSPropertyOp54
 70
     1
102
RTVSPropertyOp55
 70
     1
102
RTVSPropertyOp56
 70
     1
102
RTVSPropertyOp57
 70
     1
102
RTVSPropertyOp58
 70
     1
102
RTVSPropertyOp59
 70
     1
102
RTVSPropertyOp60
 70
     1
102
RTVSPropertyOp61
 70
     1
102
RTVSPropertyOp62
 70
     1
  0
XRECORD
  5
85E
102
{ACAD_REACTORS
330
85D
102
}
330
85D
100
AcDbXrecord
280
     1
102
RTVSPost2010Prop28
280
     0
102
RTVSPost2010PropOp28
 70
     0
102
RTVSPost2010Prop29
280
     1
102
RTVSPost2010PropOp29
 70
     0
102
RTVSPost2010Prop30
280
     1
102
RTVSPost2010PropOp30
 70
     0
102
RTVSPost2010Prop31
280
     0
102
RTVSPost2010PropOp31
 70
     0
102
RTVSPost2010Prop32
280
     0
102
RTVSPost2010PropOp32
 70
     0
102
RTVSPost2010Prop33
280
     0
102
RTVSPost2010PropOp33
 70
     0
102
RTVSPost2010Prop34
280
     0
102
RTVSPost2010PropOp34
 70
     0
102
RTVSPost2010Prop35
280
     0
102
RTVSPost2010PropOp35
 70
     0
102
RTVSPost2010Prop36
280
     0
102
RTVSPost2010PropOp36
 70
     0
102
RTVSPost2010Prop37
 90
       50
102
RTVSPost2010PropOp37
 70
     0
102
RTVSPost2010Prop38
140
0.0
102
RTVSPost2010PropOp38
 70
     0
102
RTVSPost2010Prop39
140
1.0
102
RTVSPost2010PropOp39
 70
     0
102
RTVSPost2010Prop40
 90
        0
102
RTVSPost2010PropOp40
 70
     0
102
RTVSPost2010Prop41ColorIndex
 90
       18
102
RTVSPost2010Prop41ColorRGB
 90
        0
102
RTVSPost2010PropOp41
 70
     0
102
RTVSPost2010Prop42
 90
       50
102
RTVSPost2010PropOp42
 70
     0
102
RTVSPost2010Prop43
 90
        3
102
RTVSPost2010PropOp43
 70
     0
102
RTVSPost2010Prop44ColorIndex
 90
        5
102
RTVSPost2010Prop44ColorRGB
 90
      255
102
RTVSPost2010PropOp44
 70
     0
102
RTVSPost2010Prop45
280
     0
102
RTVSPost2010PropOp45
 70
     0
102
RTVSPost2010Prop46
 90
       50
102
RTVSPost2010PropOp46
 70
     0
102
RTVSPost2010Prop47
 90
       50
102
RTVSPost2010PropOp47
 70
     0
102
RTVSPost2010Prop48
 90
       50
102
RTVSPost2010PropOp48
 70
     0
102
RTVSPost2010Prop49
280
     0
102
RTVSPost2010PropOp49
 70
     0
102
RTVSPost2010Prop50
 90
       50
102
RTVSPost2010PropOp50
 70
     0
102
RTVSPost2010Prop51ColorIndex
 90
      256
102
RTVSPost2010Prop51ColorRGB
 90
-16777216
102
RTVSPost2010PropOp51
 70
     0
102
RTVSPost2010Prop52
140
1.0
102
RTVSPost2010PropOp52
 70
     0
102
RTVSPost2010Prop53
 90
        2
102
RTVSPost2010PropOp53
 70
     0
102
RTVSPost2010Prop54
  1
strokes_ogs.tif
102
RTVSPost2010PropOp54
 70
     0
102
RTVSPost2010Prop55
280
     0
102
RTVSPost2010PropOp55
 70
     0
102
RTVSPost2010Prop56
140
1.0
102
RTVSPost2010PropOp56
 70
     0
102
RTVSPost2010Prop57
140
1.0
102
RTVSPost2010PropOp57
 70
     0
102
RTVSPropertyOp0
 70
     0
102
RTVSPropertyOp1
 70
     0
102
RTVSPropertyOp2
 70
     0
102
RTVSPropertyOp3
 70
     0
102
RTVSPropertyOp4
 70
     0
102
RTVSPropertyOp5
 70
     0
102
RTVSPropertyOp6
 70
     0
102
RTVSPropertyOp7
 70
     0
102
RTVSPropertyOp8
 70
     0
102
RTVSPropertyOp9
 70
     0
102
RTVSPropertyOp10
 70
     0
102
RTVSPropertyOp11
 70
     0
102
RTVSPropertyOp12
 70
     0
102
RTVSPropertyOp13
 70
     0
102
RTVSPropertyOp14
 70
     2
102
RTVSPropertyOp15
 70
     0
102
RTVSPropertyOp16
 70
     0
102
RTVSPropertyOp17
 70
     0
102
RTVSPropertyOp18
 70
     0
102
RTVSPropertyOp19
 70
     0
102
RTVSPropertyOp20
 70
     0
102
RTVSPropertyOp21
 70
     0
102
RTVSPropertyOp22
 70
     0
102
RTVSPropertyOp23
 70
     0
102
RTVSPropertyOp24
 70
     0
102
RTVSPropertyOp25
 70
     0
102
RTVSPropertyOp26
 70
     0
102
RTVSPropertyOp27
 70
     0
102
RTVSPropertyOp28
 70
     0
102
RTVSPropertyOp29
 70
     0
102
RTVSPropertyOp30
 70
     0
102
RTVSPropertyOp31
 70
     0
102
RTVSPropertyOp32
 70
     0
102
RTVSPropertyOp33
 70
     0
102
RTVSPropertyOp34
 70
     0
102
RTVSPropertyOp35
 70
     0
102
RTVSPropertyOp36
 70
     0
102
RTVSPropertyOp37
 70
     0
102
RTVSPropertyOp38
 70
     0
102
RTVSPropertyOp39
 70
     0
102
RTVSPropertyOp40
 70
     0
102
RTVSPropertyOp41
 70
     0
102
RTVSPropertyOp42
 70
     0
102
RTVSPropertyOp43
 70
     0
102
RTVSPropertyOp44
 70
     0
102
RTVSPropertyOp45
 70
     0
102
RTVSPropertyOp46
 70
     0
102
RTVSPropertyOp47
 70
     0
102
RTVSPropertyOp48
 70
     0
102
RTVSPropertyOp49
 70
     0
102
RTVSPropertyOp50
 70
     0
102
RTVSPropertyOp51
 70
     0
102
RTVSPropertyOp52
 70
     0
102
RTVSPropertyOp53
 70
     0
102
RTVSPropertyOp54
 70
     0
102
RTVSPropertyOp55
 70
     0
102
RTVSPropertyOp56
 70
     0
102
RTVSPropertyOp57
 70
     0
102
RTVSPropertyOp58
 70
     1
102
RTVSPropertyOp59
 70
     1
102
RTVSPropertyOp60
 70
     1
102
RTVSPropertyOp61
 70
     1
102
RTVSPropertyOp62
 70
     1
  0
XRECORD
  5
858
102
{ACAD_REACTORS
330
857
102
}
330
857
100
AcDbXrecord
280
     1
102
RTVSPost2010Prop28
280
     0
102
RTVSPost2010PropOp28
 70
     1
102
RTVSPost2010Prop29
280
     1
102
RTVSPost2010PropOp29
 70
     1
102
RTVSPost2010Prop30
280
     1
102
RTVSPost2010PropOp30
 70
     1
102
RTVSPost2010Prop31
280
     0
102
RTVSPost2010PropOp31
 70
     1
102
RTVSPost2010Prop32
280
     0
102
RTVSPost2010PropOp32
 70
     1
102
RTVSPost2010Prop33
280
     0
102
RTVSPost2010PropOp33
 70
     1
102
RTVSPost2010Prop34
280
     0
102
RTVSPost2010PropOp34
 70
     1
102
RTVSPost2010Prop35
280
     0
102
RTVSPost2010PropOp35
 70
     1
102
RTVSPost2010Prop36
280
     0
102
RTVSPost2010PropOp36
 70
     1
102
RTVSPost2010Prop37
 90
       50
102
RTVSPost2010PropOp37
 70
     1
102
RTVSPost2010Prop38
140
0.0
102
RTVSPost2010PropOp38
 70
     1
102
RTVSPost2010Prop39
140
1.0
102
RTVSPost2010PropOp39
 70
     1
102
RTVSPost2010Prop40
 90
        0
102
RTVSPost2010PropOp40
 70
     1
102
RTVSPost2010Prop41ColorIndex
 90
       18
102
RTVSPost2010Prop41ColorRGB
 90
        0
102
RTVSPost2010PropOp41
 70
     1
102
RTVSPost2010Prop42
 90
       50
102
RTVSPost2010PropOp42
 70
     1
102
RTVSPost2010Prop43
 90
        3
102
RTVSPost2010PropOp43
 70
     1
102
RTVSPost2010Prop44ColorIndex
 90
        5
102
RTVSPost2010Prop44ColorRGB
 90
      255
102
RTVSPost2010PropOp44
 70
     1
102
RTVSPost2010Prop45
280
     0
102
RTVSPost2010PropOp45
 70
     1
102
RTVSPost2010Prop46
 90
       50
102
RTVSPost2010PropOp46
 70
     1
102
RTVSPost2010Prop47
 90
       50
102
RTVSPost2010PropOp47
 70
     1
102
RTVSPost2010Prop48
 90
       50
102
RTVSPost2010PropOp48
 70
     1
102
RTVSPost2010Prop49
280
     0
102
RTVSPost2010PropOp49
 70
     1
102
RTVSPost2010Prop50
 90
       50
102
RTVSPost2010PropOp50
 70
     1
102
RTVSPost2010Prop51ColorIndex
 90
      256
102
RTVSPost2010Prop51ColorRGB
 90
-16777216
102
RTVSPost2010PropOp51
 70
     0
102
RTVSPost2010Prop52
140
1.0
102
RTVSPost2010PropOp52
 70
     0
102
RTVSPost2010Prop53
 90
        2
102
RTVSPost2010PropOp53
 70
     1
102
RTVSPost2010Prop54
  1
strokes_ogs.tif
102
RTVSPost2010PropOp54
 70
     1
102
RTVSPost2010Prop55
280
     0
102
RTVSPost2010PropOp55
 70
     1
102
RTVSPost2010Prop56
140
1.0
102
RTVSPost2010PropOp56
 70
     1
102
RTVSPost2010Prop57
140
1.0
102
RTVSPost2010PropOp57
 70
     1
102
RTVSPropertyOp0
 70
     1
102
RTVSPropertyOp1
 70
     1
102
RTVSPropertyOp2
 70
     1
102
RTVSPropertyOp3
 70
     1
102
RTVSPropertyOp4
 70
     1
102
RTVSPropertyOp5
 70
     1
102
RTVSPropertyOp6
 70
     1
102
RTVSPropertyOp7
 70
     1
102
RTVSPropertyOp8
 70
     1
102
RTVSPropertyOp9
 70
     1
102
RTVSPropertyOp10
 70
     1
102
RTVSPropertyOp11
 70
     1
102
RTVSPropertyOp12
 70
     1
102
RTVSPropertyOp13
 70
     1
102
RTVSPropertyOp14
 70
     1
102
RTVSPropertyOp15
 70
     1
102
RTVSPropertyOp16
 70
     1
102
RTVSPropertyOp17
 70
     1
102
RTVSPropertyOp18
 70
     1
102
RTVSPropertyOp19
 70
     1
102
RTVSPropertyOp20
 70
     1
102
RTVSPropertyOp21
 70
     1
102
RTVSPropertyOp22
 70
     1
102
RTVSPropertyOp23
 70
     1
102
RTVSPropertyOp24
 70
     1
102
RTVSPropertyOp25
 70
     1
102
RTVSPropertyOp26
 70
     1
102
RTVSPropertyOp27
 70
     1
102
RTVSPropertyOp28
 70
     1
102
RTVSPropertyOp29
 70
     1
102
RTVSPropertyOp30
 70
     1
102
RTVSPropertyOp31
 70
     1
102
RTVSPropertyOp32
 70
     1
102
RTVSPropertyOp33
 70
     1
102
RTVSPropertyOp34
 70
     1
102
RTVSPropertyOp35
 70
     1
102
RTVSPropertyOp36
 70
     1
102
RTVSPropertyOp37
 70
     1
102
RTVSPropertyOp38
 70
     1
102
RTVSPropertyOp39
 70
     1
102
RTVSPropertyOp40
 70
     1
102
RTVSPropertyOp41
 70
     1
102
RTVSPropertyOp42
 70
     1
102
RTVSPropertyOp43
 70
     1
102
RTVSPropertyOp44
 70
     1
102
RTVSPropertyOp45
 70
     1
102
RTVSPropertyOp46
 70
     1
102
RTVSPropertyOp47
 70
     1
102
RTVSPropertyOp48
 70
     1
102
RTVSPropertyOp49
 70
     1
102
RTVSPropertyOp50
 70
     1
102
RTVSPropertyOp51
 70
     0
102
RTVSPropertyOp52
 70
     0
102
RTVSPropertyOp53
 70
     1
102
RTVSPropertyOp54
 70
     1
102
RTVSPropertyOp55
 70
     1
102
RTVSPropertyOp56
 70
     1
102
RTVSPropertyOp57
 70
     1
102
RTVSPropertyOp58
 70
     1
102
RTVSPropertyOp59
 70
     1
102
RTVSPropertyOp60
 70
     1
102
RTVSPropertyOp61
 70
     1
102
RTVSPropertyOp62
 70
     1
  0
XRECORD
  5
860
102
{ACAD_REACTORS
330
85F
102
}
330
85F
100
AcDbXrecord
280
     1
102
RTVSPost2010Prop28
280
     0
102
RTVSPost2010PropOp28
 70
     0
102
RTVSPost2010Prop29
280
     1
102
RTVSPost2010PropOp29
 70
     0
102
RTVSPost2010Prop30
280
     1
102
RTVSPost2010PropOp30
 70
     0
102
RTVSPost2010Prop31
280
     0
102
RTVSPost2010PropOp31
 70
     0
102
RTVSPost2010Prop32
280
     0
102
RTVSPost2010PropOp32
 70
     0
102
RTVSPost2010Prop33
280
     0
102
RTVSPost2010PropOp33
 70
     0
102
RTVSPost2010Prop34
280
     0
102
RTVSPost2010PropOp34
 70
     0
102
RTVSPost2010Prop35
280
     0
102
RTVSPost2010PropOp35
 70
     0
102
RTVSPost2010Prop36
280
     0
102
RTVSPost2010PropOp36
 70
     0
102
RTVSPost2010Prop37
 90
       50
102
RTVSPost2010PropOp37
 70
     0
102
RTVSPost2010Prop38
140
0.0
102
RTVSPost2010PropOp38
 70
     0
102
RTVSPost2010Prop39
140
1.0
102
RTVSPost2010PropOp39
 70
     0
102
RTVSPost2010Prop40
 90
        0
102
RTVSPost2010PropOp40
 70
     0
102
RTVSPost2010Prop41ColorIndex
 90
       18
102
RTVSPost2010Prop41ColorRGB
 90
        0
102
RTVSPost2010PropOp41
 70
     0
102
RTVSPost2010Prop42
 90
       50
102
RTVSPost2010PropOp42
 70
     0
102
RTVSPost2010Prop43
 90
        3
102
RTVSPost2010PropOp43
 70
     0
102
RTVSPost2010Prop44ColorIndex
 90
        5
102
RTVSPost2010Prop44ColorRGB
 90
      255
102
RTVSPost2010PropOp44
 70
     0
102
RTVSPost2010Prop45
280
     0
102
RTVSPost2010PropOp45
 70
     0
102
RTVSPost2010Prop46
 90
       50
102
RTVSPost2010PropOp46
 70
     0
102
RTVSPost2010Prop47
 90
       50
102
RTVSPost2010PropOp47
 70
     0
102
RTVSPost2010Prop48
 90
       50
102
RTVSPost2010PropOp48
 70
     0
102
RTVSPost2010Prop49
280
     0
102
RTVSPost2010PropOp49
 70
     0
102
RTVSPost2010Prop50
 90
       50
102
RTVSPost2010PropOp50
 70
     0
102
RTVSPost2010Prop51ColorIndex
 90
      256
102
RTVSPost2010Prop51ColorRGB
 90
-16777216
102
RTVSPost2010PropOp51
 70
     0
102
RTVSPost2010Prop52
140
1.0
102
RTVSPost2010PropOp52
 70
     0
102
RTVSPost2010Prop53
 90
        2
102
RTVSPost2010PropOp53
 70
     0
102
RTVSPost2010Prop54
  1
strokes_ogs.tif
102
RTVSPost2010PropOp54
 70
     0
102
RTVSPost2010Prop55
280
     0
102
RTVSPost2010PropOp55
 70
     0
102
RTVSPost2010Prop56
140
1.0
102
RTVSPost2010PropOp56
 70
     0
102
RTVSPost2010Prop57
140
1.0
102
RTVSPost2010PropOp57
 70
     0
102
RTVSPropertyOp0
 70
     0
102
RTVSPropertyOp1
 70
     0
102
RTVSPropertyOp2
 70
     0
102
RTVSPropertyOp3
 70
     0
102
RTVSPropertyOp4
 70
     0
102
RTVSPropertyOp5
 70
     0
102
RTVSPropertyOp6
 70
     0
102
RTVSPropertyOp7
 70
     0
102
RTVSPropertyOp8
 70
     0
102
RTVSPropertyOp9
 70
     0
102
RTVSPropertyOp10
 70
     0
102
RTVSPropertyOp11
 70
     0
102
RTVSPropertyOp12
 70
     0
102
RTVSPropertyOp13
 70
     0
102
RTVSPropertyOp14
 70
     2
102
RTVSPropertyOp15
 70
     0
102
RTVSPropertyOp16
 70
     0
102
RTVSPropertyOp17
 70
     0
102
RTVSPropertyOp18
 70
     0
102
RTVSPropertyOp19
 70
     0
102
RTVSPropertyOp20
 70
     0
102
RTVSPropertyOp21
 70
     0
102
RTVSPropertyOp22
 70
     0
102
RTVSPropertyOp23
 70
     0
102
RTVSPropertyOp24
 70
     0
102
RTVSPropertyOp25
 70
     0
102
RTVSPropertyOp26
 70
     0
102
RTVSPropertyOp27
 70
     0
102
RTVSPropertyOp28
 70
     0
102
RTVSPropertyOp29
 70
     0
102
RTVSPropertyOp30
 70
     0
102
RTVSPropertyOp31
 70
     0
102
RTVSPropertyOp32
 70
     0
102
RTVSPropertyOp33
 70
     0
102
RTVSPropertyOp34
 70
     0
102
RTVSPropertyOp35
 70
     0
102
RTVSPropertyOp36
 70
     0
102
RTVSPropertyOp37
 70
     0
102
RTVSPropertyOp38
 70
     0
102
RTVSPropertyOp39
 70
     0
102
RTVSPropertyOp40
 70
     0
102
RTVSPropertyOp41
 70
     0
102
RTVSPropertyOp42
 70
     0
102
RTVSPropertyOp43
 70
     0
102
RTVSPropertyOp44
 70
     0
102
RTVSPropertyOp45
 70
     0
102
RTVSPropertyOp46
 70
     0
102
RTVSPropertyOp47
 70
     0
102
RTVSPropertyOp48
 70
     0
102
RTVSPropertyOp49
 70
     0
102
RTVSPropertyOp50
 70
     0
102
RTVSPropertyOp51
 70
     0
102
RTVSPropertyOp52
 70
     0
102
RTVSPropertyOp53
 70
     0
102
RTVSPropertyOp54
 70
     0
102
RTVSPropertyOp55
 70
     0
102
RTVSPropertyOp56
 70
     0
102
RTVSPropertyOp57
 70
     0
102
RTVSPropertyOp58
 70
     1
102
RTVSPropertyOp59
 70
     1
102
RTVSPropertyOp60
 70
     1
102
RTVSPropertyOp61
 70
     1
102
RTVSPropertyOp62
 70
     1
  0
XRECORD
  5
84E
102
{ACAD_REACTORS
330
84D
102
}
330
84D
100
AcDbXrecord
280
     1
102
RTVSPost2010Prop28
280
     0
102
RTVSPost2010PropOp28
 70
     1
102
RTVSPost2010Prop29
280
     1
102
RTVSPost2010PropOp29
 70
     1
102
RTVSPost2010Prop30
280
     1
102
RTVSPost2010PropOp30
 70
     1
102
RTVSPost2010Prop31
280
     0
102
RTVSPost2010PropOp31
 70
     1
102
RTVSPost2010Prop32
280
     0
102
RTVSPost2010PropOp32
 70
     1
102
RTVSPost2010Prop33
280
     0
102
RTVSPost2010PropOp33
 70
     1
102
RTVSPost2010Prop34
280
     0
102
RTVSPost2010PropOp34
 70
     1
102
RTVSPost2010Prop35
280
     0
102
RTVSPost2010PropOp35
 70
     1
102
RTVSPost2010Prop36
280
     0
102
RTVSPost2010PropOp36
 70
     1
102
RTVSPost2010Prop37
 90
       50
102
RTVSPost2010PropOp37
 70
     1
102
RTVSPost2010Prop38
140
0.0
102
RTVSPost2010PropOp38
 70
     1
102
RTVSPost2010Prop39
140
1.0
102
RTVSPost2010PropOp39
 70
     1
102
RTVSPost2010Prop40
 90
        0
102
RTVSPost2010PropOp40
 70
     1
102
RTVSPost2010Prop41ColorIndex
 90
       18
102
RTVSPost2010Prop41ColorRGB
 90
        0
102
RTVSPost2010PropOp41
 70
     1
102
RTVSPost2010Prop42
 90
       50
102
RTVSPost2010PropOp42
 70
     1
102
RTVSPost2010Prop43
 90
        3
102
RTVSPost2010PropOp43
 70
     1
102
RTVSPost2010Prop44ColorIndex
 90
        5
102
RTVSPost2010Prop44ColorRGB
 90
      255
102
RTVSPost2010PropOp44
 70
     1
102
RTVSPost2010Prop45
280
     0
102
RTVSPost2010PropOp45
 70
     1
102
RTVSPost2010Prop46
 90
       50
102
RTVSPost2010PropOp46
 70
     1
102
RTVSPost2010Prop47
 90
       50
102
RTVSPost2010PropOp47
 70
     1
102
RTVSPost2010Prop48
 90
       50
102
RTVSPost2010PropOp48
 70
     1
102
RTVSPost2010Prop49
280
     0
102
RTVSPost2010PropOp49
 70
     1
102
RTVSPost2010Prop50
 90
       50
102
RTVSPost2010PropOp50
 70
     1
102
RTVSPost2010Prop51ColorIndex
 90
      256
102
RTVSPost2010Prop51ColorRGB
 90
-16777216
102
RTVSPost2010PropOp51
 70
     0
102
RTVSPost2010Prop52
140
1.0
102
RTVSPost2010PropOp52
 70
     0
102
RTVSPost2010Prop53
 90
        2
102
RTVSPost2010PropOp53
 70
     1
102
RTVSPost2010Prop54
  1
strokes_ogs.tif
102
RTVSPost2010PropOp54
 70
     1
102
RTVSPost2010Prop55
280
     0
102
RTVSPost2010PropOp55
 70
     1
102
RTVSPost2010Prop56
140
1.0
102
RTVSPost2010PropOp56
 70
     1
102
RTVSPost2010Prop57
140
1.0
102
RTVSPost2010PropOp57
 70
     1
102
RTVSPropertyOp0
 70
     1
102
RTVSPropertyOp1
 70
     1
102
RTVSPropertyOp2
 70
     1
102
RTVSPropertyOp3
 70
     1
102
RTVSPropertyOp4
 70
     1
102
RTVSPropertyOp5
 70
     1
102
RTVSPropertyOp6
 70
     1
102
RTVSPropertyOp7
 70
     1
102
RTVSPropertyOp8
 70
     1
102
RTVSPropertyOp9
 70
     1
102
RTVSPropertyOp10
 70
     1
102
RTVSPropertyOp11
 70
     1
102
RTVSPropertyOp12
 70
     1
102
RTVSPropertyOp13
 70
     1
102
RTVSPropertyOp14
 70
     1
102
RTVSPropertyOp15
 70
     1
102
RTVSPropertyOp16
 70
     1
102
RTVSPropertyOp17
 70
     1
102
RTVSPropertyOp18
 70
     1
102
RTVSPropertyOp19
 70
     1
102
RTVSPropertyOp20
 70
     1
102
RTVSPropertyOp21
 70
     1
102
RTVSPropertyOp22
 70
     1
102
RTVSPropertyOp23
 70
     1
102
RTVSPropertyOp24
 70
     1
102
RTVSPropertyOp25
 70
     1
102
RTVSPropertyOp26
 70
     1
102
RTVSPropertyOp27
 70
     1
102
RTVSPropertyOp28
 70
     1
102
RTVSPropertyOp29
 70
     1
102
RTVSPropertyOp30
 70
     1
102
RTVSPropertyOp31
 70
     1
102
RTVSPropertyOp32
 70
     1
102
RTVSPropertyOp33
 70
     1
102
RTVSPropertyOp34
 70
     1
102
RTVSPropertyOp35
 70
     1
102
RTVSPropertyOp36
 70
     1
102
RTVSPropertyOp37
 70
     1
102
RTVSPropertyOp38
 70
     1
102
RTVSPropertyOp39
 70
     1
102
RTVSPropertyOp40
 70
     1
102
RTVSPropertyOp41
 70
     1
102
RTVSPropertyOp42
 70
     1
102
RTVSPropertyOp43
 70
     1
102
RTVSPropertyOp44
 70
     1
102
RTVSPropertyOp45
 70
     1
102
RTVSPropertyOp46
 70
     1
102
RTVSPropertyOp47
 70
     1
102
RTVSPropertyOp48
 70
     1
102
RTVSPropertyOp49
 70
     1
102
RTVSPropertyOp50
 70
     1
102
RTVSPropertyOp51
 70
     0
102
RTVSPropertyOp52
 70
     0
102
RTVSPropertyOp53
 70
     1
102
RTVSPropertyOp54
 70
     1
102
RTVSPropertyOp55
 70
     1
102
RTVSPropertyOp56
 70
     1
102
RTVSPropertyOp57
 70
     1
102
RTVSPropertyOp58
 70
     1
102
RTVSPropertyOp59
 70
     1
102
RTVSPropertyOp60
 70
     1
102
RTVSPropertyOp61
 70
     1
102
RTVSPropertyOp62
 70
     1
  0
XRECORD
  5
86C
102
{ACAD_REACTORS
330
86B
102
}
330
86B
100
AcDbXrecord
280
     1
102
RTVSPost2010Prop28
280
     0
102
RTVSPost2010PropOp28
 70
     1
102
RTVSPost2010Prop29
280
     1
102
RTVSPost2010PropOp29
 70
     1
102
RTVSPost2010Prop30
280
     1
102
RTVSPost2010PropOp30
 70
     1
102
RTVSPost2010Prop31
280
     0
102
RTVSPost2010PropOp31
 70
     1
102
RTVSPost2010Prop32
280
     0
102
RTVSPost2010PropOp32
 70
     1
102
RTVSPost2010Prop33
280
     0
102
RTVSPost2010PropOp33
 70
     1
102
RTVSPost2010Prop34
280
     0
102
RTVSPost2010PropOp34
 70
     1
102
RTVSPost2010Prop35
280
     0
102
RTVSPost2010PropOp35
 70
     1
102
RTVSPost2010Prop36
280
     0
102
RTVSPost2010PropOp36
 70
     1
102
RTVSPost2010Prop37
 90
       50
102
RTVSPost2010PropOp37
 70
     1
102
RTVSPost2010Prop38
140
0.0
102
RTVSPost2010PropOp38
 70
     1
102
RTVSPost2010Prop39
140
1.0
102
RTVSPost2010PropOp39
 70
     1
102
RTVSPost2010Prop40
 90
        0
102
RTVSPost2010PropOp40
 70
     1
102
RTVSPost2010Prop41ColorIndex
 90
       18
102
RTVSPost2010Prop41ColorRGB
 90
        0
102
RTVSPost2010PropOp41
 70
     1
102
RTVSPost2010Prop42
 90
       50
102
RTVSPost2010PropOp42
 70
     1
102
RTVSPost2010Prop43
 90
        3
102
RTVSPost2010PropOp43
 70
     1
102
RTVSPost2010Prop44ColorIndex
 90
        5
102
RTVSPost2010Prop44ColorRGB
 90
      255
102
RTVSPost2010PropOp44
 70
     1
102
RTVSPost2010Prop45
280
     0
102
RTVSPost2010PropOp45
 70
     1
102
RTVSPost2010Prop46
 90
       50
102
RTVSPost2010PropOp46
 70
     1
102
RTVSPost2010Prop47
 90
       50
102
RTVSPost2010PropOp47
 70
     1
102
RTVSPost2010Prop48
 90
       50
102
RTVSPost2010PropOp48
 70
     1
102
RTVSPost2010Prop49
280
     0
102
RTVSPost2010PropOp49
 70
     1
102
RTVSPost2010Prop50
 90
       50
102
RTVSPost2010PropOp50
 70
     1
102
RTVSPost2010Prop51ColorIndex
 90
      256
102
RTVSPost2010Prop51ColorRGB
 90
-16777216
102
RTVSPost2010PropOp51
 70
     0
102
RTVSPost2010Prop52
140
1.0
102
RTVSPost2010PropOp52
 70
     0
102
RTVSPost2010Prop53
 90
        2
102
RTVSPost2010PropOp53
 70
     1
102
RTVSPost2010Prop54
  1
strokes_ogs.tif
102
RTVSPost2010PropOp54
 70
     1
102
RTVSPost2010Prop55
280
     0
102
RTVSPost2010PropOp55
 70
     1
102
RTVSPost2010Prop56
140
1.0
102
RTVSPost2010PropOp56
 70
     1
102
RTVSPost2010Prop57
140
1.0
102
RTVSPost2010PropOp57
 70
     1
102
RTVSPropertyOp0
 70
     1
102
RTVSPropertyOp1
 70
     1
102
RTVSPropertyOp2
 70
     1
102
RTVSPropertyOp3
 70
     1
102
RTVSPropertyOp4
 70
     1
102
RTVSPropertyOp5
 70
     1
102
RTVSPropertyOp6
 70
     1
102
RTVSPropertyOp7
 70
     1
102
RTVSPropertyOp8
 70
     1
102
RTVSPropertyOp9
 70
     1
102
RTVSPropertyOp10
 70
     1
102
RTVSPropertyOp11
 70
     1
102
RTVSPropertyOp12
 70
     1
102
RTVSPropertyOp13
 70
     1
102
RTVSPropertyOp14
 70
     1
102
RTVSPropertyOp15
 70
     1
102
RTVSPropertyOp16
 70
     1
102
RTVSPropertyOp17
 70
     1
102
RTVSPropertyOp18
 70
     1
102
RTVSPropertyOp19
 70
     1
102
RTVSPropertyOp20
 70
     1
102
RTVSPropertyOp21
 70
     1
102
RTVSPropertyOp22
 70
     1
102
RTVSPropertyOp23
 70
     1
102
RTVSPropertyOp24
 70
     1
102
RTVSPropertyOp25
 70
     1
102
RTVSPropertyOp26
 70
     1
102
RTVSPropertyOp27
 70
     1
102
RTVSPropertyOp28
 70
     1
102
RTVSPropertyOp29
 70
     1
102
RTVSPropertyOp30
 70
     1
102
RTVSPropertyOp31
 70
     1
102
RTVSPropertyOp32
 70
     1
102
RTVSPropertyOp33
 70
     1
102
RTVSPropertyOp34
 70
     1
102
RTVSPropertyOp35
 70
     1
102
RTVSPropertyOp36
 70
     1
102
RTVSPropertyOp37
 70
     1
102
RTVSPropertyOp38
 70
     1
102
RTVSPropertyOp39
 70
     1
102
RTVSPropertyOp40
 70
     1
102
RTVSPropertyOp41
 70
     1
102
RTVSPropertyOp42
 70
     1
102
RTVSPropertyOp43
 70
     1
102
RTVSPropertyOp44
 70
     1
102
RTVSPropertyOp45
 70
     1
102
RTVSPropertyOp46
 70
     1
102
RTVSPropertyOp47
 70
     1
102
RTVSPropertyOp48
 70
     1
102
RTVSPropertyOp49
 70
     1
102
RTVSPropertyOp50
 70
     1
102
RTVSPropertyOp51
 70
     0
102
RTVSPropertyOp52
 70
     0
102
RTVSPropertyOp53
 70
     1
102
RTVSPropertyOp54
 70
     1
102
RTVSPropertyOp55
 70
     1
102
RTVSPropertyOp56
 70
     1
102
RTVSPropertyOp57
 70
     1
102
RTVSPropertyOp58
 70
     1
102
RTVSPropertyOp59
 70
     1
102
RTVSPropertyOp60
 70
     1
102
RTVSPropertyOp61
 70
     1
102
RTVSPropertyOp62
 70
     1
  0
XRECORD
  5
86A
102
{ACAD_REACTORS
330
869
102
}
330
869
100
AcDbXrecord
280
     1
102
RTVSPost2010Prop28
280
     0
102
RTVSPost2010PropOp28
 70
     1
102
RTVSPost2010Prop29
280
     1
102
RTVSPost2010PropOp29
 70
     1
102
RTVSPost2010Prop30
280
     1
102
RTVSPost2010PropOp30
 70
     1
102
RTVSPost2010Prop31
280
     0
102
RTVSPost2010PropOp31
 70
     1
102
RTVSPost2010Prop32
280
     0
102
RTVSPost2010PropOp32
 70
     1
102
RTVSPost2010Prop33
280
     0
102
RTVSPost2010PropOp33
 70
     1
102
RTVSPost2010Prop34
280
     0
102
RTVSPost2010PropOp34
 70
     1
102
RTVSPost2010Prop35
280
     0
102
RTVSPost2010PropOp35
 70
     1
102
RTVSPost2010Prop36
280
     0
102
RTVSPost2010PropOp36
 70
     1
102
RTVSPost2010Prop37
 90
       50
102
RTVSPost2010PropOp37
 70
     1
102
RTVSPost2010Prop38
140
0.0
102
RTVSPost2010PropOp38
 70
     1
102
RTVSPost2010Prop39
140
1.0
102
RTVSPost2010PropOp39
 70
     1
102
RTVSPost2010Prop40
 90
        0
102
RTVSPost2010PropOp40
 70
     1
102
RTVSPost2010Prop41ColorIndex
 90
       18
102
RTVSPost2010Prop41ColorRGB
 90
        0
102
RTVSPost2010PropOp41
 70
     1
102
RTVSPost2010Prop42
 90
       50
102
RTVSPost2010PropOp42
 70
     1
102
RTVSPost2010Prop43
 90
        3
102
RTVSPost2010PropOp43
 70
     1
102
RTVSPost2010Prop44ColorIndex
 90
        5
102
RTVSPost2010Prop44ColorRGB
 90
      255
102
RTVSPost2010PropOp44
 70
     1
102
RTVSPost2010Prop45
280
     0
102
RTVSPost2010PropOp45
 70
     1
102
RTVSPost2010Prop46
 90
       50
102
RTVSPost2010PropOp46
 70
     1
102
RTVSPost2010Prop47
 90
       50
102
RTVSPost2010PropOp47
 70
     1
102
RTVSPost2010Prop48
 90
       50
102
RTVSPost2010PropOp48
 70
     1
102
RTVSPost2010Prop49
280
     0
102
RTVSPost2010PropOp49
 70
     1
102
RTVSPost2010Prop50
 90
       50
102
RTVSPost2010PropOp50
 70
     1
102
RTVSPost2010Prop51ColorIndex
 90
      256
102
RTVSPost2010Prop51ColorRGB
 90
-16777216
102
RTVSPost2010PropOp51
 70
     0
102
RTVSPost2010Prop52
140
1.0
102
RTVSPost2010PropOp52
 70
     0
102
RTVSPost2010Prop53
 90
        2
102
RTVSPost2010PropOp53
 70
     1
102
RTVSPost2010Prop54
  1
strokes_ogs.tif
102
RTVSPost2010PropOp54
 70
     1
102
RTVSPost2010Prop55
280
     0
102
RTVSPost2010PropOp55
 70
     1
102
RTVSPost2010Prop56
140
1.0
102
RTVSPost2010PropOp56
 70
     1
102
RTVSPost2010Prop57
140
1.0
102
RTVSPost2010PropOp57
 70
     1
102
RTVSPropertyOp0
 70
     1
102
RTVSPropertyOp1
 70
     1
102
RTVSPropertyOp2
 70
     1
102
RTVSPropertyOp3
 70
     1
102
RTVSPropertyOp4
 70
     1
102
RTVSPropertyOp5
 70
     1
102
RTVSPropertyOp6
 70
     1
102
RTVSPropertyOp7
 70
     1
102
RTVSPropertyOp8
 70
     1
102
RTVSPropertyOp9
 70
     1
102
RTVSPropertyOp10
 70
     1
102
RTVSPropertyOp11
 70
     1
102
RTVSPropertyOp12
 70
     1
102
RTVSPropertyOp13
 70
     1
102
RTVSPropertyOp14
 70
     1
102
RTVSPropertyOp15
 70
     1
102
RTVSPropertyOp16
 70
     1
102
RTVSPropertyOp17
 70
     1
102
RTVSPropertyOp18
 70
     1
102
RTVSPropertyOp19
 70
     1
102
RTVSPropertyOp20
 70
     1
102
RTVSPropertyOp21
 70
     1
102
RTVSPropertyOp22
 70
     1
102
RTVSPropertyOp23
 70
     1
102
RTVSPropertyOp24
 70
     1
102
RTVSPropertyOp25
 70
     1
102
RTVSPropertyOp26
 70
     1
102
RTVSPropertyOp27
 70
     1
102
RTVSPropertyOp28
 70
     1
102
RTVSPropertyOp29
 70
     1
102
RTVSPropertyOp30
 70
     1
102
RTVSPropertyOp31
 70
     1
102
RTVSPropertyOp32
 70
     1
102
RTVSPropertyOp33
 70
     1
102
RTVSPropertyOp34
 70
     1
102
RTVSPropertyOp35
 70
     1
102
RTVSPropertyOp36
 70
     1
102
RTVSPropertyOp37
 70
     1
102
RTVSPropertyOp38
 70
     1
102
RTVSPropertyOp39
 70
     1
102
RTVSPropertyOp40
 70
     1
102
RTVSPropertyOp41
 70
     1
102
RTVSPropertyOp42
 70
     1
102
RTVSPropertyOp43
 70
     1
102
RTVSPropertyOp44
 70
     1
102
RTVSPropertyOp45
 70
     1
102
RTVSPropertyOp46
 70
     1
102
RTVSPropertyOp47
 70
     1
102
RTVSPropertyOp48
 70
     1
102
RTVSPropertyOp49
 70
     1
102
RTVSPropertyOp50
 70
     1
102
RTVSPropertyOp51
 70
     0
102
RTVSPropertyOp52
 70
     0
102
RTVSPropertyOp53
 70
     1
102
RTVSPropertyOp54
 70
     1
102
RTVSPropertyOp55
 70
     1
102
RTVSPropertyOp56
 70
     1
102
RTVSPropertyOp57
 70
     1
102
RTVSPropertyOp58
 70
     1
102
RTVSPropertyOp59
 70
     1
102
RTVSPropertyOp60
 70
     1
102
RTVSPropertyOp61
 70
     1
102
RTVSPropertyOp62
 70
     1
  0
XRECORD
  5
864
102
{ACAD_REACTORS
330
863
102
}
330
863
100
AcDbXrecord
280
     1
102
RTVSPost2010Prop28
280
     0
102
RTVSPost2010PropOp28
 70
     1
102
RTVSPost2010Prop29
280
     1
102
RTVSPost2010PropOp29
 70
     1
102
RTVSPost2010Prop30
280
     1
102
RTVSPost2010PropOp30
 70
     1
102
RTVSPost2010Prop31
280
     0
102
RTVSPost2010PropOp31
 70
     1
102
RTVSPost2010Prop32
280
     0
102
RTVSPost2010PropOp32
 70
     1
102
RTVSPost2010Prop33
280
     0
102
RTVSPost2010PropOp33
 70
     1
102
RTVSPost2010Prop34
280
     0
102
RTVSPost2010PropOp34
 70
     1
102
RTVSPost2010Prop35
280
     0
102
RTVSPost2010PropOp35
 70
     1
102
RTVSPost2010Prop36
280
     0
102
RTVSPost2010PropOp36
 70
     1
102
RTVSPost2010Prop37
 90
       50
102
RTVSPost2010PropOp37
 70
     1
102
RTVSPost2010Prop38
140
0.0
102
RTVSPost2010PropOp38
 70
     1
102
RTVSPost2010Prop39
140
1.0
102
RTVSPost2010PropOp39
 70
     1
102
RTVSPost2010Prop40
 90
        0
102
RTVSPost2010PropOp40
 70
     1
102
RTVSPost2010Prop41ColorIndex
 90
       18
102
RTVSPost2010Prop41ColorRGB
 90
        0
102
RTVSPost2010PropOp41
 70
     1
102
RTVSPost2010Prop42
 90
       50
102
RTVSPost2010PropOp42
 70
     1
102
RTVSPost2010Prop43
 90
        3
102
RTVSPost2010PropOp43
 70
     1
102
RTVSPost2010Prop44ColorIndex
 90
        5
102
RTVSPost2010Prop44ColorRGB
 90
      255
102
RTVSPost2010PropOp44
 70
     1
102
RTVSPost2010Prop45
280
     0
102
RTVSPost2010PropOp45
 70
     1
102
RTVSPost2010Prop46
 90
       50
102
RTVSPost2010PropOp46
 70
     1
102
RTVSPost2010Prop47
 90
       50
102
RTVSPost2010PropOp47
 70
     1
102
RTVSPost2010Prop48
 90
       50
102
RTVSPost2010PropOp48
 70
     1
102
RTVSPost2010Prop49
280
     0
102
RTVSPost2010PropOp49
 70
     1
102
RTVSPost2010Prop50
 90
       50
102
RTVSPost2010PropOp50
 70
     1
102
RTVSPost2010Prop51ColorIndex
 90
      256
102
RTVSPost2010Prop51ColorRGB
 90
-16777216
102
RTVSPost2010PropOp51
 70
     0
102
RTVSPost2010Prop52
140
1.0
102
RTVSPost2010PropOp52
 70
     0
102
RTVSPost2010Prop53
 90
        2
102
RTVSPost2010PropOp53
 70
     1
102
RTVSPost2010Prop54
  1
strokes_ogs.tif
102
RTVSPost2010PropOp54
 70
     1
102
RTVSPost2010Prop55
280
     0
102
RTVSPost2010PropOp55
 70
     1
102
RTVSPost2010Prop56
140
1.0
102
RTVSPost2010PropOp56
 70
     1
102
RTVSPost2010Prop57
140
1.0
102
RTVSPost2010PropOp57
 70
     1
102
RTVSPropertyOp0
 70
     1
102
RTVSPropertyOp1
 70
     1
102
RTVSPropertyOp2
 70
     1
102
RTVSPropertyOp3
 70
     1
102
RTVSPropertyOp4
 70
     1
102
RTVSPropertyOp5
 70
     1
102
RTVSPropertyOp6
 70
     1
102
RTVSPropertyOp7
 70
     1
102
RTVSPropertyOp8
 70
     1
102
RTVSPropertyOp9
 70
     1
102
RTVSPropertyOp10
 70
     1
102
RTVSPropertyOp11
 70
     1
102
RTVSPropertyOp12
 70
     1
102
RTVSPropertyOp13
 70
     1
102
RTVSPropertyOp14
 70
     1
102
RTVSPropertyOp15
 70
     1
102
RTVSPropertyOp16
 70
     1
102
RTVSPropertyOp17
 70
     1
102
RTVSPropertyOp18
 70
     1
102
RTVSPropertyOp19
 70
     1
102
RTVSPropertyOp20
 70
     1
102
RTVSPropertyOp21
 70
     1
102
RTVSPropertyOp22
 70
     1
102
RTVSPropertyOp23
 70
     1
102
RTVSPropertyOp24
 70
     1
102
RTVSPropertyOp25
 70
     1
102
RTVSPropertyOp26
 70
     1
102
RTVSPropertyOp27
 70
     1
102
RTVSPropertyOp28
 70
     1
102
RTVSPropertyOp29
 70
     1
102
RTVSPropertyOp30
 70
     1
102
RTVSPropertyOp31
 70
     1
102
RTVSPropertyOp32
 70
     1
102
RTVSPropertyOp33
 70
     1
102
RTVSPropertyOp34
 70
     1
102
RTVSPropertyOp35
 70
     1
102
RTVSPropertyOp36
 70
     1
102
RTVSPropertyOp37
 70
     1
102
RTVSPropertyOp38
 70
     1
102
RTVSPropertyOp39
 70
     1
102
RTVSPropertyOp40
 70
     1
102
RTVSPropertyOp41
 70
     1
102
RTVSPropertyOp42
 70
     1
102
RTVSPropertyOp43
 70
     1
102
RTVSPropertyOp44
 70
     1
102
RTVSPropertyOp45
 70
     1
102
RTVSPropertyOp46
 70
     1
102
RTVSPropertyOp47
 70
     1
102
RTVSPropertyOp48
 70
     1
102
RTVSPropertyOp49
 70
     1
102
RTVSPropertyOp50
 70
     1
102
RTVSPropertyOp51
 70
     0
102
RTVSPropertyOp52
 70
     0
102
RTVSPropertyOp53
 70
     1
102
RTVSPropertyOp54
 70
     1
102
RTVSPropertyOp55
 70
     1
102
RTVSPropertyOp56
 70
     1
102
RTVSPropertyOp57
 70
     1
102
RTVSPropertyOp58
 70
     1
102
RTVSPropertyOp59
 70
     1
102
RTVSPropertyOp60
 70
     1
102
RTVSPropertyOp61
 70
     1
102
RTVSPropertyOp62
 70
     1
  0
XRECORD
  5
866
102
{ACAD_REACTORS
330
865
102
}
330
865
100
AcDbXrecord
280
     1
102
RTVSPost2010Prop28
280
     0
102
RTVSPost2010PropOp28
 70
     1
102
RTVSPost2010Prop29
280
     1
102
RTVSPost2010PropOp29
 70
     1
102
RTVSPost2010Prop30
280
     1
102
RTVSPost2010PropOp30
 70
     1
102
RTVSPost2010Prop31
280
     0
102
RTVSPost2010PropOp31
 70
     1
102
RTVSPost2010Prop32
280
     0
102
RTVSPost2010PropOp32
 70
     1
102
RTVSPost2010Prop33
280
     0
102
RTVSPost2010PropOp33
 70
     1
102
RTVSPost2010Prop34
280
     0
102
RTVSPost2010PropOp34
 70
     1
102
RTVSPost2010Prop35
280
     0
102
RTVSPost2010PropOp35
 70
     1
102
RTVSPost2010Prop36
280
     0
102
RTVSPost2010PropOp36
 70
     1
102
RTVSPost2010Prop37
 90
       50
102
RTVSPost2010PropOp37
 70
     1
102
RTVSPost2010Prop38
140
0.0
102
RTVSPost2010PropOp38
 70
     1
102
RTVSPost2010Prop39
140
1.0
102
RTVSPost2010PropOp39
 70
     1
102
RTVSPost2010Prop40
 90
        0
102
RTVSPost2010PropOp40
 70
     1
102
RTVSPost2010Prop41ColorIndex
 90
       18
102
RTVSPost2010Prop41ColorRGB
 90
        0
102
RTVSPost2010PropOp41
 70
     1
102
RTVSPost2010Prop42
 90
       50
102
RTVSPost2010PropOp42
 70
     1
102
RTVSPost2010Prop43
 90
        3
102
RTVSPost2010PropOp43
 70
     1
102
RTVSPost2010Prop44ColorIndex
 90
        5
102
RTVSPost2010Prop44ColorRGB
 90
      255
102
RTVSPost2010PropOp44
 70
     1
102
RTVSPost2010Prop45
280
     0
102
RTVSPost2010PropOp45
 70
     1
102
RTVSPost2010Prop46
 90
       50
102
RTVSPost2010PropOp46
 70
     1
102
RTVSPost2010Prop47
 90
       50
102
RTVSPost2010PropOp47
 70
     1
102
RTVSPost2010Prop48
 90
       50
102
RTVSPost2010PropOp48
 70
     1
102
RTVSPost2010Prop49
280
     0
102
RTVSPost2010PropOp49
 70
     1
102
RTVSPost2010Prop50
 90
       50
102
RTVSPost2010PropOp50
 70
     1
102
RTVSPost2010Prop51ColorIndex
 90
      256
102
RTVSPost2010Prop51ColorRGB
 90
-16777216
102
RTVSPost2010PropOp51
 70
     0
102
RTVSPost2010Prop52
140
1.0
102
RTVSPost2010PropOp52
 70
     0
102
RTVSPost2010Prop53
 90
        2
102
RTVSPost2010PropOp53
 70
     1
102
RTVSPost2010Prop54
  1
strokes_ogs.tif
102
RTVSPost2010PropOp54
 70
     1
102
RTVSPost2010Prop55
280
     0
102
RTVSPost2010PropOp55
 70
     1
102
RTVSPost2010Prop56
140
1.0
102
RTVSPost2010PropOp56
 70
     1
102
RTVSPost2010Prop57
140
1.0
102
RTVSPost2010PropOp57
 70
     1
102
RTVSPropertyOp0
 70
     1
102
RTVSPropertyOp1
 70
     1
102
RTVSPropertyOp2
 70
     1
102
RTVSPropertyOp3
 70
     1
102
RTVSPropertyOp4
 70
     1
102
RTVSPropertyOp5
 70
     1
102
RTVSPropertyOp6
 70
     1
102
RTVSPropertyOp7
 70
     1
102
RTVSPropertyOp8
 70
     1
102
RTVSPropertyOp9
 70
     1
102
RTVSPropertyOp10
 70
     1
102
RTVSPropertyOp11
 70
     1
102
RTVSPropertyOp12
 70
     1
102
RTVSPropertyOp13
 70
     1
102
RTVSPropertyOp14
 70
     1
102
RTVSPropertyOp15
 70
     1
102
RTVSPropertyOp16
 70
     1
102
RTVSPropertyOp17
 70
     1
102
RTVSPropertyOp18
 70
     1
102
RTVSPropertyOp19
 70
     1
102
RTVSPropertyOp20
 70
     1
102
RTVSPropertyOp21
 70
     1
102
RTVSPropertyOp22
 70
     1
102
RTVSPropertyOp23
 70
     1
102
RTVSPropertyOp24
 70
     1
102
RTVSPropertyOp25
 70
     1
102
RTVSPropertyOp26
 70
     1
102
RTVSPropertyOp27
 70
     1
102
RTVSPropertyOp28
 70
     1
102
RTVSPropertyOp29
 70
     1
102
RTVSPropertyOp30
 70
     1
102
RTVSPropertyOp31
 70
     1
102
RTVSPropertyOp32
 70
     1
102
RTVSPropertyOp33
 70
     1
102
RTVSPropertyOp34
 70
     1
102
RTVSPropertyOp35
 70
     1
102
RTVSPropertyOp36
 70
     1
102
RTVSPropertyOp37
 70
     1
102
RTVSPropertyOp38
 70
     1
102
RTVSPropertyOp39
 70
     1
102
RTVSPropertyOp40
 70
     1
102
RTVSPropertyOp41
 70
     1
102
RTVSPropertyOp42
 70
     1
102
RTVSPropertyOp43
 70
     1
102
RTVSPropertyOp44
 70
     1
102
RTVSPropertyOp45
 70
     1
102
RTVSPropertyOp46
 70
     1
102
RTVSPropertyOp47
 70
     1
102
RTVSPropertyOp48
 70
     1
102
RTVSPropertyOp49
 70
     1
102
RTVSPropertyOp50
 70
     1
102
RTVSPropertyOp51
 70
     0
102
RTVSPropertyOp52
 70
     0
102
RTVSPropertyOp53
 70
     1
102
RTVSPropertyOp54
 70
     1
102
RTVSPropertyOp55
 70
     1
102
RTVSPropertyOp56
 70
     1
102
RTVSPropertyOp57
 70
     1
102
RTVSPropertyOp58
 70
     1
102
RTVSPropertyOp59
 70
     1
102
RTVSPropertyOp60
 70
     1
102
RTVSPropertyOp61
 70
     1
102
RTVSPropertyOp62
 70
     1
  0
XRECORD
  5
856
102
{ACAD_REACTORS
330
855
102
}
330
855
100
AcDbXrecord
280
     1
102
RTVSPost2010Prop28
280
     0
102
RTVSPost2010PropOp28
 70
     1
102
RTVSPost2010Prop29
280
     1
102
RTVSPost2010PropOp29
 70
     1
102
RTVSPost2010Prop30
280
     1
102
RTVSPost2010PropOp30
 70
     1
102
RTVSPost2010Prop31
280
     0
102
RTVSPost2010PropOp31
 70
     1
102
RTVSPost2010Prop32
280
     0
102
RTVSPost2010PropOp32
 70
     1
102
RTVSPost2010Prop33
280
     0
102
RTVSPost2010PropOp33
 70
     1
102
RTVSPost2010Prop34
280
     0
102
RTVSPost2010PropOp34
 70
     1
102
RTVSPost2010Prop35
280
     0
102
RTVSPost2010PropOp35
 70
     1
102
RTVSPost2010Prop36
280
     0
102
RTVSPost2010PropOp36
 70
     1
102
RTVSPost2010Prop37
 90
       50
102
RTVSPost2010PropOp37
 70
     1
102
RTVSPost2010Prop38
140
0.0
102
RTVSPost2010PropOp38
 70
     1
102
RTVSPost2010Prop39
140
1.0
102
RTVSPost2010PropOp39
 70
     1
102
RTVSPost2010Prop40
 90
        0
102
RTVSPost2010PropOp40
 70
     1
102
RTVSPost2010Prop41ColorIndex
 90
       18
102
RTVSPost2010Prop41ColorRGB
 90
        0
102
RTVSPost2010PropOp41
 70
     1
102
RTVSPost2010Prop42
 90
       50
102
RTVSPost2010PropOp42
 70
     1
102
RTVSPost2010Prop43
 90
        3
102
RTVSPost2010PropOp43
 70
     1
102
RTVSPost2010Prop44ColorIndex
 90
        5
102
RTVSPost2010Prop44ColorRGB
 90
      255
102
RTVSPost2010PropOp44
 70
     1
102
RTVSPost2010Prop45
280
     0
102
RTVSPost2010PropOp45
 70
     1
102
RTVSPost2010Prop46
 90
       50
102
RTVSPost2010PropOp46
 70
     1
102
RTVSPost2010Prop47
 90
       50
102
RTVSPost2010PropOp47
 70
     1
102
RTVSPost2010Prop48
 90
       50
102
RTVSPost2010PropOp48
 70
     1
102
RTVSPost2010Prop49
280
     0
102
RTVSPost2010PropOp49
 70
     1
102
RTVSPost2010Prop50
 90
       50
102
RTVSPost2010PropOp50
 70
     1
102
RTVSPost2010Prop51ColorIndex
 90
      256
102
RTVSPost2010Prop51ColorRGB
 90
-16777216
102
RTVSPost2010PropOp51
 70
     0
102
RTVSPost2010Prop52
140
1.0
102
RTVSPost2010PropOp52
 70
     0
102
RTVSPost2010Prop53
 90
        2
102
RTVSPost2010PropOp53
 70
     1
102
RTVSPost2010Prop54
  1
strokes_ogs.tif
102
RTVSPost2010PropOp54
 70
     1
102
RTVSPost2010Prop55
280
     0
102
RTVSPost2010PropOp55
 70
     1
102
RTVSPost2010Prop56
140
1.0
102
RTVSPost2010PropOp56
 70
     1
102
RTVSPost2010Prop57
140
1.0
102
RTVSPost2010PropOp57
 70
     1
102
RTVSPropertyOp0
 70
     1
102
RTVSPropertyOp1
 70
     1
102
RTVSPropertyOp2
 70
     1
102
RTVSPropertyOp3
 70
     1
102
RTVSPropertyOp4
 70
     1
102
RTVSPropertyOp5
 70
     1
102
RTVSPropertyOp6
 70
     1
102
RTVSPropertyOp7
 70
     1
102
RTVSPropertyOp8
 70
     1
102
RTVSPropertyOp9
 70
     1
102
RTVSPropertyOp10
 70
     1
102
RTVSPropertyOp11
 70
     1
102
RTVSPropertyOp12
 70
     1
102
RTVSPropertyOp13
 70
     1
102
RTVSPropertyOp14
 70
     1
102
RTVSPropertyOp15
 70
     1
102
RTVSPropertyOp16
 70
     1
102
RTVSPropertyOp17
 70
     1
102
RTVSPropertyOp18
 70
     1
102
RTVSPropertyOp19
 70
     1
102
RTVSPropertyOp20
 70
     1
102
RTVSPropertyOp21
 70
     1
102
RTVSPropertyOp22
 70
     1
102
RTVSPropertyOp23
 70
     1
102
RTVSPropertyOp24
 70
     1
102
RTVSPropertyOp25
 70
     1
102
RTVSPropertyOp26
 70
     1
102
RTVSPropertyOp27
 70
     1
102
RTVSPropertyOp28
 70
     1
102
RTVSPropertyOp29
 70
     1
102
RTVSPropertyOp30
 70
     1
102
RTVSPropertyOp31
 70
     1
102
RTVSPropertyOp32
 70
     1
102
RTVSPropertyOp33
 70
     1
102
RTVSPropertyOp34
 70
     1
102
RTVSPropertyOp35
 70
     1
102
RTVSPropertyOp36
 70
     1
102
RTVSPropertyOp37
 70
     1
102
RTVSPropertyOp38
 70
     1
102
RTVSPropertyOp39
 70
     1
102
RTVSPropertyOp40
 70
     1
102
RTVSPropertyOp41
 70
     1
102
RTVSPropertyOp42
 70
     1
102
RTVSPropertyOp43
 70
     1
102
RTVSPropertyOp44
 70
     1
102
RTVSPropertyOp45
 70
     1
102
RTVSPropertyOp46
 70
     1
102
RTVSPropertyOp47
 70
     1
102
RTVSPropertyOp48
 70
     1
102
RTVSPropertyOp49
 70
     1
102
RTVSPropertyOp50
 70
     1
102
RTVSPropertyOp51
 70
     0
102
RTVSPropertyOp52
 70
     0
102
RTVSPropertyOp53
 70
     1
102
RTVSPropertyOp54
 70
     1
102
RTVSPropertyOp55
 70
     1
102
RTVSPropertyOp56
 70
     1
102
RTVSPropertyOp57
 70
     1
102
RTVSPropertyOp58
 70
     1
102
RTVSPropertyOp59
 70
     1
102
RTVSPropertyOp60
 70
     1
102
RTVSPropertyOp61
 70
     1
102
RTVSPropertyOp62
 70
     1
  0
XRECORD
  5
848
102
{ACAD_REACTORS
330
847
102
}
330
847
100
AcDbXrecord
280
     1
102
RTVSPost2010Prop28
280
     0
102
RTVSPost2010PropOp28
 70
     1
102
RTVSPost2010Prop29
280
     1
102
RTVSPost2010PropOp29
 70
     1
102
RTVSPost2010Prop30
280
     1
102
RTVSPost2010PropOp30
 70
     1
102
RTVSPost2010Prop31
280
     0
102
RTVSPost2010PropOp31
 70
     1
102
RTVSPost2010Prop32
280
     0
102
RTVSPost2010PropOp32
 70
     1
102
RTVSPost2010Prop33
280
     0
102
RTVSPost2010PropOp33
 70
     1
102
RTVSPost2010Prop34
280
     0
102
RTVSPost2010PropOp34
 70
     1
102
RTVSPost2010Prop35
280
     0
102
RTVSPost2010PropOp35
 70
     1
102
RTVSPost2010Prop36
280
     0
102
RTVSPost2010PropOp36
 70
     1
102
RTVSPost2010Prop37
 90
       50
102
RTVSPost2010PropOp37
 70
     1
102
RTVSPost2010Prop38
140
0.0
102
RTVSPost2010PropOp38
 70
     1
102
RTVSPost2010Prop39
140
1.0
102
RTVSPost2010PropOp39
 70
     1
102
RTVSPost2010Prop40
 90
        0
102
RTVSPost2010PropOp40
 70
     1
102
RTVSPost2010Prop41ColorIndex
 90
       18
102
RTVSPost2010Prop41ColorRGB
 90
        0
102
RTVSPost2010PropOp41
 70
     1
102
RTVSPost2010Prop42
 90
       50
102
RTVSPost2010PropOp42
 70
     1
102
RTVSPost2010Prop43
 90
        3
102
RTVSPost2010PropOp43
 70
     1
102
RTVSPost2010Prop44ColorIndex
 90
        5
102
RTVSPost2010Prop44ColorRGB
 90
      255
102
RTVSPost2010PropOp44
 70
     1
102
RTVSPost2010Prop45
280
     0
102
RTVSPost2010PropOp45
 70
     1
102
RTVSPost2010Prop46
 90
       50
102
RTVSPost2010PropOp46
 70
     1
102
RTVSPost2010Prop47
 90
       50
102
RTVSPost2010PropOp47
 70
     1
102
RTVSPost2010Prop48
 90
       50
102
RTVSPost2010PropOp48
 70
     1
102
RTVSPost2010Prop49
280
     0
102
RTVSPost2010PropOp49
 70
     1
102
RTVSPost2010Prop50
 90
       50
102
RTVSPost2010PropOp50
 70
     1
102
RTVSPost2010Prop51ColorIndex
 90
      256
102
RTVSPost2010Prop51ColorRGB
 90
-16777216
102
RTVSPost2010PropOp51
 70
     0
102
RTVSPost2010Prop52
140
1.0
102
RTVSPost2010PropOp52
 70
     0
102
RTVSPost2010Prop53
 90
        2
102
RTVSPost2010PropOp53
 70
     1
102
RTVSPost2010Prop54
  1
strokes_ogs.tif
102
RTVSPost2010PropOp54
 70
     1
102
RTVSPost2010Prop55
280
     0
102
RTVSPost2010PropOp55
 70
     1
102
RTVSPost2010Prop56
140
1.0
102
RTVSPost2010PropOp56
 70
     1
102
RTVSPost2010Prop57
140
1.0
102
RTVSPost2010PropOp57
 70
     1
102
RTVSPropertyOp0
 70
     1
102
RTVSPropertyOp1
 70
     1
102
RTVSPropertyOp2
 70
     1
102
RTVSPropertyOp3
 70
     1
102
RTVSPropertyOp4
 70
     1
102
RTVSPropertyOp5
 70
     1
102
RTVSPropertyOp6
 70
     1
102
RTVSPropertyOp7
 70
     1
102
RTVSPropertyOp8
 70
     1
102
RTVSPropertyOp9
 70
     1
102
RTVSPropertyOp10
 70
     1
102
RTVSPropertyOp11
 70
     1
102
RTVSPropertyOp12
 70
     1
102
RTVSPropertyOp13
 70
     1
102
RTVSPropertyOp14
 70
     1
102
RTVSPropertyOp15
 70
     1
102
RTVSPropertyOp16
 70
     1
102
RTVSPropertyOp17
 70
     1
102
RTVSPropertyOp18
 70
     1
102
RTVSPropertyOp19
 70
     1
102
RTVSPropertyOp20
 70
     1
102
RTVSPropertyOp21
 70
     1
102
RTVSPropertyOp22
 70
     1
102
RTVSPropertyOp23
 70
     1
102
RTVSPropertyOp24
 70
     1
102
RTVSPropertyOp25
 70
     1
102
RTVSPropertyOp26
 70
     1
102
RTVSPropertyOp27
 70
     1
102
RTVSPropertyOp28
 70
     1
102
RTVSPropertyOp29
 70
     1
102
RTVSPropertyOp30
 70
     1
102
RTVSPropertyOp31
 70
     1
102
RTVSPropertyOp32
 70
     1
102
RTVSPropertyOp33
 70
     1
102
RTVSPropertyOp34
 70
     1
102
RTVSPropertyOp35
 70
     1
102
RTVSPropertyOp36
 70
     1
102
RTVSPropertyOp37
 70
     1
102
RTVSPropertyOp38
 70
     1
102
RTVSPropertyOp39
 70
     1
102
RTVSPropertyOp40
 70
     1
102
RTVSPropertyOp41
 70
     1
102
RTVSPropertyOp42
 70
     1
102
RTVSPropertyOp43
 70
     1
102
RTVSPropertyOp44
 70
     1
102
RTVSPropertyOp45
 70
     1
102
RTVSPropertyOp46
 70
     1
102
RTVSPropertyOp47
 70
     1
102
RTVSPropertyOp48
 70
     1
102
RTVSPropertyOp49
 70
     1
102
RTVSPropertyOp50
 70
     1
102
RTVSPropertyOp51
 70
     0
102
RTVSPropertyOp52
 70
     0
102
RTVSPropertyOp53
 70
     1
102
RTVSPropertyOp54
 70
     1
102
RTVSPropertyOp55
 70
     1
102
RTVSPropertyOp56
 70
     1
102
RTVSPropertyOp57
 70
     1
102
RTVSPropertyOp58
 70
     1
102
RTVSPropertyOp59
 70
     1
102
RTVSPropertyOp60
 70
     1
102
RTVSPropertyOp61
 70
     1
102
RTVSPropertyOp62
 70
     1
  0
XRECORD
  5
868
102
{ACAD_REACTORS
330
867
102
}
330
867
100
AcDbXrecord
280
     1
102
RTVSPost2010Prop28
280
     0
102
RTVSPost2010PropOp28
 70
     1
102
RTVSPost2010Prop29
280
     1
102
RTVSPost2010PropOp29
 70
     1
102
RTVSPost2010Prop30
280
     1
102
RTVSPost2010PropOp30
 70
     1
102
RTVSPost2010Prop31
280
     0
102
RTVSPost2010PropOp31
 70
     1
102
RTVSPost2010Prop32
280
     0
102
RTVSPost2010PropOp32
 70
     1
102
RTVSPost2010Prop33
280
     0
102
RTVSPost2010PropOp33
 70
     1
102
RTVSPost2010Prop34
280
     0
102
RTVSPost2010PropOp34
 70
     1
102
RTVSPost2010Prop35
280
     0
102
RTVSPost2010PropOp35
 70
     1
102
RTVSPost2010Prop36
280
     0
102
RTVSPost2010PropOp36
 70
     1
102
RTVSPost2010Prop37
 90
       50
102
RTVSPost2010PropOp37
 70
     1
102
RTVSPost2010Prop38
140
0.0
102
RTVSPost2010PropOp38
 70
     1
102
RTVSPost2010Prop39
140
1.0
102
RTVSPost2010PropOp39
 70
     1
102
RTVSPost2010Prop40
 90
        0
102
RTVSPost2010PropOp40
 70
     1
102
RTVSPost2010Prop41ColorIndex
 90
       18
102
RTVSPost2010Prop41ColorRGB
 90
        0
102
RTVSPost2010PropOp41
 70
     1
102
RTVSPost2010Prop42
 90
       50
102
RTVSPost2010PropOp42
 70
     1
102
RTVSPost2010Prop43
 90
        3
102
RTVSPost2010PropOp43
 70
     1
102
RTVSPost2010Prop44ColorIndex
 90
        5
102
RTVSPost2010Prop44ColorRGB
 90
      255
102
RTVSPost2010PropOp44
 70
     1
102
RTVSPost2010Prop45
280
     0
102
RTVSPost2010PropOp45
 70
     1
102
RTVSPost2010Prop46
 90
       50
102
RTVSPost2010PropOp46
 70
     1
102
RTVSPost2010Prop47
 90
       50
102
RTVSPost2010PropOp47
 70
     1
102
RTVSPost2010Prop48
 90
       50
102
RTVSPost2010PropOp48
 70
     1
102
RTVSPost2010Prop49
280
     0
102
RTVSPost2010PropOp49
 70
     1
102
RTVSPost2010Prop50
 90
       50
102
RTVSPost2010PropOp50
 70
     1
102
RTVSPost2010Prop51ColorIndex
 90
      256
102
RTVSPost2010Prop51ColorRGB
 90
-16777216
102
RTVSPost2010PropOp51
 70
     0
102
RTVSPost2010Prop52
140
1.0
102
RTVSPost2010PropOp52
 70
     0
102
RTVSPost2010Prop53
 90
        2
102
RTVSPost2010PropOp53
 70
     1
102
RTVSPost2010Prop54
  1
strokes_ogs.tif
102
RTVSPost2010PropOp54
 70
     1
102
RTVSPost2010Prop55
280
     0
102
RTVSPost2010PropOp55
 70
     1
102
RTVSPost2010Prop56
140
1.0
102
RTVSPost2010PropOp56
 70
     1
102
RTVSPost2010Prop57
140
1.0
102
RTVSPost2010PropOp57
 70
     1
102
RTVSPropertyOp0
 70
     1
102
RTVSPropertyOp1
 70
     1
102
RTVSPropertyOp2
 70
     1
102
RTVSPropertyOp3
 70
     1
102
RTVSPropertyOp4
 70
     1
102
RTVSPropertyOp5
 70
     1
102
RTVSPropertyOp6
 70
     1
102
RTVSPropertyOp7
 70
     1
102
RTVSPropertyOp8
 70
     1
102
RTVSPropertyOp9
 70
     1
102
RTVSPropertyOp10
 70
     1
102
RTVSPropertyOp11
 70
     1
102
RTVSPropertyOp12
 70
     1
102
RTVSPropertyOp13
 70
     1
102
RTVSPropertyOp14
 70
     1
102
RTVSPropertyOp15
 70
     1
102
RTVSPropertyOp16
 70
     1
102
RTVSPropertyOp17
 70
     1
102
RTVSPropertyOp18
 70
     1
102
RTVSPropertyOp19
 70
     1
102
RTVSPropertyOp20
 70
     1
102
RTVSPropertyOp21
 70
     1
102
RTVSPropertyOp22
 70
     1
102
RTVSPropertyOp23
 70
     1
102
RTVSPropertyOp24
 70
     1
102
RTVSPropertyOp25
 70
     1
102
RTVSPropertyOp26
 70
     1
102
RTVSPropertyOp27
 70
     1
102
RTVSPropertyOp28
 70
     1
102
RTVSPropertyOp29
 70
     1
102
RTVSPropertyOp30
 70
     1
102
RTVSPropertyOp31
 70
     1
102
RTVSPropertyOp32
 70
     1
102
RTVSPropertyOp33
 70
     1
102
RTVSPropertyOp34
 70
     1
102
RTVSPropertyOp35
 70
     1
102
RTVSPropertyOp36
 70
     1
102
RTVSPropertyOp37
 70
     1
102
RTVSPropertyOp38
 70
     1
102
RTVSPropertyOp39
 70
     1
102
RTVSPropertyOp40
 70
     1
102
RTVSPropertyOp41
 70
     1
102
RTVSPropertyOp42
 70
     1
102
RTVSPropertyOp43
 70
     1
102
RTVSPropertyOp44
 70
     1
102
RTVSPropertyOp45
 70
     1
102
RTVSPropertyOp46
 70
     1
102
RTVSPropertyOp47
 70
     1
102
RTVSPropertyOp48
 70
     1
102
RTVSPropertyOp49
 70
     1
102
RTVSPropertyOp50
 70
     1
102
RTVSPropertyOp51
 70
     0
102
RTVSPropertyOp52
 70
     0
102
RTVSPropertyOp53
 70
     1
102
RTVSPropertyOp54
 70
     1
102
RTVSPropertyOp55
 70
     1
102
RTVSPropertyOp56
 70
     1
102
RTVSPropertyOp57
 70
     1
102
RTVSPropertyOp58
 70
     1
102
RTVSPropertyOp59
 70
     1
102
RTVSPropertyOp60
 70
     1
102
RTVSPropertyOp61
 70
     1
102
RTVSPropertyOp62
 70
     1
  0
ENDSEC
  0
EOF
