  0
SECTION
  2
HEADER
  9
$ACADVER
  1
AC1015
  9
$ACADMAINTVER
 70
    20
  9
$DWGCODEPAGE
  3
ANSI_932
  9
$INSBASE
 10
0.0
 20
0.0
 30
0.0
  9
$EXTMIN
 10
20.69647301518108
 20
-11.95940353757697
 30
0.0
  9
$EXTMAX
 10
1470.373481362916
 20
1235.986540403099
 30
0.0
  9
$LIMMIN
 10
-343.6058845520024
 20
-425.2426223754881
  9
$LIMMAX
 10
972.8402709960937
 20
731.0426025390625
  9
$ORTHOMODE
 70
     0
  9
$REGENMODE
 70
     1
  9
$FILLMODE
 70
     1
  9
$QTEXTMODE
 70
     0
  9
$MIRRTEXT
 70
     1
  9
$LTSCALE
 40
0.1807713626250822
  9
$ATTMODE
 70
     1
  9
$TEXTSIZE
 40
2.5
  9
$TRACEWID
 40
1.0
  9
$TEXTSTYLE
  7
Standard
  9
$CLAYER
  8
0
  9
$CELTYPE
  6
ByLayer
  9
$CECOLOR
 62
   256
  9
$CELTSCALE
 40
1.0
  9
$DISPSILH
 70
     0
  9
$DIMSCALE
 40
1.0
  9
$DIMASZ
 40
2.5
  9
$DIMEXO
 40
0.625
  9
$DIMDLI
 40
3.75
  9
$DIMRND
 40
0.0
  9
$DIMDLE
 40
0.0
  9
$DIMEXE
 40
1.25
  9
$DIMTP
 40
0.0
  9
$DIMTM
 40
0.0
  9
$DIMTXT
 40
2.5
  9
$DIMCEN
 40
2.5
  9
$DIMTSZ
 40
0.0
  9
$DIMTOL
 70
     0
  9
$DIMLIM
 70
     0
  9
$DIMTIH
 70
     0
  9
$DIMTOH
 70
     0
  9
$DIMSE1
 70
     0
  9
$DIMSE2
 70
     0
  9
$DIMTAD
 70
     1
  9
$DIMZIN
 70
     0
  9
$DIMBLK
  1

  9
$DIMASO
 70
     1
  9
$DIMSHO
 70
     1
  9
$DIMPOST
  1

  9
$DIMAPOST
  1

  9
$DIMALT
 70
     0
  9
$DIMALTD
 70
     3
  9
$DIMALTF
 40
0.03937007874016
  9
$DIMLFAC
 40
1.0
  9
$DIMTOFL
 70
     1
  9
$DIMTVP
 40
0.0
  9
$DIMTIX
 70
     0
  9
$DIMSOXD
 70
     0
  9
$DIMSAH
 70
     0
  9
$DIMBLK1
  1

  9
$DIMBLK2
  1

  9
$DIMSTYLE
  2
Standard
  9
$DIMCLRD
 70
     0
  9
$DIMCLRE
 70
     0
  9
$DIMCLRT
 70
     0
  9
$DIMTFAC
 40
0.75
  9
$DIMGAP
 40
0.625
  9
$DIMJUST
 70
     0
  9
$DIMSD1
 70
     0
  9
$DIMSD2
 70
     0
  9
$DIMTOLJ
 70
     0
  9
$DIMTZIN
 70
     8
  9
$DIMALTZ
 70
     0
  9
$DIMALTTZ
 70
     0
  9
$DIMUPT
 70
     0
  9
$DIMDEC
 70
     2
  9
$DIMTDEC
 70
     2
  9
$DIMALTU
 70
     2
  9
$DIMALTTD
 70
     3
  9
$DIMTXSTY
  7
Standard
  9
$DIMAUNIT
 70
     0
  9
$DIMADEC
 70
     0
  9
$DIMALTRND
 40
0.0
  9
$DIMAZIN
 70
     0
  9
$DIMDSEP
 70
    46
  9
$DIMATFIT
 70
     3
  9
$DIMFRAC
 70
     0
  9
$DIMLDRBLK
  1

  9
$DIMLUNIT
 70
     2
  9
$DIMLWD
 70
    -2
  9
$DIMLWE
 70
    -2
  9
$DIMTMOVE
 70
     0
  9
$LUNITS
 70
     2
  9
$LUPREC
 70
     4
  9
$SKETCHINC
 40
1.0
  9
$FILLETRAD
 40
0.0
  9
$AUNITS
 70
     0
  9
$AUPREC
 70
     0
  9
$MENU
  1
.
  9
$ELEVATION
 40
0.0
  9
$PELEVATION
 40
0.0
  9
$THICKNESS
 40
0.0
  9
$LIMCHECK
 70
     0
  9
$CHAMFERA
 40
10.0
  9
$CHAMFERB
 40
10.0
  9
$CHAMFERC
 40
20.0
  9
$CHAMFERD
 40
0.0
  9
$SKPOLY
 70
     0
  9
$TDCREATE
 40
2455188.750000000
  9
$TDUCREATE
 40
2455188.375000000
  9
$TDUPDATE
 40
2459747.410073403
  9
$TDUUPDATE
 40
2459747.035073403
  9
$TDINDWG
 40
0.0049351736
  9
$TDUSRTIMER
 40
0.0049350231
  9
$USRTIMER
 70
     1
  9
$ANGBASE
 50
0.0
  9
$ANGDIR
 70
     0
  9
$PDMODE
 70
     0
  9
$PDSIZE
 40
0.0
  9
$PLINEWID
 40
0.0
  9
$SPLFRAME
 70
     0
  9
$SPLINETYPE
 70
     6
  9
$SPLINESEGS
 70
     8
  9
$HANDSEED
  5
721
  9
$SURFTAB1
 70
     6
  9
$SURFTAB2
 70
     6
  9
$SURFTYPE
 70
     6
  9
$SURFU
 70
     6
  9
$SURFV
 70
     6
  9
$UCSBASE
  2

  9
$UCSNAME
  2

  9
$UCSORG
 10
0.0
 20
0.0
 30
0.0
  9
$UCSXDIR
 10
1.0
 20
0.0
 30
0.0
  9
$UCSYDIR
 10
0.0
 20
1.0
 30
0.0
  9
$UCSORTHOREF
  2

  9
$UCSORTHOVIEW
 70
     0
  9
$UCSORGTOP
 10
0.0
 20
0.0
 30
0.0
  9
$UCSORGBOTTOM
 10
0.0
 20
0.0
 30
0.0
  9
$UCSORGLEFT
 10
0.0
 20
0.0
 30
0.0
  9
$UCSORGRIGHT
 10
0.0
 20
0.0
 30
0.0
  9
$UCSORGFRONT
 10
0.0
 20
0.0
 30
0.0
  9
$UCSORGBACK
 10
0.0
 20
0.0
 30
0.0
  9
$PUCSBASE
  2

  9
$PUCSNAME
  2

  9
$PUCSORG
 10
0.0
 20
0.0
 30
0.0
  9
$PUCSXDIR
 10
1.0
 20
0.0
 30
0.0
  9
$PUCSYDIR
 10
0.0
 20
1.0
 30
0.0
  9
$PUCSORTHOREF
  2

  9
$PUCSORTHOVIEW
 70
     0
  9
$PUCSORGTOP
 10
0.0
 20
0.0
 30
0.0
  9
$PUCSORGBOTTOM
 10
0.0
 20
0.0
 30
0.0
  9
$PUCSORGLEFT
 10
0.0
 20
0.0
 30
0.0
  9
$PUCSORGRIGHT
 10
0.0
 20
0.0
 30
0.0
  9
$PUCSORGFRONT
 10
0.0
 20
0.0
 30
0.0
  9
$PUCSORGBACK
 10
0.0
 20
0.0
 30
0.0
  9
$USERI1
 70
     0
  9
$USERI2
 70
     0
  9
$USERI3
 70
     0
  9
$USERI4
 70
     0
  9
$USERI5
 70
     0
  9
$USERR1
 40
0.0
  9
$USERR2
 40
0.0
  9
$USERR3
 40
0.0
  9
$USERR4
 40
0.0
  9
$USERR5
 40
0.0
  9
$WORLDVIEW
 70
     1
  9
$SHADEDGE
 70
     3
  9
$SHADEDIF
 70
    70
  9
$TILEMODE
 70
     1
  9
$MAXACTVP
 70
    64
  9
$PINSBASE
 10
0.0
 20
0.0
 30
0.0
  9
$PLIMCHECK
 70
     0
  9
$PEXTMIN
 10
1.000000000000000E+20
 20
1.000000000000000E+20
 30
1.000000000000000E+20
  9
$PEXTMAX
 10
-1.000000000000000E+20
 20
-1.000000000000000E+20
 30
-1.000000000000000E+20
  9
$PLIMMIN
 10
0.0
 20
0.0
  9
$PLIMMAX
 10
420.0
 20
297.0
  9
$UNITMODE
 70
     0
  9
$VISRETAIN
 70
     1
  9
$PLINEGEN
 70
     0
  9
$PSLTSCALE
 70
     1
  9
$TREEDEPTH
 70
  3020
  9
$CMLSTYLE
  2
Standard
  9
$CMLJUST
 70
     0
  9
$CMLSCALE
 40
20.0
  9
$PROXYGRAPHICS
 70
     1
  9
$MEASUREMENT
 70
     1
  9
$CELWEIGHT
370
    -1
  9
$ENDCAPS
280
     0
  9
$JOINSTYLE
280
     0
  9
$LWDISPLAY
290
     0
  9
$INSUNITS
 70
     4
  9
$HYPERLINKBASE
  1

  9
$STYLESHEET
  1

  9
$XEDIT
290
     1
  9
$CEPSNTYPE
380
     0
  9
$PSTYLEMODE
290
     1
  9
$FINGERPRINTGUID
  2
{A1851565-1CC8-465E-91A1-3E081F436DE2}
  9
$VERSIONGUID
  2
{9A47C2DE-EDEB-4FB8-AA5A-33BAE4F019DB}
  9
$EXTNAMES
290
     1
  9
$PSVPSCALE
 40
0.0
  9
$OLESTARTUP
290
     0
  0
ENDSEC
  0
SECTION
  2
CLASSES
  0
CLASS
  1
ACDBDICTIONARYWDFLT
  2
AcDbDictionaryWithDefault
  3
ObjectDBX Classes
 90
        0
280
     0
281
     0
  0
CLASS
  1
VISUALSTYLE
  2
AcDbVisualStyle
  3
ObjectDBX Classes
 90
     4095
280
     0
281
     0
  0
CLASS
  1
MATERIAL
  2
AcDbMaterial
  3
ObjectDBX Classes
 90
     1153
280
     0
281
     0
  0
CLASS
  1
SCALE
  2
AcDbScale
  3
ObjectDBX Classes
 90
     1153
280
     0
281
     0
  0
CLASS
  1
TABLESTYLE
  2
AcDbTableStyle
  3
ObjectDBX Classes
 90
     4095
280
     0
281
     0
  0
CLASS
  1
MLEADERSTYLE
  2
AcDbMLeaderStyle
  3
ACDB_MLEADERSTYLE_CLASS
 90
     4095
280
     0
281
     0
  0
CLASS
  1
SUN
  2
AcDbSun
  3
SCENEOE
 90
    33921
280
     0
281
     0
  0
CLASS
  1
DICTIONARYVAR
  2
AcDbDictionaryVar
  3
ObjectDBX Classes
 90
        0
280
     0
281
     0
  0
CLASS
  1
ACDBSECTIONVIEWSTYLE
  2
AcDbSectionViewStyle
  3
ObjectDBX Classes
 90
     1025
280
     0
281
     0
  0
CLASS
  1
ACDBDETAILVIEWSTYLE
  2
AcDbDetailViewStyle
  3
ObjectDBX Classes
 90
     1025
280
     0
281
     0
  0
CLASS
  1
SORTENTSTABLE
  2
AcDbSortentsTable
  3
ObjectDBX Classes
 90
        0
280
     0
281
     0
  0
CLASS
  1
CELLSTYLEMAP
  2
AcDbCellStyleMap
  3
ObjectDBX Classes
 90
     1152
280
     0
281
     0
  0
CLASS
  1
ACDBPLACEHOLDER
  2
AcDbPlaceHolder
  3
ObjectDBX Classes
 90
        0
280
     0
281
     0
  0
CLASS
  1
LAYOUT
  2
AcDbLayout
  3
ObjectDBX Classes
 90
        0
280
     0
281
     0
  0
ENDSEC
  0
SECTION
  2
TABLES
  0
TABLE
  2
VPORT
  5
8
330
0
100
AcDbSymbolTable
 70
     1
  0
VPORT
  5
29
330
8
100
AcDbSymbolTableRecord
100
AcDbViewportTableRecord
  2
*Active
 70
     0
 10
0.0
 20
0.0
 11
1.0
 21
1.0
 12
1291.612607341323
 22
374.4108217681733
 13
0.0
 23
0.0
 14
10.0
 24
10.0
 15
10.0
 25
10.0
 16
0.0
 26
0.0
 36
1.0
 17
0.0
 27
0.0
 37
0.0
 40
1299.287992272579
 41
2.204301075268817
 42
50.0
 43
0.0
 44
0.0
 50
0.0
 51
0.0
 71
     0
 72
 20000
 73
     1
 74
     3
 75
     0
 76
     0
 77
     0
 78
     0
281
     0
 65
     1
110
0.0
120
0.0
130
0.0
111
1.0
121
0.0
131
0.0
112
0.0
122
1.0
132
0.0
 79
     0
146
0.0
1001
ACAD_NAV_VCDISPLAY
1070
     3
  0
ENDTAB
  0
TABLE
  2
LTYPE
  5
5
330
0
100
AcDbSymbolTable
 70
     2
  0
LTYPE
  5
14
330
5
100
AcDbSymbolTableRecord
100
AcDbLinetypeTableRecord
  2
ByBlock
 70
     0
  3

 72
    65
 73
     0
 40
0.0
  0
LTYPE
  5
15
330
5
100
AcDbSymbolTableRecord
100
AcDbLinetypeTableRecord
  2
ByLayer
 70
     0
  3

 72
    65
 73
     0
 40
0.0
  0
LTYPE
  5
16
330
5
100
AcDbSymbolTableRecord
100
AcDbLinetypeTableRecord
  2
Continuous
 70
     0
  3
Solid line
 72
    65
 73
     0
 40
0.0
  0
LTYPE
  5
3BF
330
5
100
AcDbSymbolTableRecord
100
AcDbLinetypeTableRecord
  2
CENTER2
 70
     0
  3
Center (.5x) ___ _ ___ _ ___ _ ___ _ ___ _ ___
 72
    65
 73
     4
 40
28.575
 49
19.05
 74
     0
 49
-3.174999999999998
 74
     0
 49
3.174999999999998
 74
     0
 49
-3.174999999999998
 74
     0
  0
ENDTAB
  0
TABLE
  2
LAYER
  5
2
102
{ACAD_XDICTIONARY
360
3C5
102
}
330
0
100
AcDbSymbolTable
 70
     4
  0
LAYER
  5
10
102
{ACAD_XDICTIONARY
360
68D
102
}
330
2
100
AcDbSymbolTableRecord
100
AcDbLayerTableRecord
  2
0
 70
     0
 62
     7
  6
Continuous
370
    -3
390
F
  0
LAYER
  5
66
330
2
100
AcDbSymbolTableRecord
100
AcDbLayerTableRecord
  2
Defpoints
 70
     0
 62
     7
  6
Continuous
290
     0
370
    -3
390
F
  0
LAYER
  5
3C0
102
{ACAD_XDICTIONARY
360
3C1
102
}
330
2
100
AcDbSymbolTableRecord
100
AcDbLayerTableRecord
  2
中心線
 70
     0
 62
     3
  6
CENTER2
370
    -3
390
F
  0
LAYER
  5
3C2
102
{ACAD_XDICTIONARY
360
3C3
102
}
330
2
100
AcDbSymbolTableRecord
100
AcDbLayerTableRecord
  2
実線
 70
     0
 62
     7
  6
Continuous
370
    -3
390
F
  0
ENDTAB
  0
TABLE
  2
STYLE
  5
3
330
0
100
AcDbSymbolTable
 70
     1
  0
STYLE
  5
11
330
3
100
AcDbSymbolTableRecord
100
AcDbTextStyleTableRecord
  2
Standard
 70
     0
 40
0.0
 41
1.0
 50
0.0
 71
     0
 42
2.5
  3
txt
  4
extfont2
  0
ENDTAB
  0
TABLE
  2
VIEW
  5
6
330
0
100
AcDbSymbolTable
 70
     0
  0
ENDTAB
  0
TABLE
  2
UCS
  5
7
330
0
100
AcDbSymbolTable
 70
     0
  0
ENDTAB
  0
TABLE
  2
APPID
  5
9
330
0
100
AcDbSymbolTable
 70
     3
  0
APPID
  5
12
330
9
100
AcDbSymbolTableRecord
100
AcDbRegAppTableRecord
  2
ACAD
 70
     0
  0
APPID
  5
239
330
9
100
AcDbSymbolTableRecord
100
AcDbRegAppTableRecord
  2
ACAD_MLEADERVER
 70
     0
  0
APPID
  5
3C4
330
9
100
AcDbSymbolTableRecord
100
AcDbRegAppTableRecord
  2
ACAD_NAV_VCDISPLAY
 70
     0
  0
ENDTAB
  0
TABLE
  2
DIMSTYLE
  5
A
330
0
100
AcDbSymbolTable
 70
     1
100
AcDbDimStyleTable
 71
     0
  0
DIMSTYLE
105
27
330
A
100
AcDbSymbolTableRecord
100
AcDbDimStyleTableRecord
  2
Standard
 70
     0
 41
2.5
 42
0.625
 43
3.75
 44
1.25
 73
     0
 74
     0
 77
     1
140
2.5
141
2.5
143
0.03937007874016
146
0.75
147
0.625
171
     3
172
     1
271
     2
272
     2
274
     3
283
     0
284
     8
340
11
  0
ENDTAB
  0
TABLE
  2
BLOCK_RECORD
  5
1
330
0
100
AcDbSymbolTable
 70
     1
  0
BLOCK_RECORD
  5
1F
102
{ACAD_XDICTIONARY
360
274
102
}
330
1
100
AcDbSymbolTableRecord
100
AcDbBlockTableRecord
  2
*Model_Space
340
22
  0
BLOCK_RECORD
  5
1B
330
1
100
AcDbSymbolTableRecord
100
AcDbBlockTableRecord
  2
*Paper_Space
340
1E
  0
BLOCK_RECORD
  5
23
330
1
100
AcDbSymbolTableRecord
100
AcDbBlockTableRecord
  2
*Paper_Space0
340
243
  0
ENDTAB
  0
ENDSEC
  0
SECTION
  2
BLOCKS
  0
BLOCK
  5
20
330
1F
100
AcDbEntity
  8
0
100
AcDbBlockBegin
  2
*Model_Space
 70
     0
 10
0.0
 20
0.0
 30
0.0
  3
*Model_Space
  1

  0
ENDBLK
  5
21
330
1F
100
AcDbEntity
  8
0
100
AcDbBlockEnd
  0
BLOCK
  5
1C
330
1B
100
AcDbEntity
 67
     1
  8
0
100
AcDbBlockBegin
  2
*Paper_Space
 70
     0
 10
0.0
 20
0.0
 30
0.0
  3
*Paper_Space
  1

  0
ENDBLK
  5
1D
330
1B
100
AcDbEntity
 67
     1
  8
0
100
AcDbBlockEnd
  0
BLOCK
  5
24
330
23
100
AcDbEntity
 67
     1
  8
0
100
AcDbBlockBegin
  2
*Paper_Space0
 70
     0
 10
0.0
 20
0.0
 30
0.0
  3
*Paper_Space0
  1

  0
ENDBLK
  5
25
330
23
100
AcDbEntity
 67
     1
  8
0
100
AcDbBlockEnd
  0
ENDSEC
  0
SECTION
  2
ENTITIES
  0
CIRCLE
  5
249
102
{ACAD_REACTORS
330
68C
102
}
330
1F
100
AcDbEntity
  8
実線
100
AcDbCircle
 10
315.6964730151814
 20
735.3494529069394
 30
0.0
 40
16.5
  0
CIRCLE
  5
24A
102
{ACAD_REACTORS
330
68C
102
}
330
1F
100
AcDbEntity
  8
実線
100
AcDbCircle
 10
315.6964730151814
 20
735.3494529069394
 30
0.0
 40
44.0
  0
LINE
  5
24B
102
{ACAD_REACTORS
330
68C
102
}
330
1F
100
AcDbEntity
  8
実線
100
AcDbLine
 10
250.7964730151805
 20
716.2994529069394
 30
0.0
 11
269.4677211393191
 21
716.2994529069394
 31
0.0
  0
LINE
  5
24C
102
{ACAD_REACTORS
330
68C
102
}
330
1F
100
AcDbEntity
  8
実線
100
AcDbLine
 10
269.4677211393198
 20
754.3994529069404
 30
0.0
 11
250.7964730151805
 21
754.3994529069404
 31
0.0
  0
LINE
  5
24D
102
{ACAD_REACTORS
330
68C
102
}
330
1F
100
AcDbEntity
  8
実線
100
AcDbLine
 10
245.6964730151806
 20
710.0994529069405
 30
0.0
 11
248.4464730151806
 21
710.0994529069405
 31
0.0
  0
LINE
  5
24E
102
{ACAD_REACTORS
330
68C
102
}
330
1F
100
AcDbEntity
  8
実線
100
AcDbLine
 10
248.4464730151806
 20
760.5994529069405
 30
0.0
 11
245.6964730151806
 21
760.5994529069405
 31
0.0
  0
LINE
  5
24F
102
{ACAD_REACTORS
330
68C
102
}
330
1F
100
AcDbEntity
  8
実線
100
AcDbLine
 10
245.6964730151806
 20
760.5994529069405
 30
0.0
 11
245.6964730151806
 21
710.0994529069405
 31
0.0
  0
LINE
  5
250
102
{ACAD_REACTORS
330
68C
102
}
330
1F
100
AcDbEntity
  8
実線
100
AcDbLine
 10
250.7964730151805
 20
754.3994529069404
 30
0.0
 11
248.4464730151806
 21
760.5994529069405
 31
0.0
  0
LINE
  5
251
102
{ACAD_REACTORS
330
68C
102
}
330
1F
100
AcDbEntity
  8
実線
100
AcDbLine
 10
248.4464730151806
 20
710.0994529069405
 30
0.0
 11
250.7964730151805
 21
716.2994529069394
 31
0.0
  0
LINE
  5
252
102
{ACAD_REACTORS
330
68C
102
}
330
1F
100
AcDbEntity
  8
実線
100
AcDbLine
 10
248.4464730151806
 20
760.5994529069405
 30
0.0
 11
248.4464730151806
 21
710.0994529069405
 31
0.0
  0
LINE
  5
253
102
{ACAD_REACTORS
330
68C
102
}
330
1F
100
AcDbEntity
  8
実線
100
AcDbLine
 10
250.7964730151805
 20
754.3994529069404
 30
0.0
 11
250.7964730151805
 21
716.2994529069394
 31
0.0
  0
LINE
  5
254
102
{ACAD_REACTORS
330
68C
102
}
330
1F
100
AcDbEntity
  8
実線
100
AcDbLine
 10
380.5964730151804
 20
754.3994529069404
 30
0.0
 11
361.9252248910428
 21
754.3994529069404
 31
0.0
  0
LINE
  5
255
102
{ACAD_REACTORS
330
68C
102
}
330
1F
100
AcDbEntity
  8
実線
100
AcDbLine
 10
361.9252248910436
 20
716.2994529069394
 30
0.0
 11
380.5964730151804
 21
716.2994529069394
 31
0.0
  0
LINE
  5
256
102
{ACAD_REACTORS
330
68C
102
}
330
1F
100
AcDbEntity
  8
実線
100
AcDbLine
 10
385.6964730151806
 20
760.5994529069405
 30
0.0
 11
382.9464730151805
 21
760.5994529069405
 31
0.0
  0
LINE
  5
257
102
{ACAD_REACTORS
330
68C
102
}
330
1F
100
AcDbEntity
  8
実線
100
AcDbLine
 10
382.9464730151805
 20
710.0994529069405
 30
0.0
 11
385.6964730151806
 21
710.0994529069405
 31
0.0
  0
LINE
  5
258
102
{ACAD_REACTORS
330
68C
102
}
330
1F
100
AcDbEntity
  8
実線
100
AcDbLine
 10
385.6964730151806
 20
710.0994529069405
 30
0.0
 11
385.6964730151806
 21
760.5994529069405
 31
0.0
  0
LINE
  5
259
102
{ACAD_REACTORS
330
68C
102
}
330
1F
100
AcDbEntity
  8
実線
100
AcDbLine
 10
380.5964730151804
 20
716.2994529069394
 30
0.0
 11
382.9464730151805
 21
710.0994529069405
 31
0.0
  0
LINE
  5
25A
102
{ACAD_REACTORS
330
68C
102
}
330
1F
100
AcDbEntity
  8
実線
100
AcDbLine
 10
382.9464730151805
 20
760.5994529069405
 30
0.0
 11
380.5964730151804
 21
754.3994529069404
 31
0.0
  0
LINE
  5
25B
102
{ACAD_REACTORS
330
68C
102
}
330
1F
100
AcDbEntity
  8
実線
100
AcDbLine
 10
382.9464730151805
 20
710.0994529069405
 30
0.0
 11
382.9464730151805
 21
760.5994529069405
 31
0.0
  0
LINE
  5
25C
102
{ACAD_REACTORS
330
68C
102
}
330
1F
100
AcDbEntity
  8
実線
100
AcDbLine
 10
380.5964730151804
 20
716.2994529069394
 30
0.0
 11
380.5964730151804
 21
754.3994529069404
 31
0.0
  0
CIRCLE
  5
25D
102
{ACAD_REACTORS
330
68C
102
}
330
1F
100
AcDbEntity
  8
実線
100
AcDbCircle
 10
315.6964730151814
 20
735.3494529069394
 30
0.0
 40
43.3
  0
CIRCLE
  5
25E
102
{ACAD_REACTORS
330
68C
102
}
330
1F
100
AcDbEntity
  8
実線
100
AcDbCircle
 10
315.6964730151814
 20
735.3494529069394
 30
0.0
 40
42.5
  0
ARC
  5
25F
102
{ACAD_REACTORS
330
68C
102
}
330
1F
100
AcDbEntity
  8
実線
100
AcDbCircle
 10
315.6964730151814
 20
735.3494529069385
 30
0.0
 40
61.50000000000009
100
AcDbArc
 50
43.23542625711105
 51
46.76457374288665
  0
ARC
  5
260
102
{ACAD_REACTORS
330
68C
102
}
330
1F
100
AcDbEntity
  8
実線
100
AcDbCircle
 10
315.6964730151821
 20
735.3494529069385
 30
0.0
 40
61.49999999999885
100
AcDbArc
 50
313.2354262571133
 51
316.764573742889
  0
ARC
  5
261
102
{ACAD_REACTORS
330
68C
102
}
330
1F
100
AcDbEntity
  8
実線
100
AcDbCircle
 10
279.0490960721093
 20
696.3722831380555
 30
0.0
 40
8.000000000000021
100
AcDbArc
 50
226.7645737428867
 51
305.000000000001
  0
LINE
  5
262
102
{ACAD_REACTORS
330
68C
102
}
330
1F
100
AcDbEntity
  8
実線
100
AcDbLine
 10
283.6377075629177
 20
689.8190667837434
 30
0.0
 11
288.6256973410026
 21
693.3116948268714
 31
0.0
  0
ARC
  5
263
102
{ACAD_REACTORS
330
68C
102
}
330
1F
100
AcDbEntity
  8
実線
100
AcDbCircle
 10
352.3438499582534
 20
774.3266226758223
 30
0.0
 40
8.000000000000008
100
AcDbArc
 50
46.76457374288665
 51
125.0000000000009
  0
LINE
  5
264
102
{ACAD_REACTORS
330
68C
102
}
330
1F
100
AcDbEntity
  8
実線
100
AcDbLine
 10
347.755238467445
 20
780.8798390301356
 30
0.0
 11
342.7672486893599
 21
777.3872109870073
 31
0.0
  0
LINE
  5
265
102
{ACAD_REACTORS
330
68C
102
}
330
1F
100
AcDbEntity
  8
実線
100
AcDbLine
 10
288.6256973410026
 20
777.3872109870073
 30
0.0
 11
283.6377075629177
 21
780.8798390301356
 31
0.0
  0
ARC
  5
266
102
{ACAD_REACTORS
330
68C
102
}
330
1F
100
AcDbEntity
  8
実線
100
AcDbCircle
 10
279.0490960721093
 20
774.3266226758223
 30
0.0
 40
8.000000000000008
100
AcDbArc
 50
54.99999999999904
 51
133.2354262571133
  0
ARC
  5
267
102
{ACAD_REACTORS
330
68C
102
}
330
1F
100
AcDbEntity
  8
実線
100
AcDbCircle
 10
315.6964730151823
 20
735.3494529069385
 30
0.0
 40
61.50000000000114
100
AcDbArc
 50
133.2354262571133
 51
136.7645737428889
  0
ARC
  5
268
102
{ACAD_REACTORS
330
68C
102
}
330
1F
100
AcDbEntity
  8
実線
100
AcDbCircle
 10
276.7193032462975
 20
771.9968298500114
 30
0.0
 40
8.000000000000008
100
AcDbArc
 50
136.7645737428889
 51
214.9999999999974
  0
LINE
  5
269
102
{ACAD_REACTORS
330
68C
102
}
330
1F
100
AcDbEntity
  8
実線
100
AcDbLine
 10
270.1660868919855
 20
767.4082183592024
 30
0.0
 11
273.6587149351136
 21
762.4202285811175
 31
0.0
  0
LINE
  5
26A
102
{ACAD_REACTORS
330
68C
102
}
330
1F
100
AcDbEntity
  8
実線
100
AcDbLine
 10
273.6587149351136
 20
708.2786772327604
 30
0.0
 11
270.1660868919855
 21
703.2906874546754
 31
0.0
  0
ARC
  5
26B
102
{ACAD_REACTORS
330
68C
102
}
330
1F
100
AcDbEntity
  8
実線
100
AcDbCircle
 10
276.7193032462975
 20
698.7020759638673
 30
0.0
 40
7.999999999999996
100
AcDbArc
 50
145.0000000000026
 51
223.2354262571111
  0
ARC
  5
26C
102
{ACAD_REACTORS
330
68C
102
}
330
1F
100
AcDbEntity
  8
実線
100
AcDbCircle
 10
315.6964730151816
 20
735.3494529069394
 30
0.0
 40
61.50000000000008
100
AcDbArc
 50
223.2354262571111
 51
226.7645737428867
  0
LINE
  5
26D
102
{ACAD_REACTORS
330
68C
102
}
330
1F
100
AcDbEntity
  8
実線
100
AcDbLine
 10
342.7672486893599
 20
693.3116948268714
 30
0.0
 11
347.755238467445
 21
689.8190667837434
 31
0.0
  0
ARC
  5
26E
102
{ACAD_REACTORS
330
68C
102
}
330
1F
100
AcDbEntity
  8
実線
100
AcDbCircle
 10
352.3438499582534
 20
696.3722831380555
 30
0.0
 40
7.999999999999986
100
AcDbArc
 50
234.999999999999
 51
313.2354262571133
  0
ARC
  5
26F
102
{ACAD_REACTORS
330
68C
102
}
330
1F
100
AcDbEntity
  8
実線
100
AcDbCircle
 10
354.6736427840652
 20
698.7020759638673
 30
0.0
 40
8.000000000000023
100
AcDbArc
 50
316.764573742882
 51
34.99999999999737
  0
LINE
  5
270
102
{ACAD_REACTORS
330
68C
102
}
330
1F
100
AcDbEntity
  8
実線
100
AcDbLine
 10
361.2268591383772
 20
703.2906874546754
 30
0.0
 11
357.734231095249
 21
708.2786772327604
 31
0.0
  0
LINE
  5
271
102
{ACAD_REACTORS
330
68C
102
}
330
1F
100
AcDbEntity
  8
実線
100
AcDbLine
 10
357.734231095249
 20
762.4202285811175
 30
0.0
 11
361.2268591383772
 21
767.4082183592024
 31
0.0
  0
ARC
  5
272
102
{ACAD_REACTORS
330
68C
102
}
330
1F
100
AcDbEntity
  8
実線
100
AcDbCircle
 10
354.6736427840652
 20
771.9968298500114
 30
0.0
 40
7.999999999999995
100
AcDbArc
 50
325.0000000000026
 51
43.23542625711105
  0
CIRCLE
  5
273
102
{ACAD_REACTORS
330
68C
102
}
330
1F
100
AcDbEntity
  8
実線
100
AcDbCircle
 10
315.6964730151814
 20
735.3494529069394
 30
0.0
 40
50.0
  0
CIRCLE
  5
276
102
{ACAD_REACTORS
330
687
102
}
330
1F
100
AcDbEntity
  8
実線
100
AcDbCircle
 10
315.6964730151806
 20
75.34945290693929
 30
0.0
 40
25.25
  0
LINE
  5
277
102
{ACAD_REACTORS
330
687
102
}
330
1F
100
AcDbEntity
  8
実線
100
AcDbLine
 10
250.7964730151805
 20
56.29945290693928
 30
0.0
 11
280.5240761676525
 21
56.29945290693928
 31
0.0
  0
LINE
  5
278
102
{ACAD_REACTORS
330
687
102
}
330
1F
100
AcDbEntity
  8
実線
100
AcDbLine
 10
280.5240761676525
 20
94.39945290693925
 30
0.0
 11
250.7964730151804
 21
94.39945290693925
 31
0.0
  0
LINE
  5
279
102
{ACAD_REACTORS
330
687
102
}
330
1F
100
AcDbEntity
  8
実線
100
AcDbLine
 10
250.7964730151805
 20
56.29945290693928
 30
0.0
 11
250.7964730151805
 21
94.39945290693925
 31
0.0
  0
LINE
  5
27A
102
{ACAD_REACTORS
330
687
102
}
330
1F
100
AcDbEntity
  8
実線
100
AcDbLine
 10
250.7964730151805
 20
94.39945290693925
 30
0.0
 11
248.4464730151806
 21
100.5994529069392
 31
0.0
  0
LINE
  5
27B
102
{ACAD_REACTORS
330
687
102
}
330
1F
100
AcDbEntity
  8
実線
100
AcDbLine
 10
248.4464730151806
 20
50.09945290693929
 30
0.0
 11
250.7964730151805
 21
56.29945290693928
 31
0.0
  0
LINE
  5
27C
102
{ACAD_REACTORS
330
687
102
}
330
1F
100
AcDbEntity
  8
実線
100
AcDbLine
 10
245.6964730151806
 20
50.09945290693929
 30
0.0
 11
245.6964730151806
 21
100.5994529069392
 31
0.0
  0
LINE
  5
27D
102
{ACAD_REACTORS
330
687
102
}
330
1F
100
AcDbEntity
  8
実線
100
AcDbLine
 10
248.4464730151806
 20
50.09945290693929
 30
0.0
 11
248.4464730151806
 21
100.5994529069392
 31
0.0
  0
LINE
  5
27E
102
{ACAD_REACTORS
330
687
102
}
330
1F
100
AcDbEntity
  8
実線
100
AcDbLine
 10
245.6964730151806
 20
50.09945290693929
 30
0.0
 11
248.4464730151806
 21
50.09945290693929
 31
0.0
  0
LINE
  5
27F
102
{ACAD_REACTORS
330
687
102
}
330
1F
100
AcDbEntity
  8
実線
100
AcDbLine
 10
248.4464730151806
 20
100.5994529069392
 30
0.0
 11
245.6964730151806
 21
100.5994529069392
 31
0.0
  0
LINE
  5
280
102
{ACAD_REACTORS
330
687
102
}
330
1F
100
AcDbEntity
  8
実線
100
AcDbLine
 10
380.5964730151804
 20
94.39945290693925
 30
0.0
 11
350.8688698627099
 21
94.39945290693925
 31
0.0
  0
LINE
  5
281
102
{ACAD_REACTORS
330
687
102
}
330
1F
100
AcDbEntity
  8
実線
100
AcDbLine
 10
350.868869862709
 20
56.29945290693928
 30
0.0
 11
380.5964730151804
 21
56.29945290693928
 31
0.0
  0
LINE
  5
282
102
{ACAD_REACTORS
330
687
102
}
330
1F
100
AcDbEntity
  8
実線
100
AcDbLine
 10
385.6964730151806
 20
100.5994529069392
 30
0.0
 11
385.6964730151806
 21
50.09945290693929
 31
0.0
  0
LINE
  5
283
102
{ACAD_REACTORS
330
687
102
}
330
1F
100
AcDbEntity
  8
実線
100
AcDbLine
 10
385.6964730151806
 20
100.5994529069392
 30
0.0
 11
382.9464730151805
 21
100.5994529069392
 31
0.0
  0
LINE
  5
284
102
{ACAD_REACTORS
330
687
102
}
330
1F
100
AcDbEntity
  8
実線
100
AcDbLine
 10
382.9464730151805
 20
50.09945290693929
 30
0.0
 11
385.6964730151806
 21
50.09945290693929
 31
0.0
  0
LINE
  5
285
102
{ACAD_REACTORS
330
687
102
}
330
1F
100
AcDbEntity
  8
実線
100
AcDbLine
 10
382.9464730151805
 20
100.5994529069392
 30
0.0
 11
382.9464730151805
 21
50.09945290693929
 31
0.0
  0
LINE
  5
286
102
{ACAD_REACTORS
330
687
102
}
330
1F
100
AcDbEntity
  8
実線
100
AcDbLine
 10
380.5964730151804
 20
94.39945290693925
 30
0.0
 11
380.5964730151804
 21
56.29945290693928
 31
0.0
  0
LINE
  5
287
102
{ACAD_REACTORS
330
687
102
}
330
1F
100
AcDbEntity
  8
実線
100
AcDbLine
 10
380.5964730151804
 20
56.29945290693928
 30
0.0
 11
382.9464730151805
 21
50.09945290693929
 31
0.0
  0
LINE
  5
288
102
{ACAD_REACTORS
330
687
102
}
330
1F
100
AcDbEntity
  8
実線
100
AcDbLine
 10
382.9464730151805
 20
100.5994529069392
 30
0.0
 11
380.5964730151804
 21
94.39945290693925
 31
0.0
  0
ARC
  5
289
102
{ACAD_REACTORS
330
687
102
}
330
1F
100
AcDbEntity
  8
実線
100
AcDbCircle
 10
315.6964730151814
 20
75.34945290694008
 30
0.0
 40
50.0
100
AcDbArc
 50
57.2199489371374
 51
122.7800510628626
  0
ARC
  5
28A
102
{ACAD_REACTORS
330
687
102
}
330
1F
100
AcDbEntity
  8
実線
100
AcDbCircle
 10
315.6964730151814
 20
75.34945290694008
 30
0.0
 40
50.0
100
AcDbArc
 50
147.2199489371374
 51
157.6043612805143
  0
ARC
  5
28B
102
{ACAD_REACTORS
330
687
102
}
330
1F
100
AcDbEntity
  8
実線
100
AcDbCircle
 10
315.6964730151814
 20
75.34945290694008
 30
0.0
 40
50.0
100
AcDbArc
 50
202.3956387194893
 51
212.7800510628626
  0
ARC
  5
28C
102
{ACAD_REACTORS
330
687
102
}
330
1F
100
AcDbEntity
  8
実線
100
AcDbCircle
 10
315.6964730151814
 20
75.34945290694008
 30
0.0
 40
50.0
100
AcDbArc
 50
237.2199489371374
 51
302.7800510628626
  0
ARC
  5
28D
102
{ACAD_REACTORS
330
687
102
}
330
1F
100
AcDbEntity
  8
実線
100
AcDbCircle
 10
315.6964730151814
 20
75.34945290694008
 30
0.0
 40
50.0
100
AcDbArc
 50
327.2199489371374
 51
337.6043612805107
  0
ARC
  5
28E
102
{ACAD_REACTORS
330
687
102
}
330
1F
100
AcDbEntity
  8
実線
100
AcDbCircle
 10
315.6964730151814
 20
75.34945290694008
 30
0.0
 40
50.0
100
AcDbArc
 50
22.39563871948565
 51
32.78005106286261
  0
ARC
  5
28F
102
{ACAD_REACTORS
330
687
102
}
330
1F
100
AcDbEntity
  8
実線
100
AcDbCircle
 10
279.0490960721085
 20
114.3266226758231
 30
0.0
 40
8.000000000000021
100
AcDbArc
 50
54.99999999999904
 51
133.2354262571133
  0
LINE
  5
290
102
{ACAD_REACTORS
330
687
102
}
330
1F
100
AcDbEntity
  8
実線
100
AcDbLine
 10
283.6377075629169
 20
120.879839030135
 30
0.0
 11
297.6675762047566
 21
111.0560192470269
 31
0.0
  0
ARC
  5
291
102
{ACAD_REACTORS
330
687
102
}
330
1F
100
AcDbEntity
  8
実線
100
AcDbCircle
 10
315.6964730151807
 20
75.34945290693935
 30
0.0
 40
61.50000000000008
100
AcDbArc
 50
133.2354262571133
 51
136.7645737428866
  0
ARC
  5
292
102
{ACAD_REACTORS
330
687
102
}
330
1F
100
AcDbEntity
  8
実線
100
AcDbCircle
 10
276.7193032462968
 20
111.9968298500112
 30
0.0
 40
7.999999999999996
100
AcDbArc
 50
136.7645737428866
 51
214.9999999999987
  0
LINE
  5
293
102
{ACAD_REACTORS
330
687
102
}
330
1F
100
AcDbEntity
  8
実線
100
AcDbLine
 10
279.2749225244619
 20
94.39945290693925
 30
0.0
 11
270.1660868919847
 21
107.4082183592028
 31
0.0
  0
LINE
  5
294
102
{ACAD_REACTORS
330
687
102
}
330
1F
100
AcDbEntity
  8
実線
100
AcDbLine
 10
361.2268591383764
 20
107.4082183592028
 30
0.0
 11
352.1180235058994
 21
94.39945290693925
 31
0.0
  0
ARC
  5
295
102
{ACAD_REACTORS
330
687
102
}
330
1F
100
AcDbEntity
  8
実線
100
AcDbCircle
 10
354.6736427840644
 20
111.9968298500112
 30
0.0
 40
8.000000000000023
100
AcDbArc
 50
325.0000000000003
 51
43.23542625711335
  0
ARC
  5
296
102
{ACAD_REACTORS
330
687
102
}
330
1F
100
AcDbEntity
  8
実線
100
AcDbCircle
 10
315.6964730151814
 20
75.34945290694008
 30
0.0
 40
61.49999999999885
100
AcDbArc
 50
43.23542625711335
 51
46.76457374288665
  0
ARC
  5
297
102
{ACAD_REACTORS
330
687
102
}
330
1F
100
AcDbEntity
  8
実線
100
AcDbCircle
 10
352.3438499582525
 20
114.3266226758231
 30
0.0
 40
7.999999999999986
100
AcDbArc
 50
46.76457374288665
 51
125.0000000000009
  0
LINE
  5
298
102
{ACAD_REACTORS
330
687
102
}
330
1F
100
AcDbEntity
  8
実線
100
AcDbLine
 10
333.7253698256046
 20
111.0560192470269
 30
0.0
 11
347.7552384674441
 21
120.879839030135
 31
0.0
  0
LINE
  5
299
102
{ACAD_REACTORS
330
687
102
}
330
1F
100
AcDbEntity
  8
実線
100
AcDbLine
 10
347.7552384674441
 20
29.81906678374349
 30
0.0
 11
333.7253698256046
 21
39.64288656685159
 31
0.0
  0
ARC
  5
29A
102
{ACAD_REACTORS
330
687
102
}
330
1F
100
AcDbEntity
  8
実線
100
AcDbCircle
 10
352.3438499582525
 20
36.37228313805542
 30
0.0
 40
8.000000000000008
100
AcDbArc
 50
234.999999999999
 51
313.2354262571133
  0
ARC
  5
29B
102
{ACAD_REACTORS
330
687
102
}
330
1F
100
AcDbEntity
  8
実線
100
AcDbCircle
 10
315.6964730151806
 20
75.34945290693946
 30
0.0
 40
61.50000000000009
100
AcDbArc
 50
313.2354262571133
 51
316.7645737428866
  0
ARC
  5
29C
102
{ACAD_REACTORS
330
687
102
}
330
1F
100
AcDbEntity
  8
実線
100
AcDbCircle
 10
354.6736427840644
 20
38.70207596386729
 30
0.0
 40
7.999999999999995
100
AcDbArc
 50
316.7645737428866
 51
34.99999999999963
  0
LINE
  5
29D
102
{ACAD_REACTORS
330
687
102
}
330
1F
100
AcDbEntity
  8
実線
100
AcDbLine
 10
352.1180235058994
 20
56.29945290693928
 30
0.0
 11
361.2268591383764
 21
43.29068745467566
 31
0.0
  0
ARC
  5
29E
102
{ACAD_REACTORS
330
687
102
}
330
1F
100
AcDbEntity
  8
実線
100
AcDbCircle
 10
279.0490960721085
 20
36.37228313805542
 30
0.0
 40
8.000000000000008
100
AcDbArc
 50
226.7645737428867
 51
305.000000000001
  0
LINE
  5
29F
102
{ACAD_REACTORS
330
687
102
}
330
1F
100
AcDbEntity
  8
実線
100
AcDbLine
 10
270.1660868919847
 20
43.29068745467566
 30
0.0
 11
279.2749225244619
 21
56.29945290693928
 31
0.0
  0
ARC
  5
2A0
102
{ACAD_REACTORS
330
687
102
}
330
1F
100
AcDbEntity
  8
実線
100
AcDbCircle
 10
276.7193032462968
 20
38.70207596386729
 30
0.0
 40
8.000000000000008
100
AcDbArc
 50
145.0000000000003
 51
223.2354262571134
  0
ARC
  5
2A1
102
{ACAD_REACTORS
330
687
102
}
330
1F
100
AcDbEntity
  8
実線
100
AcDbCircle
 10
315.6964730151814
 20
75.34945290693997
 30
0.0
 40
61.50000000000114
100
AcDbArc
 50
223.2354262571134
 51
226.7645737428867
  0
LINE
  5
2A2
102
{ACAD_REACTORS
330
687
102
}
330
1F
100
AcDbEntity
  8
実線
100
AcDbLine
 10
297.6675762047565
 20
39.64288656685159
 30
0.0
 11
283.6377075629169
 21
29.81906678374344
 31
0.0
  0
ARC
  5
2A3
102
{ACAD_REACTORS
330
687
102
}
330
1F
100
AcDbEntity
  8
実線
100
AcDbCircle
 10
315.6964730151806
 20
75.34945290693929
 30
0.0
 40
40.0
100
AcDbArc
 50
204.1042497819163
 51
335.8957502180837
  0
ARC
  5
2A4
102
{ACAD_REACTORS
330
687
102
}
330
1F
100
AcDbEntity
  8
実線
100
AcDbCircle
 10
315.6964730151806
 20
75.34945290693929
 30
0.0
 40
40.0
100
AcDbArc
 50
24.10424978191627
 51
155.8957502180837
  0
LINE
  5
2A5
102
{ACAD_REACTORS
330
688
102
}
330
1F
100
AcDbEntity
  8
実線
100
AcDbLine
 10
779.196473015181
 20
598.1494529069394
 30
0.0
 11
812.1964730151807
 21
598.1494529069394
 31
0.0
  0
LINE
  5
2A6
102
{ACAD_REACTORS
330
688
102
}
330
1F
100
AcDbEntity
  8
実線
100
AcDbLine
 10
779.196473015181
 20
598.1494529069394
 30
0.0
 11
753.196473015181
 21
588.9494529069391
 31
0.0
  0
LINE
  5
2A7
102
{ACAD_REACTORS
330
688
102
}
330
1F
100
AcDbEntity
  8
実線
100
AcDbLine
 10
838.1964730151807
 20
588.9494529069391
 30
0.0
 11
812.1964730151807
 21
598.1494529069394
 31
0.0
  0
LINE
  5
2A8
102
{ACAD_REACTORS
330
688
102
}
330
1F
100
AcDbEntity
  8
実線
100
AcDbLine
 10
753.196473015181
 20
588.9494529069391
 30
0.0
 11
838.1964730151807
 21
588.9494529069391
 31
0.0
  0
LINE
  5
2A9
102
{ACAD_REACTORS
330
688
102
}
330
1F
100
AcDbEntity
  8
実線
100
AcDbLine
 10
752.3964730151808
 20
475.9494529069395
 30
0.0
 11
751.696473015181
 21
472.2494529069393
 31
0.0
  0
LINE
  5
2AA
102
{ACAD_REACTORS
330
688
102
}
330
1F
100
AcDbEntity
  8
実線
100
AcDbLine
 10
839.6964730151807
 20
472.2494529069393
 30
0.0
 11
838.9964730151808
 21
475.9494529069395
 31
0.0
  0
LINE
  5
2AB
102
{ACAD_REACTORS
330
688
102
}
330
1F
100
AcDbEntity
  8
実線
100
AcDbLine
 10
751.696473015181
 20
472.2494529069393
 30
0.0
 11
839.6964730151807
 21
472.2494529069393
 31
0.0
  0
LINE
  5
2AC
102
{ACAD_REACTORS
330
688
102
}
330
1F
100
AcDbEntity
  8
実線
100
AcDbLine
 10
814.7464730151819
 20
223.4494529069393
 30
0.0
 11
814.7464730151819
 21
232.5494529069394
 31
0.0
  0
LINE
  5
2AD
102
{ACAD_REACTORS
330
688
102
}
330
1F
100
AcDbEntity
  8
実線
100
AcDbLine
 10
776.6464730151818
 20
232.5494529069394
 30
0.0
 11
776.6464730151818
 21
223.4494529069393
 31
0.0
  0
LINE
  5
2AE
102
{ACAD_REACTORS
330
688
102
}
330
1F
100
AcDbEntity
  8
実線
100
AcDbLine
 10
770.4464730151819
 20
218.3494529069394
 30
0.0
 11
820.9464730151818
 21
218.3494529069394
 31
0.0
  0
LINE
  5
2AF
102
{ACAD_REACTORS
330
688
102
}
330
1F
100
AcDbEntity
  8
実線
100
AcDbLine
 10
820.9464730151818
 20
218.3494529069394
 30
0.0
 11
820.9464730151818
 21
221.0994529069393
 31
0.0
  0
LINE
  5
2B0
102
{ACAD_REACTORS
330
688
102
}
330
1F
100
AcDbEntity
  8
実線
100
AcDbLine
 10
770.4464730151819
 20
221.0994529069393
 30
0.0
 11
770.4464730151819
 21
218.3494529069394
 31
0.0
  0
LINE
  5
2B1
102
{ACAD_REACTORS
330
688
102
}
330
1F
100
AcDbEntity
  8
実線
100
AcDbLine
 10
770.4464730151819
 20
221.0994529069393
 30
0.0
 11
820.9464730151818
 21
221.0994529069393
 31
0.0
  0
LINE
  5
2B2
102
{ACAD_REACTORS
330
688
102
}
330
1F
100
AcDbEntity
  8
実線
100
AcDbLine
 10
776.6464730151818
 20
223.4494529069393
 30
0.0
 11
814.7464730151819
 21
223.4494529069393
 31
0.0
  0
LINE
  5
2B3
102
{ACAD_REACTORS
330
688
102
}
330
1F
100
AcDbEntity
  8
実線
100
AcDbLine
 10
776.6464730151818
 20
223.4494529069393
 30
0.0
 11
770.4464730151819
 21
221.0994529069393
 31
0.0
  0
LINE
  5
2B4
102
{ACAD_REACTORS
330
688
102
}
330
1F
100
AcDbEntity
  8
実線
100
AcDbLine
 10
820.9464730151818
 20
221.0994529069393
 30
0.0
 11
814.7464730151819
 21
223.4494529069393
 31
0.0
  0
LINE
  5
2B5
102
{ACAD_REACTORS
330
688
102
}
330
1F
100
AcDbEntity
  8
実線
100
AcDbLine
 10
860.596473015182
 20
274.3994529069393
 30
0.0
 11
842.673642784066
 21
274.3994529069393
 31
0.0
  0
LINE
  5
2B6
102
{ACAD_REACTORS
330
688
102
}
330
1F
100
AcDbEntity
  8
実線
100
AcDbLine
 10
831.830885968405
 20
236.2994529069393
 30
0.0
 11
860.596473015182
 21
236.2994529069393
 31
0.0
  0
LINE
  5
2B7
102
{ACAD_REACTORS
330
688
102
}
330
1F
100
AcDbEntity
  8
実線
100
AcDbLine
 10
865.696473015182
 20
230.0994529069393
 30
0.0
 11
865.696473015182
 21
280.5994529069394
 31
0.0
  0
LINE
  5
2B8
102
{ACAD_REACTORS
330
688
102
}
330
1F
100
AcDbEntity
  8
実線
100
AcDbLine
 10
865.696473015182
 20
280.5994529069394
 30
0.0
 11
862.946473015182
 21
280.5994529069394
 31
0.0
  0
LINE
  5
2B9
102
{ACAD_REACTORS
330
688
102
}
330
1F
100
AcDbEntity
  8
実線
100
AcDbLine
 10
862.946473015182
 20
230.0994529069393
 30
0.0
 11
865.696473015182
 21
230.0994529069393
 31
0.0
  0
LINE
  5
2BA
102
{ACAD_REACTORS
330
688
102
}
330
1F
100
AcDbEntity
  8
実線
100
AcDbLine
 10
862.946473015182
 20
230.0994529069393
 30
0.0
 11
862.946473015182
 21
280.5994529069394
 31
0.0
  0
LINE
  5
2BB
102
{ACAD_REACTORS
330
688
102
}
330
1F
100
AcDbEntity
  8
実線
100
AcDbLine
 10
860.596473015182
 20
236.2994529069393
 30
0.0
 11
860.596473015182
 21
274.3994529069393
 31
0.0
  0
LINE
  5
2BC
102
{ACAD_REACTORS
330
688
102
}
330
1F
100
AcDbEntity
  8
実線
100
AcDbLine
 10
860.596473015182
 20
236.2994529069393
 30
0.0
 11
862.946473015182
 21
230.0994529069393
 31
0.0
  0
LINE
  5
2BD
102
{ACAD_REACTORS
330
688
102
}
330
1F
100
AcDbEntity
  8
実線
100
AcDbLine
 10
862.946473015182
 20
280.5994529069394
 30
0.0
 11
860.596473015182
 21
274.3994529069393
 31
0.0
  0
LINE
  5
2BE
102
{ACAD_REACTORS
330
688
102
}
330
1F
100
AcDbEntity
  8
実線
100
AcDbLine
 10
730.7964730151818
 20
236.2994529069393
 30
0.0
 11
759.5620600619588
 21
236.2994529069393
 31
0.0
  0
LINE
  5
2BF
102
{ACAD_REACTORS
330
688
102
}
330
1F
100
AcDbEntity
  8
実線
100
AcDbLine
 10
748.7193032462975
 20
274.3994529069393
 30
0.0
 11
730.7964730151818
 21
274.3994529069393
 31
0.0
  0
LINE
  5
2C0
102
{ACAD_REACTORS
330
688
102
}
330
1F
100
AcDbEntity
  8
実線
100
AcDbLine
 10
730.7964730151818
 20
274.3994529069393
 30
0.0
 11
728.4464730151819
 21
280.5994529069394
 31
0.0
  0
LINE
  5
2C1
102
{ACAD_REACTORS
330
688
102
}
330
1F
100
AcDbEntity
  8
実線
100
AcDbLine
 10
728.4464730151819
 20
230.0994529069393
 30
0.0
 11
730.7964730151818
 21
236.2994529069393
 31
0.0
  0
LINE
  5
2C2
102
{ACAD_REACTORS
330
688
102
}
330
1F
100
AcDbEntity
  8
実線
100
AcDbLine
 10
730.7964730151818
 20
274.3994529069393
 30
0.0
 11
730.7964730151818
 21
236.2994529069393
 31
0.0
  0
LINE
  5
2C3
102
{ACAD_REACTORS
330
688
102
}
330
1F
100
AcDbEntity
  8
実線
100
AcDbLine
 10
725.6964730151819
 20
230.0994529069393
 30
0.0
 11
728.4464730151819
 21
230.0994529069393
 31
0.0
  0
LINE
  5
2C4
102
{ACAD_REACTORS
330
688
102
}
330
1F
100
AcDbEntity
  8
実線
100
AcDbLine
 10
728.4464730151819
 20
280.5994529069394
 30
0.0
 11
725.6964730151819
 21
280.5994529069394
 31
0.0
  0
LINE
  5
2C5
102
{ACAD_REACTORS
330
688
102
}
330
1F
100
AcDbEntity
  8
実線
100
AcDbLine
 10
725.6964730151819
 20
230.0994529069393
 30
0.0
 11
725.6964730151819
 21
280.5994529069394
 31
0.0
  0
LINE
  5
2C6
102
{ACAD_REACTORS
330
688
102
}
330
1F
100
AcDbEntity
  8
実線
100
AcDbLine
 10
728.4464730151819
 20
230.0994529069393
 30
0.0
 11
728.4464730151819
 21
280.5994529069394
 31
0.0
  0
LINE
  5
2C7
102
{ACAD_REACTORS
330
688
102
}
330
1F
100
AcDbEntity
  8
実線
100
AcDbLine
 10
801.6964730151808
 20
296.7494529069393
 30
0.0
 11
801.6964730151808
 21
323.7494529069394
 31
0.0
  0
LINE
  5
2C8
102
{ACAD_REACTORS
330
688
102
}
330
1F
100
AcDbEntity
  8
実線
100
AcDbLine
 10
789.696473015181
 20
323.7494529069394
 30
0.0
 11
789.696473015181
 21
296.7494529069393
 31
0.0
  0
LINE
  5
2C9
102
{ACAD_REACTORS
330
688
102
}
330
1F
100
AcDbEntity
  8
実線
100
AcDbLine
 10
745.696473015181
 20
443.2494529069392
 30
0.0
 11
845.6964730151808
 21
443.2494529069392
 31
0.0
  0
LINE
  5
2CA
102
{ACAD_REACTORS
330
688
102
}
330
1F
100
AcDbEntity
  8
実線
100
AcDbLine
 10
845.6964730151808
 20
367.2494529069394
 30
0.0
 11
845.6964730151808
 21
443.2494529069393
 31
0.0
  0
LINE
  5
2CB
102
{ACAD_REACTORS
330
688
102
}
330
1F
100
AcDbEntity
  8
実線
100
AcDbLine
 10
745.696473015181
 20
443.2494529069392
 30
0.0
 11
745.696473015181
 21
367.2494529069394
 31
0.0
  0
LINE
  5
2CC
102
{ACAD_REACTORS
330
688
102
}
330
1F
100
AcDbEntity
  8
実線
100
AcDbLine
 10
745.696473015181
 20
367.2494529069394
 30
0.0
 11
845.6964730151808
 21
367.2494529069394
 31
0.0
  0
LINE
  5
2CD
102
{ACAD_REACTORS
330
688
102
}
330
1F
100
AcDbEntity
  8
実線
100
AcDbLine
 10
760.696473015181
 20
459.2494529069393
 30
0.0
 11
830.6964730151808
 21
459.2494529069393
 31
0.0
  0
LINE
  5
2CE
102
{ACAD_REACTORS
330
688
102
}
330
1F
100
AcDbEntity
  8
実線
100
AcDbLine
 10
830.6964730151808
 20
447.7494529069393
 30
0.0
 11
830.6964730151808
 21
459.2494529069393
 31
0.0
  0
LINE
  5
2CF
102
{ACAD_REACTORS
330
688
102
}
330
1F
100
AcDbEntity
  8
実線
100
AcDbLine
 10
760.696473015181
 20
459.2494529069393
 30
0.0
 11
760.696473015181
 21
447.7494529069393
 31
0.0
  0
LINE
  5
2D0
102
{ACAD_REACTORS
330
688
102
}
330
1F
100
AcDbEntity
  8
実線
100
AcDbLine
 10
808.6964730151807
 20
459.2494529069393
 30
0.0
 11
808.6964730151807
 21
472.2494529069393
 31
0.0
  0
LINE
  5
2D1
102
{ACAD_REACTORS
330
688
102
}
330
1F
100
AcDbEntity
  8
実線
100
AcDbLine
 10
782.696473015181
 20
472.2494529069393
 30
0.0
 11
782.696473015181
 21
459.2494529069393
 31
0.0
  0
LINE
  5
2D2
102
{ACAD_REACTORS
330
688
102
}
330
1F
100
AcDbEntity
  8
実線
100
AcDbLine
 10
752.3964730151808
 20
511.9494529069394
 30
0.0
 11
838.9964730151808
 21
511.9494529069394
 31
0.0
  0
LINE
  5
2D3
102
{ACAD_REACTORS
330
688
102
}
330
1F
100
AcDbEntity
  8
実線
100
AcDbLine
 10
838.9964730151808
 20
475.9494529069395
 30
0.0
 11
838.9964730151808
 21
511.9494529069394
 31
0.0
  0
LINE
  5
2D4
102
{ACAD_REACTORS
330
688
102
}
330
1F
100
AcDbEntity
  8
実線
100
AcDbLine
 10
752.3964730151808
 20
511.9494529069394
 30
0.0
 11
752.3964730151808
 21
475.9494529069395
 31
0.0
  0
LINE
  5
2D5
102
{ACAD_REACTORS
330
688
102
}
330
1F
100
AcDbEntity
  8
実線
100
AcDbLine
 10
752.3964730151808
 20
475.9494529069395
 30
0.0
 11
838.9964730151808
 21
475.9494529069395
 31
0.0
  0
LINE
  5
2D6
102
{ACAD_REACTORS
330
688
102
}
330
1F
100
AcDbEntity
  8
実線
100
AcDbLine
 10
838.1964730151807
 20
511.9494529069394
 30
0.0
 11
838.1964730151807
 21
588.9494529069394
 31
0.0
  0
LINE
  5
2D7
102
{ACAD_REACTORS
330
688
102
}
330
1F
100
AcDbEntity
  8
実線
100
AcDbLine
 10
753.196473015181
 20
588.9494529069394
 30
0.0
 11
753.196473015181
 21
511.9494529069394
 31
0.0
  0
ARC
  5
2D8
102
{ACAD_REACTORS
330
688
102
}
330
1F
100
AcDbEntity
  8
実線
100
AcDbCircle
 10
819.3964730151808
 20
337.7494529069394
 30
0.0
 40
57.99999999999997
100
AcDbArc
 50
193.9679626746511
 51
224.9829679599013
  0
LINE
  5
2D9
102
{ACAD_REACTORS
330
688
102
}
330
1F
100
AcDbEntity
  8
実線
100
AcDbLine
 10
751.3964730151808
 20
367.2494529069394
 30
0.0
 11
751.3964730151808
 21
337.7494529069394
 31
0.0
  0
ARC
  5
2DA
102
{ACAD_REACTORS
330
688
102
}
330
1F
100
AcDbEntity
  8
実線
100
AcDbCircle
 10
821.3964730151808
 20
337.7494529069394
 30
0.0
 40
70.00000000000003
100
AcDbArc
 50
180.0
 51
215.8534670634641
  0
ARC
  5
2DB
102
{ACAD_REACTORS
330
688
102
}
330
1F
100
AcDbEntity
  8
実線
100
AcDbCircle
 10
771.9964730151819
 20
337.7494529069394
 30
0.0
 40
57.99999999999997
100
AcDbArc
 50
315.0170320400987
 51
346.0320373253488
  0
LINE
  5
2DC
102
{ACAD_REACTORS
330
688
102
}
330
1F
100
AcDbEntity
  8
実線
100
AcDbLine
 10
839.9964730151808
 20
367.2494529069394
 30
0.0
 11
839.9964730151808
 21
337.7494529069394
 31
0.0
  0
ARC
  5
2DD
102
{ACAD_REACTORS
330
688
102
}
330
1F
100
AcDbEntity
  8
実線
100
AcDbCircle
 10
769.9964730151809
 20
337.7494529069394
 30
0.0
 40
70.00000000000003
100
AcDbArc
 50
324.146532936536
 51
0.0
  0
LINE
  5
2DE
102
{ACAD_REACTORS
330
688
102
}
330
1F
100
AcDbEntity
  8
実線
100
AcDbLine
 10
757.3110916832209
 20
323.7494529069394
 30
0.0
 11
834.081854347141
 21
323.7494529069394
 31
0.0
  0
LINE
  5
2DF
102
{ACAD_REACTORS
330
688
102
}
330
1F
100
AcDbEntity
  8
実線
100
AcDbLine
 10
834.081854347141
 20
367.2494529069394
 30
0.0
 11
834.081854347141
 21
323.7494529069394
 31
0.0
  0
LINE
  5
2E0
102
{ACAD_REACTORS
330
688
102
}
330
1F
100
AcDbEntity
  8
実線
100
AcDbLine
 10
757.3110916832209
 20
367.2494529069394
 30
0.0
 11
757.3110916832209
 21
323.7494529069394
 31
0.0
  0
LINE
  5
2E1
102
{ACAD_REACTORS
330
688
102
}
330
1F
100
AcDbEntity
  8
実線
100
AcDbLine
 10
748.7193032462966
 20
283.2494529069393
 30
0.0
 11
842.6736427840646
 21
283.2494529069393
 31
0.0
  0
LINE
  5
2E2
102
{ACAD_REACTORS
330
688
102
}
330
1F
100
AcDbEntity
  8
実線
100
AcDbLine
 10
748.7193032462966
 20
296.7494529069393
 30
0.0
 11
842.6736427840646
 21
296.7494529069393
 31
0.0
  0
LINE
  5
2E3
102
{ACAD_REACTORS
330
688
102
}
330
1F
100
AcDbEntity
  8
実線
100
AcDbLine
 10
842.6736427840646
 20
283.2494529069393
 30
0.0
 11
842.6736427840646
 21
296.7494529069393
 31
0.0
  0
LINE
  5
2E4
102
{ACAD_REACTORS
330
688
102
}
330
1F
100
AcDbEntity
  8
実線
100
AcDbLine
 10
748.7193032462966
 20
296.7494529069393
 30
0.0
 11
748.7193032462966
 21
283.2494529069393
 31
0.0
  0
LINE
  5
2E5
102
{ACAD_REACTORS
330
688
102
}
330
1F
100
AcDbEntity
  8
実線
100
AcDbLine
 10
777.6675762047569
 20
296.7494529069393
 30
0.0
 11
777.6675762047569
 21
283.2494529069393
 31
0.0
  0
LINE
  5
2E6
102
{ACAD_REACTORS
330
688
102
}
330
1F
100
AcDbEntity
  8
実線
100
AcDbLine
 10
813.7253698256049
 20
296.7494529069393
 30
0.0
 11
813.7253698256049
 21
283.2494529069393
 31
0.0
  0
LINE
  5
2E7
102
{ACAD_REACTORS
330
688
102
}
330
1F
100
AcDbEntity
  8
実線
100
AcDbLine
 10
845.6964730151808
 20
443.2494529069393
 30
0.0
 11
845.6964730151808
 21
444.7494529069392
 31
0.0
  0
LINE
  5
2E8
102
{ACAD_REACTORS
330
688
102
}
330
1F
100
AcDbEntity
  8
実線
100
AcDbLine
 10
745.696473015181
 20
444.7494529069392
 30
0.0
 11
745.696473015181
 21
443.2494529069393
 31
0.0
  0
LINE
  5
2E9
102
{ACAD_REACTORS
330
688
102
}
330
1F
100
AcDbEntity
  8
実線
100
AcDbLine
 10
748.696473015181
 20
447.7494529069393
 30
0.0
 11
842.6964730139358
 21
447.7494529069393
 31
0.0
  0
ARC
  5
2EA
102
{ACAD_REACTORS
330
688
102
}
330
1F
100
AcDbEntity
  8
実線
100
AcDbCircle
 10
842.6964730151807
 20
444.7494529069392
 30
0.0
 40
3.0
100
AcDbArc
 50
0.0
 51
90.0
  0
ARC
  5
2EB
102
{ACAD_REACTORS
330
688
102
}
330
1F
100
AcDbEntity
  8
実線
100
AcDbCircle
 10
748.696473015181
 20
444.7494529069392
 30
0.0
 40
3.0
100
AcDbArc
 50
90.0
 51
180.0
  0
LINE
  5
2EC
102
{ACAD_REACTORS
330
688
102
}
330
1F
100
AcDbEntity
  8
実線
100
AcDbLine
 10
822.6964730151818
 20
232.5494529069394
 30
0.0
 11
768.69647301646
 21
232.5494529069394
 31
0.0
  0
ARC
  5
2ED
102
{ACAD_REACTORS
330
688
102
}
330
1F
100
AcDbEntity
  8
実線
100
AcDbCircle
 10
768.6964730151819
 20
245.5494529069393
 30
0.0
 40
13.0
100
AcDbArc
 50
225.3602270413955
 51
270.0
  0
ARC
  5
2EE
102
{ACAD_REACTORS
330
688
102
}
330
1F
100
AcDbEntity
  8
実線
100
AcDbCircle
 10
822.6964730151818
 20
245.5494529069393
 30
0.0
 40
13.0
100
AcDbArc
 50
270.0
 51
314.6397729586045
  0
LINE
  5
2EF
102
{ACAD_REACTORS
330
688
102
}
330
1F
100
AcDbEntity
  8
実線
100
AcDbLine
 10
842.673642784066
 20
273.2494529069393
 30
0.0
 11
813.7253698256058
 21
273.2494529069393
 31
0.0
  0
LINE
  5
2F0
102
{ACAD_REACTORS
330
688
102
}
330
1F
100
AcDbEntity
  8
実線
100
AcDbLine
 10
842.673642784066
 20
273.2494529069393
 30
0.0
 11
842.673642784066
 21
283.2494529069393
 31
0.0
  0
LINE
  5
2F1
102
{ACAD_REACTORS
330
688
102
}
330
1F
100
AcDbEntity
  8
実線
100
AcDbLine
 10
748.7193032462975
 20
283.2494529069393
 30
0.0
 11
748.7193032462975
 21
273.2494529069393
 31
0.0
  0
LINE
  5
2F2
102
{ACAD_REACTORS
330
688
102
}
330
1F
100
AcDbEntity
  8
実線
100
AcDbLine
 10
748.7193032462975
 20
273.2494529069393
 30
0.0
 11
777.667576204758
 21
273.2494529069393
 31
0.0
  0
LINE
  5
2F3
102
{ACAD_REACTORS
330
688
102
}
330
1F
100
AcDbEntity
  8
実線
100
AcDbLine
 10
777.667576204758
 20
283.2494529069393
 30
0.0
 11
777.667576204758
 21
273.2494529069393
 31
0.0
  0
LINE
  5
2F4
102
{ACAD_REACTORS
330
688
102
}
330
1F
100
AcDbEntity
  8
実線
100
AcDbLine
 10
813.7253698256058
 20
283.2494529069393
 30
0.0
 11
813.7253698256058
 21
273.2494529069393
 31
0.0
  0
LINE
  5
2F5
102
{ACAD_REACTORS
330
689
102
}
330
1F
100
AcDbEntity
  8
実線
100
AcDbLine
 10
513.1964730151809
 20
588.9494529069391
 30
0.0
 11
598.1964730151808
 21
588.9494529069391
 31
0.0
  0
LINE
  5
2F6
102
{ACAD_REACTORS
330
689
102
}
330
1F
100
AcDbEntity
  8
実線
100
AcDbLine
 10
572.1964730151809
 20
598.1494529069394
 30
0.0
 11
539.1964730151808
 21
598.1494529069394
 31
0.0
  0
LINE
  5
2F7
102
{ACAD_REACTORS
330
689
102
}
330
1F
100
AcDbEntity
  8
実線
100
AcDbLine
 10
539.1964730151808
 20
598.1494529069394
 30
0.0
 11
513.1964730151806
 21
588.9494529069391
 31
0.0
  0
LINE
  5
2F8
102
{ACAD_REACTORS
330
689
102
}
330
1F
100
AcDbEntity
  8
実線
100
AcDbLine
 10
598.1964730151808
 20
588.9494529069391
 30
0.0
 11
572.1964730151809
 21
598.1494529069394
 31
0.0
  0
LINE
  5
2F9
102
{ACAD_REACTORS
330
689
102
}
330
1F
100
AcDbEntity
  8
実線
100
AcDbLine
 10
511.6964730151809
 20
472.2494529069393
 30
0.0
 11
599.6964730151806
 21
472.2494529069393
 31
0.0
  0
LINE
  5
2FA
102
{ACAD_REACTORS
330
689
102
}
330
1F
100
AcDbEntity
  8
実線
100
AcDbLine
 10
512.3964730151808
 20
475.9494529069395
 30
0.0
 11
511.6964730151809
 21
472.2494529069393
 31
0.0
  0
LINE
  5
2FB
102
{ACAD_REACTORS
330
689
102
}
330
1F
100
AcDbEntity
  8
実線
100
AcDbLine
 10
599.6964730151806
 20
472.2494529069393
 30
0.0
 11
598.9964730151807
 21
475.9494529069395
 31
0.0
  0
LINE
  5
2FC
102
{ACAD_REACTORS
330
689
102
}
330
1F
100
AcDbEntity
  8
実線
100
AcDbLine
 10
574.7464730151814
 20
223.4494529069393
 30
0.0
 11
574.7464730151814
 21
232.5494529069394
 31
0.0
  0
LINE
  5
2FD
102
{ACAD_REACTORS
330
689
102
}
330
1F
100
AcDbEntity
  8
実線
100
AcDbLine
 10
536.6464730151815
 20
232.5494529069394
 30
0.0
 11
536.6464730151815
 21
223.4494529069393
 31
0.0
  0
LINE
  5
2FE
102
{ACAD_REACTORS
330
689
102
}
330
1F
100
AcDbEntity
  8
実線
100
AcDbLine
 10
574.7464730151814
 20
223.4494529069393
 30
0.0
 11
536.6464730151815
 21
223.4494529069393
 31
0.0
  0
LINE
  5
2FF
102
{ACAD_REACTORS
330
689
102
}
330
1F
100
AcDbEntity
  8
実線
100
AcDbLine
 10
536.6464730151815
 20
223.4494529069393
 30
0.0
 11
530.4464730151814
 21
221.0994529069393
 31
0.0
  0
LINE
  5
300
102
{ACAD_REACTORS
330
689
102
}
330
1F
100
AcDbEntity
  8
実線
100
AcDbLine
 10
580.9464730151811
 20
221.0994529069393
 30
0.0
 11
574.7464730151814
 21
223.4494529069393
 31
0.0
  0
LINE
  5
301
102
{ACAD_REACTORS
330
689
102
}
330
1F
100
AcDbEntity
  8
実線
100
AcDbLine
 10
580.9464730151811
 20
218.3494529069394
 30
0.0
 11
530.4464730151814
 21
218.3494529069394
 31
0.0
  0
LINE
  5
302
102
{ACAD_REACTORS
330
689
102
}
330
1F
100
AcDbEntity
  8
実線
100
AcDbLine
 10
580.9464730151811
 20
221.0994529069393
 30
0.0
 11
530.4464730151814
 21
221.0994529069393
 31
0.0
  0
LINE
  5
303
102
{ACAD_REACTORS
330
689
102
}
330
1F
100
AcDbEntity
  8
実線
100
AcDbLine
 10
580.9464730151811
 20
218.3494529069394
 30
0.0
 11
580.9464730151811
 21
221.0994529069393
 31
0.0
  0
LINE
  5
304
102
{ACAD_REACTORS
330
689
102
}
330
1F
100
AcDbEntity
  8
実線
100
AcDbLine
 10
530.4464730151814
 20
221.0994529069393
 30
0.0
 11
530.4464730151814
 21
218.3494529069394
 31
0.0
  0
CIRCLE
  5
305
102
{ACAD_REACTORS
330
689
102
}
330
1F
100
AcDbEntity
  8
実線
100
AcDbCircle
 10
555.6964730151815
 20
255.3494529069393
 30
0.0
 40
25.25
  0
LINE
  5
306
102
{ACAD_REACTORS
330
689
102
}
330
1F
100
AcDbEntity
  8
実線
100
AcDbLine
 10
605.6964730151804
 20
443.2494529069392
 30
0.0
 11
505.6964730151809
 21
443.2494529069392
 31
0.0
  0
LINE
  5
307
102
{ACAD_REACTORS
330
689
102
}
330
1F
100
AcDbEntity
  8
実線
100
AcDbLine
 10
505.6964730151809
 20
367.2494529069394
 30
0.0
 11
605.6964730151804
 21
367.2494529069394
 31
0.0
  0
LINE
  5
308
102
{ACAD_REACTORS
330
689
102
}
330
1F
100
AcDbEntity
  8
実線
100
AcDbLine
 10
605.6964730151804
 20
367.2494529069394
 30
0.0
 11
605.6964730151804
 21
443.2494529069393
 31
0.0
  0
LINE
  5
309
102
{ACAD_REACTORS
330
689
102
}
330
1F
100
AcDbEntity
  8
実線
100
AcDbLine
 10
505.6964730151809
 20
443.2494529069392
 30
0.0
 11
505.6964730151809
 21
367.2494529069394
 31
0.0
  0
LINE
  5
30A
102
{ACAD_REACTORS
330
689
102
}
330
1F
100
AcDbEntity
  8
実線
100
AcDbLine
 10
590.6964730151806
 20
459.2494529069393
 30
0.0
 11
520.6964730151809
 21
459.2494529069393
 31
0.0
  0
LINE
  5
30B
102
{ACAD_REACTORS
330
689
102
}
330
1F
100
AcDbEntity
  8
実線
100
AcDbLine
 10
590.6964730151806
 20
447.7494529069393
 30
0.0
 11
590.6964730151806
 21
459.2494529069393
 31
0.0
  0
LINE
  5
30C
102
{ACAD_REACTORS
330
689
102
}
330
1F
100
AcDbEntity
  8
実線
100
AcDbLine
 10
520.6964730151809
 20
459.2494529069393
 30
0.0
 11
520.6964730151809
 21
447.7494529069393
 31
0.0
  0
LINE
  5
30D
102
{ACAD_REACTORS
330
689
102
}
330
1F
100
AcDbEntity
  8
実線
100
AcDbLine
 10
568.6964730151808
 20
459.2494529069393
 30
0.0
 11
568.6964730151808
 21
472.2494529069393
 31
0.0
  0
LINE
  5
30E
102
{ACAD_REACTORS
330
689
102
}
330
1F
100
AcDbEntity
  8
実線
100
AcDbLine
 10
542.6964730151809
 20
472.2494529069393
 30
0.0
 11
542.6964730151809
 21
459.2494529069393
 31
0.0
  0
LINE
  5
30F
102
{ACAD_REACTORS
330
689
102
}
330
1F
100
AcDbEntity
  8
実線
100
AcDbLine
 10
598.9964730151807
 20
511.9494529069394
 30
0.0
 11
512.3964730151808
 21
511.9494529069394
 31
0.0
  0
LINE
  5
310
102
{ACAD_REACTORS
330
689
102
}
330
1F
100
AcDbEntity
  8
実線
100
AcDbLine
 10
512.3964730151808
 20
475.9494529069395
 30
0.0
 11
598.9964730151807
 21
475.9494529069395
 31
0.0
  0
LINE
  5
311
102
{ACAD_REACTORS
330
689
102
}
330
1F
100
AcDbEntity
  8
実線
100
AcDbLine
 10
598.9964730151807
 20
475.9494529069395
 30
0.0
 11
598.9964730151807
 21
511.9494529069394
 31
0.0
  0
LINE
  5
312
102
{ACAD_REACTORS
330
689
102
}
330
1F
100
AcDbEntity
  8
実線
100
AcDbLine
 10
512.3964730151808
 20
511.9494529069394
 30
0.0
 11
512.3964730151808
 21
475.9494529069395
 31
0.0
  0
LINE
  5
313
102
{ACAD_REACTORS
330
689
102
}
330
1F
100
AcDbEntity
  8
実線
100
AcDbLine
 10
598.1964730151807
 20
511.9494529069394
 30
0.0
 11
598.1964730151807
 21
588.9494529069394
 31
0.0
  0
LINE
  5
314
102
{ACAD_REACTORS
330
689
102
}
330
1F
100
AcDbEntity
  8
実線
100
AcDbLine
 10
513.1964730151809
 20
588.9494529069394
 30
0.0
 11
513.1964730151809
 21
511.9494529069394
 31
0.0
  0
LINE
  5
315
102
{ACAD_REACTORS
330
689
102
}
330
1F
100
AcDbEntity
  8
実線
100
AcDbLine
 10
566.9464730151808
 20
323.7494529069394
 30
0.0
 11
595.6964730151805
 21
323.7494529069394
 31
0.0
  0
LINE
  5
316
102
{ACAD_REACTORS
330
689
102
}
330
1F
100
AcDbEntity
  8
実線
100
AcDbLine
 10
595.6964730151805
 20
323.7494529069394
 30
0.0
 11
595.6964730151805
 21
367.2494529069394
 31
0.0
  0
LINE
  5
317
102
{ACAD_REACTORS
330
689
102
}
330
1F
100
AcDbEntity
  8
実線
100
AcDbLine
 10
515.6964730151806
 20
367.2494529069394
 30
0.0
 11
515.6964730151806
 21
323.7494529069394
 31
0.0
  0
LINE
  5
318
102
{ACAD_REACTORS
330
689
102
}
330
1F
100
AcDbEntity
  8
実線
100
AcDbLine
 10
515.6964730151806
 20
323.7494529069394
 30
0.0
 11
544.4464730151809
 21
323.7494529069394
 31
0.0
  0
LINE
  5
319
102
{ACAD_REACTORS
330
689
102
}
330
1F
100
AcDbEntity
  8
実線
100
AcDbLine
 10
544.4464730151809
 20
296.7494529069393
 30
0.0
 11
544.4464730151809
 21
367.2494529069394
 31
0.0
  0
LINE
  5
31A
102
{ACAD_REACTORS
330
689
102
}
330
1F
100
AcDbEntity
  8
実線
100
AcDbLine
 10
566.9464730151808
 20
296.7494529069393
 30
0.0
 11
566.9464730151808
 21
367.2494529069394
 31
0.0
  0
LINE
  5
31B
102
{ACAD_REACTORS
330
689
102
}
330
1F
100
AcDbEntity
  8
実線
100
AcDbLine
 10
602.6736427840647
 20
296.7494529069393
 30
0.0
 11
508.7193032462969
 21
296.7494529069393
 31
0.0
  0
LINE
  5
31C
102
{ACAD_REACTORS
330
689
102
}
330
1F
100
AcDbEntity
  8
実線
100
AcDbLine
 10
602.6736427840647
 20
283.2494529069393
 30
0.0
 11
508.7193032462969
 21
283.2494529069393
 31
0.0
  0
LINE
  5
31D
102
{ACAD_REACTORS
330
689
102
}
330
1F
100
AcDbEntity
  8
実線
100
AcDbLine
 10
508.7193032462969
 20
296.7494529069393
 30
0.0
 11
508.7193032462969
 21
283.2494529069393
 31
0.0
  0
LINE
  5
31E
102
{ACAD_REACTORS
330
689
102
}
330
1F
100
AcDbEntity
  8
実線
100
AcDbLine
 10
602.6736427840647
 20
283.2494529069393
 30
0.0
 11
602.6736427840647
 21
296.7494529069393
 31
0.0
  0
LINE
  5
31F
102
{ACAD_REACTORS
330
689
102
}
330
1F
100
AcDbEntity
  8
実線
100
AcDbLine
 10
537.6675762047565
 20
296.7494529069393
 30
0.0
 11
537.6675762047565
 21
283.2494529069393
 31
0.0
  0
LINE
  5
320
102
{ACAD_REACTORS
330
689
102
}
330
1F
100
AcDbEntity
  8
実線
100
AcDbLine
 10
573.7253698256047
 20
296.7494529069393
 30
0.0
 11
573.7253698256047
 21
283.2494529069393
 31
0.0
  0
LINE
  5
321
102
{ACAD_REACTORS
330
689
102
}
330
1F
100
AcDbEntity
  8
実線
100
AcDbLine
 10
602.6964730151806
 20
447.7494529069393
 30
0.0
 11
508.6964730151806
 21
447.7494529069393
 31
0.0
  0
ARC
  5
322
102
{ACAD_REACTORS
330
689
102
}
330
1F
100
AcDbEntity
  8
実線
100
AcDbCircle
 10
602.6964730151806
 20
444.7494529069392
 30
0.0
 40
3.0
100
AcDbArc
 50
0.0
 51
90.0
  0
ARC
  5
323
102
{ACAD_REACTORS
330
689
102
}
330
1F
100
AcDbEntity
  8
実線
100
AcDbCircle
 10
508.6964730151806
 20
444.7494529069392
 30
0.0
 40
3.0
100
AcDbArc
 50
90.0
 51
180.0
  0
LINE
  5
324
102
{ACAD_REACTORS
330
689
102
}
330
1F
100
AcDbEntity
  8
実線
100
AcDbLine
 10
605.6964730151804
 20
443.2494529069393
 30
0.0
 11
605.6964730151804
 21
444.7494529069392
 31
0.0
  0
LINE
  5
325
102
{ACAD_REACTORS
330
689
102
}
330
1F
100
AcDbEntity
  8
実線
100
AcDbLine
 10
505.6964730151809
 20
444.7494529069392
 30
0.0
 11
505.6964730151809
 21
443.2494529069393
 31
0.0
  0
LINE
  5
326
102
{ACAD_REACTORS
330
689
102
}
330
1F
100
AcDbEntity
  8
実線
100
AcDbLine
 10
544.8464730151814
 20
232.5494529069394
 30
0.0
 11
528.6964730151814
 21
232.5494529069394
 31
0.0
  0
LINE
  5
327
102
{ACAD_REACTORS
330
689
102
}
330
1F
100
AcDbEntity
  8
実線
100
AcDbLine
 10
582.6964730151811
 20
232.5494529069394
 30
0.0
 11
566.5464730151817
 21
232.5494529069394
 31
0.0
  0
ARC
  5
328
102
{ACAD_REACTORS
330
689
102
}
330
1F
100
AcDbEntity
  8
実線
100
AcDbCircle
 10
528.6964730151814
 20
245.5494529069393
 30
0.0
 40
13.0
100
AcDbArc
 50
180.0
 51
270.0
  0
ARC
  5
329
102
{ACAD_REACTORS
330
689
102
}
330
1F
100
AcDbEntity
  8
実線
100
AcDbCircle
 10
582.6964730151811
 20
245.5494529069393
 30
0.0
 40
13.0
100
AcDbArc
 50
270.0
 51
0.0
  0
LINE
  5
32A
102
{ACAD_REACTORS
330
689
102
}
330
1F
100
AcDbEntity
  8
実線
100
AcDbLine
 10
595.6964730151814
 20
245.5494529069393
 30
0.0
 11
595.6964730151814
 21
273.2494529069393
 31
0.0
  0
LINE
  5
32B
102
{ACAD_REACTORS
330
689
102
}
330
1F
100
AcDbEntity
  8
実線
100
AcDbLine
 10
515.6964730151811
 20
273.2494529069393
 30
0.0
 11
515.6964730151811
 21
245.5494529069393
 31
0.0
  0
LINE
  5
32C
102
{ACAD_REACTORS
330
689
102
}
330
1F
100
AcDbEntity
  8
実線
100
AcDbLine
 10
508.7193032462978
 20
283.2494529069393
 30
0.0
 11
508.7193032462978
 21
273.2494529069393
 31
0.0
  0
LINE
  5
32D
102
{ACAD_REACTORS
330
689
102
}
330
1F
100
AcDbEntity
  8
実線
100
AcDbLine
 10
508.7193032462978
 20
273.2494529069393
 30
0.0
 11
537.6675762047574
 21
273.2494529069393
 31
0.0
  0
LINE
  5
32E
102
{ACAD_REACTORS
330
689
102
}
330
1F
100
AcDbEntity
  8
実線
100
AcDbLine
 10
602.6736427840653
 20
273.2494529069393
 30
0.0
 11
573.7253698256056
 21
273.2494529069393
 31
0.0
  0
LINE
  5
32F
102
{ACAD_REACTORS
330
689
102
}
330
1F
100
AcDbEntity
  8
実線
100
AcDbLine
 10
602.6736427840653
 20
273.2494529069393
 30
0.0
 11
602.6736427840653
 21
283.2494529069393
 31
0.0
  0
LINE
  5
330
102
{ACAD_REACTORS
330
689
102
}
330
1F
100
AcDbEntity
  8
実線
100
AcDbLine
 10
537.6675762047574
 20
283.2494529069393
 30
0.0
 11
537.6675762047574
 21
273.2494529069393
 31
0.0
  0
LINE
  5
331
102
{ACAD_REACTORS
330
689
102
}
330
1F
100
AcDbEntity
  8
実線
100
AcDbLine
 10
573.7253698256056
 20
283.2494529069393
 30
0.0
 11
573.7253698256056
 21
273.2494529069393
 31
0.0
  0
LINE
  5
332
102
{ACAD_REACTORS
330
68B
102
}
330
1F
100
AcDbEntity
  8
実線
100
AcDbLine
 10
59.19647301518216
 20
598.1494529069394
 30
0.0
 11
33.19647301518216
 21
588.9494529069391
 31
0.0
  0
LINE
  5
333
102
{ACAD_REACTORS
330
68B
102
}
330
1F
100
AcDbEntity
  8
実線
100
AcDbLine
 10
118.1964730151823
 20
588.9494529069391
 30
0.0
 11
92.19647301518216
 21
598.1494529069394
 31
0.0
  0
LINE
  5
334
102
{ACAD_REACTORS
330
68B
102
}
330
1F
100
AcDbEntity
  8
実線
100
AcDbLine
 10
33.19647301518216
 20
588.9494529069391
 30
0.0
 11
118.1964730151823
 21
588.9494529069391
 31
0.0
  0
LINE
  5
335
102
{ACAD_REACTORS
330
68B
102
}
330
1F
100
AcDbEntity
  8
実線
100
AcDbLine
 10
92.19647301518216
 20
598.1494529069394
 30
0.0
 11
59.19647301518216
 21
598.1494529069394
 31
0.0
  0
LINE
  5
336
102
{ACAD_REACTORS
330
68B
102
}
330
1F
100
AcDbEntity
  8
実線
100
AcDbLine
 10
32.39647301518221
 20
475.9494529069395
 30
0.0
 11
31.69647301518216
 21
472.2494529069393
 31
0.0
  0
LINE
  5
337
102
{ACAD_REACTORS
330
68B
102
}
330
1F
100
AcDbEntity
  8
実線
100
AcDbLine
 10
119.6964730151821
 20
472.2494529069393
 30
0.0
 11
118.9964730151823
 21
475.9494529069395
 31
0.0
  0
LINE
  5
338
102
{ACAD_REACTORS
330
68B
102
}
330
1F
100
AcDbEntity
  8
実線
100
AcDbLine
 10
31.69647301518216
 20
472.2494529069393
 30
0.0
 11
119.6964730151821
 21
472.2494529069393
 31
0.0
  0
LINE
  5
339
102
{ACAD_REACTORS
330
68B
102
}
330
1F
100
AcDbEntity
  8
実線
100
AcDbLine
 10
94.74647301518137
 20
223.4494529069393
 30
0.0
 11
94.74647301518137
 21
232.5494529069394
 31
0.0
  0
LINE
  5
33A
102
{ACAD_REACTORS
330
68B
102
}
330
1F
100
AcDbEntity
  8
実線
100
AcDbLine
 10
56.64647301518141
 20
232.5494529069394
 30
0.0
 11
56.64647301518141
 21
223.4494529069393
 31
0.0
  0
LINE
  5
33B
102
{ACAD_REACTORS
330
68B
102
}
330
1F
100
AcDbEntity
  8
実線
100
AcDbLine
 10
56.64647301518141
 20
223.4494529069393
 30
0.0
 11
50.44647301518137
 21
221.0994529069393
 31
0.0
  0
LINE
  5
33C
102
{ACAD_REACTORS
330
68B
102
}
330
1F
100
AcDbEntity
  8
実線
100
AcDbLine
 10
100.9464730151813
 20
221.0994529069393
 30
0.0
 11
94.74647301518137
 21
223.4494529069393
 31
0.0
  0
LINE
  5
33D
102
{ACAD_REACTORS
330
68B
102
}
330
1F
100
AcDbEntity
  8
実線
100
AcDbLine
 10
56.64647301518141
 20
223.4494529069393
 30
0.0
 11
94.74647301518137
 21
223.4494529069393
 31
0.0
  0
LINE
  5
33E
102
{ACAD_REACTORS
330
68B
102
}
330
1F
100
AcDbEntity
  8
実線
100
AcDbLine
 10
100.9464730151813
 20
218.3494529069394
 30
0.0
 11
100.9464730151813
 21
221.0994529069393
 31
0.0
  0
LINE
  5
33F
102
{ACAD_REACTORS
330
68B
102
}
330
1F
100
AcDbEntity
  8
実線
100
AcDbLine
 10
50.44647301518137
 20
221.0994529069393
 30
0.0
 11
50.44647301518137
 21
218.3494529069394
 31
0.0
  0
LINE
  5
340
102
{ACAD_REACTORS
330
68B
102
}
330
1F
100
AcDbEntity
  8
実線
100
AcDbLine
 10
50.44647301518137
 20
218.3494529069394
 30
0.0
 11
100.9464730151813
 21
218.3494529069394
 31
0.0
  0
LINE
  5
341
102
{ACAD_REACTORS
330
68B
102
}
330
1F
100
AcDbEntity
  8
実線
100
AcDbLine
 10
50.44647301518137
 20
221.0994529069393
 30
0.0
 11
100.9464730151813
 21
221.0994529069393
 31
0.0
  0
CIRCLE
  5
342
102
{ACAD_REACTORS
330
68B
102
}
330
1F
100
AcDbEntity
  8
実線
100
AcDbCircle
 10
75.69647301518137
 20
255.3494529069393
 30
0.0
 40
25.25
  0
LINE
  5
343
102
{ACAD_REACTORS
330
68B
102
}
330
1F
100
AcDbEntity
  8
実線
100
AcDbLine
 10
125.6964730151821
 20
367.2494529069394
 30
0.0
 11
125.6964730151821
 21
443.2494529069393
 31
0.0
  0
LINE
  5
344
102
{ACAD_REACTORS
330
68B
102
}
330
1F
100
AcDbEntity
  8
実線
100
AcDbLine
 10
25.69647301518216
 20
443.2494529069392
 30
0.0
 11
25.69647301518216
 21
367.2494529069394
 31
0.0
  0
LINE
  5
345
102
{ACAD_REACTORS
330
68B
102
}
330
1F
100
AcDbEntity
  8
実線
100
AcDbLine
 10
125.6964730151821
 20
443.2494529069392
 30
0.0
 11
25.69647301518216
 21
443.2494529069392
 31
0.0
  0
LINE
  5
346
102
{ACAD_REACTORS
330
68B
102
}
330
1F
100
AcDbEntity
  8
実線
100
AcDbLine
 10
25.69647301518216
 20
367.2494529069394
 30
0.0
 11
125.6964730151821
 21
367.2494529069394
 31
0.0
  0
LINE
  5
347
102
{ACAD_REACTORS
330
68B
102
}
330
1F
100
AcDbEntity
  8
実線
100
AcDbLine
 10
110.6964730151821
 20
447.7494529069393
 30
0.0
 11
110.6964730151821
 21
459.2494529069393
 31
0.0
  0
LINE
  5
348
102
{ACAD_REACTORS
330
68B
102
}
330
1F
100
AcDbEntity
  8
実線
100
AcDbLine
 10
40.69647301518216
 20
459.2494529069393
 30
0.0
 11
40.69647301518216
 21
447.7494529069393
 31
0.0
  0
LINE
  5
349
102
{ACAD_REACTORS
330
68B
102
}
330
1F
100
AcDbEntity
  8
実線
100
AcDbLine
 10
110.6964730151821
 20
459.2494529069393
 30
0.0
 11
40.69647301518216
 21
459.2494529069393
 31
0.0
  0
LINE
  5
34A
102
{ACAD_REACTORS
330
68B
102
}
330
1F
100
AcDbEntity
  8
実線
100
AcDbLine
 10
88.69647301518217
 20
459.2494529069393
 30
0.0
 11
88.69647301518217
 21
472.2494529069393
 31
0.0
  0
LINE
  5
34B
102
{ACAD_REACTORS
330
68B
102
}
330
1F
100
AcDbEntity
  8
実線
100
AcDbLine
 10
62.69647301518216
 20
472.2494529069393
 30
0.0
 11
62.69647301518216
 21
459.2494529069393
 31
0.0
  0
LINE
  5
34C
102
{ACAD_REACTORS
330
68B
102
}
330
1F
100
AcDbEntity
  8
実線
100
AcDbLine
 10
118.9964730151823
 20
475.9494529069395
 30
0.0
 11
118.9964730151823
 21
511.9494529069394
 31
0.0
  0
LINE
  5
34D
102
{ACAD_REACTORS
330
68B
102
}
330
1F
100
AcDbEntity
  8
実線
100
AcDbLine
 10
32.39647301518221
 20
511.9494529069394
 30
0.0
 11
32.39647301518221
 21
475.9494529069395
 31
0.0
  0
LINE
  5
34E
102
{ACAD_REACTORS
330
68B
102
}
330
1F
100
AcDbEntity
  8
実線
100
AcDbLine
 10
118.9964730151823
 20
511.9494529069394
 30
0.0
 11
32.39647301518227
 21
511.9494529069394
 31
0.0
  0
LINE
  5
34F
102
{ACAD_REACTORS
330
68B
102
}
330
1F
100
AcDbEntity
  8
実線
100
AcDbLine
 10
32.39647301518221
 20
475.9494529069395
 30
0.0
 11
118.9964730151823
 21
475.9494529069395
 31
0.0
  0
LINE
  5
350
102
{ACAD_REACTORS
330
68B
102
}
330
1F
100
AcDbEntity
  8
実線
100
AcDbLine
 10
118.1964730151823
 20
511.9494529069394
 30
0.0
 11
118.1964730151823
 21
588.9494529069394
 31
0.0
  0
LINE
  5
351
102
{ACAD_REACTORS
330
68B
102
}
330
1F
100
AcDbEntity
  8
実線
100
AcDbLine
 10
33.19647301518216
 20
588.9494529069394
 30
0.0
 11
33.19647301518216
 21
511.9494529069394
 31
0.0
  0
LINE
  5
352
102
{ACAD_REACTORS
330
68B
102
}
330
1F
100
AcDbEntity
  8
実線
100
AcDbLine
 10
35.69647301518216
 20
367.2494529069394
 30
0.0
 11
35.69647301518216
 21
323.7494529069394
 31
0.0
  0
LINE
  5
353
102
{ACAD_REACTORS
330
68B
102
}
330
1F
100
AcDbEntity
  8
実線
100
AcDbLine
 10
35.69647301518216
 20
323.7494529069394
 30
0.0
 11
64.44647301518216
 21
323.7494529069394
 31
0.0
  0
LINE
  5
354
102
{ACAD_REACTORS
330
68B
102
}
330
1F
100
AcDbEntity
  8
実線
100
AcDbLine
 10
86.94647301518216
 20
323.7494529069394
 30
0.0
 11
115.6964730151821
 21
323.7494529069394
 31
0.0
  0
LINE
  5
355
102
{ACAD_REACTORS
330
68B
102
}
330
1F
100
AcDbEntity
  8
実線
100
AcDbLine
 10
115.6964730151821
 20
323.7494529069394
 30
0.0
 11
115.6964730151821
 21
367.2494529069394
 31
0.0
  0
LINE
  5
356
102
{ACAD_REACTORS
330
68B
102
}
330
1F
100
AcDbEntity
  8
実線
100
AcDbLine
 10
86.94647301518216
 20
367.2494529069394
 30
0.0
 11
86.94647301518216
 21
296.7494529069393
 31
0.0
  0
LINE
  5
357
102
{ACAD_REACTORS
330
68B
102
}
330
1F
100
AcDbEntity
  8
実線
100
AcDbLine
 10
64.44647301518216
 20
367.2494529069394
 30
0.0
 11
64.44647301518216
 21
296.7494529069393
 31
0.0
  0
LINE
  5
358
102
{ACAD_REACTORS
330
68B
102
}
330
1F
100
AcDbEntity
  8
実線
100
AcDbLine
 10
122.6736427840661
 20
296.7494529069393
 30
0.0
 11
28.71930324629827
 21
296.7494529069393
 31
0.0
  0
LINE
  5
359
102
{ACAD_REACTORS
330
68B
102
}
330
1F
100
AcDbEntity
  8
実線
100
AcDbLine
 10
28.71930324629827
 20
296.7494529069393
 30
0.0
 11
28.71930324629827
 21
283.2494529069393
 31
0.0
  0
LINE
  5
35A
102
{ACAD_REACTORS
330
68B
102
}
330
1F
100
AcDbEntity
  8
実線
100
AcDbLine
 10
122.6736427840661
 20
283.2494529069393
 30
0.0
 11
122.6736427840661
 21
296.7494529069393
 31
0.0
  0
LINE
  5
35B
102
{ACAD_REACTORS
330
68B
102
}
330
1F
100
AcDbEntity
  8
実線
100
AcDbLine
 10
57.66757620475818
 20
296.7494529069393
 30
0.0
 11
57.66757620475818
 21
283.2494529069393
 31
0.0
  0
LINE
  5
35C
102
{ACAD_REACTORS
330
68B
102
}
330
1F
100
AcDbEntity
  8
実線
100
AcDbLine
 10
93.72536982560632
 20
296.7494529069393
 30
0.0
 11
93.72536982560632
 21
283.2494529069393
 31
0.0
  0
LINE
  5
35D
102
{ACAD_REACTORS
330
68B
102
}
330
1F
100
AcDbEntity
  8
実線
100
AcDbLine
 10
28.69647301518217
 20
447.7494529069393
 30
0.0
 11
122.6964730151822
 21
447.7494529069393
 31
0.0
  0
ARC
  5
35E
102
{ACAD_REACTORS
330
68B
102
}
330
1F
100
AcDbEntity
  8
実線
100
AcDbCircle
 10
122.6964730151822
 20
444.7494529069392
 30
0.0
 40
3.0
100
AcDbArc
 50
0.0
 51
90.0
  0
ARC
  5
35F
102
{ACAD_REACTORS
330
68B
102
}
330
1F
100
AcDbEntity
  8
実線
100
AcDbCircle
 10
28.69647301518217
 20
444.7494529069392
 30
0.0
 40
3.0
100
AcDbArc
 50
90.0
 51
180.0
  0
LINE
  5
360
102
{ACAD_REACTORS
330
68B
102
}
330
1F
100
AcDbEntity
  8
実線
100
AcDbLine
 10
125.6964730151821
 20
443.2494529069393
 30
0.0
 11
125.6964730151821
 21
444.7494529069392
 31
0.0
  0
LINE
  5
361
102
{ACAD_REACTORS
330
68B
102
}
330
1F
100
AcDbEntity
  8
実線
100
AcDbLine
 10
25.69647301518216
 20
444.7494529069392
 30
0.0
 11
25.69647301518216
 21
443.2494529069393
 31
0.0
  0
LINE
  5
362
102
{ACAD_REACTORS
330
68B
102
}
330
1F
100
AcDbEntity
  8
実線
100
AcDbLine
 10
64.8464730151814
 20
232.5494529069394
 30
0.0
 11
48.69647301518137
 21
232.5494529069394
 31
0.0
  0
LINE
  5
363
102
{ACAD_REACTORS
330
68B
102
}
330
1F
100
AcDbEntity
  8
実線
100
AcDbLine
 10
102.6964730151813
 20
232.5494529069394
 30
0.0
 11
86.54647301518139
 21
232.5494529069394
 31
0.0
  0
ARC
  5
364
102
{ACAD_REACTORS
330
68B
102
}
330
1F
100
AcDbEntity
  8
実線
100
AcDbCircle
 10
48.69647301518137
 20
245.5494529069393
 30
0.0
 40
13.0
100
AcDbArc
 50
180.0
 51
270.0
  0
ARC
  5
365
102
{ACAD_REACTORS
330
68B
102
}
330
1F
100
AcDbEntity
  8
実線
100
AcDbCircle
 10
102.6964730151813
 20
245.5494529069393
 30
0.0
 40
13.0
100
AcDbArc
 50
270.0
 51
0.0
  0
LINE
  5
366
102
{ACAD_REACTORS
330
68B
102
}
330
1F
100
AcDbEntity
  8
実線
100
AcDbLine
 10
122.6736427840653
 20
283.2494529069393
 30
0.0
 11
28.71930324629747
 21
283.2494529069393
 31
0.0
  0
LINE
  5
367
102
{ACAD_REACTORS
330
68B
102
}
330
1F
100
AcDbEntity
  8
実線
100
AcDbLine
 10
115.6964730151814
 20
245.5494529069393
 30
0.0
 11
115.6964730151814
 21
273.2494529069393
 31
0.0
  0
LINE
  5
368
102
{ACAD_REACTORS
330
68B
102
}
330
1F
100
AcDbEntity
  8
実線
100
AcDbLine
 10
35.69647301518137
 20
273.2494529069393
 30
0.0
 11
35.69647301518137
 21
245.5494529069393
 31
0.0
  0
LINE
  5
369
102
{ACAD_REACTORS
330
68B
102
}
330
1F
100
AcDbEntity
  8
実線
100
AcDbLine
 10
28.71930324629747
 20
283.2494529069393
 30
0.0
 11
28.71930324629747
 21
273.2494529069393
 31
0.0
  0
LINE
  5
36A
102
{ACAD_REACTORS
330
68B
102
}
330
1F
100
AcDbEntity
  8
実線
100
AcDbLine
 10
28.71930324629747
 20
273.2494529069393
 30
0.0
 11
57.66757620475738
 21
273.2494529069393
 31
0.0
  0
LINE
  5
36B
102
{ACAD_REACTORS
330
68B
102
}
330
1F
100
AcDbEntity
  8
実線
100
AcDbLine
 10
122.6736427840653
 20
273.2494529069393
 30
0.0
 11
93.72536982560541
 21
273.2494529069393
 31
0.0
  0
LINE
  5
36C
102
{ACAD_REACTORS
330
68B
102
}
330
1F
100
AcDbEntity
  8
実線
100
AcDbLine
 10
122.6736427840653
 20
273.2494529069393
 30
0.0
 11
122.6736427840653
 21
283.2494529069393
 31
0.0
  0
LINE
  5
36D
102
{ACAD_REACTORS
330
68B
102
}
330
1F
100
AcDbEntity
  8
実線
100
AcDbLine
 10
57.66757620475738
 20
283.2494529069393
 30
0.0
 11
57.66757620475738
 21
273.2494529069393
 31
0.0
  0
LINE
  5
36E
102
{ACAD_REACTORS
330
68B
102
}
330
1F
100
AcDbEntity
  8
実線
100
AcDbLine
 10
93.72536982560541
 20
283.2494529069393
 30
0.0
 11
93.72536982560541
 21
273.2494529069393
 31
0.0
  0
LINE
  5
36F
102
{ACAD_REACTORS
330
68A
102
}
330
1F
100
AcDbEntity
  8
実線
100
AcDbLine
 10
358.1964730151815
 20
588.9494529069391
 30
0.0
 11
273.1964730151813
 21
588.9494529069391
 31
0.0
  0
LINE
  5
370
102
{ACAD_REACTORS
330
68A
102
}
330
1F
100
AcDbEntity
  8
実線
100
AcDbLine
 10
299.1964730151814
 20
598.1494529069394
 30
0.0
 11
273.1964730151813
 21
588.9494529069391
 31
0.0
  0
LINE
  5
371
102
{ACAD_REACTORS
330
68A
102
}
330
1F
100
AcDbEntity
  8
実線
100
AcDbLine
 10
358.1964730151815
 20
588.9494529069391
 30
0.0
 11
332.1964730151814
 21
598.1494529069394
 31
0.0
  0
LINE
  5
372
102
{ACAD_REACTORS
330
68A
102
}
330
1F
100
AcDbEntity
  8
実線
100
AcDbLine
 10
332.1964730151814
 20
598.1494529069394
 30
0.0
 11
299.1964730151814
 21
598.1494529069394
 31
0.0
  0
LINE
  5
373
102
{ACAD_REACTORS
330
68A
102
}
330
1F
100
AcDbEntity
  8
実線
100
AcDbLine
 10
359.6964730151814
 20
472.2494529069393
 30
0.0
 11
271.6964730151813
 21
472.2494529069393
 31
0.0
  0
LINE
  5
374
102
{ACAD_REACTORS
330
68A
102
}
330
1F
100
AcDbEntity
  8
実線
100
AcDbLine
 10
272.3964730151814
 20
475.9494529069395
 30
0.0
 11
271.6964730151813
 21
472.2494529069393
 31
0.0
  0
LINE
  5
375
102
{ACAD_REACTORS
330
68A
102
}
330
1F
100
AcDbEntity
  8
実線
100
AcDbLine
 10
359.6964730151814
 20
472.2494529069393
 30
0.0
 11
358.9964730151814
 21
475.9494529069395
 31
0.0
  0
LINE
  5
376
102
{ACAD_REACTORS
330
68A
102
}
330
1F
100
AcDbEntity
  8
実線
100
AcDbLine
 10
358.9964730151814
 20
475.9494529069395
 30
0.0
 11
272.3964730151813
 21
475.9494529069395
 31
0.0
  0
LINE
  5
377
102
{ACAD_REACTORS
330
68A
102
}
330
1F
100
AcDbEntity
  8
実線
100
AcDbLine
 10
334.7464730151805
 20
223.4494529069393
 30
0.0
 11
334.7464730151805
 21
232.5494529069394
 31
0.0
  0
LINE
  5
378
102
{ACAD_REACTORS
330
68A
102
}
330
1F
100
AcDbEntity
  8
実線
100
AcDbLine
 10
296.6464730151805
 20
232.5494529069394
 30
0.0
 11
296.6464730151805
 21
223.4494529069393
 31
0.0
  0
LINE
  5
379
102
{ACAD_REACTORS
330
68A
102
}
330
1F
100
AcDbEntity
  8
実線
100
AcDbLine
 10
340.9464730151805
 20
218.3494529069394
 30
0.0
 11
340.9464730151805
 21
221.0994529069393
 31
0.0
  0
LINE
  5
37A
102
{ACAD_REACTORS
330
68A
102
}
330
1F
100
AcDbEntity
  8
実線
100
AcDbLine
 10
290.4464730151806
 20
221.0994529069393
 30
0.0
 11
290.4464730151806
 21
218.3494529069394
 31
0.0
  0
LINE
  5
37B
102
{ACAD_REACTORS
330
68A
102
}
330
1F
100
AcDbEntity
  8
実線
100
AcDbLine
 10
340.9464730151805
 20
218.3494529069394
 30
0.0
 11
290.4464730151806
 21
218.3494529069394
 31
0.0
  0
LINE
  5
37C
102
{ACAD_REACTORS
330
68A
102
}
330
1F
100
AcDbEntity
  8
実線
100
AcDbLine
 10
296.6464730151805
 20
223.4494529069393
 30
0.0
 11
290.4464730151806
 21
221.0994529069393
 31
0.0
  0
LINE
  5
37D
102
{ACAD_REACTORS
330
68A
102
}
330
1F
100
AcDbEntity
  8
実線
100
AcDbLine
 10
340.9464730151805
 20
221.0994529069393
 30
0.0
 11
334.7464730151805
 21
223.4494529069393
 31
0.0
  0
LINE
  5
37E
102
{ACAD_REACTORS
330
68A
102
}
330
1F
100
AcDbEntity
  8
実線
100
AcDbLine
 10
290.4464730151806
 20
221.0994529069393
 30
0.0
 11
340.9464730151805
 21
221.0994529069393
 31
0.0
  0
LINE
  5
37F
102
{ACAD_REACTORS
330
68A
102
}
330
1F
100
AcDbEntity
  8
実線
100
AcDbLine
 10
296.6464730151805
 20
223.4494529069393
 30
0.0
 11
334.7464730151805
 21
223.4494529069393
 31
0.0
  0
LINE
  5
380
102
{ACAD_REACTORS
330
68A
102
}
330
1F
100
AcDbEntity
  8
実線
100
AcDbLine
 10
250.7964730151805
 20
236.2994529069393
 30
0.0
 11
279.5620600619581
 21
236.2994529069393
 31
0.0
  0
LINE
  5
381
102
{ACAD_REACTORS
330
68A
102
}
330
1F
100
AcDbEntity
  8
実線
100
AcDbLine
 10
268.7193032462968
 20
274.3994529069393
 30
0.0
 11
250.7964730151805
 21
274.3994529069393
 31
0.0
  0
LINE
  5
382
102
{ACAD_REACTORS
330
68A
102
}
330
1F
100
AcDbEntity
  8
実線
100
AcDbLine
 10
245.6964730151806
 20
230.0994529069393
 30
0.0
 11
248.4464730151806
 21
230.0994529069393
 31
0.0
  0
LINE
  5
383
102
{ACAD_REACTORS
330
68A
102
}
330
1F
100
AcDbEntity
  8
実線
100
AcDbLine
 10
248.4464730151806
 20
280.5994529069394
 30
0.0
 11
245.6964730151806
 21
280.5994529069394
 31
0.0
  0
LINE
  5
384
102
{ACAD_REACTORS
330
68A
102
}
330
1F
100
AcDbEntity
  8
実線
100
AcDbLine
 10
245.6964730151806
 20
230.0994529069393
 30
0.0
 11
245.6964730151806
 21
280.5994529069394
 31
0.0
  0
LINE
  5
385
102
{ACAD_REACTORS
330
68A
102
}
330
1F
100
AcDbEntity
  8
実線
100
AcDbLine
 10
250.7964730151805
 20
274.3994529069393
 30
0.0
 11
248.4464730151806
 21
280.5994529069394
 31
0.0
  0
LINE
  5
386
102
{ACAD_REACTORS
330
68A
102
}
330
1F
100
AcDbEntity
  8
実線
100
AcDbLine
 10
248.4464730151806
 20
230.0994529069393
 30
0.0
 11
250.7964730151805
 21
236.2994529069393
 31
0.0
  0
LINE
  5
387
102
{ACAD_REACTORS
330
68A
102
}
330
1F
100
AcDbEntity
  8
実線
100
AcDbLine
 10
248.4464730151806
 20
280.5994529069394
 30
0.0
 11
248.4464730151806
 21
230.0994529069393
 31
0.0
  0
LINE
  5
388
102
{ACAD_REACTORS
330
68A
102
}
330
1F
100
AcDbEntity
  8
実線
100
AcDbLine
 10
250.7964730151805
 20
274.3994529069393
 30
0.0
 11
250.7964730151805
 21
236.2994529069393
 31
0.0
  0
LINE
  5
389
102
{ACAD_REACTORS
330
68A
102
}
330
1F
100
AcDbEntity
  8
実線
100
AcDbLine
 10
380.5964730151804
 20
274.3994529069393
 30
0.0
 11
362.6736427840644
 21
274.3994529069393
 31
0.0
  0
LINE
  5
38A
102
{ACAD_REACTORS
330
68A
102
}
330
1F
100
AcDbEntity
  8
実線
100
AcDbLine
 10
351.8308859684031
 20
236.2994529069393
 30
0.0
 11
380.5964730151804
 21
236.2994529069393
 31
0.0
  0
LINE
  5
38B
102
{ACAD_REACTORS
330
68A
102
}
330
1F
100
AcDbEntity
  8
実線
100
AcDbLine
 10
380.5964730151804
 20
236.2994529069393
 30
0.0
 11
380.5964730151804
 21
274.3994529069393
 31
0.0
  0
LINE
  5
38C
102
{ACAD_REACTORS
330
68A
102
}
330
1F
100
AcDbEntity
  8
実線
100
AcDbLine
 10
380.5964730151804
 20
236.2994529069393
 30
0.0
 11
382.9464730151805
 21
230.0994529069393
 31
0.0
  0
LINE
  5
38D
102
{ACAD_REACTORS
330
68A
102
}
330
1F
100
AcDbEntity
  8
実線
100
AcDbLine
 10
382.9464730151805
 20
280.5994529069394
 30
0.0
 11
380.5964730151804
 21
274.3994529069393
 31
0.0
  0
LINE
  5
38E
102
{ACAD_REACTORS
330
68A
102
}
330
1F
100
AcDbEntity
  8
実線
100
AcDbLine
 10
385.6964730151806
 20
230.0994529069393
 30
0.0
 11
385.6964730151806
 21
280.5994529069394
 31
0.0
  0
LINE
  5
38F
102
{ACAD_REACTORS
330
68A
102
}
330
1F
100
AcDbEntity
  8
実線
100
AcDbLine
 10
382.9464730151805
 20
230.0994529069393
 30
0.0
 11
382.9464730151805
 21
280.5994529069394
 31
0.0
  0
LINE
  5
390
102
{ACAD_REACTORS
330
68A
102
}
330
1F
100
AcDbEntity
  8
実線
100
AcDbLine
 10
385.6964730151806
 20
280.5994529069394
 30
0.0
 11
382.9464730151805
 21
280.5994529069394
 31
0.0
  0
LINE
  5
391
102
{ACAD_REACTORS
330
68A
102
}
330
1F
100
AcDbEntity
  8
実線
100
AcDbLine
 10
382.9464730151805
 20
230.0994529069393
 30
0.0
 11
385.6964730151806
 21
230.0994529069393
 31
0.0
  0
LINE
  5
392
102
{ACAD_REACTORS
330
68A
102
}
330
1F
100
AcDbEntity
  8
実線
100
AcDbLine
 10
321.6964730151814
 20
296.7494529069393
 30
0.0
 11
321.6964730151814
 21
323.7494529069394
 31
0.0
  0
LINE
  5
393
102
{ACAD_REACTORS
330
68A
102
}
330
1F
100
AcDbEntity
  8
実線
100
AcDbLine
 10
309.6964730151814
 20
323.7494529069394
 30
0.0
 11
309.6964730151814
 21
296.7494529069393
 31
0.0
  0
LINE
  5
394
102
{ACAD_REACTORS
330
68A
102
}
330
1F
100
AcDbEntity
  8
実線
100
AcDbLine
 10
365.6964730151814
 20
367.2494529069394
 30
0.0
 11
265.6964730151813
 21
367.2494529069394
 31
0.0
  0
LINE
  5
395
102
{ACAD_REACTORS
330
68A
102
}
330
1F
100
AcDbEntity
  8
実線
100
AcDbLine
 10
365.6964730151814
 20
367.2494529069394
 30
0.0
 11
365.6964730151814
 21
443.2494529069393
 31
0.0
  0
LINE
  5
396
102
{ACAD_REACTORS
330
68A
102
}
330
1F
100
AcDbEntity
  8
実線
100
AcDbLine
 10
265.6964730151813
 20
443.2494529069392
 30
0.0
 11
265.6964730151813
 21
367.2494529069394
 31
0.0
  0
LINE
  5
397
102
{ACAD_REACTORS
330
68A
102
}
330
1F
100
AcDbEntity
  8
実線
100
AcDbLine
 10
365.6964730151814
 20
443.2494529069392
 30
0.0
 11
265.6964730151813
 21
443.2494529069392
 31
0.0
  0
LINE
  5
398
102
{ACAD_REACTORS
330
68A
102
}
330
1F
100
AcDbEntity
  8
実線
100
AcDbLine
 10
350.6964730151814
 20
447.7494529069393
 30
0.0
 11
350.6964730151814
 21
459.2494529069393
 31
0.0
  0
LINE
  5
399
102
{ACAD_REACTORS
330
68A
102
}
330
1F
100
AcDbEntity
  8
実線
100
AcDbLine
 10
280.6964730151813
 20
459.2494529069393
 30
0.0
 11
280.6964730151813
 21
447.7494529069393
 31
0.0
  0
LINE
  5
39A
102
{ACAD_REACTORS
330
68A
102
}
330
1F
100
AcDbEntity
  8
実線
100
AcDbLine
 10
350.6964730151814
 20
459.2494529069393
 30
0.0
 11
280.6964730151813
 21
459.2494529069393
 31
0.0
  0
LINE
  5
39B
102
{ACAD_REACTORS
330
68A
102
}
330
1F
100
AcDbEntity
  8
実線
100
AcDbLine
 10
328.6964730151814
 20
459.2494529069393
 30
0.0
 11
328.6964730151814
 21
472.2494529069393
 31
0.0
  0
LINE
  5
39C
102
{ACAD_REACTORS
330
68A
102
}
330
1F
100
AcDbEntity
  8
実線
100
AcDbLine
 10
302.6964730151814
 20
472.2494529069393
 30
0.0
 11
302.6964730151814
 21
459.2494529069393
 31
0.0
  0
LINE
  5
39D
102
{ACAD_REACTORS
330
68A
102
}
330
1F
100
AcDbEntity
  8
実線
100
AcDbLine
 10
358.9964730151814
 20
475.9494529069395
 30
0.0
 11
358.9964730151814
 21
511.9494529069394
 31
0.0
  0
LINE
  5
39E
102
{ACAD_REACTORS
330
68A
102
}
330
1F
100
AcDbEntity
  8
実線
100
AcDbLine
 10
272.3964730151814
 20
511.9494529069394
 30
0.0
 11
272.3964730151814
 21
475.9494529069395
 31
0.0
  0
LINE
  5
39F
102
{ACAD_REACTORS
330
68A
102
}
330
1F
100
AcDbEntity
  8
実線
100
AcDbLine
 10
358.9964730151814
 20
511.9494529069394
 30
0.0
 11
272.3964730151813
 21
511.9494529069394
 31
0.0
  0
LINE
  5
3A0
102
{ACAD_REACTORS
330
68A
102
}
330
1F
100
AcDbEntity
  8
実線
100
AcDbLine
 10
358.1964730151814
 20
511.9494529069394
 30
0.0
 11
358.1964730151814
 21
588.9494529069394
 31
0.0
  0
LINE
  5
3A1
102
{ACAD_REACTORS
330
68A
102
}
330
1F
100
AcDbEntity
  8
実線
100
AcDbLine
 10
273.1964730151814
 20
588.9494529069394
 30
0.0
 11
273.1964730151814
 21
511.9494529069394
 31
0.0
  0
LINE
  5
3A2
102
{ACAD_REACTORS
330
68A
102
}
330
1F
100
AcDbEntity
  8
実線
100
AcDbLine
 10
271.3964730151813
 20
367.2494529069394
 30
0.0
 11
271.3964730151813
 21
337.7494529069394
 31
0.0
  0
ARC
  5
3A3
102
{ACAD_REACTORS
330
68A
102
}
330
1F
100
AcDbEntity
  8
実線
100
AcDbCircle
 10
341.3964730151815
 20
337.7494529069394
 30
0.0
 40
70.00000000000003
100
AcDbArc
 50
180.0
 51
215.8534670634663
  0
ARC
  5
3A4
102
{ACAD_REACTORS
330
68A
102
}
330
1F
100
AcDbEntity
  8
実線
100
AcDbCircle
 10
339.3964730151813
 20
337.7494529069394
 30
0.0
 40
57.99999999999997
100
AcDbArc
 50
193.9679626746511
 51
224.9829679599013
  0
ARC
  5
3A5
102
{ACAD_REACTORS
330
68A
102
}
330
1F
100
AcDbEntity
  8
実線
100
AcDbCircle
 10
291.9964730151814
 20
337.7494529069394
 30
0.0
 40
57.99999999999997
100
AcDbArc
 50
315.0170320400987
 51
346.0320373253488
  0
ARC
  5
3A6
102
{ACAD_REACTORS
330
68A
102
}
330
1F
100
AcDbEntity
  8
実線
100
AcDbCircle
 10
289.9964730151813
 20
337.7494529069394
 30
0.0
 40
70.00000000000003
100
AcDbArc
 50
324.1465329365337
 51
0.0
  0
LINE
  5
3A7
102
{ACAD_REACTORS
330
68A
102
}
330
1F
100
AcDbEntity
  8
実線
100
AcDbLine
 10
359.9964730151814
 20
367.2494529069394
 30
0.0
 11
359.9964730151814
 21
337.7494529069394
 31
0.0
  0
LINE
  5
3A8
102
{ACAD_REACTORS
330
68A
102
}
330
1F
100
AcDbEntity
  8
実線
100
AcDbLine
 10
277.3110916832211
 20
367.2494529069394
 30
0.0
 11
277.3110916832211
 21
323.7494529069394
 31
0.0
  0
LINE
  5
3A9
102
{ACAD_REACTORS
330
68A
102
}
330
1F
100
AcDbEntity
  8
実線
100
AcDbLine
 10
277.3110916832211
 20
323.7494529069394
 30
0.0
 11
354.0818543471414
 21
323.7494529069394
 31
0.0
  0
LINE
  5
3AA
102
{ACAD_REACTORS
330
68A
102
}
330
1F
100
AcDbEntity
  8
実線
100
AcDbLine
 10
354.0818543471414
 20
367.2494529069394
 30
0.0
 11
354.0818543471414
 21
323.7494529069394
 31
0.0
  0
LINE
  5
3AB
102
{ACAD_REACTORS
330
68A
102
}
330
1F
100
AcDbEntity
  8
実線
100
AcDbLine
 10
362.6736427840652
 20
296.7494529069393
 30
0.0
 11
268.7193032462975
 21
296.7494529069393
 31
0.0
  0
LINE
  5
3AC
102
{ACAD_REACTORS
330
68A
102
}
330
1F
100
AcDbEntity
  8
実線
100
AcDbLine
 10
268.7193032462975
 20
296.7494529069393
 30
0.0
 11
268.7193032462975
 21
283.2494529069393
 31
0.0
  0
LINE
  5
3AD
102
{ACAD_REACTORS
330
68A
102
}
330
1F
100
AcDbEntity
  8
実線
100
AcDbLine
 10
362.6736427840652
 20
283.2494529069393
 30
0.0
 11
362.6736427840652
 21
296.7494529069393
 31
0.0
  0
LINE
  5
3AE
102
{ACAD_REACTORS
330
68A
102
}
330
1F
100
AcDbEntity
  8
実線
100
AcDbLine
 10
333.7253698256054
 20
296.7494529069393
 30
0.0
 11
333.7253698256054
 21
283.2494529069393
 31
0.0
  0
LINE
  5
3AF
102
{ACAD_REACTORS
330
68A
102
}
330
1F
100
AcDbEntity
  8
実線
100
AcDbLine
 10
297.6675762047573
 20
296.7494529069393
 30
0.0
 11
297.6675762047573
 21
283.2494529069393
 31
0.0
  0
LINE
  5
3B0
102
{ACAD_REACTORS
330
68A
102
}
330
1F
100
AcDbEntity
  8
実線
100
AcDbLine
 10
365.6964730151814
 20
443.2494529069393
 30
0.0
 11
365.6964730151814
 21
444.7494529069392
 31
0.0
  0
LINE
  5
3B1
102
{ACAD_REACTORS
330
68A
102
}
330
1F
100
AcDbEntity
  8
実線
100
AcDbLine
 10
265.6964730151813
 20
444.7494529069392
 30
0.0
 11
265.6964730151813
 21
443.2494529069393
 31
0.0
  0
LINE
  5
3B2
102
{ACAD_REACTORS
330
68A
102
}
330
1F
100
AcDbEntity
  8
実線
100
AcDbLine
 10
362.6964730151814
 20
447.7494529069393
 30
0.0
 11
268.6964730151813
 21
447.7494529069393
 31
0.0
  0
ARC
  5
3B3
102
{ACAD_REACTORS
330
68A
102
}
330
1F
100
AcDbEntity
  8
実線
100
AcDbCircle
 10
362.6964730151814
 20
444.7494529069392
 30
0.0
 40
3.0
100
AcDbArc
 50
0.0
 51
90.0
  0
ARC
  5
3B4
102
{ACAD_REACTORS
330
68A
102
}
330
1F
100
AcDbEntity
  8
実線
100
AcDbCircle
 10
268.6964730151813
 20
444.7494529069392
 30
0.0
 40
3.0
100
AcDbArc
 50
90.0
 51
180.0
  0
LINE
  5
3B5
102
{ACAD_REACTORS
330
68A
102
}
330
1F
100
AcDbEntity
  8
実線
100
AcDbLine
 10
288.6964730151806
 20
232.5494529069394
 30
0.0
 11
342.6964730151805
 21
232.5494529069394
 31
0.0
  0
ARC
  5
3B6
102
{ACAD_REACTORS
330
68A
102
}
330
1F
100
AcDbEntity
  8
実線
100
AcDbCircle
 10
288.6964730151806
 20
245.5494529069393
 30
0.0
 40
13.0
100
AcDbArc
 50
225.3602270413955
 51
270.0
  0
ARC
  5
3B7
102
{ACAD_REACTORS
330
68A
102
}
330
1F
100
AcDbEntity
  8
実線
100
AcDbCircle
 10
342.6964730151805
 20
245.5494529069393
 30
0.0
 40
13.0
100
AcDbArc
 50
270.0
 51
314.6397729586045
  0
LINE
  5
3B8
102
{ACAD_REACTORS
330
68A
102
}
330
1F
100
AcDbEntity
  8
実線
100
AcDbLine
 10
362.6736427840644
 20
283.2494529069393
 30
0.0
 11
268.7193032462968
 21
283.2494529069393
 31
0.0
  0
LINE
  5
3B9
102
{ACAD_REACTORS
330
68A
102
}
330
1F
100
AcDbEntity
  8
実線
100
AcDbLine
 10
268.7193032462968
 20
283.2494529069393
 30
0.0
 11
268.7193032462968
 21
273.2494529069393
 31
0.0
  0
LINE
  5
3BA
102
{ACAD_REACTORS
330
68A
102
}
330
1F
100
AcDbEntity
  8
実線
100
AcDbLine
 10
268.7193032462968
 20
273.2494529069393
 30
0.0
 11
297.6675762047566
 21
273.2494529069393
 31
0.0
  0
LINE
  5
3BB
102
{ACAD_REACTORS
330
68A
102
}
330
1F
100
AcDbEntity
  8
実線
100
AcDbLine
 10
362.6736427840644
 20
273.2494529069393
 30
0.0
 11
333.7253698256046
 21
273.2494529069393
 31
0.0
  0
LINE
  5
3BC
102
{ACAD_REACTORS
330
68A
102
}
330
1F
100
AcDbEntity
  8
実線
100
AcDbLine
 10
362.6736427840644
 20
273.2494529069393
 30
0.0
 11
362.6736427840644
 21
283.2494529069393
 31
0.0
  0
LINE
  5
3BD
102
{ACAD_REACTORS
330
68A
102
}
330
1F
100
AcDbEntity
  8
実線
100
AcDbLine
 10
333.7253698256046
 20
283.2494529069393
 30
0.0
 11
333.7253698256046
 21
273.2494529069393
 31
0.0
  0
LINE
  5
3BE
102
{ACAD_REACTORS
330
68A
102
}
330
1F
100
AcDbEntity
  8
実線
100
AcDbLine
 10
297.6675762047566
 20
283.2494529069393
 30
0.0
 11
297.6675762047566
 21
273.2494529069393
 31
0.0
  0
LINE
  5
67B
102
{ACAD_REACTORS
330
68B
102
}
330
1F
100
AcDbEntity
  8
中心線
100
AcDbLine
 10
75.69647301518114
 20
200.3494529069387
 30
0.0
 11
75.69647301518114
 21
614.8166839891048
 31
0.0
  0
LINE
  5
67C
102
{ACAD_REACTORS
330
68C
102
}
330
1F
100
AcDbEntity
  8
中心線
100
AcDbLine
 10
243.6964730151807
 20
735.3494529069394
 30
0.0
 11
387.6964730151807
 21
735.3494529069394
 31
0.0
  0
LINE
  5
67D
102
{ACAD_REACTORS
330
68C
102
}
330
1F
100
AcDbEntity
  8
中心線
100
AcDbLine
 10
315.6964730151813
 20
680.3494529069395
 30
0.0
 11
315.6964730151813
 21
790.3494529069395
 31
0.0
  0
LINE
  5
67E
102
{ACAD_REACTORS
330
687
102
}
330
1F
100
AcDbEntity
  8
中心線
100
AcDbLine
 10
243.6964730151799
 20
75.34945290693935
 30
0.0
 11
387.6964730151799
 21
75.3494529069394
 31
0.0
  0
LINE
  5
67F
102
{ACAD_REACTORS
330
687
102
}
330
1F
100
AcDbEntity
  8
中心線
100
AcDbLine
 10
315.6964730151807
 20
20.3494529069394
 30
0.0
 11
315.6964730151806
 21
130.3494529069394
 31
0.0
  0
LINE
  5
680
102
{ACAD_REACTORS
330
68B
102
}
330
1F
100
AcDbEntity
  8
中心線
100
AcDbLine
 10
20.69647301518108
 20
255.3494529069393
 30
0.0
 11
130.6964730151811
 21
255.3494529069393
 31
0.0
  0
LINE
  5
681
102
{ACAD_REACTORS
330
68A
102
}
330
1F
100
AcDbEntity
  8
中心線
100
AcDbLine
 10
243.6964730151799
 20
255.3494529069394
 30
0.0
 11
387.6964730151799
 21
255.3494529069393
 31
0.0
  0
LINE
  5
682
102
{ACAD_REACTORS
330
689
102
}
330
1F
100
AcDbEntity
  8
中心線
100
AcDbLine
 10
500.696473015182
 20
255.3494529069394
 30
0.0
 11
610.696473015182
 21
255.3494529069393
 31
0.0
  0
LINE
  5
683
102
{ACAD_REACTORS
330
688
102
}
330
1F
100
AcDbEntity
  8
中心線
100
AcDbLine
 10
723.6964730151802
 20
255.3494529069392
 30
0.0
 11
867.6964730151803
 21
255.3494529069392
 31
0.0
  0
LINE
  5
684
102
{ACAD_REACTORS
330
68A
102
}
330
1F
100
AcDbEntity
  8
中心線
100
AcDbLine
 10
315.6964730151806
 20
200.3494529069387
 30
0.0
 11
315.6964730151806
 21
614.8166839891048
 31
0.0
  0
LINE
  5
685
102
{ACAD_REACTORS
330
689
102
}
330
1F
100
AcDbEntity
  8
中心線
100
AcDbLine
 10
555.6964730151809
 20
200.3494529069395
 30
0.0
 11
555.6964730151809
 21
614.8166839891048
 31
0.0
  0
LINE
  5
686
102
{ACAD_REACTORS
330
688
102
}
330
1F
100
AcDbEntity
  8
中心線
100
AcDbLine
 10
795.6964730151808
 20
200.3494529069392
 30
0.0
 11
795.6964730151808
 21
614.8166839891048
 31
0.0
  0
ENDSEC
  0
SECTION
  2
OBJECTS
  0
DICTIONARY
  5
C
330
0
100
AcDbDictionary
281
     1
  3
ACAD_CIP_PREVIOUS_PRODUCT_INFO
350
248
  3
ACAD_COLOR
350
23E
  3
ACAD_DETAILVIEWSTYLE
350
241
  3
ACAD_GROUP
350
D
  3
ACAD_LAYOUT
350
1A
  3
ACAD_MATERIAL
350
43
  3
ACAD_MLEADERSTYLE
350
5B
  3
ACAD_MLINESTYLE
350
17
  3
ACAD_PLOTSETTINGS
350
19
  3
ACAD_PLOTSTYLENAME
350
E
  3
ACAD_SCALELIST
350
47
  3
ACAD_SECTIONVIEWSTYLE
350
23F
  3
ACAD_TABLESTYLE
350
59
  3
ACAD_VISUALSTYLE
350
2A
  3
ACDB_RECOMPOSE_DATA
350
6E4
  3
AcDbVariableDictionary
350
1F3
  3
DWGPROPS
350
6E5
  0
DICTIONARY
  5
3C5
330
2
100
AcDbDictionary
280
     1
281
     1
  3
ACAD_LAYERSTATES
360
3C6
  0
DICTIONARY
  5
68D
330
10
100
AcDbDictionary
280
     1
281
     1
  3
ADSK_XREC_LAYER_RECONCILED
360
68E
  0
DICTIONARY
  5
3C1
330
3C0
100
AcDbDictionary
280
     1
281
     1
  3
ADSK_XREC_LAYER_RECONCILED
360
68F
  0
DICTIONARY
  5
3C3
330
3C2
100
AcDbDictionary
280
     1
281
     1
  3
ADSK_XREC_LAYER_RECONCILED
360
690
  0
DICTIONARY
  5
274
330
1F
100
AcDbDictionary
280
     1
281
     1
  3
ACAD_SORTENTS
360
275
  0
XRECORD
  5
248
102
{ACAD_REACTORS
330
C
102
}
330
C
100
AcDbXrecord
280
     1
300
ACDLT
300
2016
300
ACDLT_F_S
  0
DICTIONARY
  5
23E
102
{ACAD_REACTORS
330
C
102
}
330
C
100
AcDbDictionary
281
     1
  0
DICTIONARY
  5
241
102
{ACAD_REACTORS
330
C
102
}
330
C
100
AcDbDictionary
281
     1
  3
Metric50
350
242
  0
DICTIONARY
  5
D
102
{ACAD_REACTORS
330
C
102
}
330
C
100
AcDbDictionary
281
     1
  3
*A1
350
687
  3
*A2
350
688
  3
*A3
350
689
  3
*A4
350
68A
  3
*A5
350
68B
  3
*A6
350
68C
  0
DICTIONARY
  5
1A
102
{ACAD_REACTORS
330
C
102
}
330
C
100
AcDbDictionary
281
     1
  3
Layout1
350
1E
  3
Model
350
22
  3
レイアウト1
350
243
  0
DICTIONARY
  5
43
102
{ACAD_REACTORS
330
C
102
}
330
C
100
AcDbDictionary
281
     1
  3
ByBlock
350
45
  3
ByLayer
350
44
  3
Global
350
46
  0
DICTIONARY
  5
5B
102
{ACAD_REACTORS
330
C
102
}
330
C
100
AcDbDictionary
281
     1
  3
Standard
350
5C
  0
DICTIONARY
  5
17
102
{ACAD_REACTORS
330
C
102
}
330
C
100
AcDbDictionary
281
     1
  3
Standard
350
18
  0
DICTIONARY
  5
19
102
{ACAD_REACTORS
330
C
102
}
330
C
100
AcDbDictionary
281
     1
  0
ACDBDICTIONARYWDFLT
  5
E
102
{ACAD_REACTORS
330
C
102
}
330
C
100
AcDbDictionary
281
     1
  3
Normal
350
F
100
AcDbDictionaryWithDefault
340
F
  0
DICTIONARY
  5
47
102
{ACAD_REACTORS
330
C
102
}
330
C
100
AcDbDictionary
281
     1
  3
A0
350
48
  3
A1
350
49
  3
A2
350
4A
  3
A3
350
4B
  3
A4
350
4C
  3
A5
350
4D
  3
A6
350
4E
  3
A7
350
4F
  3
A8
350
50
  3
A9
350
51
  3
B0
350
52
  3
B1
350
53
  3
B2
350
54
  3
B3
350
55
  3
B4
350
56
  3
B5
350
57
  3
B6
350
58
  0
DICTIONARY
  5
23F
102
{ACAD_REACTORS
330
C
102
}
330
C
100
AcDbDictionary
281
     1
  3
Metric50
350
240
  0
DICTIONARY
  5
59
102
{ACAD_REACTORS
330
C
102
}
330
C
100
AcDbDictionary
281
     1
  3
Standard
350
5A
  0
DICTIONARY
  5
2A
102
{ACAD_REACTORS
330
C
102
}
330
C
100
AcDbDictionary
281
     1
  3
2dWireframe
350
2F
  3
Basic
350
32
  3
Brighten
350
36
  3
ColorChange
350
3A
  3
Conceptual
350
34
  3
Dim
350
35
  3
EdgeColorOff
350
3D
  3
Facepattern
350
39
  3
Flat
350
2B
  3
FlatWithEdges
350
2C
  3
Gouraud
350
2D
  3
GouraudWithEdges
350
2E
  3
Hidden
350
31
  3
JitterOff
350
3B
  3
Linepattern
350
38
  3
OverhangOff
350
3C
  3
Realistic
350
33
  3
Shaded
350
42
  3
Shaded with edges
350
41
  3
Shades of Gray
350
3E
  3
Sketchy
350
3F
  3
Thicken
350
37
  3
Wireframe
350
30
  3
X-Ray
350
40
  0
XRECORD
  5
6E4
102
{ACAD_REACTORS
330
C
102
}
330
C
100
AcDbXrecord
280
     1
 90
        1
330
5A
  0
DICTIONARY
  5
1F3
102
{ACAD_REACTORS
330
C
102
}
330
C
100
AcDbDictionary
281
     1
  3
CANNOSCALE
350
201
  3
CENTEREXE
350
1FA
  3
CENTERLTYPEFILE
350
1FB
  3
CMLEADERSTYLE
350
1F5
  3
CTABLESTYLE
350
1F4
  3
CVIEWDETAILSTYLE
350
691
  3
CVIEWSECTIONSTYLE
350
692
  3
DIMASSOC
350
1FC
  3
HIDETEXT
350
1FD
  3
INDEXCTL
350
6DC
  3
LAYEREVAL
350
694
  3
LAYERNOTIFY
350
695
  3
LIGHTINGUNITS
350
693
  3
LOFTANG1
350
6DF
  3
LOFTANG2
350
6E0
  3
LONGITUDE
350
6E1
  3
MSLTSCALE
350
202
  3
PSOLHEIGHT
350
6DE
  3
PSOLWIDTH
350
6DD
  3
SORTENTS
350
6DB
  3
XCLIPFRAME
350
6E2
  0
XRECORD
  5
6E5
102
{ACAD_REACTORS
330
C
102
}
330
C
100
AcDbXrecord
280
     1
  1
DWGPROPS COOKIE
  2

  3

  4

  6
File was created by TR2_DExp
  7

  8
fujino
  9

300
=
301
=
302
=
303
=
304
=
305
=
306
=
307
=
308
=
309
=
 40
0.0049343055555556
 41
2455188.75
 42
2459747.410073403
  1

 90
        0
  0
DICTIONARY
  5
3C6
102
{ACAD_REACTORS
330
3C5
102
}
330
3C5
100
AcDbDictionary
281
     1
  0
XRECORD
  5
68E
102
{ACAD_REACTORS
330
68D
102
}
330
68D
100
AcDbXrecord
280
     1
290
     1
  0
XRECORD
  5
68F
102
{ACAD_REACTORS
330
3C1
102
}
330
3C1
100
AcDbXrecord
280
     1
290
     1
  0
XRECORD
  5
690
102
{ACAD_REACTORS
330
3C3
102
}
330
3C3
100
AcDbXrecord
280
     1
290
     1
  0
SORTENTSTABLE
  5
275
102
{ACAD_REACTORS
330
274
102
}
330
274
100
AcDbSortentsTable
330
1F
331
260
  5
3AB
331
367
  5
2D0
331
3A6
  5
282
331
3A2
  5
27E
331
363
  5
2CC
331
35F
  5
2C8
331
39E
  5
27A
331
2C6
  5
336
331
2F5
  5
2D8
331
334
  5
29D
331
287
  5
376
331
35B
  5
2C4
331
39A
  5
276
331
2C2
  5
332
331
2F1
  5
361
331
330
  5
313
331
3BD
  5
299
331
25C
  5
3A7
331
283
  5
372
331
32C
  5
30F
331
27F
  5
36E
331
2BE
  5
32E
331
2ED
  5
35D
331
3B9
  5
295
331
258
  5
3A3
331
2E9
  5
359
331
328
  5
30B
331
254
  5
39F
331
27B
  5
36A
331
2BA
  5
32A
331
250
  5
39B
331
357
  5
2C0
331
396
  5
270
331
392
  5
26C
331
353
  5
2BC
331
34F
  5
2B8
331
38E
  5
268
331
2E5
  5
355
331
324
  5
307
331
2B6
  5
326
331
34B
  5
2B4
331
38A
  5
264
331
683
  5
683
331
2B2
  5
322
331
2E1
  5
351
331
24C
  5
397
331
320
  5
303
331
31C
  5
2FF
331
26F
  5
3BA
331
2AE
  5
31E
331
2DD
  5
34D
331
318
  5
2FB
331
26B
  5
3B6
331
2AA
  5
31A
331
2D9
  5
349
331
347
  5
2B0
331
386
  5
260
331
382
  5
25C
331
343
  5
2AC
331
37E
  5
258
331
2D5
  5
345
331
314
  5
2F7
331
2A6
  5
316
331
37A
  5
254
331
67F
  5
67F
331
2A2
  5
391
331
2D1
  5
341
331
310
  5
2F3
331
67B
  5
67B
331
29E
  5
38D
331
30C
  5
2EF
331
308
  5
2EB
331
3B7
  5
293
331
29A
  5
389
331
270
  5
3BB
331
3B3
  5
28F
331
376
  5
250
331
372
  5
24C
331
36E
  5
2D7
331
304
  5
2E7
331
3AD
  5
289
331
296
  5
385
331
36A
  5
2D3
331
3A9
  5
285
331
292
  5
381
331
300
  5
2E3
331
33F
  5
2A8
331
33B
  5
2A4
331
267
  5
3B2
331
28E
  5
37D
331
2CD
  5
33D
331
2FC
  5
2DF
331
2F8
  5
2DB
331
263
  5
3AE
331
28A
  5
379
331
2C9
  5
339
331
366
  5
2CF
331
3A5
  5
281
331
3A1
  5
27D
331
337
  5
2A0
331
362
  5
2CB
331
35E
  5
2C7
331
39D
  5
279
331
2C5
  5
335
331
2F4
  5
364
331
333
  5
29C
331
25F
  5
3AA
331
286
  5
375
331
35A
  5
2C3
331
399
  5
273
331
282
  5
371
331
2C1
  5
331
331
2F0
  5
360
331
3BC
  5
298
331
25B
  5
3A6
331
32F
  5
312
331
32B
  5
30E
331
27E
  5
36D
331
2BD
  5
32D
331
2EC
  5
35C
331
3B8
  5
294
331
257
  5
3A2
331
2E8
  5
358
331
253
  5
39E
331
27A
  5
369
331
2B9
  5
329
331
356
  5
2BF
331
395
  5
26F
331
391
  5
26B
331
327
  5
30A
331
352
  5
2BB
331
34E
  5
2B7
331
38D
  5
267
331
686
  5
686
331
2B5
  5
325
331
2E4
  5
354
331
24F
  5
39A
331
323
  5
306
331
34A
  5
2B3
331
389
  5
263
331
682
  5
682
331
2B1
  5
321
331
2E0
  5
350
331
24B
  5
396
331
31F
  5
302
331
31B
  5
2FE
331
26E
  5
3B9
331
2AD
  5
31D
331
2DC
  5
34C
331
2D8
  5
348
331
26A
  5
3B5
331
2A9
  5
319
331
346
  5
2AF
331
385
  5
25F
331
381
  5
25B
331
317
  5
2FA
331
342
  5
2AB
331
37D
  5
257
331
2D4
  5
344
331
313
  5
2F6
331
2A5
  5
315
331
379
  5
253
331
67E
  5
67E
331
2A1
  5
390
331
2D0
  5
340
331
30F
  5
2F2
331
30B
  5
2EE
331
29D
  5
38C
331
277
  5
366
331
273
  5
3BE
331
3B6
  5
292
331
299
  5
388
331
3B2
  5
28E
331
375
  5
24F
331
371
  5
24B
331
307
  5
2EA
331
36D
  5
2D6
331
303
  5
2E6
331
3AC
  5
288
331
295
  5
384
331
33E
  5
2A7
331
369
  5
2D2
331
291
  5
380
331
2FF
  5
2E2
331
3A8
  5
284
331
33A
  5
2A3
331
266
  5
3B1
331
28D
  5
37C
331
2CC
  5
33C
331
2FB
  5
2DE
331
262
  5
3AD
331
289
  5
378
331
2C8
  5
338
331
3A4
  5
280
331
365
  5
2CE
331
3A0
  5
27C
331
2F7
  5
2DA
331
336
  5
29F
331
361
  5
2CA
331
35D
  5
2C6
331
39C
  5
278
331
2C4
  5
334
331
2F3
  5
363
331
332
  5
29B
331
25E
  5
3A9
331
285
  5
374
331
359
  5
2C2
331
398
  5
272
331
281
  5
370
331
2C0
  5
330
331
2EF
  5
35F
331
3BB
  5
297
331
25A
  5
3A5
331
32E
  5
311
331
32A
  5
30D
331
256
  5
3A1
331
27D
  5
36C
331
2BC
  5
32C
331
2EB
  5
35B
331
252
  5
39D
331
279
  5
368
331
2B8
  5
328
331
355
  5
2BE
331
394
  5
26E
331
390
  5
26A
331
2E7
  5
357
331
326
  5
309
331
351
  5
2BA
331
34D
  5
2B6
331
38C
  5
266
331
685
  5
685
331
2B4
  5
324
331
2E3
  5
353
331
24E
  5
399
331
322
  5
305
331
349
  5
2B2
331
388
  5
262
331
681
  5
681
331
2B0
  5
320
331
2DF
  5
34F
331
24A
  5
395
331
31E
  5
301
331
31A
  5
2FD
331
26D
  5
3B8
331
2AC
  5
31C
331
2DB
  5
34B
331
269
  5
3B4
331
2A8
  5
318
331
345
  5
2AE
331
384
  5
25E
331
380
  5
25A
331
2D7
  5
347
331
316
  5
2F9
331
341
  5
2AA
331
37C
  5
256
331
2A4
  5
393
331
2D3
  5
343
331
312
  5
2F5
331
378
  5
252
331
67D
  5
67D
331
2A0
  5
38F
331
30E
  5
2F1
331
30A
  5
2ED
331
29C
  5
38B
331
276
  5
365
331
272
  5
3BD
331
3B5
  5
291
331
298
  5
387
331
3B1
  5
28D
331
374
  5
24E
331
370
  5
24A
331
306
  5
2E9
331
3AF
  5
28B
331
36C
  5
2D5
331
302
  5
2E5
331
3AB
  5
287
331
294
  5
383
331
33D
  5
2A6
331
368
  5
2D1
331
290
  5
37F
331
2CF
  5
33F
331
2FE
  5
2E1
331
2FA
  5
2DD
331
339
  5
2A2
331
265
  5
3B0
331
28C
  5
37B
331
2CB
  5
33B
331
261
  5
3AC
331
288
  5
377
331
3A7
  5
283
331
3A3
  5
27F
331
364
  5
2CD
331
360
  5
2C9
331
39F
  5
27B
331
2F6
  5
2D9
331
335
  5
29E
331
2C7
  5
337
331
35C
  5
2C5
331
39B
  5
277
331
2C3
  5
333
331
2F2
  5
362
331
331
  5
314
331
3BE
  5
29A
331
25D
  5
3A8
331
284
  5
373
331
32D
  5
310
331
358
  5
2C1
331
280
  5
36F
331
2BF
  5
32F
331
2EE
  5
35E
331
3BA
  5
296
331
259
  5
3A4
331
329
  5
30C
331
255
  5
3A0
331
27C
  5
36B
331
2BB
  5
32B
331
2EA
  5
35A
331
251
  5
39C
331
278
  5
367
331
397
  5
271
331
393
  5
26D
331
354
  5
2BD
331
38F
  5
269
331
2E6
  5
356
331
325
  5
308
331
2B7
  5
327
331
350
  5
2B9
331
34C
  5
2B5
331
38B
  5
265
331
684
  5
684
331
2B3
  5
323
331
2E2
  5
352
331
24D
  5
398
331
321
  5
304
331
348
  5
2B1
331
680
  5
680
331
2AF
  5
31F
331
2DE
  5
34E
331
249
  5
394
331
31D
  5
300
331
319
  5
2FC
331
26C
  5
3B7
331
2AB
  5
31B
331
2DA
  5
34A
331
268
  5
3B3
331
387
  5
261
331
344
  5
2AD
331
383
  5
25D
331
37F
  5
259
331
2D6
  5
346
331
315
  5
2F8
331
2A7
  5
317
331
340
  5
2A9
331
37B
  5
255
331
2A3
  5
392
331
2D2
  5
342
331
311
  5
2F4
331
67C
  5
67C
331
29F
  5
38E
331
30D
  5
2F0
331
309
  5
2EC
331
29B
  5
38A
331
271
  5
3BC
331
3B4
  5
290
331
3B0
  5
28C
331
377
  5
251
331
373
  5
24D
331
36F
  5
249
331
305
  5
2E8
331
3AE
  5
28A
331
297
  5
386
331
36B
  5
2D4
331
293
  5
382
331
301
  5
2E4
331
3AA
  5
286
331
33C
  5
2A5
331
28F
  5
37E
331
2CE
  5
33E
331
2FD
  5
2E0
331
2F9
  5
2DC
331
338
  5
2A1
331
264
  5
3AF
331
28B
  5
37A
331
2CA
  5
33A
  0
ACDBDETAILVIEWSTYLE
  5
242
102
{ACAD_XDICTIONARY
360
71D
102
}
102
{ACAD_REACTORS
330
241
102
}
330
241
100
AcDbModelDocViewStyle
 70
     0
  3
Metric50
290
     0
100
AcDbDetailViewStyle
 70
     0
 71
     0
 90
        3
 71
     1
340
11
 40
5.0
340
0
 40
5.0
300

 40
0.0
280
     1
 71
     2
340
16
 90
       25
 71
     3
340
11
 40
5.0
 90
        0
 40
15.0
 90
        1
300
%<\AcVar ViewDetailId>% (%<\AcVar ViewScale \f "%sn">%)
 71
     4
340
16
 90
       25
340
16
 90
       25
280
     0
  0
GROUP
  5
687
102
{ACAD_REACTORS
330
D
102
}
330
D
100
AcDbGroup
300

 70
     1
 71
     1
340
67F
340
67E
340
2A4
340
2A3
340
2A2
340
2A1
340
2A0
340
29F
340
29E
340
29D
340
29C
340
29B
340
29A
340
299
340
298
340
297
340
296
340
295
340
294
340
293
340
292
340
291
340
290
340
28F
340
28E
340
28D
340
28C
340
28B
340
28A
340
289
340
288
340
287
340
286
340
285
340
284
340
283
340
282
340
281
340
280
340
27F
340
27E
340
27D
340
27C
340
27B
340
27A
340
279
340
278
340
277
340
276
  0
GROUP
  5
688
102
{ACAD_REACTORS
330
D
102
}
330
D
100
AcDbGroup
300

 70
     1
 71
     1
340
686
340
683
340
2F4
340
2F3
340
2F2
340
2F1
340
2F0
340
2EF
340
2EE
340
2ED
340
2EC
340
2EB
340
2EA
340
2E9
340
2E8
340
2E7
340
2E6
340
2E5
340
2E4
340
2E3
340
2E2
340
2E1
340
2E0
340
2DF
340
2DE
340
2DD
340
2DC
340
2DB
340
2DA
340
2D9
340
2D8
340
2D7
340
2D6
340
2D5
340
2D4
340
2D3
340
2D2
340
2D1
340
2D0
340
2CF
340
2CE
340
2CD
340
2CC
340
2CB
340
2CA
340
2C9
340
2C8
340
2C7
340
2C6
340
2C5
340
2C4
340
2C3
340
2C2
340
2C1
340
2C0
340
2BF
340
2BE
340
2BD
340
2BC
340
2BB
340
2BA
340
2B9
340
2B8
340
2B7
340
2B6
340
2B5
340
2B4
340
2B3
340
2B2
340
2B1
340
2B0
340
2AF
340
2AE
340
2AD
340
2AC
340
2AB
340
2AA
340
2A9
340
2A8
340
2A7
340
2A6
340
2A5
  0
GROUP
  5
689
102
{ACAD_REACTORS
330
D
102
}
330
D
100
AcDbGroup
300

 70
     1
 71
     1
340
685
340
682
340
331
340
330
340
32F
340
32E
340
32D
340
32C
340
32B
340
32A
340
329
340
328
340
327
340
326
340
325
340
324
340
323
340
322
340
321
340
320
340
31F
340
31E
340
31D
340
31C
340
31B
340
31A
340
319
340
318
340
317
340
316
340
315
340
314
340
313
340
312
340
311
340
310
340
30F
340
30E
340
30D
340
30C
340
30B
340
30A
340
309
340
308
340
307
340
306
340
305
340
304
340
303
340
302
340
301
340
300
340
2FF
340
2FE
340
2FD
340
2FC
340
2FB
340
2FA
340
2F9
340
2F8
340
2F7
340
2F6
340
2F5
  0
GROUP
  5
68A
102
{ACAD_REACTORS
330
D
102
}
330
D
100
AcDbGroup
300

 70
     1
 71
     1
340
684
340
681
340
3BE
340
3BD
340
3BC
340
3BB
340
3BA
340
3B9
340
3B8
340
3B7
340
3B6
340
3B5
340
3B4
340
3B3
340
3B2
340
3B1
340
3B0
340
3AF
340
3AE
340
3AD
340
3AC
340
3AB
340
3AA
340
3A9
340
3A8
340
3A7
340
3A6
340
3A5
340
3A4
340
3A3
340
3A2
340
3A1
340
3A0
340
39F
340
39E
340
39D
340
39C
340
39B
340
39A
340
399
340
398
340
397
340
396
340
395
340
394
340
393
340
392
340
391
340
390
340
38F
340
38E
340
38D
340
38C
340
38B
340
38A
340
389
340
388
340
387
340
386
340
385
340
384
340
383
340
382
340
381
340
380
340
37F
340
37E
340
37D
340
37C
340
37B
340
37A
340
379
340
378
340
377
340
376
340
375
340
374
340
373
340
372
340
371
340
370
340
36F
  0
GROUP
  5
68B
102
{ACAD_REACTORS
330
D
102
}
330
D
100
AcDbGroup
300

 70
     1
 71
     1
340
680
340
67B
340
36E
340
36D
340
36C
340
36B
340
36A
340
369
340
368
340
367
340
366
340
365
340
364
340
363
340
362
340
361
340
360
340
35F
340
35E
340
35D
340
35C
340
35B
340
35A
340
359
340
358
340
357
340
356
340
355
340
354
340
353
340
352
340
351
340
350
340
34F
340
34E
340
34D
340
34C
340
34B
340
34A
340
349
340
348
340
347
340
346
340
345
340
344
340
343
340
342
340
341
340
340
340
33F
340
33E
340
33D
340
33C
340
33B
340
33A
340
339
340
338
340
337
340
336
340
335
340
334
340
333
340
332
  0
GROUP
  5
68C
102
{ACAD_REACTORS
330
D
102
}
330
D
100
AcDbGroup
300

 70
     1
 71
     1
340
67D
340
67C
340
273
340
272
340
271
340
270
340
26F
340
26E
340
26D
340
26C
340
26B
340
26A
340
269
340
268
340
267
340
266
340
265
340
264
340
263
340
262
340
261
340
260
340
25F
340
25E
340
25D
340
25C
340
25B
340
25A
340
259
340
258
340
257
340
256
340
255
340
254
340
253
340
252
340
251
340
250
340
24F
340
24E
340
24D
340
24C
340
24B
340
24A
340
249
  0
LAYOUT
  5
1E
102
{ACAD_XDICTIONARY
360
6E6
102
}
102
{ACAD_REACTORS
330
1A
102
}
330
1A
100
AcDbPlotSettings
  1

  2
none_device
  4

  6

 40
0.0
 41
0.0
 42
0.0
 43
0.0
 44
0.0
 45
0.0
 46
0.0
 47
0.0
 48
0.0
 49
0.0
140
0.0
141
0.0
142
1.0
143
1.0
 70
   688
 72
     1
 73
     0
 74
     5
  7

 75
    16
147
1.0
148
0.0
149
0.0
100
AcDbLayout
  1
Layout1
 70
     1
 71
     1
 10
0.0
 20
0.0
 11
420.0
 21
297.0
 12
0.0
 22
0.0
 32
0.0
 14
1.000000000000000E+20
 24
1.000000000000000E+20
 34
1.000000000000000E+20
 15
-1.000000000000000E+20
 25
-1.000000000000000E+20
 35
-1.000000000000000E+20
146
0.0
 13
0.0
 23
0.0
 33
0.0
 16
1.0
 26
0.0
 36
0.0
 17
0.0
 27
1.0
 37
0.0
 76
     0
330
1B
  0
LAYOUT
  5
22
102
{ACAD_XDICTIONARY
360
6E8
102
}
102
{ACAD_REACTORS
330
1A
102
}
330
1A
100
AcDbPlotSettings
  1

  2
none_device
  4
Letter_(8.50_x_11.00_Inches)
  6

 40
6.349999999999998
 41
6.349999999999998
 42
6.350005079999998
 43
6.350005079999998
 44
215.9
 45
279.4
 46
0.0
 47
0.0
 48
0.0
 49
0.0
140
0.0
141
0.0
142
1.0
143
1.0
 70
  1712
 72
     1
 73
     0
 74
     0
  7

 75
     0
147
1.0
148
0.0
149
0.0
100
AcDbLayout
  1
Model
 70
     1
 71
     0
 10
-343.6058845520024
 20
-425.2426223754881
 11
972.8402709960937
 21
731.0426025390625
 12
0.0
 22
0.0
 32
0.0
 14
-343.6058845520024
 24
-425.2426223754881
 34
0.0
 15
972.8402709960937
 25
731.0426025390625
 35
0.0
146
0.0
 13
0.0
 23
0.0
 33
0.0
 16
1.0
 26
0.0
 36
0.0
 17
0.0
 27
1.0
 37
0.0
 76
     0
330
1F
331
29
  0
LAYOUT
  5
243
102
{ACAD_XDICTIONARY
360
71F
102
}
102
{ACAD_REACTORS
330
1A
102
}
330
1A
100
AcDbPlotSettings
  1

  2
青梅 FX DocuCentre-V C2275 T2
  4

  6

 40
0.0
 41
0.0
 42
0.0
 43
0.0
 44
0.0
 45
0.0
 46
0.0
 47
0.0
 48
0.0
 49
0.0
140
0.0
141
0.0
142
1.0
143
1.0
 70
   688
 72
     0
 73
     0
 74
     5
  7
AutoCAD_PEN.ctb
 75
    16
147
1.0
148
0.0
149
0.0
100
AcDbLayout
  1
レイアウト1
 70
     1
 71
     2
 10
0.0
 20
0.0
 11
12.0
 21
9.0
 12
0.0
 22
0.0
 32
0.0
 14
0.0
 24
0.0
 34
0.0
 15
0.0
 25
0.0
 35
0.0
146
0.0
 13
0.0
 23
0.0
 33
0.0
 16
1.0
 26
0.0
 36
0.0
 17
0.0
 27
1.0
 37
0.0
 76
     0
330
23
  0
MATERIAL
  5
45
102
{ACAD_XDICTIONARY
360
235
102
}
102
{ACAD_REACTORS
330
43
102
}
330
43
100
AcDbMaterial
  1
ByBlock
  0
MATERIAL
  5
44
102
{ACAD_XDICTIONARY
360
233
102
}
102
{ACAD_REACTORS
330
43
102
}
330
43
100
AcDbMaterial
  1
ByLayer
  0
MATERIAL
  5
46
102
{ACAD_XDICTIONARY
360
237
102
}
102
{ACAD_REACTORS
330
43
102
}
330
43
100
AcDbMaterial
  1
Global
  0
MLEADERSTYLE
  5
5C
102
{ACAD_REACTORS
330
5B
102
}
330
5B
100
AcDbMLeaderStyle
170
     2
171
     1
172
     0
 90
        2
 40
0.0
 41
0.0
173
     1
 91
-1056964608
340
14
 92
       -2
290
     1
 42
2.0
291
     1
 43
8.0
  3
Standard
 44
4.0
300

342
11
174
     1
178
     6
175
     1
176
     0
 93
-1056964608
 45
4.0
292
     0
297
     0
 46
4.0
 94
-1056964608
 47
1.0
 49
1.0
140
1.0
293
     1
141
0.0
294
     1
177
     0
142
1.0
295
     0
296
     0
143
3.75
1001
ACAD_MLEADERVER
1070
     2
  0
MLINESTYLE
  5
18
102
{ACAD_REACTORS
330
17
102
}
330
17
100
AcDbMlineStyle
  2
STANDARD
 70
     0
  3

 62
   256
 51
90.0
 52
90.0
 71
     2
 49
0.5
 62
   256
  6
BYLAYER
 49
-0.5
 62
   256
  6
BYLAYER
  0
ACDBPLACEHOLDER
  5
F
102
{ACAD_REACTORS
330
E
102
}
330
E
  0
SCALE
  5
48
102
{ACAD_REACTORS
330
47
102
}
330
47
100
AcDbScale
 70
     0
300
1:1
140
1.0
141
1.0
290
     1
  0
SCALE
  5
49
102
{ACAD_REACTORS
330
47
102
}
330
47
100
AcDbScale
 70
     0
300
1:2
140
1.0
141
2.0
290
     0
  0
SCALE
  5
4A
102
{ACAD_REACTORS
330
47
102
}
330
47
100
AcDbScale
 70
     0
300
1:4
140
1.0
141
4.0
290
     0
  0
SCALE
  5
4B
102
{ACAD_REACTORS
330
47
102
}
330
47
100
AcDbScale
 70
     0
300
1:5
140
1.0
141
5.0
290
     0
  0
SCALE
  5
4C
102
{ACAD_REACTORS
330
47
102
}
330
47
100
AcDbScale
 70
     0
300
1:8
140
1.0
141
8.0
290
     0
  0
SCALE
  5
4D
102
{ACAD_REACTORS
330
47
102
}
330
47
100
AcDbScale
 70
     0
300
1:10
140
1.0
141
10.0
290
     0
  0
SCALE
  5
4E
102
{ACAD_REACTORS
330
47
102
}
330
47
100
AcDbScale
 70
     0
300
1:16
140
1.0
141
16.0
290
     0
  0
SCALE
  5
4F
102
{ACAD_REACTORS
330
47
102
}
330
47
100
AcDbScale
 70
     0
300
1:20
140
1.0
141
20.0
290
     0
  0
SCALE
  5
50
102
{ACAD_REACTORS
330
47
102
}
330
47
100
AcDbScale
 70
     0
300
1:30
140
1.0
141
30.0
290
     0
  0
SCALE
  5
51
102
{ACAD_REACTORS
330
47
102
}
330
47
100
AcDbScale
 70
     0
300
1:40
140
1.0
141
40.0
290
     0
  0
SCALE
  5
52
102
{ACAD_REACTORS
330
47
102
}
330
47
100
AcDbScale
 70
     0
300
1:50
140
1.0
141
50.0
290
     0
  0
SCALE
  5
53
102
{ACAD_REACTORS
330
47
102
}
330
47
100
AcDbScale
 70
     0
300
1:100
140
1.0
141
100.0
290
     0
  0
SCALE
  5
54
102
{ACAD_REACTORS
330
47
102
}
330
47
100
AcDbScale
 70
     0
300
2:1
140
2.0
141
1.0
290
     0
  0
SCALE
  5
55
102
{ACAD_REACTORS
330
47
102
}
330
47
100
AcDbScale
 70
     0
300
4:1
140
4.0
141
1.0
290
     0
  0
SCALE
  5
56
102
{ACAD_REACTORS
330
47
102
}
330
47
100
AcDbScale
 70
     0
300
8:1
140
8.0
141
1.0
290
     0
  0
SCALE
  5
57
102
{ACAD_REACTORS
330
47
102
}
330
47
100
AcDbScale
 70
     0
300
10:1
140
10.0
141
1.0
290
     0
  0
SCALE
  5
58
102
{ACAD_REACTORS
330
47
102
}
330
47
100
AcDbScale
 70
     0
300
100:1
140
100.0
141
1.0
290
     0
  0
ACDBSECTIONVIEWSTYLE
  5
240
102
{ACAD_XDICTIONARY
360
71B
102
}
102
{ACAD_REACTORS
330
23F
102
}
330
23F
100
AcDbModelDocViewStyle
 70
     0
  3
Metric50
290
     0
100
AcDbSectionViewStyle
 70
     0
 71
     0
 90
      102
 71
     1
340
11
 40
5.0
340
0
340
0
 40
5.0
300
I, O, Q, S, X, Z
 40
10.0
 90
        0
 40
2.5
 90
        0
 71
     2
340
16
 90
       25
340
16
 90
       50
 40
5.0
 40
2.5
 40
5.0
 71
     3
340
11
 40
5.0
 90
        0
 40
15.0
 90
        1
300
%<\AcVar ViewSectionStartId>%-%<\AcVar ViewSectionEndId>% (%<\AcVar ViewScale \f "%sn">%)
 71
     4
300
ANSI31
 40
1.0
 90
        0
290
     0
290
     0
 90
        6
 40
0.0
 40
1.570796326794896
 40
0.2617993877991494
 40
1.308996938995747
 40
-0.2617993877991494
 40
1.832595714594045
  0
TABLESTYLE
  5
5A
102
{ACAD_XDICTIONARY
360
696
102
}
102
{ACAD_REACTORS
330
59
102
}
330
59
100
AcDbTableStyle
  3
Standard
 70
     0
 71
     0
 40
1.5
 41
1.5
280
     0
281
     0
  7
Standard
140
4.5
170
     2
 62
     0
 63
     7
283
     0
274
    -2
284
     1
 64
     0
275
    -2
285
     1
 65
     0
276
    -2
286
     1
 66
     0
277
    -2
287
     1
 67
     0
278
    -2
288
     1
 68
     0
279
    -2
289
     1
 69
     0
  7
Standard
140
6.0
170
     5
 62
     0
 63
     7
283
     0
274
    -2
284
     1
 64
     0
275
    -2
285
     1
 65
     0
276
    -2
286
     1
 66
     0
277
    -2
287
     1
 67
     0
278
    -2
288
     1
 68
     0
279
    -2
289
     1
 69
     0
  7
Standard
140
4.5
170
     5
 62
     0
 63
     7
283
     0
274
    -2
284
     1
 64
     0
275
    -2
285
     1
 65
     0
276
    -2
286
     1
 66
     0
277
    -2
287
     1
 67
     0
278
    -2
288
     1
 68
     0
279
    -2
289
     1
 69
     0
  0
VISUALSTYLE
  5
2F
102
{ACAD_XDICTIONARY
360
6F2
102
}
102
{ACAD_REACTORS
330
2A
102
}
330
2A
100
AcDbVisualStyle
  2

 70
     4
 71
     0
 72
     2
 73
     0
 90
        0
 40
-0.6
 41
-30.0
 62
     5
 63
     7
 74
     1
 91
        4
 64
     7
 65
   257
 75
     1
175
     1
 42
1.0
 92
        0
 66
   257
 43
1.0
 76
     1
 77
     6
 78
     2
 67
     7
 79
     5
170
     0
171
     0
290
     0
174
     0
 93
        1
 44
0.0
173
     0
291
     0
 45
0.0
1001
ACAD
1000
AcDbSavedByObjectVersion
1070
     0
  0
VISUALSTYLE
  5
32
102
{ACAD_XDICTIONARY
360
6F8
102
}
102
{ACAD_REACTORS
330
2A
102
}
330
2A
100
AcDbVisualStyle
  2

 70
     7
 71
     1
 72
     0
 73
     1
 90
        0
 40
-0.6
 41
-30.0
 62
     5
 63
     7
 74
     0
 91
        4
 64
     7
 65
   257
 75
     1
175
     1
 42
1.0
 92
        8
 66
     7
 43
1.0
 76
     1
 77
     6
 78
     2
 67
     7
 79
     5
170
     0
171
     0
290
     0
174
     0
 93
        1
 44
0.0
173
     0
291
     1
 45
0.0
1001
ACAD
1000
AcDbSavedByObjectVersion
1070
     0
  0
VISUALSTYLE
  5
36
102
{ACAD_XDICTIONARY
360
700
102
}
102
{ACAD_REACTORS
330
2A
102
}
330
2A
100
AcDbVisualStyle
  2

 70
    12
 71
     2
 72
     2
 73
     0
 90
        0
 40
-0.6
 41
-30.0
 62
     5
 63
     7
 74
     1
 91
        4
 64
     7
 65
   257
 75
     1
175
     1
 42
1.0
 92
        8
 66
     7
 43
1.0
 76
     1
 77
     6
 78
     2
 67
     7
 79
     5
170
     0
171
     0
290
     0
174
     0
 93
        1
 44
50.0
173
     0
291
     1
 45
0.0
1001
ACAD
1000
AcDbSavedByObjectVersion
1070
     0
  0
VISUALSTYLE
  5
3A
102
{ACAD_XDICTIONARY
360
708
102
}
102
{ACAD_REACTORS
330
2A
102
}
330
2A
100
AcDbVisualStyle
  2

 70
    16
 71
     2
 72
     2
 73
     3
 90
        0
 40
-0.6
 41
-30.0
 62
     5
 63
     8
 74
     1
 91
        4
 64
     7
 65
   257
 75
     1
175
     1
 42
1.0
 92
        8
 66
     8
 43
1.0
 76
     1
 77
     6
 78
     2
 67
     7
 79
     5
170
     0
171
     0
290
     0
174
     0
 93
        1
 44
0.0
173
     0
291
     1
 45
0.0
1001
ACAD
1000
AcDbSavedByObjectVersion
1070
     0
  0
VISUALSTYLE
  5
34
102
{ACAD_XDICTIONARY
360
6FC
102
}
102
{ACAD_REACTORS
330
2A
102
}
330
2A
100
AcDbVisualStyle
  2

 70
     9
 71
     3
 72
     2
 73
     0
 90
        0
 40
-0.6
 41
-30.0
 62
     5
 63
     7
 74
     2
 91
        2
 64
     7
 65
   257
 75
     1
175
     1
 42
179.0
 92
        8
 66
     7
 43
1.0
 76
     1
 77
     6
 78
     2
 67
     7
 79
     3
170
     0
171
     0
290
     0
174
     0
 93
        1
 44
0.0
173
     0
291
     0
 45
0.0
1001
ACAD
1000
AcDbSavedByObjectVersion
1070
     0
  0
VISUALSTYLE
  5
35
102
{ACAD_XDICTIONARY
360
6FE
102
}
102
{ACAD_REACTORS
330
2A
102
}
330
2A
100
AcDbVisualStyle
  2

 70
    11
 71
     2
 72
     2
 73
     0
 90
        0
 40
-0.6
 41
-30.0
 62
     5
 63
     7
 74
     1
 91
        4
 64
     7
 65
   257
 75
     1
175
     1
 42
1.0
 92
        8
 66
     7
 43
1.0
 76
     1
 77
     6
 78
     2
 67
     7
 79
     5
170
     0
171
     0
290
     0
174
     0
 93
        1
 44
-50.0
173
     0
291
     1
 45
0.0
1001
ACAD
1000
AcDbSavedByObjectVersion
1070
     0
  0
VISUALSTYLE
  5
3D
102
{ACAD_XDICTIONARY
360
70E
102
}
102
{ACAD_REACTORS
330
2A
102
}
330
2A
100
AcDbVisualStyle
  2

 70
    22
 71
     2
 72
     2
 73
     0
 90
        0
 40
-0.6
 41
-30.0
 62
     5
 63
     7
 74
     1
 91
        4
 64
     7
 65
   257
 75
     1
175
     1
 42
1.0
 92
        8
 66
     7
 43
1.0
 76
     1
 77
     6
 78
     2
 67
     7
 79
     5
170
     0
171
     0
290
     0
174
     0
 93
        1
 44
0.0
173
     0
291
     1
 45
0.0
1001
ACAD
1000
AcDbSavedByObjectVersion
1070
     0
  0
VISUALSTYLE
  5
39
102
{ACAD_XDICTIONARY
360
706
102
}
102
{ACAD_REACTORS
330
2A
102
}
330
2A
100
AcDbVisualStyle
  2

 70
    15
 71
     2
 72
     2
 73
     0
 90
        0
 40
-0.6
 41
-30.0
 62
     5
 63
     7
 74
     1
 91
        4
 64
     7
 65
   257
 75
     1
175
     1
 42
1.0
 92
        8
 66
     7
 43
1.0
 76
     1
 77
     6
 78
     2
 67
     7
 79
     5
170
     0
171
     0
290
     0
174
     0
 93
        1
 44
0.0
173
     0
291
     1
 45
0.0
1001
ACAD
1000
AcDbSavedByObjectVersion
1070
     0
  0
VISUALSTYLE
  5
2B
102
{ACAD_XDICTIONARY
360
6EA
102
}
102
{ACAD_REACTORS
330
2A
102
}
330
2A
100
AcDbVisualStyle
  2

 70
     0
 71
     2
 72
     1
 73
     1
 90
        2
 40
-0.6
 41
30.0
 62
     5
 63
     7
 74
     0
 91
        0
 64
     7
 65
   257
 75
     1
175
     1
 42
1.0
 92
        8
 66
     7
 43
1.0
 76
     1
 77
     6
 78
     2
 67
     7
 79
     5
170
     0
171
     0
290
     0
174
     0
 93
       13
 44
0.0
173
     0
291
     1
 45
0.0
1001
ACAD
1000
AcDbSavedByObjectVersion
1070
     0
  0
VISUALSTYLE
  5
2C
102
{ACAD_XDICTIONARY
360
6EC
102
}
102
{ACAD_REACTORS
330
2A
102
}
330
2A
100
AcDbVisualStyle
  2

 70
     1
 71
     2
 72
     1
 73
     1
 90
        2
 40
-0.6
 41
30.0
 62
     5
 63
     7
 74
     1
 91
        0
 64
     7
 65
   257
 75
     1
175
     1
 42
1.0
 92
        0
 66
   257
 43
1.0
 76
     1
 77
     6
 78
     2
 67
     7
 79
     5
170
     0
171
     0
290
     0
174
     0
 93
       13
 44
0.0
173
     0
291
     1
 45
0.0
1001
ACAD
1000
AcDbSavedByObjectVersion
1070
     0
  0
VISUALSTYLE
  5
2D
102
{ACAD_XDICTIONARY
360
6EE
102
}
102
{ACAD_REACTORS
330
2A
102
}
330
2A
100
AcDbVisualStyle
  2

 70
     2
 71
     2
 72
     2
 73
     1
 90
        2
 40
-0.6
 41
30.0
 62
     5
 63
     7
 74
     0
 91
        0
 64
     7
 65
   257
 75
     1
175
     1
 42
1.0
 92
        0
 66
     7
 43
1.0
 76
     1
 77
     6
 78
     2
 67
     7
 79
     5
170
     0
171
     0
290
     0
174
     0
 93
       13
 44
0.0
173
     0
291
     1
 45
0.0
1001
ACAD
1000
AcDbSavedByObjectVersion
1070
     0
  0
VISUALSTYLE
  5
2E
102
{ACAD_XDICTIONARY
360
6F0
102
}
102
{ACAD_REACTORS
330
2A
102
}
330
2A
100
AcDbVisualStyle
  2

 70
     3
 71
     2
 72
     2
 73
     1
 90
        2
 40
-0.6
 41
30.0
 62
     5
 63
     7
 74
     1
 91
        0
 64
     7
 65
   257
 75
     1
175
     1
 42
1.0
 92
        0
 66
   257
 43
1.0
 76
     1
 77
     6
 78
     2
 67
     7
 79
     5
170
     0
171
     0
290
     0
174
     0
 93
       13
 44
0.0
173
     0
291
     1
 45
0.0
1001
ACAD
1000
AcDbSavedByObjectVersion
1070
     0
  0
VISUALSTYLE
  5
31
102
{ACAD_XDICTIONARY
360
6F6
102
}
102
{ACAD_REACTORS
330
2A
102
}
330
2A
100
AcDbVisualStyle
  2

 70
     6
 71
     1
 72
     2
 73
     2
 90
        0
 40
-0.6
 41
-30.0
 62
     5
 63
     7
 74
     2
 91
        2
 64
     7
 65
   257
 75
     2
175
     1
 42
40.0
 92
        0
 66
   257
 43
1.0
 76
     1
 77
     6
 78
     2
 67
     7
 79
     3
170
     0
171
     0
290
     0
174
     0
 93
        1
 44
0.0
173
     0
291
     0
 45
0.0
1001
ACAD
1000
AcDbSavedByObjectVersion
1070
     0
  0
VISUALSTYLE
  5
3B
102
{ACAD_XDICTIONARY
360
70A
102
}
102
{ACAD_REACTORS
330
2A
102
}
330
2A
100
AcDbVisualStyle
  2

 70
    20
 71
     2
 72
     2
 73
     0
 90
        0
 40
-0.6
 41
-30.0
 62
     5
 63
     7
 74
     1
 91
        4
 64
     7
 65
   257
 75
     1
175
     1
 42
1.0
 92
       10
 66
     7
 43
1.0
 76
     1
 77
     6
 78
     2
 67
     7
 79
     5
170
     0
171
     0
290
     0
174
     0
 93
        1
 44
0.0
173
     0
291
     1
 45
0.0
1001
ACAD
1000
AcDbSavedByObjectVersion
1070
     0
  0
VISUALSTYLE
  5
38
102
{ACAD_XDICTIONARY
360
704
102
}
102
{ACAD_REACTORS
330
2A
102
}
330
2A
100
AcDbVisualStyle
  2

 70
    14
 71
     2
 72
     2
 73
     0
 90
        0
 40
-0.6
 41
-30.0
 62
     5
 63
     7
 74
     1
 91
        4
 64
     7
 65
   257
 75
     7
175
     7
 42
1.0
 92
        8
 66
     7
 43
1.0
 76
     1
 77
     6
 78
     2
 67
     7
 79
     5
170
     0
171
     0
290
     0
174
     0
 93
        1
 44
0.0
173
     0
291
     1
 45
0.0
1001
ACAD
1000
AcDbSavedByObjectVersion
1070
     0
  0
VISUALSTYLE
  5
3C
102
{ACAD_XDICTIONARY
360
70C
102
}
102
{ACAD_REACTORS
330
2A
102
}
330
2A
100
AcDbVisualStyle
  2

 70
    21
 71
     2
 72
     2
 73
     0
 90
        0
 40
-0.6
 41
-30.0
 62
     5
 63
     7
 74
     1
 91
        4
 64
     7
 65
   257
 75
     1
175
     1
 42
1.0
 92
        9
 66
     7
 43
1.0
 76
     1
 77
     6
 78
     2
 67
     7
 79
     5
170
     0
171
     0
290
     0
174
     0
 93
        1
 44
0.0
173
     0
291
     1
 45
0.0
1001
ACAD
1000
AcDbSavedByObjectVersion
1070
     0
  0
VISUALSTYLE
  5
33
102
{ACAD_XDICTIONARY
360
6FA
102
}
102
{ACAD_REACTORS
330
2A
102
}
330
2A
100
AcDbVisualStyle
  2

 70
     8
 71
     2
 72
     3
 73
     0
 90
        2
 40
-0.6
 41
30.0
 62
     5
 63
     7
 74
     0
 91
        0
 64
     7
 65
   257
 75
     1
175
     1
 42
1.0
 92
        8
 66
   257
 43
1.0
 76
     1
 77
     6
 78
     2
 67
     7
 79
     3
170
     0
171
     0
290
     0
174
     0
 93
       13
 44
0.0
173
     0
291
     0
 45
0.0
1001
ACAD
1000
AcDbSavedByObjectVersion
1070
     0
  0
VISUALSTYLE
  5
42
102
{ACAD_XDICTIONARY
360
718
102
}
102
{ACAD_REACTORS
330
2A
102
}
330
2A
100
AcDbVisualStyle
  2

 70
    27
 71
     2
 72
     2
 73
     1
 90
        2
 40
-0.6
 41
30.0
 62
     5
 63
     7
 74
     0
 91
        4
 64
     7
 65
   257
 75
     1
175
     1
 42
1.0
 92
        8
 66
   257
 43
1.0
 76
     1
 77
     6
 78
     2
 67
     8
 79
     3
170
     0
171
     0
290
     0
174
     0
 93
        5
 44
0.0
173
     0
291
     0
 45
0.0
1001
ACAD
1000
AcDbSavedByObjectVersion
1070
     0
  0
VISUALSTYLE
  5
41
102
{ACAD_XDICTIONARY
360
716
102
}
102
{ACAD_REACTORS
330
2A
102
}
330
2A
100
AcDbVisualStyle
  2

 70
    26
 71
     2
 72
     2
 73
     1
 90
        2
 40
-0.6
 41
30.0
 62
     5
 63
     7
 74
     1
 91
       10
 64
     7
 65
   257
 75
     2
175
     1
 42
1.0
 92
        8
 66
   257
 43
1.0
 76
     1
 77
     6
 78
     2
 67
     7
 79
     3
170
     0
171
     0
290
     0
174
     0
 93
        5
 44
0.0
173
     0
291
     0
 45
0.0
1001
ACAD
1000
AcDbSavedByObjectVersion
1070
     0
  0
VISUALSTYLE
  5
3E
102
{ACAD_XDICTIONARY
360
710
102
}
102
{ACAD_REACTORS
330
2A
102
}
330
2A
100
AcDbVisualStyle
  2

 70
    23
 71
     2
 72
     2
 73
     3
 90
        0
 40
-0.6
 41
-30.0
 62
     5
 63
     7
 74
     2
 91
        2
 64
     7
 65
     7
 75
     1
175
     1
 42
40.0
 92
        8
 66
     7
 43
1.0
 76
     1
 77
     6
 78
     2
 67
     7
 79
     3
170
     0
171
     0
290
     0
174
     0
 93
        1
 44
0.0
173
     0
291
     0
 45
0.0
1001
ACAD
1000
AcDbSavedByObjectVersion
1070
     0
  0
VISUALSTYLE
  5
3F
102
{ACAD_XDICTIONARY
360
712
102
}
102
{ACAD_REACTORS
330
2A
102
}
330
2A
100
AcDbVisualStyle
  2

 70
    24
 71
     1
 72
     2
 73
     2
 90
        0
 40
-0.6
 41
-30.0
 62
     5
 63
     7
 74
     2
 91
        2
 64
     7
 65
     7
 75
     1
175
     1
 42
40.0
 92
       11
 66
     7
 43
1.0
 76
     1
 77
     6
 78
     2
 67
     7
 79
     6
170
     0
171
     0
290
     0
174
     0
 93
        1
 44
0.0
173
     0
291
     0
 45
0.0
1001
ACAD
1000
AcDbSavedByObjectVersion
1070
     0
  0
VISUALSTYLE
  5
37
102
{ACAD_XDICTIONARY
360
702
102
}
102
{ACAD_REACTORS
330
2A
102
}
330
2A
100
AcDbVisualStyle
  2

 70
    13
 71
     2
 72
     2
 73
     0
 90
        0
 40
-0.6
 41
-30.0
 62
     5
 63
     7
 74
     1
 91
        4
 64
     7
 65
   257
 75
     1
175
     1
 42
1.0
 92
       12
 66
     7
 43
1.0
 76
     1
 77
     6
 78
     2
 67
     7
 79
     5
170
     0
171
     0
290
     0
174
     0
 93
        1
 44
0.0
173
     0
291
     1
 45
0.0
1001
ACAD
1000
AcDbSavedByObjectVersion
1070
     0
  0
VISUALSTYLE
  5
30
102
{ACAD_XDICTIONARY
360
6F4
102
}
102
{ACAD_REACTORS
330
2A
102
}
330
2A
100
AcDbVisualStyle
  2

 70
     5
 71
     0
 72
     2
 73
     0
 90
        0
 40
-0.6
 41
-30.0
 62
     5
 63
     7
 74
     1
 91
        4
 64
     7
 65
   257
 75
     1
175
     1
 42
1.0
 92
        0
 66
   257
 43
1.0
 76
     1
 77
     6
 78
     2
 67
     7
 79
     3
170
     0
171
     0
290
     0
174
     0
 93
        1
 44
0.0
173
     0
291
     0
 45
0.0
1001
ACAD
1000
AcDbSavedByObjectVersion
1070
     0
  0
VISUALSTYLE
  5
40
102
{ACAD_XDICTIONARY
360
714
102
}
102
{ACAD_REACTORS
330
2A
102
}
330
2A
100
AcDbVisualStyle
  2

 70
    25
 71
     2
 72
     2
 73
     1
 90
        1
 40
0.5
 41
-30.0
 62
     5
 63
     7
 74
     1
 91
        0
 64
     7
 65
   257
 75
     1
175
     1
 42
1.0
 92
        8
 66
     7
 43
1.0
 76
     1
 77
     6
 78
     2
 67
     7
 79
     3
170
     0
171
     0
290
     0
174
     0
 93
       13
 44
0.0
173
     0
291
     0
 45
0.0
1001
ACAD
1000
AcDbSavedByObjectVersion
1070
     0
  0
DICTIONARYVAR
  5
201
102
{ACAD_REACTORS
330
1F3
102
}
330
1F3
100
DictionaryVariables
280
     0
  1
1:1
  0
DICTIONARYVAR
  5
1FA
102
{ACAD_REACTORS
330
1F3
102
}
330
1F3
100
DictionaryVariables
280
     0
  1
3.500000
  0
DICTIONARYVAR
  5
1FB
102
{ACAD_REACTORS
330
1F3
102
}
330
1F3
100
DictionaryVariables
280
     0
  1
acadiso.lin
  0
DICTIONARYVAR
  5
1F5
102
{ACAD_REACTORS
330
1F3
102
}
330
1F3
100
DictionaryVariables
280
     0
  1
STANDARD
  0
DICTIONARYVAR
  5
1F4
102
{ACAD_REACTORS
330
1F3
102
}
330
1F3
100
DictionaryVariables
280
     0
  1
STANDARD
  0
DICTIONARYVAR
  5
691
102
{ACAD_REACTORS
330
1F3
102
}
330
1F3
100
DictionaryVariables
280
     0
  1
Metric50
  0
DICTIONARYVAR
  5
692
102
{ACAD_REACTORS
330
1F3
102
}
330
1F3
100
DictionaryVariables
280
     0
  1
Metric50
  0
DICTIONARYVAR
  5
1FC
102
{ACAD_REACTORS
330
1F3
102
}
330
1F3
100
DictionaryVariables
280
     0
  1
2
  0
DICTIONARYVAR
  5
1FD
102
{ACAD_REACTORS
330
1F3
102
}
330
1F3
100
DictionaryVariables
280
     0
  1
1
  0
DICTIONARYVAR
  5
6DC
102
{ACAD_REACTORS
330
1F3
102
}
330
1F3
100
DictionaryVariables
280
     0
  1
0
  0
DICTIONARYVAR
  5
694
102
{ACAD_REACTORS
330
1F3
102
}
330
1F3
100
DictionaryVariables
280
     0
  1
1
  0
DICTIONARYVAR
  5
695
102
{ACAD_REACTORS
330
1F3
102
}
330
1F3
100
DictionaryVariables
280
     0
  1
15
  0
DICTIONARYVAR
  5
693
102
{ACAD_REACTORS
330
1F3
102
}
330
1F3
100
DictionaryVariables
280
     0
  1
0
  0
DICTIONARYVAR
  5
6DF
102
{ACAD_REACTORS
330
1F3
102
}
330
1F3
100
DictionaryVariables
280
     0
  1
1.570796
  0
DICTIONARYVAR
  5
6E0
102
{ACAD_REACTORS
330
1F3
102
}
330
1F3
100
DictionaryVariables
280
     0
  1
1.570796
  0
DICTIONARYVAR
  5
6E1
102
{ACAD_REACTORS
330
1F3
102
}
330
1F3
100
DictionaryVariables
280
     0
  1
-122.394000
  0
DICTIONARYVAR
  5
202
102
{ACAD_REACTORS
330
1F3
102
}
330
1F3
100
DictionaryVariables
280
     0
  1
1
  0
DICTIONARYVAR
  5
6DE
102
{ACAD_REACTORS
330
1F3
102
}
330
1F3
100
DictionaryVariables
280
     0
  1
80.000000
  0
DICTIONARYVAR
  5
6DD
102
{ACAD_REACTORS
330
1F3
102
}
330
1F3
100
DictionaryVariables
280
     0
  1
5.000000
  0
DICTIONARYVAR
  5
6DB
102
{ACAD_REACTORS
330
1F3
102
}
330
1F3
100
DictionaryVariables
280
     0
  1
127
  0
DICTIONARYVAR
  5
6E2
102
{ACAD_REACTORS
330
1F3
102
}
330
1F3
100
DictionaryVariables
280
     0
  1
2
  0
DICTIONARY
  5
71D
330
242
100
AcDbDictionary
280
     1
281
     1
  3
ACAD_XREC_ROUNDTRIP
360
71E
  0
DICTIONARY
  5
6E6
330
1E
100
AcDbDictionary
280
     1
281
     1
  3
ACAD_XREC_ROUNDTRIP
360
6E7
  0
DICTIONARY
  5
6E8
330
22
100
AcDbDictionary
280
     1
281
     1
  3
ACAD_XREC_ROUNDTRIP
360
6E9
  0
DICTIONARY
  5
71F
330
243
100
AcDbDictionary
280
     1
281
     1
  3
ACAD_XREC_ROUNDTRIP
360
720
  0
DICTIONARY
  5
235
330
45
100
AcDbDictionary
280
     1
281
     1
  3
ACAD_XREC_ROUNDTRIP
360
236
  0
DICTIONARY
  5
233
330
44
100
AcDbDictionary
280
     1
281
     1
  3
ACAD_XREC_ROUNDTRIP
360
234
  0
DICTIONARY
  5
237
330
46
100
AcDbDictionary
280
     1
281
     1
  3
ACAD_XREC_ROUNDTRIP
360
238
  0
DICTIONARY
  5
71B
330
240
100
AcDbDictionary
280
     1
281
     1
  3
ACAD_XREC_ROUNDTRIP
360
71C
  0
DICTIONARY
  5
696
330
5A
100
AcDbDictionary
280
     1
281
     1
  3
ACAD_ROUNDTRIP_2008_TABLESTYLE_CELLSTYLEMAP
360
6E3
  3
ACAD_XREC_ROUNDTRIP
360
71A
  0
DICTIONARY
  5
6F2
330
2F
100
AcDbDictionary
280
     1
281
     1
  3
ACAD_XREC_ROUNDTRIP
360
6F3
  0
DICTIONARY
  5
6F8
330
32
100
AcDbDictionary
280
     1
281
     1
  3
ACAD_XREC_ROUNDTRIP
360
6F9
  0
DICTIONARY
  5
700
330
36
100
AcDbDictionary
280
     1
281
     1
  3
ACAD_XREC_ROUNDTRIP
360
701
  0
DICTIONARY
  5
708
330
3A
100
AcDbDictionary
280
     1
281
     1
  3
ACAD_XREC_ROUNDTRIP
360
709
  0
DICTIONARY
  5
6FC
330
34
100
AcDbDictionary
280
     1
281
     1
  3
ACAD_XREC_ROUNDTRIP
360
6FD
  0
DICTIONARY
  5
6FE
330
35
100
AcDbDictionary
280
     1
281
     1
  3
ACAD_XREC_ROUNDTRIP
360
6FF
  0
DICTIONARY
  5
70E
330
3D
100
AcDbDictionary
280
     1
281
     1
  3
ACAD_XREC_ROUNDTRIP
360
70F
  0
DICTIONARY
  5
706
330
39
100
AcDbDictionary
280
     1
281
     1
  3
ACAD_XREC_ROUNDTRIP
360
707
  0
DICTIONARY
  5
6EA
330
2B
100
AcDbDictionary
280
     1
281
     1
  3
ACAD_XREC_ROUNDTRIP
360
6EB
  0
DICTIONARY
  5
6EC
330
2C
100
AcDbDictionary
280
     1
281
     1
  3
ACAD_XREC_ROUNDTRIP
360
6ED
  0
DICTIONARY
  5
6EE
330
2D
100
AcDbDictionary
280
     1
281
     1
  3
ACAD_XREC_ROUNDTRIP
360
6EF
  0
DICTIONARY
  5
6F0
330
2E
100
AcDbDictionary
280
     1
281
     1
  3
ACAD_XREC_ROUNDTRIP
360
6F1
  0
DICTIONARY
  5
6F6
330
31
100
AcDbDictionary
280
     1
281
     1
  3
ACAD_XREC_ROUNDTRIP
360
6F7
  0
DICTIONARY
  5
70A
330
3B
100
AcDbDictionary
280
     1
281
     1
  3
ACAD_XREC_ROUNDTRIP
360
70B
  0
DICTIONARY
  5
704
330
38
100
AcDbDictionary
280
     1
281
     1
  3
ACAD_XREC_ROUNDTRIP
360
705
  0
DICTIONARY
  5
70C
330
3C
100
AcDbDictionary
280
     1
281
     1
  3
ACAD_XREC_ROUNDTRIP
360
70D
  0
DICTIONARY
  5
6FA
330
33
100
AcDbDictionary
280
     1
281
     1
  3
ACAD_XREC_ROUNDTRIP
360
6FB
  0
DICTIONARY
  5
718
330
42
100
AcDbDictionary
280
     1
281
     1
  3
ACAD_XREC_ROUNDTRIP
360
719
  0
DICTIONARY
  5
716
330
41
100
AcDbDictionary
280
     1
281
     1
  3
ACAD_XREC_ROUNDTRIP
360
717
  0
DICTIONARY
  5
710
330
3E
100
AcDbDictionary
280
     1
281
     1
  3
ACAD_XREC_ROUNDTRIP
360
711
  0
DICTIONARY
  5
712
330
3F
100
AcDbDictionary
280
     1
281
     1
  3
ACAD_XREC_ROUNDTRIP
360
713
  0
DICTIONARY
  5
702
330
37
100
AcDbDictionary
280
     1
281
     1
  3
ACAD_XREC_ROUNDTRIP
360
703
  0
DICTIONARY
  5
6F4
330
30
100
AcDbDictionary
280
     1
281
     1
  3
ACAD_XREC_ROUNDTRIP
360
6F5
  0
DICTIONARY
  5
714
330
40
100
AcDbDictionary
280
     1
281
     1
  3
ACAD_XREC_ROUNDTRIP
360
715
  0
XRECORD
  5
71E
102
{ACAD_REACTORS
330
71D
102
}
330
71D
100
AcDbXrecord
280
     1
102
DISPLAYNAME
  1
Metric50
102
FLAGS
 90
        0
  0
XRECORD
  5
6E7
102
{ACAD_REACTORS
330
6E6
102
}
330
6E6
100
AcDbXrecord
280
     1
102
SHADEPLOT
 70
     0
102
SHADEPLOTRESLEVEL
 70
     2
102
SHADEPLOTCUSTOMDPI
 70
   300
  0
XRECORD
  5
6E9
102
{ACAD_REACTORS
330
6E8
102
}
330
6E8
100
AcDbXrecord
280
     1
102
SHADEPLOT
 70
     0
102
SHADEPLOTRESLEVEL
 70
     2
102
SHADEPLOTCUSTOMDPI
 70
   300
  0
XRECORD
  5
720
102
{ACAD_REACTORS
330
71F
102
}
330
71F
100
AcDbXrecord
280
     1
102
SHADEPLOT
 70
     0
102
SHADEPLOTRESLEVEL
 70
     2
102
SHADEPLOTCUSTOMDPI
 70
   300
  0
XRECORD
  5
236
102
{ACAD_REACTORS
330
235
102
}
330
235
100
AcDbXrecord
280
     1
102
MATERIAL
148
0.0
149
0.0
149
0.0
 93
        0
 94
      127
282
     0
 72
     1
 77
     1
171
     1
175
     1
179
     1
273
     0
  0
XRECORD
  5
234
102
{ACAD_REACTORS
330
233
102
}
330
233
100
AcDbXrecord
280
     1
102
MATERIAL
148
0.0
149
0.0
149
0.0
 93
        0
 94
      127
282
     0
 72
     1
 77
     1
171
     1
175
     1
179
     1
273
     0
  0
XRECORD
  5
238
102
{ACAD_REACTORS
330
237
102
}
330
237
100
AcDbXrecord
280
     1
102
MATERIAL
148
0.0
149
0.0
149
0.0
 93
        0
 94
      127
282
     0
 72
     1
 77
     1
171
     1
175
     1
179
     1
273
     0
  0
XRECORD
  5
71C
102
{ACAD_REACTORS
330
71B
102
}
330
71B
100
AcDbXrecord
280
     1
102
DISPLAYNAME
  1
Metric50
102
FLAGS
 90
        0
  0
CELLSTYLEMAP
  5
6E3
102
{ACAD_REACTORS
330
696
102
}
330
696
100
AcDbCellStyleMap
 90
        3
300
CELLSTYLE
  1
TABLEFORMAT_BEGIN
 90
        5
170
     1
 91
        0
 92
    32768
 62
   257
 93
        1
300
CONTENTFORMAT
  1
CONTENTFORMAT_BEGIN
 90
        0
 91
        0
 92
        4
 93
        0
300

 40
0.0
140
1.0
 94
        5
 62
     0
340
11
144
6.0
309
CONTENTFORMAT_END
171
     1
301
MARGIN
  1
CELLMARGIN_BEGIN
 40
1.5
 40
1.5
 40
1.5
 40
1.5
 40
0.18
 40
0.18
309
CELLMARGIN_END
 94
        6
 95
        1
302
GRIDFORMAT
  1
GRIDFORMAT_BEGIN
 90
        0
 91
        1
 62
     0
 92
       -2
340
0
 93
        0
 40
0.045
309
GRIDFORMAT_END
 95
        2
302
GRIDFORMAT
  1
GRIDFORMAT_BEGIN
 90
        0
 91
        1
 62
     0
 92
       -2
340
0
 93
        0
 40
0.045
309
GRIDFORMAT_END
 95
        4
302
GRIDFORMAT
  1
GRIDFORMAT_BEGIN
 90
        0
 91
        1
 62
     0
 92
       -2
340
0
 93
        0
 40
0.045
309
GRIDFORMAT_END
 95
        8
302
GRIDFORMAT
  1
GRIDFORMAT_BEGIN
 90
        0
 91
        1
 62
     0
 92
       -2
340
0
 93
        0
 40
0.045
309
GRIDFORMAT_END
 95
       16
302
GRIDFORMAT
  1
GRIDFORMAT_BEGIN
 90
        0
 91
        1
 62
     0
 92
       -2
340
0
 93
        0
 40
0.045
309
GRIDFORMAT_END
 95
       32
302
GRIDFORMAT
  1
GRIDFORMAT_BEGIN
 90
        0
 91
        1
 62
     0
 92
       -2
340
0
 93
        0
 40
0.045
309
GRIDFORMAT_END
309
TABLEFORMAT_END
  1
CELLSTYLE_BEGIN
 90
        1
 91
        1
300
_TITLE
309
CELLSTYLE_END
300
CELLSTYLE
  1
TABLEFORMAT_BEGIN
 90
        5
170
     1
 91
        0
 92
        0
 62
   257
 93
        1
300
CONTENTFORMAT
  1
CONTENTFORMAT_BEGIN
 90
        0
 91
        0
 92
        4
 93
        0
300

 40
0.0
140
1.0
 94
        5
 62
     0
340
11
144
4.5
309
CONTENTFORMAT_END
171
     1
301
MARGIN
  1
CELLMARGIN_BEGIN
 40
1.5
 40
1.5
 40
1.5
 40
1.5
 40
0.18
 40
0.18
309
CELLMARGIN_END
 94
        6
 95
        1
302
GRIDFORMAT
  1
GRIDFORMAT_BEGIN
 90
        0
 91
        1
 62
     0
 92
       -2
340
0
 93
        0
 40
0.045
309
GRIDFORMAT_END
 95
        2
302
GRIDFORMAT
  1
GRIDFORMAT_BEGIN
 90
        0
 91
        1
 62
     0
 92
       -2
340
0
 93
        0
 40
0.045
309
GRIDFORMAT_END
 95
        4
302
GRIDFORMAT
  1
GRIDFORMAT_BEGIN
 90
        0
 91
        1
 62
     0
 92
       -2
340
0
 93
        0
 40
0.045
309
GRIDFORMAT_END
 95
        8
302
GRIDFORMAT
  1
GRIDFORMAT_BEGIN
 90
        0
 91
        1
 62
     0
 92
       -2
340
0
 93
        0
 40
0.045
309
GRIDFORMAT_END
 95
       16
302
GRIDFORMAT
  1
GRIDFORMAT_BEGIN
 90
        0
 91
        1
 62
     0
 92
       -2
340
0
 93
        0
 40
0.045
309
GRIDFORMAT_END
 95
       32
302
GRIDFORMAT
  1
GRIDFORMAT_BEGIN
 90
        0
 91
        1
 62
     0
 92
       -2
340
0
 93
        0
 40
0.045
309
GRIDFORMAT_END
309
TABLEFORMAT_END
  1
CELLSTYLE_BEGIN
 90
        2
 91
        1
300
_HEADER
309
CELLSTYLE_END
300
CELLSTYLE
  1
TABLEFORMAT_BEGIN
 90
        5
170
     1
 91
        0
 92
        0
 62
   257
 93
        1
300
CONTENTFORMAT
  1
CONTENTFORMAT_BEGIN
 90
        0
 91
        0
 92
        4
 93
        0
300

 40
0.0
140
1.0
 94
        2
 62
     0
340
11
144
4.5
309
CONTENTFORMAT_END
171
     1
301
MARGIN
  1
CELLMARGIN_BEGIN
 40
1.5
 40
1.5
 40
1.5
 40
1.5
 40
0.18
 40
0.18
309
CELLMARGIN_END
 94
        6
 95
        1
302
GRIDFORMAT
  1
GRIDFORMAT_BEGIN
 90
        0
 91
        1
 62
     0
 92
       -2
340
0
 93
        0
 40
0.045
309
GRIDFORMAT_END
 95
        2
302
GRIDFORMAT
  1
GRIDFORMAT_BEGIN
 90
        0
 91
        1
 62
     0
 92
       -2
340
0
 93
        0
 40
0.045
309
GRIDFORMAT_END
 95
        4
302
GRIDFORMAT
  1
GRIDFORMAT_BEGIN
 90
        0
 91
        1
 62
     0
 92
       -2
340
0
 93
        0
 40
0.045
309
GRIDFORMAT_END
 95
        8
302
GRIDFORMAT
  1
GRIDFORMAT_BEGIN
 90
        0
 91
        1
 62
     0
 92
       -2
340
0
 93
        0
 40
0.045
309
GRIDFORMAT_END
 95
       16
302
GRIDFORMAT
  1
GRIDFORMAT_BEGIN
 90
        0
 91
        1
 62
     0
 92
       -2
340
0
 93
        0
 40
0.045
309
GRIDFORMAT_END
 95
       32
302
GRIDFORMAT
  1
GRIDFORMAT_BEGIN
 90
        0
 91
        1
 62
     0
 92
       -2
340
0
 93
        0
 40
0.045
309
GRIDFORMAT_END
309
TABLEFORMAT_END
  1
CELLSTYLE_BEGIN
 90
        3
 91
        2
300
_DATA
309
CELLSTYLE_END
  0
XRECORD
  5
71A
102
{ACAD_REACTORS
330
696
102
}
330
696
100
AcDbXrecord
280
     1
102
ACAD_ROUNDTRIP_PRE2007_TABLESTYLE
 90
        4
 91
        0
  1

 92
        4
 93
        0
  2

 94
        4
 95
        0
  3

  0
XRECORD
  5
6F3
102
{ACAD_REACTORS
330
6F2
102
}
330
6F2
100
AcDbXrecord
280
     1
102
RTVSPost2010Prop28
280
     1
102
RTVSPost2010PropOp28
 70
     1
102
RTVSPost2010Prop29
280
     1
102
RTVSPost2010PropOp29
 70
     1
102
RTVSPost2010Prop30
280
     0
102
RTVSPost2010PropOp30
 70
     1
102
RTVSPost2010Prop31
280
     0
102
RTVSPost2010PropOp31
 70
     1
102
RTVSPost2010Prop32
280
     0
102
RTVSPost2010PropOp32
 70
     1
102
RTVSPost2010Prop33
280
     0
102
RTVSPost2010PropOp33
 70
     1
102
RTVSPost2010Prop34
280
     0
102
RTVSPost2010PropOp34
 70
     1
102
RTVSPost2010Prop35
280
     0
102
RTVSPost2010PropOp35
 70
     1
102
RTVSPost2010Prop36
280
     0
102
RTVSPost2010PropOp36
 70
     1
102
RTVSPost2010Prop37
 90
       50
102
RTVSPost2010PropOp37
 70
     1
102
RTVSPost2010Prop38
140
0.0
102
RTVSPost2010PropOp38
 70
     1
102
RTVSPost2010Prop39
140
1.0
102
RTVSPost2010PropOp39
 70
     1
102
RTVSPost2010Prop40
 90
        0
102
RTVSPost2010PropOp40
 70
     1
102
RTVSPost2010Prop41ColorIndex
 90
       18
102
RTVSPost2010Prop41ColorRGB
 90
        0
102
RTVSPost2010PropOp41
 70
     1
102
RTVSPost2010Prop42
 90
       50
102
RTVSPost2010PropOp42
 70
     1
102
RTVSPost2010Prop43
 90
        3
102
RTVSPost2010PropOp43
 70
     1
102
RTVSPost2010Prop44ColorIndex
 90
        5
102
RTVSPost2010Prop44ColorRGB
 90
      255
102
RTVSPost2010PropOp44
 70
     1
102
RTVSPost2010Prop45
280
     0
102
RTVSPost2010PropOp45
 70
     1
102
RTVSPost2010Prop46
 90
       50
102
RTVSPost2010PropOp46
 70
     1
102
RTVSPost2010Prop47
 90
       50
102
RTVSPost2010PropOp47
 70
     1
102
RTVSPost2010Prop48
 90
       50
102
RTVSPost2010PropOp48
 70
     1
102
RTVSPost2010Prop49
280
     0
102
RTVSPost2010PropOp49
 70
     1
102
RTVSPost2010Prop50
 90
       50
102
RTVSPost2010PropOp50
 70
     1
102
RTVSPost2010Prop51ColorIndex
 90
      256
102
RTVSPost2010Prop51ColorRGB
 90
-16777216
102
RTVSPost2010PropOp51
 70
     0
102
RTVSPost2010Prop52
140
1.0
102
RTVSPost2010PropOp52
 70
     0
102
RTVSPost2010Prop53
 90
        2
102
RTVSPost2010PropOp53
 70
     1
102
RTVSPost2010Prop54
  1
strokes_ogs.tif
102
RTVSPost2010PropOp54
 70
     1
102
RTVSPost2010Prop55
280
     0
102
RTVSPost2010PropOp55
 70
     1
102
RTVSPost2010Prop56
140
1.0
102
RTVSPost2010PropOp56
 70
     1
102
RTVSPost2010Prop57
140
1.0
102
RTVSPost2010PropOp57
 70
     1
102
RTVSPropertyOp0
 70
     1
102
RTVSPropertyOp1
 70
     1
102
RTVSPropertyOp2
 70
     1
102
RTVSPropertyOp3
 70
     1
102
RTVSPropertyOp4
 70
     1
102
RTVSPropertyOp5
 70
     1
102
RTVSPropertyOp6
 70
     1
102
RTVSPropertyOp7
 70
     1
102
RTVSPropertyOp8
 70
     1
102
RTVSPropertyOp9
 70
     1
102
RTVSPropertyOp10
 70
     1
102
RTVSPropertyOp11
 70
     1
102
RTVSPropertyOp12
 70
     1
102
RTVSPropertyOp13
 70
     1
102
RTVSPropertyOp14
 70
     1
102
RTVSPropertyOp15
 70
     1
102
RTVSPropertyOp16
 70
     1
102
RTVSPropertyOp17
 70
     1
102
RTVSPropertyOp18
 70
     1
102
RTVSPropertyOp19
 70
     1
102
RTVSPropertyOp20
 70
     1
102
RTVSPropertyOp21
 70
     1
102
RTVSPropertyOp22
 70
     1
102
RTVSPropertyOp23
 70
     1
102
RTVSPropertyOp24
 70
     1
102
RTVSPropertyOp25
 70
     1
102
RTVSPropertyOp26
 70
     1
102
RTVSPropertyOp27
 70
     1
102
RTVSPropertyOp28
 70
     1
102
RTVSPropertyOp29
 70
     1
102
RTVSPropertyOp30
 70
     1
102
RTVSPropertyOp31
 70
     1
102
RTVSPropertyOp32
 70
     1
102
RTVSPropertyOp33
 70
     1
102
RTVSPropertyOp34
 70
     1
102
RTVSPropertyOp35
 70
     1
102
RTVSPropertyOp36
 70
     1
102
RTVSPropertyOp37
 70
     1
102
RTVSPropertyOp38
 70
     1
102
RTVSPropertyOp39
 70
     1
102
RTVSPropertyOp40
 70
     1
102
RTVSPropertyOp41
 70
     1
102
RTVSPropertyOp42
 70
     1
102
RTVSPropertyOp43
 70
     1
102
RTVSPropertyOp44
 70
     1
102
RTVSPropertyOp45
 70
     1
102
RTVSPropertyOp46
 70
     1
102
RTVSPropertyOp47
 70
     1
102
RTVSPropertyOp48
 70
     1
102
RTVSPropertyOp49
 70
     1
102
RTVSPropertyOp50
 70
     1
102
RTVSPropertyOp51
 70
     0
102
RTVSPropertyOp52
 70
     0
102
RTVSPropertyOp53
 70
     1
102
RTVSPropertyOp54
 70
     1
102
RTVSPropertyOp55
 70
     1
102
RTVSPropertyOp56
 70
     1
102
RTVSPropertyOp57
 70
     1
102
RTVSPropertyOp58
 70
     1
102
RTVSPropertyOp59
 70
     1
102
RTVSPropertyOp60
 70
     1
102
RTVSPropertyOp61
 70
     1
102
RTVSPropertyOp62
 70
     1
  0
XRECORD
  5
6F9
102
{ACAD_REACTORS
330
6F8
102
}
330
6F8
100
AcDbXrecord
280
     1
102
RTVSPost2010Prop28
280
     0
102
RTVSPost2010PropOp28
 70
     1
102
RTVSPost2010Prop29
280
     1
102
RTVSPost2010PropOp29
 70
     1
102
RTVSPost2010Prop30
280
     1
102
RTVSPost2010PropOp30
 70
     1
102
RTVSPost2010Prop31
280
     0
102
RTVSPost2010PropOp31
 70
     1
102
RTVSPost2010Prop32
280
     0
102
RTVSPost2010PropOp32
 70
     1
102
RTVSPost2010Prop33
280
     0
102
RTVSPost2010PropOp33
 70
     1
102
RTVSPost2010Prop34
280
     0
102
RTVSPost2010PropOp34
 70
     1
102
RTVSPost2010Prop35
280
     0
102
RTVSPost2010PropOp35
 70
     1
102
RTVSPost2010Prop36
280
     0
102
RTVSPost2010PropOp36
 70
     1
102
RTVSPost2010Prop37
 90
       50
102
RTVSPost2010PropOp37
 70
     1
102
RTVSPost2010Prop38
140
0.0
102
RTVSPost2010PropOp38
 70
     1
102
RTVSPost2010Prop39
140
1.0
102
RTVSPost2010PropOp39
 70
     1
102
RTVSPost2010Prop40
 90
        0
102
RTVSPost2010PropOp40
 70
     1
102
RTVSPost2010Prop41ColorIndex
 90
       18
102
RTVSPost2010Prop41ColorRGB
 90
        0
102
RTVSPost2010PropOp41
 70
     1
102
RTVSPost2010Prop42
 90
       50
102
RTVSPost2010PropOp42
 70
     1
102
RTVSPost2010Prop43
 90
        3
102
RTVSPost2010PropOp43
 70
     1
102
RTVSPost2010Prop44ColorIndex
 90
        5
102
RTVSPost2010Prop44ColorRGB
 90
      255
102
RTVSPost2010PropOp44
 70
     1
102
RTVSPost2010Prop45
280
     0
102
RTVSPost2010PropOp45
 70
     1
102
RTVSPost2010Prop46
 90
       50
102
RTVSPost2010PropOp46
 70
     1
102
RTVSPost2010Prop47
 90
       50
102
RTVSPost2010PropOp47
 70
     1
102
RTVSPost2010Prop48
 90
       50
102
RTVSPost2010PropOp48
 70
     1
102
RTVSPost2010Prop49
280
     0
102
RTVSPost2010PropOp49
 70
     1
102
RTVSPost2010Prop50
 90
       50
102
RTVSPost2010PropOp50
 70
     1
102
RTVSPost2010Prop51ColorIndex
 90
      256
102
RTVSPost2010Prop51ColorRGB
 90
-16777216
102
RTVSPost2010PropOp51
 70
     0
102
RTVSPost2010Prop52
140
1.0
102
RTVSPost2010PropOp52
 70
     0
102
RTVSPost2010Prop53
 90
        2
102
RTVSPost2010PropOp53
 70
     1
102
RTVSPost2010Prop54
  1
strokes_ogs.tif
102
RTVSPost2010PropOp54
 70
     1
102
RTVSPost2010Prop55
280
     0
102
RTVSPost2010PropOp55
 70
     1
102
RTVSPost2010Prop56
140
1.0
102
RTVSPost2010PropOp56
 70
     1
102
RTVSPost2010Prop57
140
1.0
102
RTVSPost2010PropOp57
 70
     1
102
RTVSPropertyOp0
 70
     1
102
RTVSPropertyOp1
 70
     1
102
RTVSPropertyOp2
 70
     1
102
RTVSPropertyOp3
 70
     1
102
RTVSPropertyOp4
 70
     1
102
RTVSPropertyOp5
 70
     1
102
RTVSPropertyOp6
 70
     1
102
RTVSPropertyOp7
 70
     1
102
RTVSPropertyOp8
 70
     1
102
RTVSPropertyOp9
 70
     1
102
RTVSPropertyOp10
 70
     1
102
RTVSPropertyOp11
 70
     1
102
RTVSPropertyOp12
 70
     1
102
RTVSPropertyOp13
 70
     1
102
RTVSPropertyOp14
 70
     1
102
RTVSPropertyOp15
 70
     1
102
RTVSPropertyOp16
 70
     1
102
RTVSPropertyOp17
 70
     1
102
RTVSPropertyOp18
 70
     1
102
RTVSPropertyOp19
 70
     1
102
RTVSPropertyOp20
 70
     1
102
RTVSPropertyOp21
 70
     1
102
RTVSPropertyOp22
 70
     1
102
RTVSPropertyOp23
 70
     1
102
RTVSPropertyOp24
 70
     1
102
RTVSPropertyOp25
 70
     1
102
RTVSPropertyOp26
 70
     1
102
RTVSPropertyOp27
 70
     1
102
RTVSPropertyOp28
 70
     1
102
RTVSPropertyOp29
 70
     1
102
RTVSPropertyOp30
 70
     1
102
RTVSPropertyOp31
 70
     1
102
RTVSPropertyOp32
 70
     1
102
RTVSPropertyOp33
 70
     1
102
RTVSPropertyOp34
 70
     1
102
RTVSPropertyOp35
 70
     1
102
RTVSPropertyOp36
 70
     1
102
RTVSPropertyOp37
 70
     1
102
RTVSPropertyOp38
 70
     1
102
RTVSPropertyOp39
 70
     1
102
RTVSPropertyOp40
 70
     1
102
RTVSPropertyOp41
 70
     1
102
RTVSPropertyOp42
 70
     1
102
RTVSPropertyOp43
 70
     1
102
RTVSPropertyOp44
 70
     1
102
RTVSPropertyOp45
 70
     1
102
RTVSPropertyOp46
 70
     1
102
RTVSPropertyOp47
 70
     1
102
RTVSPropertyOp48
 70
     1
102
RTVSPropertyOp49
 70
     1
102
RTVSPropertyOp50
 70
     1
102
RTVSPropertyOp51
 70
     0
102
RTVSPropertyOp52
 70
     0
102
RTVSPropertyOp53
 70
     1
102
RTVSPropertyOp54
 70
     1
102
RTVSPropertyOp55
 70
     1
102
RTVSPropertyOp56
 70
     1
102
RTVSPropertyOp57
 70
     1
102
RTVSPropertyOp58
 70
     1
102
RTVSPropertyOp59
 70
     1
102
RTVSPropertyOp60
 70
     1
102
RTVSPropertyOp61
 70
     1
102
RTVSPropertyOp62
 70
     1
  0
XRECORD
  5
701
102
{ACAD_REACTORS
330
700
102
}
330
700
100
AcDbXrecord
280
     1
102
RTVSPost2010Prop28
280
     0
102
RTVSPost2010PropOp28
 70
     1
102
RTVSPost2010Prop29
280
     1
102
RTVSPost2010PropOp29
 70
     1
102
RTVSPost2010Prop30
280
     1
102
RTVSPost2010PropOp30
 70
     1
102
RTVSPost2010Prop31
280
     0
102
RTVSPost2010PropOp31
 70
     1
102
RTVSPost2010Prop32
280
     0
102
RTVSPost2010PropOp32
 70
     1
102
RTVSPost2010Prop33
280
     0
102
RTVSPost2010PropOp33
 70
     1
102
RTVSPost2010Prop34
280
     0
102
RTVSPost2010PropOp34
 70
     1
102
RTVSPost2010Prop35
280
     0
102
RTVSPost2010PropOp35
 70
     1
102
RTVSPost2010Prop36
280
     0
102
RTVSPost2010PropOp36
 70
     1
102
RTVSPost2010Prop37
 90
       50
102
RTVSPost2010PropOp37
 70
     1
102
RTVSPost2010Prop38
140
0.0
102
RTVSPost2010PropOp38
 70
     1
102
RTVSPost2010Prop39
140
1.0
102
RTVSPost2010PropOp39
 70
     1
102
RTVSPost2010Prop40
 90
        0
102
RTVSPost2010PropOp40
 70
     1
102
RTVSPost2010Prop41ColorIndex
 90
       18
102
RTVSPost2010Prop41ColorRGB
 90
        0
102
RTVSPost2010PropOp41
 70
     1
102
RTVSPost2010Prop42
 90
       50
102
RTVSPost2010PropOp42
 70
     1
102
RTVSPost2010Prop43
 90
        3
102
RTVSPost2010PropOp43
 70
     1
102
RTVSPost2010Prop44ColorIndex
 90
        5
102
RTVSPost2010Prop44ColorRGB
 90
      255
102
RTVSPost2010PropOp44
 70
     1
102
RTVSPost2010Prop45
280
     0
102
RTVSPost2010PropOp45
 70
     1
102
RTVSPost2010Prop46
 90
       50
102
RTVSPost2010PropOp46
 70
     1
102
RTVSPost2010Prop47
 90
       50
102
RTVSPost2010PropOp47
 70
     1
102
RTVSPost2010Prop48
 90
       50
102
RTVSPost2010PropOp48
 70
     1
102
RTVSPost2010Prop49
280
     0
102
RTVSPost2010PropOp49
 70
     1
102
RTVSPost2010Prop50
 90
       50
102
RTVSPost2010PropOp50
 70
     1
102
RTVSPost2010Prop51ColorIndex
 90
      256
102
RTVSPost2010Prop51ColorRGB
 90
-16777216
102
RTVSPost2010PropOp51
 70
     0
102
RTVSPost2010Prop52
140
1.0
102
RTVSPost2010PropOp52
 70
     0
102
RTVSPost2010Prop53
 90
        2
102
RTVSPost2010PropOp53
 70
     1
102
RTVSPost2010Prop54
  1
strokes_ogs.tif
102
RTVSPost2010PropOp54
 70
     1
102
RTVSPost2010Prop55
280
     0
102
RTVSPost2010PropOp55
 70
     1
102
RTVSPost2010Prop56
140
1.0
102
RTVSPost2010PropOp56
 70
     1
102
RTVSPost2010Prop57
140
1.0
102
RTVSPost2010PropOp57
 70
     1
102
RTVSPropertyOp0
 70
     1
102
RTVSPropertyOp1
 70
     1
102
RTVSPropertyOp2
 70
     1
102
RTVSPropertyOp3
 70
     1
102
RTVSPropertyOp4
 70
     1
102
RTVSPropertyOp5
 70
     1
102
RTVSPropertyOp6
 70
     1
102
RTVSPropertyOp7
 70
     1
102
RTVSPropertyOp8
 70
     1
102
RTVSPropertyOp9
 70
     1
102
RTVSPropertyOp10
 70
     1
102
RTVSPropertyOp11
 70
     1
102
RTVSPropertyOp12
 70
     1
102
RTVSPropertyOp13
 70
     1
102
RTVSPropertyOp14
 70
     1
102
RTVSPropertyOp15
 70
     1
102
RTVSPropertyOp16
 70
     1
102
RTVSPropertyOp17
 70
     1
102
RTVSPropertyOp18
 70
     1
102
RTVSPropertyOp19
 70
     1
102
RTVSPropertyOp20
 70
     1
102
RTVSPropertyOp21
 70
     1
102
RTVSPropertyOp22
 70
     1
102
RTVSPropertyOp23
 70
     1
102
RTVSPropertyOp24
 70
     1
102
RTVSPropertyOp25
 70
     1
102
RTVSPropertyOp26
 70
     1
102
RTVSPropertyOp27
 70
     1
102
RTVSPropertyOp28
 70
     1
102
RTVSPropertyOp29
 70
     1
102
RTVSPropertyOp30
 70
     1
102
RTVSPropertyOp31
 70
     1
102
RTVSPropertyOp32
 70
     1
102
RTVSPropertyOp33
 70
     1
102
RTVSPropertyOp34
 70
     1
102
RTVSPropertyOp35
 70
     1
102
RTVSPropertyOp36
 70
     1
102
RTVSPropertyOp37
 70
     1
102
RTVSPropertyOp38
 70
     1
102
RTVSPropertyOp39
 70
     1
102
RTVSPropertyOp40
 70
     1
102
RTVSPropertyOp41
 70
     1
102
RTVSPropertyOp42
 70
     1
102
RTVSPropertyOp43
 70
     1
102
RTVSPropertyOp44
 70
     1
102
RTVSPropertyOp45
 70
     1
102
RTVSPropertyOp46
 70
     1
102
RTVSPropertyOp47
 70
     1
102
RTVSPropertyOp48
 70
     1
102
RTVSPropertyOp49
 70
     1
102
RTVSPropertyOp50
 70
     1
102
RTVSPropertyOp51
 70
     0
102
RTVSPropertyOp52
 70
     0
102
RTVSPropertyOp53
 70
     1
102
RTVSPropertyOp54
 70
     1
102
RTVSPropertyOp55
 70
     1
102
RTVSPropertyOp56
 70
     1
102
RTVSPropertyOp57
 70
     1
102
RTVSPropertyOp58
 70
     1
102
RTVSPropertyOp59
 70
     1
102
RTVSPropertyOp60
 70
     1
102
RTVSPropertyOp61
 70
     1
102
RTVSPropertyOp62
 70
     1
  0
XRECORD
  5
709
102
{ACAD_REACTORS
330
708
102
}
330
708
100
AcDbXrecord
280
     1
102
RTVSPost2010Prop28
280
     0
102
RTVSPost2010PropOp28
 70
     1
102
RTVSPost2010Prop29
280
     1
102
RTVSPost2010PropOp29
 70
     1
102
RTVSPost2010Prop30
280
     1
102
RTVSPost2010PropOp30
 70
     1
102
RTVSPost2010Prop31
280
     0
102
RTVSPost2010PropOp31
 70
     1
102
RTVSPost2010Prop32
280
     0
102
RTVSPost2010PropOp32
 70
     1
102
RTVSPost2010Prop33
280
     0
102
RTVSPost2010PropOp33
 70
     1
102
RTVSPost2010Prop34
280
     0
102
RTVSPost2010PropOp34
 70
     1
102
RTVSPost2010Prop35
280
     0
102
RTVSPost2010PropOp35
 70
     1
102
RTVSPost2010Prop36
280
     0
102
RTVSPost2010PropOp36
 70
     1
102
RTVSPost2010Prop37
 90
       50
102
RTVSPost2010PropOp37
 70
     1
102
RTVSPost2010Prop38
140
0.0
102
RTVSPost2010PropOp38
 70
     1
102
RTVSPost2010Prop39
140
1.0
102
RTVSPost2010PropOp39
 70
     1
102
RTVSPost2010Prop40
 90
        0
102
RTVSPost2010PropOp40
 70
     1
102
RTVSPost2010Prop41ColorIndex
 90
       18
102
RTVSPost2010Prop41ColorRGB
 90
        0
102
RTVSPost2010PropOp41
 70
     1
102
RTVSPost2010Prop42
 90
       50
102
RTVSPost2010PropOp42
 70
     1
102
RTVSPost2010Prop43
 90
        3
102
RTVSPost2010PropOp43
 70
     1
102
RTVSPost2010Prop44ColorIndex
 90
        5
102
RTVSPost2010Prop44ColorRGB
 90
      255
102
RTVSPost2010PropOp44
 70
     1
102
RTVSPost2010Prop45
280
     0
102
RTVSPost2010PropOp45
 70
     1
102
RTVSPost2010Prop46
 90
       50
102
RTVSPost2010PropOp46
 70
     1
102
RTVSPost2010Prop47
 90
       50
102
RTVSPost2010PropOp47
 70
     1
102
RTVSPost2010Prop48
 90
       50
102
RTVSPost2010PropOp48
 70
     1
102
RTVSPost2010Prop49
280
     0
102
RTVSPost2010PropOp49
 70
     1
102
RTVSPost2010Prop50
 90
       50
102
RTVSPost2010PropOp50
 70
     1
102
RTVSPost2010Prop51ColorIndex
 90
      256
102
RTVSPost2010Prop51ColorRGB
 90
-16777216
102
RTVSPost2010PropOp51
 70
     0
102
RTVSPost2010Prop52
140
1.0
102
RTVSPost2010PropOp52
 70
     0
102
RTVSPost2010Prop53
 90
        2
102
RTVSPost2010PropOp53
 70
     1
102
RTVSPost2010Prop54
  1
strokes_ogs.tif
102
RTVSPost2010PropOp54
 70
     1
102
RTVSPost2010Prop55
280
     0
102
RTVSPost2010PropOp55
 70
     1
102
RTVSPost2010Prop56
140
1.0
102
RTVSPost2010PropOp56
 70
     1
102
RTVSPost2010Prop57
140
1.0
102
RTVSPost2010PropOp57
 70
     1
102
RTVSPropertyOp0
 70
     1
102
RTVSPropertyOp1
 70
     1
102
RTVSPropertyOp2
 70
     1
102
RTVSPropertyOp3
 70
     1
102
RTVSPropertyOp4
 70
     1
102
RTVSPropertyOp5
 70
     1
102
RTVSPropertyOp6
 70
     1
102
RTVSPropertyOp7
 70
     1
102
RTVSPropertyOp8
 70
     1
102
RTVSPropertyOp9
 70
     1
102
RTVSPropertyOp10
 70
     1
102
RTVSPropertyOp11
 70
     1
102
RTVSPropertyOp12
 70
     1
102
RTVSPropertyOp13
 70
     1
102
RTVSPropertyOp14
 70
     1
102
RTVSPropertyOp15
 70
     1
102
RTVSPropertyOp16
 70
     1
102
RTVSPropertyOp17
 70
     1
102
RTVSPropertyOp18
 70
     1
102
RTVSPropertyOp19
 70
     1
102
RTVSPropertyOp20
 70
     1
102
RTVSPropertyOp21
 70
     1
102
RTVSPropertyOp22
 70
     1
102
RTVSPropertyOp23
 70
     1
102
RTVSPropertyOp24
 70
     1
102
RTVSPropertyOp25
 70
     1
102
RTVSPropertyOp26
 70
     1
102
RTVSPropertyOp27
 70
     1
102
RTVSPropertyOp28
 70
     1
102
RTVSPropertyOp29
 70
     1
102
RTVSPropertyOp30
 70
     1
102
RTVSPropertyOp31
 70
     1
102
RTVSPropertyOp32
 70
     1
102
RTVSPropertyOp33
 70
     1
102
RTVSPropertyOp34
 70
     1
102
RTVSPropertyOp35
 70
     1
102
RTVSPropertyOp36
 70
     1
102
RTVSPropertyOp37
 70
     1
102
RTVSPropertyOp38
 70
     1
102
RTVSPropertyOp39
 70
     1
102
RTVSPropertyOp40
 70
     1
102
RTVSPropertyOp41
 70
     1
102
RTVSPropertyOp42
 70
     1
102
RTVSPropertyOp43
 70
     1
102
RTVSPropertyOp44
 70
     1
102
RTVSPropertyOp45
 70
     1
102
RTVSPropertyOp46
 70
     1
102
RTVSPropertyOp47
 70
     1
102
RTVSPropertyOp48
 70
     1
102
RTVSPropertyOp49
 70
     1
102
RTVSPropertyOp50
 70
     1
102
RTVSPropertyOp51
 70
     0
102
RTVSPropertyOp52
 70
     0
102
RTVSPropertyOp53
 70
     1
102
RTVSPropertyOp54
 70
     1
102
RTVSPropertyOp55
 70
     1
102
RTVSPropertyOp56
 70
     1
102
RTVSPropertyOp57
 70
     1
102
RTVSPropertyOp58
 70
     1
102
RTVSPropertyOp59
 70
     1
102
RTVSPropertyOp60
 70
     1
102
RTVSPropertyOp61
 70
     1
102
RTVSPropertyOp62
 70
     1
  0
XRECORD
  5
6FD
102
{ACAD_REACTORS
330
6FC
102
}
330
6FC
100
AcDbXrecord
280
     1
102
RTVSPost2010Prop28
280
     0
102
RTVSPost2010PropOp28
 70
     1
102
RTVSPost2010Prop29
280
     1
102
RTVSPost2010PropOp29
 70
     1
102
RTVSPost2010Prop30
280
     1
102
RTVSPost2010PropOp30
 70
     1
102
RTVSPost2010Prop31
280
     0
102
RTVSPost2010PropOp31
 70
     1
102
RTVSPost2010Prop32
280
     0
102
RTVSPost2010PropOp32
 70
     1
102
RTVSPost2010Prop33
280
     0
102
RTVSPost2010PropOp33
 70
     1
102
RTVSPost2010Prop34
280
     0
102
RTVSPost2010PropOp34
 70
     1
102
RTVSPost2010Prop35
280
     0
102
RTVSPost2010PropOp35
 70
     1
102
RTVSPost2010Prop36
280
     0
102
RTVSPost2010PropOp36
 70
     1
102
RTVSPost2010Prop37
 90
       50
102
RTVSPost2010PropOp37
 70
     1
102
RTVSPost2010Prop38
140
0.0
102
RTVSPost2010PropOp38
 70
     1
102
RTVSPost2010Prop39
140
1.0
102
RTVSPost2010PropOp39
 70
     1
102
RTVSPost2010Prop40
 90
        0
102
RTVSPost2010PropOp40
 70
     1
102
RTVSPost2010Prop41ColorIndex
 90
       18
102
RTVSPost2010Prop41ColorRGB
 90
        0
102
RTVSPost2010PropOp41
 70
     1
102
RTVSPost2010Prop42
 90
       50
102
RTVSPost2010PropOp42
 70
     1
102
RTVSPost2010Prop43
 90
        3
102
RTVSPost2010PropOp43
 70
     1
102
RTVSPost2010Prop44ColorIndex
 90
        5
102
RTVSPost2010Prop44ColorRGB
 90
      255
102
RTVSPost2010PropOp44
 70
     1
102
RTVSPost2010Prop45
280
     0
102
RTVSPost2010PropOp45
 70
     1
102
RTVSPost2010Prop46
 90
       50
102
RTVSPost2010PropOp46
 70
     1
102
RTVSPost2010Prop47
 90
       50
102
RTVSPost2010PropOp47
 70
     1
102
RTVSPost2010Prop48
 90
       50
102
RTVSPost2010PropOp48
 70
     1
102
RTVSPost2010Prop49
280
     0
102
RTVSPost2010PropOp49
 70
     1
102
RTVSPost2010Prop50
 90
       50
102
RTVSPost2010PropOp50
 70
     1
102
RTVSPost2010Prop51ColorIndex
 90
      256
102
RTVSPost2010Prop51ColorRGB
 90
-16777216
102
RTVSPost2010PropOp51
 70
     0
102
RTVSPost2010Prop52
140
1.0
102
RTVSPost2010PropOp52
 70
     0
102
RTVSPost2010Prop53
 90
        2
102
RTVSPost2010PropOp53
 70
     1
102
RTVSPost2010Prop54
  1
strokes_ogs.tif
102
RTVSPost2010PropOp54
 70
     1
102
RTVSPost2010Prop55
280
     0
102
RTVSPost2010PropOp55
 70
     1
102
RTVSPost2010Prop56
140
1.0
102
RTVSPost2010PropOp56
 70
     1
102
RTVSPost2010Prop57
140
1.0
102
RTVSPost2010PropOp57
 70
     1
102
RTVSPropertyOp0
 70
     1
102
RTVSPropertyOp1
 70
     1
102
RTVSPropertyOp2
 70
     1
102
RTVSPropertyOp3
 70
     1
102
RTVSPropertyOp4
 70
     1
102
RTVSPropertyOp5
 70
     1
102
RTVSPropertyOp6
 70
     1
102
RTVSPropertyOp7
 70
     1
102
RTVSPropertyOp8
 70
     1
102
RTVSPropertyOp9
 70
     1
102
RTVSPropertyOp10
 70
     1
102
RTVSPropertyOp11
 70
     1
102
RTVSPropertyOp12
 70
     1
102
RTVSPropertyOp13
 70
     1
102
RTVSPropertyOp14
 70
     1
102
RTVSPropertyOp15
 70
     1
102
RTVSPropertyOp16
 70
     1
102
RTVSPropertyOp17
 70
     1
102
RTVSPropertyOp18
 70
     1
102
RTVSPropertyOp19
 70
     1
102
RTVSPropertyOp20
 70
     1
102
RTVSPropertyOp21
 70
     1
102
RTVSPropertyOp22
 70
     1
102
RTVSPropertyOp23
 70
     1
102
RTVSPropertyOp24
 70
     1
102
RTVSPropertyOp25
 70
     1
102
RTVSPropertyOp26
 70
     1
102
RTVSPropertyOp27
 70
     1
102
RTVSPropertyOp28
 70
     1
102
RTVSPropertyOp29
 70
     1
102
RTVSPropertyOp30
 70
     1
102
RTVSPropertyOp31
 70
     1
102
RTVSPropertyOp32
 70
     1
102
RTVSPropertyOp33
 70
     1
102
RTVSPropertyOp34
 70
     1
102
RTVSPropertyOp35
 70
     1
102
RTVSPropertyOp36
 70
     1
102
RTVSPropertyOp37
 70
     1
102
RTVSPropertyOp38
 70
     1
102
RTVSPropertyOp39
 70
     1
102
RTVSPropertyOp40
 70
     1
102
RTVSPropertyOp41
 70
     1
102
RTVSPropertyOp42
 70
     1
102
RTVSPropertyOp43
 70
     1
102
RTVSPropertyOp44
 70
     1
102
RTVSPropertyOp45
 70
     1
102
RTVSPropertyOp46
 70
     1
102
RTVSPropertyOp47
 70
     1
102
RTVSPropertyOp48
 70
     1
102
RTVSPropertyOp49
 70
     1
102
RTVSPropertyOp50
 70
     1
102
RTVSPropertyOp51
 70
     0
102
RTVSPropertyOp52
 70
     0
102
RTVSPropertyOp53
 70
     1
102
RTVSPropertyOp54
 70
     1
102
RTVSPropertyOp55
 70
     1
102
RTVSPropertyOp56
 70
     1
102
RTVSPropertyOp57
 70
     1
102
RTVSPropertyOp58
 70
     1
102
RTVSPropertyOp59
 70
     1
102
RTVSPropertyOp60
 70
     1
102
RTVSPropertyOp61
 70
     1
102
RTVSPropertyOp62
 70
     1
  0
XRECORD
  5
6FF
102
{ACAD_REACTORS
330
6FE
102
}
330
6FE
100
AcDbXrecord
280
     1
102
RTVSPost2010Prop28
280
     0
102
RTVSPost2010PropOp28
 70
     1
102
RTVSPost2010Prop29
280
     1
102
RTVSPost2010PropOp29
 70
     1
102
RTVSPost2010Prop30
280
     1
102
RTVSPost2010PropOp30
 70
     1
102
RTVSPost2010Prop31
280
     0
102
RTVSPost2010PropOp31
 70
     1
102
RTVSPost2010Prop32
280
     0
102
RTVSPost2010PropOp32
 70
     1
102
RTVSPost2010Prop33
280
     0
102
RTVSPost2010PropOp33
 70
     1
102
RTVSPost2010Prop34
280
     0
102
RTVSPost2010PropOp34
 70
     1
102
RTVSPost2010Prop35
280
     0
102
RTVSPost2010PropOp35
 70
     1
102
RTVSPost2010Prop36
280
     0
102
RTVSPost2010PropOp36
 70
     1
102
RTVSPost2010Prop37
 90
       50
102
RTVSPost2010PropOp37
 70
     1
102
RTVSPost2010Prop38
140
0.0
102
RTVSPost2010PropOp38
 70
     1
102
RTVSPost2010Prop39
140
1.0
102
RTVSPost2010PropOp39
 70
     1
102
RTVSPost2010Prop40
 90
        0
102
RTVSPost2010PropOp40
 70
     1
102
RTVSPost2010Prop41ColorIndex
 90
       18
102
RTVSPost2010Prop41ColorRGB
 90
        0
102
RTVSPost2010PropOp41
 70
     1
102
RTVSPost2010Prop42
 90
       50
102
RTVSPost2010PropOp42
 70
     1
102
RTVSPost2010Prop43
 90
        3
102
RTVSPost2010PropOp43
 70
     1
102
RTVSPost2010Prop44ColorIndex
 90
        5
102
RTVSPost2010Prop44ColorRGB
 90
      255
102
RTVSPost2010PropOp44
 70
     1
102
RTVSPost2010Prop45
280
     0
102
RTVSPost2010PropOp45
 70
     1
102
RTVSPost2010Prop46
 90
       50
102
RTVSPost2010PropOp46
 70
     1
102
RTVSPost2010Prop47
 90
       50
102
RTVSPost2010PropOp47
 70
     1
102
RTVSPost2010Prop48
 90
       50
102
RTVSPost2010PropOp48
 70
     1
102
RTVSPost2010Prop49
280
     0
102
RTVSPost2010PropOp49
 70
     1
102
RTVSPost2010Prop50
 90
       50
102
RTVSPost2010PropOp50
 70
     1
102
RTVSPost2010Prop51ColorIndex
 90
      256
102
RTVSPost2010Prop51ColorRGB
 90
-16777216
102
RTVSPost2010PropOp51
 70
     0
102
RTVSPost2010Prop52
140
1.0
102
RTVSPost2010PropOp52
 70
     0
102
RTVSPost2010Prop53
 90
        2
102
RTVSPost2010PropOp53
 70
     1
102
RTVSPost2010Prop54
  1
strokes_ogs.tif
102
RTVSPost2010PropOp54
 70
     1
102
RTVSPost2010Prop55
280
     0
102
RTVSPost2010PropOp55
 70
     1
102
RTVSPost2010Prop56
140
1.0
102
RTVSPost2010PropOp56
 70
     1
102
RTVSPost2010Prop57
140
1.0
102
RTVSPost2010PropOp57
 70
     1
102
RTVSPropertyOp0
 70
     1
102
RTVSPropertyOp1
 70
     1
102
RTVSPropertyOp2
 70
     1
102
RTVSPropertyOp3
 70
     1
102
RTVSPropertyOp4
 70
     1
102
RTVSPropertyOp5
 70
     1
102
RTVSPropertyOp6
 70
     1
102
RTVSPropertyOp7
 70
     1
102
RTVSPropertyOp8
 70
     1
102
RTVSPropertyOp9
 70
     1
102
RTVSPropertyOp10
 70
     1
102
RTVSPropertyOp11
 70
     1
102
RTVSPropertyOp12
 70
     1
102
RTVSPropertyOp13
 70
     1
102
RTVSPropertyOp14
 70
     1
102
RTVSPropertyOp15
 70
     1
102
RTVSPropertyOp16
 70
     1
102
RTVSPropertyOp17
 70
     1
102
RTVSPropertyOp18
 70
     1
102
RTVSPropertyOp19
 70
     1
102
RTVSPropertyOp20
 70
     1
102
RTVSPropertyOp21
 70
     1
102
RTVSPropertyOp22
 70
     1
102
RTVSPropertyOp23
 70
     1
102
RTVSPropertyOp24
 70
     1
102
RTVSPropertyOp25
 70
     1
102
RTVSPropertyOp26
 70
     1
102
RTVSPropertyOp27
 70
     1
102
RTVSPropertyOp28
 70
     1
102
RTVSPropertyOp29
 70
     1
102
RTVSPropertyOp30
 70
     1
102
RTVSPropertyOp31
 70
     1
102
RTVSPropertyOp32
 70
     1
102
RTVSPropertyOp33
 70
     1
102
RTVSPropertyOp34
 70
     1
102
RTVSPropertyOp35
 70
     1
102
RTVSPropertyOp36
 70
     1
102
RTVSPropertyOp37
 70
     1
102
RTVSPropertyOp38
 70
     1
102
RTVSPropertyOp39
 70
     1
102
RTVSPropertyOp40
 70
     1
102
RTVSPropertyOp41
 70
     1
102
RTVSPropertyOp42
 70
     1
102
RTVSPropertyOp43
 70
     1
102
RTVSPropertyOp44
 70
     1
102
RTVSPropertyOp45
 70
     1
102
RTVSPropertyOp46
 70
     1
102
RTVSPropertyOp47
 70
     1
102
RTVSPropertyOp48
 70
     1
102
RTVSPropertyOp49
 70
     1
102
RTVSPropertyOp50
 70
     1
102
RTVSPropertyOp51
 70
     0
102
RTVSPropertyOp52
 70
     0
102
RTVSPropertyOp53
 70
     1
102
RTVSPropertyOp54
 70
     1
102
RTVSPropertyOp55
 70
     1
102
RTVSPropertyOp56
 70
     1
102
RTVSPropertyOp57
 70
     1
102
RTVSPropertyOp58
 70
     1
102
RTVSPropertyOp59
 70
     1
102
RTVSPropertyOp60
 70
     1
102
RTVSPropertyOp61
 70
     1
102
RTVSPropertyOp62
 70
     1
  0
XRECORD
  5
70F
102
{ACAD_REACTORS
330
70E
102
}
330
70E
100
AcDbXrecord
280
     1
102
RTVSPost2010Prop28
280
     0
102
RTVSPost2010PropOp28
 70
     0
102
RTVSPost2010Prop29
280
     1
102
RTVSPost2010PropOp29
 70
     0
102
RTVSPost2010Prop30
280
     1
102
RTVSPost2010PropOp30
 70
     0
102
RTVSPost2010Prop31
280
     0
102
RTVSPost2010PropOp31
 70
     0
102
RTVSPost2010Prop32
280
     0
102
RTVSPost2010PropOp32
 70
     0
102
RTVSPost2010Prop33
280
     0
102
RTVSPost2010PropOp33
 70
     0
102
RTVSPost2010Prop34
280
     0
102
RTVSPost2010PropOp34
 70
     0
102
RTVSPost2010Prop35
280
     0
102
RTVSPost2010PropOp35
 70
     0
102
RTVSPost2010Prop36
280
     0
102
RTVSPost2010PropOp36
 70
     0
102
RTVSPost2010Prop37
 90
       50
102
RTVSPost2010PropOp37
 70
     0
102
RTVSPost2010Prop38
140
0.0
102
RTVSPost2010PropOp38
 70
     0
102
RTVSPost2010Prop39
140
1.0
102
RTVSPost2010PropOp39
 70
     0
102
RTVSPost2010Prop40
 90
        0
102
RTVSPost2010PropOp40
 70
     0
102
RTVSPost2010Prop41ColorIndex
 90
       18
102
RTVSPost2010Prop41ColorRGB
 90
        0
102
RTVSPost2010PropOp41
 70
     0
102
RTVSPost2010Prop42
 90
       50
102
RTVSPost2010PropOp42
 70
     0
102
RTVSPost2010Prop43
 90
        3
102
RTVSPost2010PropOp43
 70
     0
102
RTVSPost2010Prop44ColorIndex
 90
        5
102
RTVSPost2010Prop44ColorRGB
 90
      255
102
RTVSPost2010PropOp44
 70
     0
102
RTVSPost2010Prop45
280
     0
102
RTVSPost2010PropOp45
 70
     0
102
RTVSPost2010Prop46
 90
       50
102
RTVSPost2010PropOp46
 70
     0
102
RTVSPost2010Prop47
 90
       50
102
RTVSPost2010PropOp47
 70
     0
102
RTVSPost2010Prop48
 90
       50
102
RTVSPost2010PropOp48
 70
     0
102
RTVSPost2010Prop49
280
     0
102
RTVSPost2010PropOp49
 70
     0
102
RTVSPost2010Prop50
 90
       50
102
RTVSPost2010PropOp50
 70
     0
102
RTVSPost2010Prop51ColorIndex
 90
      256
102
RTVSPost2010Prop51ColorRGB
 90
-16777216
102
RTVSPost2010PropOp51
 70
     0
102
RTVSPost2010Prop52
140
1.0
102
RTVSPost2010PropOp52
 70
     0
102
RTVSPost2010Prop53
 90
        2
102
RTVSPost2010PropOp53
 70
     0
102
RTVSPost2010Prop54
  1
strokes_ogs.tif
102
RTVSPost2010PropOp54
 70
     0
102
RTVSPost2010Prop55
280
     0
102
RTVSPost2010PropOp55
 70
     0
102
RTVSPost2010Prop56
140
1.0
102
RTVSPost2010PropOp56
 70
     0
102
RTVSPost2010Prop57
140
1.0
102
RTVSPost2010PropOp57
 70
     0
102
RTVSPropertyOp0
 70
     0
102
RTVSPropertyOp1
 70
     0
102
RTVSPropertyOp2
 70
     0
102
RTVSPropertyOp3
 70
     0
102
RTVSPropertyOp4
 70
     0
102
RTVSPropertyOp5
 70
     0
102
RTVSPropertyOp6
 70
     0
102
RTVSPropertyOp7
 70
     0
102
RTVSPropertyOp8
 70
     0
102
RTVSPropertyOp9
 70
     0
102
RTVSPropertyOp10
 70
     0
102
RTVSPropertyOp11
 70
     0
102
RTVSPropertyOp12
 70
     0
102
RTVSPropertyOp13
 70
     0
102
RTVSPropertyOp14
 70
     2
102
RTVSPropertyOp15
 70
     0
102
RTVSPropertyOp16
 70
     0
102
RTVSPropertyOp17
 70
     0
102
RTVSPropertyOp18
 70
     0
102
RTVSPropertyOp19
 70
     0
102
RTVSPropertyOp20
 70
     0
102
RTVSPropertyOp21
 70
     0
102
RTVSPropertyOp22
 70
     0
102
RTVSPropertyOp23
 70
     0
102
RTVSPropertyOp24
 70
     0
102
RTVSPropertyOp25
 70
     0
102
RTVSPropertyOp26
 70
     0
102
RTVSPropertyOp27
 70
     0
102
RTVSPropertyOp28
 70
     0
102
RTVSPropertyOp29
 70
     0
102
RTVSPropertyOp30
 70
     0
102
RTVSPropertyOp31
 70
     0
102
RTVSPropertyOp32
 70
     0
102
RTVSPropertyOp33
 70
     0
102
RTVSPropertyOp34
 70
     0
102
RTVSPropertyOp35
 70
     0
102
RTVSPropertyOp36
 70
     0
102
RTVSPropertyOp37
 70
     0
102
RTVSPropertyOp38
 70
     0
102
RTVSPropertyOp39
 70
     0
102
RTVSPropertyOp40
 70
     0
102
RTVSPropertyOp41
 70
     0
102
RTVSPropertyOp42
 70
     0
102
RTVSPropertyOp43
 70
     0
102
RTVSPropertyOp44
 70
     0
102
RTVSPropertyOp45
 70
     0
102
RTVSPropertyOp46
 70
     0
102
RTVSPropertyOp47
 70
     0
102
RTVSPropertyOp48
 70
     0
102
RTVSPropertyOp49
 70
     0
102
RTVSPropertyOp50
 70
     0
102
RTVSPropertyOp51
 70
     0
102
RTVSPropertyOp52
 70
     0
102
RTVSPropertyOp53
 70
     0
102
RTVSPropertyOp54
 70
     0
102
RTVSPropertyOp55
 70
     0
102
RTVSPropertyOp56
 70
     0
102
RTVSPropertyOp57
 70
     0
102
RTVSPropertyOp58
 70
     1
102
RTVSPropertyOp59
 70
     1
102
RTVSPropertyOp60
 70
     1
102
RTVSPropertyOp61
 70
     1
102
RTVSPropertyOp62
 70
     1
  0
XRECORD
  5
707
102
{ACAD_REACTORS
330
706
102
}
330
706
100
AcDbXrecord
280
     1
102
RTVSPost2010Prop28
280
     0
102
RTVSPost2010PropOp28
 70
     1
102
RTVSPost2010Prop29
280
     1
102
RTVSPost2010PropOp29
 70
     1
102
RTVSPost2010Prop30
280
     1
102
RTVSPost2010PropOp30
 70
     1
102
RTVSPost2010Prop31
280
     0
102
RTVSPost2010PropOp31
 70
     1
102
RTVSPost2010Prop32
280
     0
102
RTVSPost2010PropOp32
 70
     1
102
RTVSPost2010Prop33
280
     0
102
RTVSPost2010PropOp33
 70
     1
102
RTVSPost2010Prop34
280
     0
102
RTVSPost2010PropOp34
 70
     1
102
RTVSPost2010Prop35
280
     0
102
RTVSPost2010PropOp35
 70
     1
102
RTVSPost2010Prop36
280
     0
102
RTVSPost2010PropOp36
 70
     1
102
RTVSPost2010Prop37
 90
       50
102
RTVSPost2010PropOp37
 70
     1
102
RTVSPost2010Prop38
140
0.0
102
RTVSPost2010PropOp38
 70
     1
102
RTVSPost2010Prop39
140
1.0
102
RTVSPost2010PropOp39
 70
     1
102
RTVSPost2010Prop40
 90
        0
102
RTVSPost2010PropOp40
 70
     1
102
RTVSPost2010Prop41ColorIndex
 90
       18
102
RTVSPost2010Prop41ColorRGB
 90
        0
102
RTVSPost2010PropOp41
 70
     1
102
RTVSPost2010Prop42
 90
       50
102
RTVSPost2010PropOp42
 70
     1
102
RTVSPost2010Prop43
 90
        3
102
RTVSPost2010PropOp43
 70
     1
102
RTVSPost2010Prop44ColorIndex
 90
        5
102
RTVSPost2010Prop44ColorRGB
 90
      255
102
RTVSPost2010PropOp44
 70
     1
102
RTVSPost2010Prop45
280
     0
102
RTVSPost2010PropOp45
 70
     1
102
RTVSPost2010Prop46
 90
       50
102
RTVSPost2010PropOp46
 70
     1
102
RTVSPost2010Prop47
 90
       50
102
RTVSPost2010PropOp47
 70
     1
102
RTVSPost2010Prop48
 90
       50
102
RTVSPost2010PropOp48
 70
     1
102
RTVSPost2010Prop49
280
     0
102
RTVSPost2010PropOp49
 70
     1
102
RTVSPost2010Prop50
 90
       50
102
RTVSPost2010PropOp50
 70
     1
102
RTVSPost2010Prop51ColorIndex
 90
      256
102
RTVSPost2010Prop51ColorRGB
 90
-16777216
102
RTVSPost2010PropOp51
 70
     0
102
RTVSPost2010Prop52
140
1.0
102
RTVSPost2010PropOp52
 70
     0
102
RTVSPost2010Prop53
 90
        2
102
RTVSPost2010PropOp53
 70
     1
102
RTVSPost2010Prop54
  1
strokes_ogs.tif
102
RTVSPost2010PropOp54
 70
     1
102
RTVSPost2010Prop55
280
     0
102
RTVSPost2010PropOp55
 70
     1
102
RTVSPost2010Prop56
140
1.0
102
RTVSPost2010PropOp56
 70
     1
102
RTVSPost2010Prop57
140
1.0
102
RTVSPost2010PropOp57
 70
     1
102
RTVSPropertyOp0
 70
     1
102
RTVSPropertyOp1
 70
     1
102
RTVSPropertyOp2
 70
     1
102
RTVSPropertyOp3
 70
     1
102
RTVSPropertyOp4
 70
     1
102
RTVSPropertyOp5
 70
     1
102
RTVSPropertyOp6
 70
     1
102
RTVSPropertyOp7
 70
     1
102
RTVSPropertyOp8
 70
     1
102
RTVSPropertyOp9
 70
     1
102
RTVSPropertyOp10
 70
     1
102
RTVSPropertyOp11
 70
     1
102
RTVSPropertyOp12
 70
     1
102
RTVSPropertyOp13
 70
     1
102
RTVSPropertyOp14
 70
     1
102
RTVSPropertyOp15
 70
     1
102
RTVSPropertyOp16
 70
     1
102
RTVSPropertyOp17
 70
     1
102
RTVSPropertyOp18
 70
     1
102
RTVSPropertyOp19
 70
     1
102
RTVSPropertyOp20
 70
     1
102
RTVSPropertyOp21
 70
     1
102
RTVSPropertyOp22
 70
     1
102
RTVSPropertyOp23
 70
     1
102
RTVSPropertyOp24
 70
     1
102
RTVSPropertyOp25
 70
     1
102
RTVSPropertyOp26
 70
     1
102
RTVSPropertyOp27
 70
     1
102
RTVSPropertyOp28
 70
     1
102
RTVSPropertyOp29
 70
     1
102
RTVSPropertyOp30
 70
     1
102
RTVSPropertyOp31
 70
     1
102
RTVSPropertyOp32
 70
     1
102
RTVSPropertyOp33
 70
     1
102
RTVSPropertyOp34
 70
     1
102
RTVSPropertyOp35
 70
     1
102
RTVSPropertyOp36
 70
     1
102
RTVSPropertyOp37
 70
     1
102
RTVSPropertyOp38
 70
     1
102
RTVSPropertyOp39
 70
     1
102
RTVSPropertyOp40
 70
     1
102
RTVSPropertyOp41
 70
     1
102
RTVSPropertyOp42
 70
     1
102
RTVSPropertyOp43
 70
     1
102
RTVSPropertyOp44
 70
     1
102
RTVSPropertyOp45
 70
     1
102
RTVSPropertyOp46
 70
     1
102
RTVSPropertyOp47
 70
     1
102
RTVSPropertyOp48
 70
     1
102
RTVSPropertyOp49
 70
     1
102
RTVSPropertyOp50
 70
     1
102
RTVSPropertyOp51
 70
     0
102
RTVSPropertyOp52
 70
     0
102
RTVSPropertyOp53
 70
     1
102
RTVSPropertyOp54
 70
     1
102
RTVSPropertyOp55
 70
     1
102
RTVSPropertyOp56
 70
     1
102
RTVSPropertyOp57
 70
     1
102
RTVSPropertyOp58
 70
     1
102
RTVSPropertyOp59
 70
     1
102
RTVSPropertyOp60
 70
     1
102
RTVSPropertyOp61
 70
     1
102
RTVSPropertyOp62
 70
     1
  0
XRECORD
  5
6EB
102
{ACAD_REACTORS
330
6EA
102
}
330
6EA
100
AcDbXrecord
280
     1
102
RTVSPost2010Prop28
280
     0
102
RTVSPost2010PropOp28
 70
     1
102
RTVSPost2010Prop29
280
     1
102
RTVSPost2010PropOp29
 70
     1
102
RTVSPost2010Prop30
280
     1
102
RTVSPost2010PropOp30
 70
     1
102
RTVSPost2010Prop31
280
     0
102
RTVSPost2010PropOp31
 70
     1
102
RTVSPost2010Prop32
280
     0
102
RTVSPost2010PropOp32
 70
     1
102
RTVSPost2010Prop33
280
     0
102
RTVSPost2010PropOp33
 70
     1
102
RTVSPost2010Prop34
280
     0
102
RTVSPost2010PropOp34
 70
     1
102
RTVSPost2010Prop35
280
     0
102
RTVSPost2010PropOp35
 70
     1
102
RTVSPost2010Prop36
280
     0
102
RTVSPost2010PropOp36
 70
     1
102
RTVSPost2010Prop37
 90
       50
102
RTVSPost2010PropOp37
 70
     1
102
RTVSPost2010Prop38
140
0.0
102
RTVSPost2010PropOp38
 70
     1
102
RTVSPost2010Prop39
140
1.0
102
RTVSPost2010PropOp39
 70
     1
102
RTVSPost2010Prop40
 90
        0
102
RTVSPost2010PropOp40
 70
     1
102
RTVSPost2010Prop41ColorIndex
 90
       18
102
RTVSPost2010Prop41ColorRGB
 90
        0
102
RTVSPost2010PropOp41
 70
     1
102
RTVSPost2010Prop42
 90
       50
102
RTVSPost2010PropOp42
 70
     1
102
RTVSPost2010Prop43
 90
        3
102
RTVSPost2010PropOp43
 70
     1
102
RTVSPost2010Prop44ColorIndex
 90
        5
102
RTVSPost2010Prop44ColorRGB
 90
      255
102
RTVSPost2010PropOp44
 70
     1
102
RTVSPost2010Prop45
280
     0
102
RTVSPost2010PropOp45
 70
     1
102
RTVSPost2010Prop46
 90
       50
102
RTVSPost2010PropOp46
 70
     1
102
RTVSPost2010Prop47
 90
       50
102
RTVSPost2010PropOp47
 70
     1
102
RTVSPost2010Prop48
 90
       50
102
RTVSPost2010PropOp48
 70
     1
102
RTVSPost2010Prop49
280
     0
102
RTVSPost2010PropOp49
 70
     1
102
RTVSPost2010Prop50
 90
       50
102
RTVSPost2010PropOp50
 70
     1
102
RTVSPost2010Prop51ColorIndex
 90
      256
102
RTVSPost2010Prop51ColorRGB
 90
-16777216
102
RTVSPost2010PropOp51
 70
     0
102
RTVSPost2010Prop52
140
1.0
102
RTVSPost2010PropOp52
 70
     0
102
RTVSPost2010Prop53
 90
        2
102
RTVSPost2010PropOp53
 70
     1
102
RTVSPost2010Prop54
  1
strokes_ogs.tif
102
RTVSPost2010PropOp54
 70
     1
102
RTVSPost2010Prop55
280
     0
102
RTVSPost2010PropOp55
 70
     1
102
RTVSPost2010Prop56
140
1.0
102
RTVSPost2010PropOp56
 70
     1
102
RTVSPost2010Prop57
140
1.0
102
RTVSPost2010PropOp57
 70
     1
102
RTVSPropertyOp0
 70
     1
102
RTVSPropertyOp1
 70
     1
102
RTVSPropertyOp2
 70
     1
102
RTVSPropertyOp3
 70
     1
102
RTVSPropertyOp4
 70
     1
102
RTVSPropertyOp5
 70
     1
102
RTVSPropertyOp6
 70
     1
102
RTVSPropertyOp7
 70
     1
102
RTVSPropertyOp8
 70
     1
102
RTVSPropertyOp9
 70
     1
102
RTVSPropertyOp10
 70
     1
102
RTVSPropertyOp11
 70
     1
102
RTVSPropertyOp12
 70
     1
102
RTVSPropertyOp13
 70
     1
102
RTVSPropertyOp14
 70
     1
102
RTVSPropertyOp15
 70
     1
102
RTVSPropertyOp16
 70
     1
102
RTVSPropertyOp17
 70
     1
102
RTVSPropertyOp18
 70
     1
102
RTVSPropertyOp19
 70
     1
102
RTVSPropertyOp20
 70
     1
102
RTVSPropertyOp21
 70
     1
102
RTVSPropertyOp22
 70
     1
102
RTVSPropertyOp23
 70
     1
102
RTVSPropertyOp24
 70
     1
102
RTVSPropertyOp25
 70
     1
102
RTVSPropertyOp26
 70
     1
102
RTVSPropertyOp27
 70
     1
102
RTVSPropertyOp28
 70
     1
102
RTVSPropertyOp29
 70
     1
102
RTVSPropertyOp30
 70
     1
102
RTVSPropertyOp31
 70
     1
102
RTVSPropertyOp32
 70
     1
102
RTVSPropertyOp33
 70
     1
102
RTVSPropertyOp34
 70
     1
102
RTVSPropertyOp35
 70
     1
102
RTVSPropertyOp36
 70
     1
102
RTVSPropertyOp37
 70
     1
102
RTVSPropertyOp38
 70
     1
102
RTVSPropertyOp39
 70
     1
102
RTVSPropertyOp40
 70
     1
102
RTVSPropertyOp41
 70
     1
102
RTVSPropertyOp42
 70
     1
102
RTVSPropertyOp43
 70
     1
102
RTVSPropertyOp44
 70
     1
102
RTVSPropertyOp45
 70
     1
102
RTVSPropertyOp46
 70
     1
102
RTVSPropertyOp47
 70
     1
102
RTVSPropertyOp48
 70
     1
102
RTVSPropertyOp49
 70
     1
102
RTVSPropertyOp50
 70
     1
102
RTVSPropertyOp51
 70
     0
102
RTVSPropertyOp52
 70
     0
102
RTVSPropertyOp53
 70
     1
102
RTVSPropertyOp54
 70
     1
102
RTVSPropertyOp55
 70
     1
102
RTVSPropertyOp56
 70
     1
102
RTVSPropertyOp57
 70
     1
102
RTVSPropertyOp58
 70
     1
102
RTVSPropertyOp59
 70
     1
102
RTVSPropertyOp60
 70
     1
102
RTVSPropertyOp61
 70
     1
102
RTVSPropertyOp62
 70
     1
  0
XRECORD
  5
6ED
102
{ACAD_REACTORS
330
6EC
102
}
330
6EC
100
AcDbXrecord
280
     1
102
RTVSPost2010Prop28
280
     0
102
RTVSPost2010PropOp28
 70
     1
102
RTVSPost2010Prop29
280
     1
102
RTVSPost2010PropOp29
 70
     1
102
RTVSPost2010Prop30
280
     1
102
RTVSPost2010PropOp30
 70
     1
102
RTVSPost2010Prop31
280
     0
102
RTVSPost2010PropOp31
 70
     1
102
RTVSPost2010Prop32
280
     0
102
RTVSPost2010PropOp32
 70
     1
102
RTVSPost2010Prop33
280
     0
102
RTVSPost2010PropOp33
 70
     1
102
RTVSPost2010Prop34
280
     0
102
RTVSPost2010PropOp34
 70
     1
102
RTVSPost2010Prop35
280
     0
102
RTVSPost2010PropOp35
 70
     1
102
RTVSPost2010Prop36
280
     0
102
RTVSPost2010PropOp36
 70
     1
102
RTVSPost2010Prop37
 90
       50
102
RTVSPost2010PropOp37
 70
     1
102
RTVSPost2010Prop38
140
0.0
102
RTVSPost2010PropOp38
 70
     1
102
RTVSPost2010Prop39
140
1.0
102
RTVSPost2010PropOp39
 70
     1
102
RTVSPost2010Prop40
 90
        0
102
RTVSPost2010PropOp40
 70
     1
102
RTVSPost2010Prop41ColorIndex
 90
       18
102
RTVSPost2010Prop41ColorRGB
 90
        0
102
RTVSPost2010PropOp41
 70
     1
102
RTVSPost2010Prop42
 90
       50
102
RTVSPost2010PropOp42
 70
     1
102
RTVSPost2010Prop43
 90
        3
102
RTVSPost2010PropOp43
 70
     1
102
RTVSPost2010Prop44ColorIndex
 90
        5
102
RTVSPost2010Prop44ColorRGB
 90
      255
102
RTVSPost2010PropOp44
 70
     1
102
RTVSPost2010Prop45
280
     0
102
RTVSPost2010PropOp45
 70
     1
102
RTVSPost2010Prop46
 90
       50
102
RTVSPost2010PropOp46
 70
     1
102
RTVSPost2010Prop47
 90
       50
102
RTVSPost2010PropOp47
 70
     1
102
RTVSPost2010Prop48
 90
       50
102
RTVSPost2010PropOp48
 70
     1
102
RTVSPost2010Prop49
280
     0
102
RTVSPost2010PropOp49
 70
     1
102
RTVSPost2010Prop50
 90
       50
102
RTVSPost2010PropOp50
 70
     1
102
RTVSPost2010Prop51ColorIndex
 90
      256
102
RTVSPost2010Prop51ColorRGB
 90
-16777216
102
RTVSPost2010PropOp51
 70
     0
102
RTVSPost2010Prop52
140
1.0
102
RTVSPost2010PropOp52
 70
     0
102
RTVSPost2010Prop53
 90
        2
102
RTVSPost2010PropOp53
 70
     1
102
RTVSPost2010Prop54
  1
strokes_ogs.tif
102
RTVSPost2010PropOp54
 70
     1
102
RTVSPost2010Prop55
280
     0
102
RTVSPost2010PropOp55
 70
     1
102
RTVSPost2010Prop56
140
1.0
102
RTVSPost2010PropOp56
 70
     1
102
RTVSPost2010Prop57
140
1.0
102
RTVSPost2010PropOp57
 70
     1
102
RTVSPropertyOp0
 70
     1
102
RTVSPropertyOp1
 70
     1
102
RTVSPropertyOp2
 70
     1
102
RTVSPropertyOp3
 70
     1
102
RTVSPropertyOp4
 70
     1
102
RTVSPropertyOp5
 70
     1
102
RTVSPropertyOp6
 70
     1
102
RTVSPropertyOp7
 70
     1
102
RTVSPropertyOp8
 70
     1
102
RTVSPropertyOp9
 70
     1
102
RTVSPropertyOp10
 70
     1
102
RTVSPropertyOp11
 70
     1
102
RTVSPropertyOp12
 70
     1
102
RTVSPropertyOp13
 70
     1
102
RTVSPropertyOp14
 70
     1
102
RTVSPropertyOp15
 70
     1
102
RTVSPropertyOp16
 70
     1
102
RTVSPropertyOp17
 70
     1
102
RTVSPropertyOp18
 70
     1
102
RTVSPropertyOp19
 70
     1
102
RTVSPropertyOp20
 70
     1
102
RTVSPropertyOp21
 70
     1
102
RTVSPropertyOp22
 70
     1
102
RTVSPropertyOp23
 70
     1
102
RTVSPropertyOp24
 70
     1
102
RTVSPropertyOp25
 70
     1
102
RTVSPropertyOp26
 70
     1
102
RTVSPropertyOp27
 70
     1
102
RTVSPropertyOp28
 70
     1
102
RTVSPropertyOp29
 70
     1
102
RTVSPropertyOp30
 70
     1
102
RTVSPropertyOp31
 70
     1
102
RTVSPropertyOp32
 70
     1
102
RTVSPropertyOp33
 70
     1
102
RTVSPropertyOp34
 70
     1
102
RTVSPropertyOp35
 70
     1
102
RTVSPropertyOp36
 70
     1
102
RTVSPropertyOp37
 70
     1
102
RTVSPropertyOp38
 70
     1
102
RTVSPropertyOp39
 70
     1
102
RTVSPropertyOp40
 70
     1
102
RTVSPropertyOp41
 70
     1
102
RTVSPropertyOp42
 70
     1
102
RTVSPropertyOp43
 70
     1
102
RTVSPropertyOp44
 70
     1
102
RTVSPropertyOp45
 70
     1
102
RTVSPropertyOp46
 70
     1
102
RTVSPropertyOp47
 70
     1
102
RTVSPropertyOp48
 70
     1
102
RTVSPropertyOp49
 70
     1
102
RTVSPropertyOp50
 70
     1
102
RTVSPropertyOp51
 70
     0
102
RTVSPropertyOp52
 70
     0
102
RTVSPropertyOp53
 70
     1
102
RTVSPropertyOp54
 70
     1
102
RTVSPropertyOp55
 70
     1
102
RTVSPropertyOp56
 70
     1
102
RTVSPropertyOp57
 70
     1
102
RTVSPropertyOp58
 70
     1
102
RTVSPropertyOp59
 70
     1
102
RTVSPropertyOp60
 70
     1
102
RTVSPropertyOp61
 70
     1
102
RTVSPropertyOp62
 70
     1
  0
XRECORD
  5
6EF
102
{ACAD_REACTORS
330
6EE
102
}
330
6EE
100
AcDbXrecord
280
     1
102
RTVSPost2010Prop28
280
     0
102
RTVSPost2010PropOp28
 70
     1
102
RTVSPost2010Prop29
280
     1
102
RTVSPost2010PropOp29
 70
     1
102
RTVSPost2010Prop30
280
     1
102
RTVSPost2010PropOp30
 70
     1
102
RTVSPost2010Prop31
280
     0
102
RTVSPost2010PropOp31
 70
     1
102
RTVSPost2010Prop32
280
     0
102
RTVSPost2010PropOp32
 70
     1
102
RTVSPost2010Prop33
280
     0
102
RTVSPost2010PropOp33
 70
     1
102
RTVSPost2010Prop34
280
     0
102
RTVSPost2010PropOp34
 70
     1
102
RTVSPost2010Prop35
280
     0
102
RTVSPost2010PropOp35
 70
     1
102
RTVSPost2010Prop36
280
     0
102
RTVSPost2010PropOp36
 70
     1
102
RTVSPost2010Prop37
 90
       50
102
RTVSPost2010PropOp37
 70
     1
102
RTVSPost2010Prop38
140
0.0
102
RTVSPost2010PropOp38
 70
     1
102
RTVSPost2010Prop39
140
1.0
102
RTVSPost2010PropOp39
 70
     1
102
RTVSPost2010Prop40
 90
        0
102
RTVSPost2010PropOp40
 70
     1
102
RTVSPost2010Prop41ColorIndex
 90
       18
102
RTVSPost2010Prop41ColorRGB
 90
        0
102
RTVSPost2010PropOp41
 70
     1
102
RTVSPost2010Prop42
 90
       50
102
RTVSPost2010PropOp42
 70
     1
102
RTVSPost2010Prop43
 90
        3
102
RTVSPost2010PropOp43
 70
     1
102
RTVSPost2010Prop44ColorIndex
 90
        5
102
RTVSPost2010Prop44ColorRGB
 90
      255
102
RTVSPost2010PropOp44
 70
     1
102
RTVSPost2010Prop45
280
     0
102
RTVSPost2010PropOp45
 70
     1
102
RTVSPost2010Prop46
 90
       50
102
RTVSPost2010PropOp46
 70
     1
102
RTVSPost2010Prop47
 90
       50
102
RTVSPost2010PropOp47
 70
     1
102
RTVSPost2010Prop48
 90
       50
102
RTVSPost2010PropOp48
 70
     1
102
RTVSPost2010Prop49
280
     0
102
RTVSPost2010PropOp49
 70
     1
102
RTVSPost2010Prop50
 90
       50
102
RTVSPost2010PropOp50
 70
     1
102
RTVSPost2010Prop51ColorIndex
 90
      256
102
RTVSPost2010Prop51ColorRGB
 90
-16777216
102
RTVSPost2010PropOp51
 70
     0
102
RTVSPost2010Prop52
140
1.0
102
RTVSPost2010PropOp52
 70
     0
102
RTVSPost2010Prop53
 90
        2
102
RTVSPost2010PropOp53
 70
     1
102
RTVSPost2010Prop54
  1
strokes_ogs.tif
102
RTVSPost2010PropOp54
 70
     1
102
RTVSPost2010Prop55
280
     0
102
RTVSPost2010PropOp55
 70
     1
102
RTVSPost2010Prop56
140
1.0
102
RTVSPost2010PropOp56
 70
     1
102
RTVSPost2010Prop57
140
1.0
102
RTVSPost2010PropOp57
 70
     1
102
RTVSPropertyOp0
 70
     1
102
RTVSPropertyOp1
 70
     1
102
RTVSPropertyOp2
 70
     1
102
RTVSPropertyOp3
 70
     1
102
RTVSPropertyOp4
 70
     1
102
RTVSPropertyOp5
 70
     1
102
RTVSPropertyOp6
 70
     1
102
RTVSPropertyOp7
 70
     1
102
RTVSPropertyOp8
 70
     1
102
RTVSPropertyOp9
 70
     1
102
RTVSPropertyOp10
 70
     1
102
RTVSPropertyOp11
 70
     1
102
RTVSPropertyOp12
 70
     1
102
RTVSPropertyOp13
 70
     1
102
RTVSPropertyOp14
 70
     1
102
RTVSPropertyOp15
 70
     1
102
RTVSPropertyOp16
 70
     1
102
RTVSPropertyOp17
 70
     1
102
RTVSPropertyOp18
 70
     1
102
RTVSPropertyOp19
 70
     1
102
RTVSPropertyOp20
 70
     1
102
RTVSPropertyOp21
 70
     1
102
RTVSPropertyOp22
 70
     1
102
RTVSPropertyOp23
 70
     1
102
RTVSPropertyOp24
 70
     1
102
RTVSPropertyOp25
 70
     1
102
RTVSPropertyOp26
 70
     1
102
RTVSPropertyOp27
 70
     1
102
RTVSPropertyOp28
 70
     1
102
RTVSPropertyOp29
 70
     1
102
RTVSPropertyOp30
 70
     1
102
RTVSPropertyOp31
 70
     1
102
RTVSPropertyOp32
 70
     1
102
RTVSPropertyOp33
 70
     1
102
RTVSPropertyOp34
 70
     1
102
RTVSPropertyOp35
 70
     1
102
RTVSPropertyOp36
 70
     1
102
RTVSPropertyOp37
 70
     1
102
RTVSPropertyOp38
 70
     1
102
RTVSPropertyOp39
 70
     1
102
RTVSPropertyOp40
 70
     1
102
RTVSPropertyOp41
 70
     1
102
RTVSPropertyOp42
 70
     1
102
RTVSPropertyOp43
 70
     1
102
RTVSPropertyOp44
 70
     1
102
RTVSPropertyOp45
 70
     1
102
RTVSPropertyOp46
 70
     1
102
RTVSPropertyOp47
 70
     1
102
RTVSPropertyOp48
 70
     1
102
RTVSPropertyOp49
 70
     1
102
RTVSPropertyOp50
 70
     1
102
RTVSPropertyOp51
 70
     0
102
RTVSPropertyOp52
 70
     0
102
RTVSPropertyOp53
 70
     1
102
RTVSPropertyOp54
 70
     1
102
RTVSPropertyOp55
 70
     1
102
RTVSPropertyOp56
 70
     1
102
RTVSPropertyOp57
 70
     1
102
RTVSPropertyOp58
 70
     1
102
RTVSPropertyOp59
 70
     1
102
RTVSPropertyOp60
 70
     1
102
RTVSPropertyOp61
 70
     1
102
RTVSPropertyOp62
 70
     1
  0
XRECORD
  5
6F1
102
{ACAD_REACTORS
330
6F0
102
}
330
6F0
100
AcDbXrecord
280
     1
102
RTVSPost2010Prop28
280
     0
102
RTVSPost2010PropOp28
 70
     1
102
RTVSPost2010Prop29
280
     1
102
RTVSPost2010PropOp29
 70
     1
102
RTVSPost2010Prop30
280
     1
102
RTVSPost2010PropOp30
 70
     1
102
RTVSPost2010Prop31
280
     0
102
RTVSPost2010PropOp31
 70
     1
102
RTVSPost2010Prop32
280
     0
102
RTVSPost2010PropOp32
 70
     1
102
RTVSPost2010Prop33
280
     0
102
RTVSPost2010PropOp33
 70
     1
102
RTVSPost2010Prop34
280
     0
102
RTVSPost2010PropOp34
 70
     1
102
RTVSPost2010Prop35
280
     0
102
RTVSPost2010PropOp35
 70
     1
102
RTVSPost2010Prop36
280
     0
102
RTVSPost2010PropOp36
 70
     1
102
RTVSPost2010Prop37
 90
       50
102
RTVSPost2010PropOp37
 70
     1
102
RTVSPost2010Prop38
140
0.0
102
RTVSPost2010PropOp38
 70
     1
102
RTVSPost2010Prop39
140
1.0
102
RTVSPost2010PropOp39
 70
     1
102
RTVSPost2010Prop40
 90
        0
102
RTVSPost2010PropOp40
 70
     1
102
RTVSPost2010Prop41ColorIndex
 90
       18
102
RTVSPost2010Prop41ColorRGB
 90
        0
102
RTVSPost2010PropOp41
 70
     1
102
RTVSPost2010Prop42
 90
       50
102
RTVSPost2010PropOp42
 70
     1
102
RTVSPost2010Prop43
 90
        3
102
RTVSPost2010PropOp43
 70
     1
102
RTVSPost2010Prop44ColorIndex
 90
        5
102
RTVSPost2010Prop44ColorRGB
 90
      255
102
RTVSPost2010PropOp44
 70
     1
102
RTVSPost2010Prop45
280
     0
102
RTVSPost2010PropOp45
 70
     1
102
RTVSPost2010Prop46
 90
       50
102
RTVSPost2010PropOp46
 70
     1
102
RTVSPost2010Prop47
 90
       50
102
RTVSPost2010PropOp47
 70
     1
102
RTVSPost2010Prop48
 90
       50
102
RTVSPost2010PropOp48
 70
     1
102
RTVSPost2010Prop49
280
     0
102
RTVSPost2010PropOp49
 70
     1
102
RTVSPost2010Prop50
 90
       50
102
RTVSPost2010PropOp50
 70
     1
102
RTVSPost2010Prop51ColorIndex
 90
      256
102
RTVSPost2010Prop51ColorRGB
 90
-16777216
102
RTVSPost2010PropOp51
 70
     0
102
RTVSPost2010Prop52
140
1.0
102
RTVSPost2010PropOp52
 70
     0
102
RTVSPost2010Prop53
 90
        2
102
RTVSPost2010PropOp53
 70
     1
102
RTVSPost2010Prop54
  1
strokes_ogs.tif
102
RTVSPost2010PropOp54
 70
     1
102
RTVSPost2010Prop55
280
     0
102
RTVSPost2010PropOp55
 70
     1
102
RTVSPost2010Prop56
140
1.0
102
RTVSPost2010PropOp56
 70
     1
102
RTVSPost2010Prop57
140
1.0
102
RTVSPost2010PropOp57
 70
     1
102
RTVSPropertyOp0
 70
     1
102
RTVSPropertyOp1
 70
     1
102
RTVSPropertyOp2
 70
     1
102
RTVSPropertyOp3
 70
     1
102
RTVSPropertyOp4
 70
     1
102
RTVSPropertyOp5
 70
     1
102
RTVSPropertyOp6
 70
     1
102
RTVSPropertyOp7
 70
     1
102
RTVSPropertyOp8
 70
     1
102
RTVSPropertyOp9
 70
     1
102
RTVSPropertyOp10
 70
     1
102
RTVSPropertyOp11
 70
     1
102
RTVSPropertyOp12
 70
     1
102
RTVSPropertyOp13
 70
     1
102
RTVSPropertyOp14
 70
     1
102
RTVSPropertyOp15
 70
     1
102
RTVSPropertyOp16
 70
     1
102
RTVSPropertyOp17
 70
     1
102
RTVSPropertyOp18
 70
     1
102
RTVSPropertyOp19
 70
     1
102
RTVSPropertyOp20
 70
     1
102
RTVSPropertyOp21
 70
     1
102
RTVSPropertyOp22
 70
     1
102
RTVSPropertyOp23
 70
     1
102
RTVSPropertyOp24
 70
     1
102
RTVSPropertyOp25
 70
     1
102
RTVSPropertyOp26
 70
     1
102
RTVSPropertyOp27
 70
     1
102
RTVSPropertyOp28
 70
     1
102
RTVSPropertyOp29
 70
     1
102
RTVSPropertyOp30
 70
     1
102
RTVSPropertyOp31
 70
     1
102
RTVSPropertyOp32
 70
     1
102
RTVSPropertyOp33
 70
     1
102
RTVSPropertyOp34
 70
     1
102
RTVSPropertyOp35
 70
     1
102
RTVSPropertyOp36
 70
     1
102
RTVSPropertyOp37
 70
     1
102
RTVSPropertyOp38
 70
     1
102
RTVSPropertyOp39
 70
     1
102
RTVSPropertyOp40
 70
     1
102
RTVSPropertyOp41
 70
     1
102
RTVSPropertyOp42
 70
     1
102
RTVSPropertyOp43
 70
     1
102
RTVSPropertyOp44
 70
     1
102
RTVSPropertyOp45
 70
     1
102
RTVSPropertyOp46
 70
     1
102
RTVSPropertyOp47
 70
     1
102
RTVSPropertyOp48
 70
     1
102
RTVSPropertyOp49
 70
     1
102
RTVSPropertyOp50
 70
     1
102
RTVSPropertyOp51
 70
     0
102
RTVSPropertyOp52
 70
     0
102
RTVSPropertyOp53
 70
     1
102
RTVSPropertyOp54
 70
     1
102
RTVSPropertyOp55
 70
     1
102
RTVSPropertyOp56
 70
     1
102
RTVSPropertyOp57
 70
     1
102
RTVSPropertyOp58
 70
     1
102
RTVSPropertyOp59
 70
     1
102
RTVSPropertyOp60
 70
     1
102
RTVSPropertyOp61
 70
     1
102
RTVSPropertyOp62
 70
     1
  0
XRECORD
  5
6F7
102
{ACAD_REACTORS
330
6F6
102
}
330
6F6
100
AcDbXrecord
280
     1
102
RTVSPost2010Prop28
280
     0
102
RTVSPost2010PropOp28
 70
     1
102
RTVSPost2010Prop29
280
     1
102
RTVSPost2010PropOp29
 70
     1
102
RTVSPost2010Prop30
280
     1
102
RTVSPost2010PropOp30
 70
     1
102
RTVSPost2010Prop31
280
     0
102
RTVSPost2010PropOp31
 70
     1
102
RTVSPost2010Prop32
280
     0
102
RTVSPost2010PropOp32
 70
     1
102
RTVSPost2010Prop33
280
     0
102
RTVSPost2010PropOp33
 70
     1
102
RTVSPost2010Prop34
280
     0
102
RTVSPost2010PropOp34
 70
     1
102
RTVSPost2010Prop35
280
     0
102
RTVSPost2010PropOp35
 70
     1
102
RTVSPost2010Prop36
280
     0
102
RTVSPost2010PropOp36
 70
     1
102
RTVSPost2010Prop37
 90
       50
102
RTVSPost2010PropOp37
 70
     1
102
RTVSPost2010Prop38
140
0.0
102
RTVSPost2010PropOp38
 70
     1
102
RTVSPost2010Prop39
140
1.0
102
RTVSPost2010PropOp39
 70
     1
102
RTVSPost2010Prop40
 90
        0
102
RTVSPost2010PropOp40
 70
     1
102
RTVSPost2010Prop41ColorIndex
 90
       18
102
RTVSPost2010Prop41ColorRGB
 90
        0
102
RTVSPost2010PropOp41
 70
     1
102
RTVSPost2010Prop42
 90
       50
102
RTVSPost2010PropOp42
 70
     1
102
RTVSPost2010Prop43
 90
        3
102
RTVSPost2010PropOp43
 70
     1
102
RTVSPost2010Prop44ColorIndex
 90
        5
102
RTVSPost2010Prop44ColorRGB
 90
      255
102
RTVSPost2010PropOp44
 70
     1
102
RTVSPost2010Prop45
280
     0
102
RTVSPost2010PropOp45
 70
     1
102
RTVSPost2010Prop46
 90
       50
102
RTVSPost2010PropOp46
 70
     1
102
RTVSPost2010Prop47
 90
       50
102
RTVSPost2010PropOp47
 70
     1
102
RTVSPost2010Prop48
 90
       50
102
RTVSPost2010PropOp48
 70
     1
102
RTVSPost2010Prop49
280
     0
102
RTVSPost2010PropOp49
 70
     1
102
RTVSPost2010Prop50
 90
       50
102
RTVSPost2010PropOp50
 70
     1
102
RTVSPost2010Prop51ColorIndex
 90
      256
102
RTVSPost2010Prop51ColorRGB
 90
-16777216
102
RTVSPost2010PropOp51
 70
     0
102
RTVSPost2010Prop52
140
1.0
102
RTVSPost2010PropOp52
 70
     0
102
RTVSPost2010Prop53
 90
        2
102
RTVSPost2010PropOp53
 70
     1
102
RTVSPost2010Prop54
  1
strokes_ogs.tif
102
RTVSPost2010PropOp54
 70
     1
102
RTVSPost2010Prop55
280
     0
102
RTVSPost2010PropOp55
 70
     1
102
RTVSPost2010Prop56
140
1.0
102
RTVSPost2010PropOp56
 70
     1
102
RTVSPost2010Prop57
140
1.0
102
RTVSPost2010PropOp57
 70
     1
102
RTVSPropertyOp0
 70
     1
102
RTVSPropertyOp1
 70
     1
102
RTVSPropertyOp2
 70
     1
102
RTVSPropertyOp3
 70
     1
102
RTVSPropertyOp4
 70
     1
102
RTVSPropertyOp5
 70
     1
102
RTVSPropertyOp6
 70
     1
102
RTVSPropertyOp7
 70
     1
102
RTVSPropertyOp8
 70
     1
102
RTVSPropertyOp9
 70
     1
102
RTVSPropertyOp10
 70
     1
102
RTVSPropertyOp11
 70
     1
102
RTVSPropertyOp12
 70
     1
102
RTVSPropertyOp13
 70
     1
102
RTVSPropertyOp14
 70
     1
102
RTVSPropertyOp15
 70
     1
102
RTVSPropertyOp16
 70
     1
102
RTVSPropertyOp17
 70
     1
102
RTVSPropertyOp18
 70
     1
102
RTVSPropertyOp19
 70
     1
102
RTVSPropertyOp20
 70
     1
102
RTVSPropertyOp21
 70
     1
102
RTVSPropertyOp22
 70
     1
102
RTVSPropertyOp23
 70
     1
102
RTVSPropertyOp24
 70
     1
102
RTVSPropertyOp25
 70
     1
102
RTVSPropertyOp26
 70
     1
102
RTVSPropertyOp27
 70
     1
102
RTVSPropertyOp28
 70
     1
102
RTVSPropertyOp29
 70
     1
102
RTVSPropertyOp30
 70
     1
102
RTVSPropertyOp31
 70
     1
102
RTVSPropertyOp32
 70
     1
102
RTVSPropertyOp33
 70
     1
102
RTVSPropertyOp34
 70
     1
102
RTVSPropertyOp35
 70
     1
102
RTVSPropertyOp36
 70
     1
102
RTVSPropertyOp37
 70
     1
102
RTVSPropertyOp38
 70
     1
102
RTVSPropertyOp39
 70
     1
102
RTVSPropertyOp40
 70
     1
102
RTVSPropertyOp41
 70
     1
102
RTVSPropertyOp42
 70
     1
102
RTVSPropertyOp43
 70
     1
102
RTVSPropertyOp44
 70
     1
102
RTVSPropertyOp45
 70
     1
102
RTVSPropertyOp46
 70
     1
102
RTVSPropertyOp47
 70
     1
102
RTVSPropertyOp48
 70
     1
102
RTVSPropertyOp49
 70
     1
102
RTVSPropertyOp50
 70
     1
102
RTVSPropertyOp51
 70
     0
102
RTVSPropertyOp52
 70
     0
102
RTVSPropertyOp53
 70
     1
102
RTVSPropertyOp54
 70
     1
102
RTVSPropertyOp55
 70
     1
102
RTVSPropertyOp56
 70
     1
102
RTVSPropertyOp57
 70
     1
102
RTVSPropertyOp58
 70
     1
102
RTVSPropertyOp59
 70
     1
102
RTVSPropertyOp60
 70
     1
102
RTVSPropertyOp61
 70
     1
102
RTVSPropertyOp62
 70
     1
  0
XRECORD
  5
70B
102
{ACAD_REACTORS
330
70A
102
}
330
70A
100
AcDbXrecord
280
     1
102
RTVSPost2010Prop28
280
     0
102
RTVSPost2010PropOp28
 70
     0
102
RTVSPost2010Prop29
280
     1
102
RTVSPost2010PropOp29
 70
     0
102
RTVSPost2010Prop30
280
     1
102
RTVSPost2010PropOp30
 70
     0
102
RTVSPost2010Prop31
280
     0
102
RTVSPost2010PropOp31
 70
     0
102
RTVSPost2010Prop32
280
     0
102
RTVSPost2010PropOp32
 70
     0
102
RTVSPost2010Prop33
280
     0
102
RTVSPost2010PropOp33
 70
     0
102
RTVSPost2010Prop34
280
     0
102
RTVSPost2010PropOp34
 70
     0
102
RTVSPost2010Prop35
280
     0
102
RTVSPost2010PropOp35
 70
     0
102
RTVSPost2010Prop36
280
     0
102
RTVSPost2010PropOp36
 70
     0
102
RTVSPost2010Prop37
 90
       50
102
RTVSPost2010PropOp37
 70
     0
102
RTVSPost2010Prop38
140
0.0
102
RTVSPost2010PropOp38
 70
     0
102
RTVSPost2010Prop39
140
1.0
102
RTVSPost2010PropOp39
 70
     0
102
RTVSPost2010Prop40
 90
        0
102
RTVSPost2010PropOp40
 70
     0
102
RTVSPost2010Prop41ColorIndex
 90
       18
102
RTVSPost2010Prop41ColorRGB
 90
        0
102
RTVSPost2010PropOp41
 70
     0
102
RTVSPost2010Prop42
 90
       50
102
RTVSPost2010PropOp42
 70
     0
102
RTVSPost2010Prop43
 90
        3
102
RTVSPost2010PropOp43
 70
     0
102
RTVSPost2010Prop44ColorIndex
 90
        5
102
RTVSPost2010Prop44ColorRGB
 90
      255
102
RTVSPost2010PropOp44
 70
     0
102
RTVSPost2010Prop45
280
     0
102
RTVSPost2010PropOp45
 70
     0
102
RTVSPost2010Prop46
 90
       50
102
RTVSPost2010PropOp46
 70
     0
102
RTVSPost2010Prop47
 90
       50
102
RTVSPost2010PropOp47
 70
     0
102
RTVSPost2010Prop48
 90
       50
102
RTVSPost2010PropOp48
 70
     0
102
RTVSPost2010Prop49
280
     0
102
RTVSPost2010PropOp49
 70
     0
102
RTVSPost2010Prop50
 90
       50
102
RTVSPost2010PropOp50
 70
     0
102
RTVSPost2010Prop51ColorIndex
 90
      256
102
RTVSPost2010Prop51ColorRGB
 90
-16777216
102
RTVSPost2010PropOp51
 70
     0
102
RTVSPost2010Prop52
140
1.0
102
RTVSPost2010PropOp52
 70
     0
102
RTVSPost2010Prop53
 90
        2
102
RTVSPost2010PropOp53
 70
     0
102
RTVSPost2010Prop54
  1
strokes_ogs.tif
102
RTVSPost2010PropOp54
 70
     0
102
RTVSPost2010Prop55
280
     0
102
RTVSPost2010PropOp55
 70
     0
102
RTVSPost2010Prop56
140
1.0
102
RTVSPost2010PropOp56
 70
     0
102
RTVSPost2010Prop57
140
1.0
102
RTVSPost2010PropOp57
 70
     0
102
RTVSPropertyOp0
 70
     0
102
RTVSPropertyOp1
 70
     0
102
RTVSPropertyOp2
 70
     0
102
RTVSPropertyOp3
 70
     0
102
RTVSPropertyOp4
 70
     0
102
RTVSPropertyOp5
 70
     0
102
RTVSPropertyOp6
 70
     0
102
RTVSPropertyOp7
 70
     0
102
RTVSPropertyOp8
 70
     0
102
RTVSPropertyOp9
 70
     0
102
RTVSPropertyOp10
 70
     0
102
RTVSPropertyOp11
 70
     0
102
RTVSPropertyOp12
 70
     0
102
RTVSPropertyOp13
 70
     0
102
RTVSPropertyOp14
 70
     2
102
RTVSPropertyOp15
 70
     0
102
RTVSPropertyOp16
 70
     0
102
RTVSPropertyOp17
 70
     0
102
RTVSPropertyOp18
 70
     0
102
RTVSPropertyOp19
 70
     0
102
RTVSPropertyOp20
 70
     0
102
RTVSPropertyOp21
 70
     0
102
RTVSPropertyOp22
 70
     0
102
RTVSPropertyOp23
 70
     0
102
RTVSPropertyOp24
 70
     0
102
RTVSPropertyOp25
 70
     0
102
RTVSPropertyOp26
 70
     0
102
RTVSPropertyOp27
 70
     0
102
RTVSPropertyOp28
 70
     0
102
RTVSPropertyOp29
 70
     0
102
RTVSPropertyOp30
 70
     0
102
RTVSPropertyOp31
 70
     0
102
RTVSPropertyOp32
 70
     0
102
RTVSPropertyOp33
 70
     0
102
RTVSPropertyOp34
 70
     0
102
RTVSPropertyOp35
 70
     0
102
RTVSPropertyOp36
 70
     0
102
RTVSPropertyOp37
 70
     0
102
RTVSPropertyOp38
 70
     0
102
RTVSPropertyOp39
 70
     0
102
RTVSPropertyOp40
 70
     0
102
RTVSPropertyOp41
 70
     0
102
RTVSPropertyOp42
 70
     0
102
RTVSPropertyOp43
 70
     0
102
RTVSPropertyOp44
 70
     0
102
RTVSPropertyOp45
 70
     0
102
RTVSPropertyOp46
 70
     0
102
RTVSPropertyOp47
 70
     0
102
RTVSPropertyOp48
 70
     0
102
RTVSPropertyOp49
 70
     0
102
RTVSPropertyOp50
 70
     0
102
RTVSPropertyOp51
 70
     0
102
RTVSPropertyOp52
 70
     0
102
RTVSPropertyOp53
 70
     0
102
RTVSPropertyOp54
 70
     0
102
RTVSPropertyOp55
 70
     0
102
RTVSPropertyOp56
 70
     0
102
RTVSPropertyOp57
 70
     0
102
RTVSPropertyOp58
 70
     1
102
RTVSPropertyOp59
 70
     1
102
RTVSPropertyOp60
 70
     1
102
RTVSPropertyOp61
 70
     1
102
RTVSPropertyOp62
 70
     1
  0
XRECORD
  5
705
102
{ACAD_REACTORS
330
704
102
}
330
704
100
AcDbXrecord
280
     1
102
RTVSPost2010Prop28
280
     0
102
RTVSPost2010PropOp28
 70
     1
102
RTVSPost2010Prop29
280
     1
102
RTVSPost2010PropOp29
 70
     1
102
RTVSPost2010Prop30
280
     1
102
RTVSPost2010PropOp30
 70
     1
102
RTVSPost2010Prop31
280
     0
102
RTVSPost2010PropOp31
 70
     1
102
RTVSPost2010Prop32
280
     0
102
RTVSPost2010PropOp32
 70
     1
102
RTVSPost2010Prop33
280
     0
102
RTVSPost2010PropOp33
 70
     1
102
RTVSPost2010Prop34
280
     0
102
RTVSPost2010PropOp34
 70
     1
102
RTVSPost2010Prop35
280
     0
102
RTVSPost2010PropOp35
 70
     1
102
RTVSPost2010Prop36
280
     0
102
RTVSPost2010PropOp36
 70
     1
102
RTVSPost2010Prop37
 90
       50
102
RTVSPost2010PropOp37
 70
     1
102
RTVSPost2010Prop38
140
0.0
102
RTVSPost2010PropOp38
 70
     1
102
RTVSPost2010Prop39
140
1.0
102
RTVSPost2010PropOp39
 70
     1
102
RTVSPost2010Prop40
 90
        0
102
RTVSPost2010PropOp40
 70
     1
102
RTVSPost2010Prop41ColorIndex
 90
       18
102
RTVSPost2010Prop41ColorRGB
 90
        0
102
RTVSPost2010PropOp41
 70
     1
102
RTVSPost2010Prop42
 90
       50
102
RTVSPost2010PropOp42
 70
     1
102
RTVSPost2010Prop43
 90
        3
102
RTVSPost2010PropOp43
 70
     1
102
RTVSPost2010Prop44ColorIndex
 90
        5
102
RTVSPost2010Prop44ColorRGB
 90
      255
102
RTVSPost2010PropOp44
 70
     1
102
RTVSPost2010Prop45
280
     0
102
RTVSPost2010PropOp45
 70
     1
102
RTVSPost2010Prop46
 90
       50
102
RTVSPost2010PropOp46
 70
     1
102
RTVSPost2010Prop47
 90
       50
102
RTVSPost2010PropOp47
 70
     1
102
RTVSPost2010Prop48
 90
       50
102
RTVSPost2010PropOp48
 70
     1
102
RTVSPost2010Prop49
280
     0
102
RTVSPost2010PropOp49
 70
     1
102
RTVSPost2010Prop50
 90
       50
102
RTVSPost2010PropOp50
 70
     1
102
RTVSPost2010Prop51ColorIndex
 90
      256
102
RTVSPost2010Prop51ColorRGB
 90
-16777216
102
RTVSPost2010PropOp51
 70
     0
102
RTVSPost2010Prop52
140
1.0
102
RTVSPost2010PropOp52
 70
     0
102
RTVSPost2010Prop53
 90
        2
102
RTVSPost2010PropOp53
 70
     1
102
RTVSPost2010Prop54
  1
strokes_ogs.tif
102
RTVSPost2010PropOp54
 70
     1
102
RTVSPost2010Prop55
280
     0
102
RTVSPost2010PropOp55
 70
     1
102
RTVSPost2010Prop56
140
1.0
102
RTVSPost2010PropOp56
 70
     1
102
RTVSPost2010Prop57
140
1.0
102
RTVSPost2010PropOp57
 70
     1
102
RTVSPropertyOp0
 70
     1
102
RTVSPropertyOp1
 70
     1
102
RTVSPropertyOp2
 70
     1
102
RTVSPropertyOp3
 70
     1
102
RTVSPropertyOp4
 70
     1
102
RTVSPropertyOp5
 70
     1
102
RTVSPropertyOp6
 70
     1
102
RTVSPropertyOp7
 70
     1
102
RTVSPropertyOp8
 70
     1
102
RTVSPropertyOp9
 70
     1
102
RTVSPropertyOp10
 70
     1
102
RTVSPropertyOp11
 70
     1
102
RTVSPropertyOp12
 70
     1
102
RTVSPropertyOp13
 70
     1
102
RTVSPropertyOp14
 70
     1
102
RTVSPropertyOp15
 70
     1
102
RTVSPropertyOp16
 70
     1
102
RTVSPropertyOp17
 70
     1
102
RTVSPropertyOp18
 70
     1
102
RTVSPropertyOp19
 70
     1
102
RTVSPropertyOp20
 70
     1
102
RTVSPropertyOp21
 70
     1
102
RTVSPropertyOp22
 70
     1
102
RTVSPropertyOp23
 70
     1
102
RTVSPropertyOp24
 70
     1
102
RTVSPropertyOp25
 70
     1
102
RTVSPropertyOp26
 70
     1
102
RTVSPropertyOp27
 70
     1
102
RTVSPropertyOp28
 70
     1
102
RTVSPropertyOp29
 70
     1
102
RTVSPropertyOp30
 70
     1
102
RTVSPropertyOp31
 70
     1
102
RTVSPropertyOp32
 70
     1
102
RTVSPropertyOp33
 70
     1
102
RTVSPropertyOp34
 70
     1
102
RTVSPropertyOp35
 70
     1
102
RTVSPropertyOp36
 70
     1
102
RTVSPropertyOp37
 70
     1
102
RTVSPropertyOp38
 70
     1
102
RTVSPropertyOp39
 70
     1
102
RTVSPropertyOp40
 70
     1
102
RTVSPropertyOp41
 70
     1
102
RTVSPropertyOp42
 70
     1
102
RTVSPropertyOp43
 70
     1
102
RTVSPropertyOp44
 70
     1
102
RTVSPropertyOp45
 70
     1
102
RTVSPropertyOp46
 70
     1
102
RTVSPropertyOp47
 70
     1
102
RTVSPropertyOp48
 70
     1
102
RTVSPropertyOp49
 70
     1
102
RTVSPropertyOp50
 70
     1
102
RTVSPropertyOp51
 70
     0
102
RTVSPropertyOp52
 70
     0
102
RTVSPropertyOp53
 70
     1
102
RTVSPropertyOp54
 70
     1
102
RTVSPropertyOp55
 70
     1
102
RTVSPropertyOp56
 70
     1
102
RTVSPropertyOp57
 70
     1
102
RTVSPropertyOp58
 70
     1
102
RTVSPropertyOp59
 70
     1
102
RTVSPropertyOp60
 70
     1
102
RTVSPropertyOp61
 70
     1
102
RTVSPropertyOp62
 70
     1
  0
XRECORD
  5
70D
102
{ACAD_REACTORS
330
70C
102
}
330
70C
100
AcDbXrecord
280
     1
102
RTVSPost2010Prop28
280
     0
102
RTVSPost2010PropOp28
 70
     0
102
RTVSPost2010Prop29
280
     1
102
RTVSPost2010PropOp29
 70
     0
102
RTVSPost2010Prop30
280
     1
102
RTVSPost2010PropOp30
 70
     0
102
RTVSPost2010Prop31
280
     0
102
RTVSPost2010PropOp31
 70
     0
102
RTVSPost2010Prop32
280
     0
102
RTVSPost2010PropOp32
 70
     0
102
RTVSPost2010Prop33
280
     0
102
RTVSPost2010PropOp33
 70
     0
102
RTVSPost2010Prop34
280
     0
102
RTVSPost2010PropOp34
 70
     0
102
RTVSPost2010Prop35
280
     0
102
RTVSPost2010PropOp35
 70
     0
102
RTVSPost2010Prop36
280
     0
102
RTVSPost2010PropOp36
 70
     0
102
RTVSPost2010Prop37
 90
       50
102
RTVSPost2010PropOp37
 70
     0
102
RTVSPost2010Prop38
140
0.0
102
RTVSPost2010PropOp38
 70
     0
102
RTVSPost2010Prop39
140
1.0
102
RTVSPost2010PropOp39
 70
     0
102
RTVSPost2010Prop40
 90
        0
102
RTVSPost2010PropOp40
 70
     0
102
RTVSPost2010Prop41ColorIndex
 90
       18
102
RTVSPost2010Prop41ColorRGB
 90
        0
102
RTVSPost2010PropOp41
 70
     0
102
RTVSPost2010Prop42
 90
       50
102
RTVSPost2010PropOp42
 70
     0
102
RTVSPost2010Prop43
 90
        3
102
RTVSPost2010PropOp43
 70
     0
102
RTVSPost2010Prop44ColorIndex
 90
        5
102
RTVSPost2010Prop44ColorRGB
 90
      255
102
RTVSPost2010PropOp44
 70
     0
102
RTVSPost2010Prop45
280
     0
102
RTVSPost2010PropOp45
 70
     0
102
RTVSPost2010Prop46
 90
       50
102
RTVSPost2010PropOp46
 70
     0
102
RTVSPost2010Prop47
 90
       50
102
RTVSPost2010PropOp47
 70
     0
102
RTVSPost2010Prop48
 90
       50
102
RTVSPost2010PropOp48
 70
     0
102
RTVSPost2010Prop49
280
     0
102
RTVSPost2010PropOp49
 70
     0
102
RTVSPost2010Prop50
 90
       50
102
RTVSPost2010PropOp50
 70
     0
102
RTVSPost2010Prop51ColorIndex
 90
      256
102
RTVSPost2010Prop51ColorRGB
 90
-16777216
102
RTVSPost2010PropOp51
 70
     0
102
RTVSPost2010Prop52
140
1.0
102
RTVSPost2010PropOp52
 70
     0
102
RTVSPost2010Prop53
 90
        2
102
RTVSPost2010PropOp53
 70
     0
102
RTVSPost2010Prop54
  1
strokes_ogs.tif
102
RTVSPost2010PropOp54
 70
     0
102
RTVSPost2010Prop55
280
     0
102
RTVSPost2010PropOp55
 70
     0
102
RTVSPost2010Prop56
140
1.0
102
RTVSPost2010PropOp56
 70
     0
102
RTVSPost2010Prop57
140
1.0
102
RTVSPost2010PropOp57
 70
     0
102
RTVSPropertyOp0
 70
     0
102
RTVSPropertyOp1
 70
     0
102
RTVSPropertyOp2
 70
     0
102
RTVSPropertyOp3
 70
     0
102
RTVSPropertyOp4
 70
     0
102
RTVSPropertyOp5
 70
     0
102
RTVSPropertyOp6
 70
     0
102
RTVSPropertyOp7
 70
     0
102
RTVSPropertyOp8
 70
     0
102
RTVSPropertyOp9
 70
     0
102
RTVSPropertyOp10
 70
     0
102
RTVSPropertyOp11
 70
     0
102
RTVSPropertyOp12
 70
     0
102
RTVSPropertyOp13
 70
     0
102
RTVSPropertyOp14
 70
     2
102
RTVSPropertyOp15
 70
     0
102
RTVSPropertyOp16
 70
     0
102
RTVSPropertyOp17
 70
     0
102
RTVSPropertyOp18
 70
     0
102
RTVSPropertyOp19
 70
     0
102
RTVSPropertyOp20
 70
     0
102
RTVSPropertyOp21
 70
     0
102
RTVSPropertyOp22
 70
     0
102
RTVSPropertyOp23
 70
     0
102
RTVSPropertyOp24
 70
     0
102
RTVSPropertyOp25
 70
     0
102
RTVSPropertyOp26
 70
     0
102
RTVSPropertyOp27
 70
     0
102
RTVSPropertyOp28
 70
     0
102
RTVSPropertyOp29
 70
     0
102
RTVSPropertyOp30
 70
     0
102
RTVSPropertyOp31
 70
     0
102
RTVSPropertyOp32
 70
     0
102
RTVSPropertyOp33
 70
     0
102
RTVSPropertyOp34
 70
     0
102
RTVSPropertyOp35
 70
     0
102
RTVSPropertyOp36
 70
     0
102
RTVSPropertyOp37
 70
     0
102
RTVSPropertyOp38
 70
     0
102
RTVSPropertyOp39
 70
     0
102
RTVSPropertyOp40
 70
     0
102
RTVSPropertyOp41
 70
     0
102
RTVSPropertyOp42
 70
     0
102
RTVSPropertyOp43
 70
     0
102
RTVSPropertyOp44
 70
     0
102
RTVSPropertyOp45
 70
     0
102
RTVSPropertyOp46
 70
     0
102
RTVSPropertyOp47
 70
     0
102
RTVSPropertyOp48
 70
     0
102
RTVSPropertyOp49
 70
     0
102
RTVSPropertyOp50
 70
     0
102
RTVSPropertyOp51
 70
     0
102
RTVSPropertyOp52
 70
     0
102
RTVSPropertyOp53
 70
     0
102
RTVSPropertyOp54
 70
     0
102
RTVSPropertyOp55
 70
     0
102
RTVSPropertyOp56
 70
     0
102
RTVSPropertyOp57
 70
     0
102
RTVSPropertyOp58
 70
     1
102
RTVSPropertyOp59
 70
     1
102
RTVSPropertyOp60
 70
     1
102
RTVSPropertyOp61
 70
     1
102
RTVSPropertyOp62
 70
     1
  0
XRECORD
  5
6FB
102
{ACAD_REACTORS
330
6FA
102
}
330
6FA
100
AcDbXrecord
280
     1
102
RTVSPost2010Prop28
280
     0
102
RTVSPost2010PropOp28
 70
     1
102
RTVSPost2010Prop29
280
     1
102
RTVSPost2010PropOp29
 70
     1
102
RTVSPost2010Prop30
280
     1
102
RTVSPost2010PropOp30
 70
     1
102
RTVSPost2010Prop31
280
     0
102
RTVSPost2010PropOp31
 70
     1
102
RTVSPost2010Prop32
280
     0
102
RTVSPost2010PropOp32
 70
     1
102
RTVSPost2010Prop33
280
     0
102
RTVSPost2010PropOp33
 70
     1
102
RTVSPost2010Prop34
280
     0
102
RTVSPost2010PropOp34
 70
     1
102
RTVSPost2010Prop35
280
     0
102
RTVSPost2010PropOp35
 70
     1
102
RTVSPost2010Prop36
280
     0
102
RTVSPost2010PropOp36
 70
     1
102
RTVSPost2010Prop37
 90
       50
102
RTVSPost2010PropOp37
 70
     1
102
RTVSPost2010Prop38
140
0.0
102
RTVSPost2010PropOp38
 70
     1
102
RTVSPost2010Prop39
140
1.0
102
RTVSPost2010PropOp39
 70
     1
102
RTVSPost2010Prop40
 90
        0
102
RTVSPost2010PropOp40
 70
     1
102
RTVSPost2010Prop41ColorIndex
 90
       18
102
RTVSPost2010Prop41ColorRGB
 90
        0
102
RTVSPost2010PropOp41
 70
     1
102
RTVSPost2010Prop42
 90
       50
102
RTVSPost2010PropOp42
 70
     1
102
RTVSPost2010Prop43
 90
        3
102
RTVSPost2010PropOp43
 70
     1
102
RTVSPost2010Prop44ColorIndex
 90
        5
102
RTVSPost2010Prop44ColorRGB
 90
      255
102
RTVSPost2010PropOp44
 70
     1
102
RTVSPost2010Prop45
280
     0
102
RTVSPost2010PropOp45
 70
     1
102
RTVSPost2010Prop46
 90
       50
102
RTVSPost2010PropOp46
 70
     1
102
RTVSPost2010Prop47
 90
       50
102
RTVSPost2010PropOp47
 70
     1
102
RTVSPost2010Prop48
 90
       50
102
RTVSPost2010PropOp48
 70
     1
102
RTVSPost2010Prop49
280
     0
102
RTVSPost2010PropOp49
 70
     1
102
RTVSPost2010Prop50
 90
       50
102
RTVSPost2010PropOp50
 70
     1
102
RTVSPost2010Prop51ColorIndex
 90
      256
102
RTVSPost2010Prop51ColorRGB
 90
-16777216
102
RTVSPost2010PropOp51
 70
     0
102
RTVSPost2010Prop52
140
1.0
102
RTVSPost2010PropOp52
 70
     0
102
RTVSPost2010Prop53
 90
        2
102
RTVSPost2010PropOp53
 70
     1
102
RTVSPost2010Prop54
  1
strokes_ogs.tif
102
RTVSPost2010PropOp54
 70
     1
102
RTVSPost2010Prop55
280
     0
102
RTVSPost2010PropOp55
 70
     1
102
RTVSPost2010Prop56
140
1.0
102
RTVSPost2010PropOp56
 70
     1
102
RTVSPost2010Prop57
140
1.0
102
RTVSPost2010PropOp57
 70
     1
102
RTVSPropertyOp0
 70
     1
102
RTVSPropertyOp1
 70
     1
102
RTVSPropertyOp2
 70
     1
102
RTVSPropertyOp3
 70
     1
102
RTVSPropertyOp4
 70
     1
102
RTVSPropertyOp5
 70
     1
102
RTVSPropertyOp6
 70
     1
102
RTVSPropertyOp7
 70
     1
102
RTVSPropertyOp8
 70
     1
102
RTVSPropertyOp9
 70
     1
102
RTVSPropertyOp10
 70
     1
102
RTVSPropertyOp11
 70
     1
102
RTVSPropertyOp12
 70
     1
102
RTVSPropertyOp13
 70
     1
102
RTVSPropertyOp14
 70
     1
102
RTVSPropertyOp15
 70
     1
102
RTVSPropertyOp16
 70
     1
102
RTVSPropertyOp17
 70
     1
102
RTVSPropertyOp18
 70
     1
102
RTVSPropertyOp19
 70
     1
102
RTVSPropertyOp20
 70
     1
102
RTVSPropertyOp21
 70
     1
102
RTVSPropertyOp22
 70
     1
102
RTVSPropertyOp23
 70
     1
102
RTVSPropertyOp24
 70
     1
102
RTVSPropertyOp25
 70
     1
102
RTVSPropertyOp26
 70
     1
102
RTVSPropertyOp27
 70
     1
102
RTVSPropertyOp28
 70
     1
102
RTVSPropertyOp29
 70
     1
102
RTVSPropertyOp30
 70
     1
102
RTVSPropertyOp31
 70
     1
102
RTVSPropertyOp32
 70
     1
102
RTVSPropertyOp33
 70
     1
102
RTVSPropertyOp34
 70
     1
102
RTVSPropertyOp35
 70
     1
102
RTVSPropertyOp36
 70
     1
102
RTVSPropertyOp37
 70
     1
102
RTVSPropertyOp38
 70
     1
102
RTVSPropertyOp39
 70
     1
102
RTVSPropertyOp40
 70
     1
102
RTVSPropertyOp41
 70
     1
102
RTVSPropertyOp42
 70
     1
102
RTVSPropertyOp43
 70
     1
102
RTVSPropertyOp44
 70
     1
102
RTVSPropertyOp45
 70
     1
102
RTVSPropertyOp46
 70
     1
102
RTVSPropertyOp47
 70
     1
102
RTVSPropertyOp48
 70
     1
102
RTVSPropertyOp49
 70
     1
102
RTVSPropertyOp50
 70
     1
102
RTVSPropertyOp51
 70
     0
102
RTVSPropertyOp52
 70
     0
102
RTVSPropertyOp53
 70
     1
102
RTVSPropertyOp54
 70
     1
102
RTVSPropertyOp55
 70
     1
102
RTVSPropertyOp56
 70
     1
102
RTVSPropertyOp57
 70
     1
102
RTVSPropertyOp58
 70
     1
102
RTVSPropertyOp59
 70
     1
102
RTVSPropertyOp60
 70
     1
102
RTVSPropertyOp61
 70
     1
102
RTVSPropertyOp62
 70
     1
  0
XRECORD
  5
719
102
{ACAD_REACTORS
330
718
102
}
330
718
100
AcDbXrecord
280
     1
102
RTVSPost2010Prop28
280
     0
102
RTVSPost2010PropOp28
 70
     1
102
RTVSPost2010Prop29
280
     1
102
RTVSPost2010PropOp29
 70
     1
102
RTVSPost2010Prop30
280
     1
102
RTVSPost2010PropOp30
 70
     1
102
RTVSPost2010Prop31
280
     0
102
RTVSPost2010PropOp31
 70
     1
102
RTVSPost2010Prop32
280
     0
102
RTVSPost2010PropOp32
 70
     1
102
RTVSPost2010Prop33
280
     0
102
RTVSPost2010PropOp33
 70
     1
102
RTVSPost2010Prop34
280
     0
102
RTVSPost2010PropOp34
 70
     1
102
RTVSPost2010Prop35
280
     0
102
RTVSPost2010PropOp35
 70
     1
102
RTVSPost2010Prop36
280
     0
102
RTVSPost2010PropOp36
 70
     1
102
RTVSPost2010Prop37
 90
       50
102
RTVSPost2010PropOp37
 70
     1
102
RTVSPost2010Prop38
140
0.0
102
RTVSPost2010PropOp38
 70
     1
102
RTVSPost2010Prop39
140
1.0
102
RTVSPost2010PropOp39
 70
     1
102
RTVSPost2010Prop40
 90
        0
102
RTVSPost2010PropOp40
 70
     1
102
RTVSPost2010Prop41ColorIndex
 90
       18
102
RTVSPost2010Prop41ColorRGB
 90
        0
102
RTVSPost2010PropOp41
 70
     1
102
RTVSPost2010Prop42
 90
       50
102
RTVSPost2010PropOp42
 70
     1
102
RTVSPost2010Prop43
 90
        3
102
RTVSPost2010PropOp43
 70
     1
102
RTVSPost2010Prop44ColorIndex
 90
        5
102
RTVSPost2010Prop44ColorRGB
 90
      255
102
RTVSPost2010PropOp44
 70
     1
102
RTVSPost2010Prop45
280
     0
102
RTVSPost2010PropOp45
 70
     1
102
RTVSPost2010Prop46
 90
       50
102
RTVSPost2010PropOp46
 70
     1
102
RTVSPost2010Prop47
 90
       50
102
RTVSPost2010PropOp47
 70
     1
102
RTVSPost2010Prop48
 90
       50
102
RTVSPost2010PropOp48
 70
     1
102
RTVSPost2010Prop49
280
     0
102
RTVSPost2010PropOp49
 70
     1
102
RTVSPost2010Prop50
 90
       50
102
RTVSPost2010PropOp50
 70
     1
102
RTVSPost2010Prop51ColorIndex
 90
      256
102
RTVSPost2010Prop51ColorRGB
 90
-16777216
102
RTVSPost2010PropOp51
 70
     0
102
RTVSPost2010Prop52
140
1.0
102
RTVSPost2010PropOp52
 70
     0
102
RTVSPost2010Prop53
 90
        2
102
RTVSPost2010PropOp53
 70
     1
102
RTVSPost2010Prop54
  1
strokes_ogs.tif
102
RTVSPost2010PropOp54
 70
     1
102
RTVSPost2010Prop55
280
     0
102
RTVSPost2010PropOp55
 70
     1
102
RTVSPost2010Prop56
140
1.0
102
RTVSPost2010PropOp56
 70
     1
102
RTVSPost2010Prop57
140
1.0
102
RTVSPost2010PropOp57
 70
     1
102
RTVSPropertyOp0
 70
     1
102
RTVSPropertyOp1
 70
     1
102
RTVSPropertyOp2
 70
     1
102
RTVSPropertyOp3
 70
     1
102
RTVSPropertyOp4
 70
     1
102
RTVSPropertyOp5
 70
     1
102
RTVSPropertyOp6
 70
     1
102
RTVSPropertyOp7
 70
     1
102
RTVSPropertyOp8
 70
     1
102
RTVSPropertyOp9
 70
     1
102
RTVSPropertyOp10
 70
     1
102
RTVSPropertyOp11
 70
     1
102
RTVSPropertyOp12
 70
     1
102
RTVSPropertyOp13
 70
     1
102
RTVSPropertyOp14
 70
     1
102
RTVSPropertyOp15
 70
     1
102
RTVSPropertyOp16
 70
     1
102
RTVSPropertyOp17
 70
     1
102
RTVSPropertyOp18
 70
     1
102
RTVSPropertyOp19
 70
     1
102
RTVSPropertyOp20
 70
     1
102
RTVSPropertyOp21
 70
     1
102
RTVSPropertyOp22
 70
     1
102
RTVSPropertyOp23
 70
     1
102
RTVSPropertyOp24
 70
     1
102
RTVSPropertyOp25
 70
     1
102
RTVSPropertyOp26
 70
     1
102
RTVSPropertyOp27
 70
     1
102
RTVSPropertyOp28
 70
     1
102
RTVSPropertyOp29
 70
     1
102
RTVSPropertyOp30
 70
     1
102
RTVSPropertyOp31
 70
     1
102
RTVSPropertyOp32
 70
     1
102
RTVSPropertyOp33
 70
     1
102
RTVSPropertyOp34
 70
     1
102
RTVSPropertyOp35
 70
     1
102
RTVSPropertyOp36
 70
     1
102
RTVSPropertyOp37
 70
     1
102
RTVSPropertyOp38
 70
     1
102
RTVSPropertyOp39
 70
     1
102
RTVSPropertyOp40
 70
     1
102
RTVSPropertyOp41
 70
     1
102
RTVSPropertyOp42
 70
     1
102
RTVSPropertyOp43
 70
     1
102
RTVSPropertyOp44
 70
     1
102
RTVSPropertyOp45
 70
     1
102
RTVSPropertyOp46
 70
     1
102
RTVSPropertyOp47
 70
     1
102
RTVSPropertyOp48
 70
     1
102
RTVSPropertyOp49
 70
     1
102
RTVSPropertyOp50
 70
     1
102
RTVSPropertyOp51
 70
     0
102
RTVSPropertyOp52
 70
     0
102
RTVSPropertyOp53
 70
     1
102
RTVSPropertyOp54
 70
     1
102
RTVSPropertyOp55
 70
     1
102
RTVSPropertyOp56
 70
     1
102
RTVSPropertyOp57
 70
     1
102
RTVSPropertyOp58
 70
     1
102
RTVSPropertyOp59
 70
     1
102
RTVSPropertyOp60
 70
     1
102
RTVSPropertyOp61
 70
     1
102
RTVSPropertyOp62
 70
     1
  0
XRECORD
  5
717
102
{ACAD_REACTORS
330
716
102
}
330
716
100
AcDbXrecord
280
     1
102
RTVSPost2010Prop28
280
     0
102
RTVSPost2010PropOp28
 70
     1
102
RTVSPost2010Prop29
280
     1
102
RTVSPost2010PropOp29
 70
     1
102
RTVSPost2010Prop30
280
     1
102
RTVSPost2010PropOp30
 70
     1
102
RTVSPost2010Prop31
280
     0
102
RTVSPost2010PropOp31
 70
     1
102
RTVSPost2010Prop32
280
     0
102
RTVSPost2010PropOp32
 70
     1
102
RTVSPost2010Prop33
280
     0
102
RTVSPost2010PropOp33
 70
     1
102
RTVSPost2010Prop34
280
     0
102
RTVSPost2010PropOp34
 70
     1
102
RTVSPost2010Prop35
280
     0
102
RTVSPost2010PropOp35
 70
     1
102
RTVSPost2010Prop36
280
     0
102
RTVSPost2010PropOp36
 70
     1
102
RTVSPost2010Prop37
 90
       50
102
RTVSPost2010PropOp37
 70
     1
102
RTVSPost2010Prop38
140
0.0
102
RTVSPost2010PropOp38
 70
     1
102
RTVSPost2010Prop39
140
1.0
102
RTVSPost2010PropOp39
 70
     1
102
RTVSPost2010Prop40
 90
        0
102
RTVSPost2010PropOp40
 70
     1
102
RTVSPost2010Prop41ColorIndex
 90
       18
102
RTVSPost2010Prop41ColorRGB
 90
        0
102
RTVSPost2010PropOp41
 70
     1
102
RTVSPost2010Prop42
 90
       50
102
RTVSPost2010PropOp42
 70
     1
102
RTVSPost2010Prop43
 90
        3
102
RTVSPost2010PropOp43
 70
     1
102
RTVSPost2010Prop44ColorIndex
 90
        5
102
RTVSPost2010Prop44ColorRGB
 90
      255
102
RTVSPost2010PropOp44
 70
     1
102
RTVSPost2010Prop45
280
     0
102
RTVSPost2010PropOp45
 70
     1
102
RTVSPost2010Prop46
 90
       50
102
RTVSPost2010PropOp46
 70
     1
102
RTVSPost2010Prop47
 90
       50
102
RTVSPost2010PropOp47
 70
     1
102
RTVSPost2010Prop48
 90
       50
102
RTVSPost2010PropOp48
 70
     1
102
RTVSPost2010Prop49
280
     0
102
RTVSPost2010PropOp49
 70
     1
102
RTVSPost2010Prop50
 90
       50
102
RTVSPost2010PropOp50
 70
     1
102
RTVSPost2010Prop51ColorIndex
 90
      256
102
RTVSPost2010Prop51ColorRGB
 90
-16777216
102
RTVSPost2010PropOp51
 70
     0
102
RTVSPost2010Prop52
140
1.0
102
RTVSPost2010PropOp52
 70
     0
102
RTVSPost2010Prop53
 90
        2
102
RTVSPost2010PropOp53
 70
     1
102
RTVSPost2010Prop54
  1
strokes_ogs.tif
102
RTVSPost2010PropOp54
 70
     1
102
RTVSPost2010Prop55
280
     0
102
RTVSPost2010PropOp55
 70
     1
102
RTVSPost2010Prop56
140
1.0
102
RTVSPost2010PropOp56
 70
     1
102
RTVSPost2010Prop57
140
1.0
102
RTVSPost2010PropOp57
 70
     1
102
RTVSPropertyOp0
 70
     1
102
RTVSPropertyOp1
 70
     1
102
RTVSPropertyOp2
 70
     1
102
RTVSPropertyOp3
 70
     1
102
RTVSPropertyOp4
 70
     1
102
RTVSPropertyOp5
 70
     1
102
RTVSPropertyOp6
 70
     1
102
RTVSPropertyOp7
 70
     1
102
RTVSPropertyOp8
 70
     1
102
RTVSPropertyOp9
 70
     1
102
RTVSPropertyOp10
 70
     1
102
RTVSPropertyOp11
 70
     1
102
RTVSPropertyOp12
 70
     1
102
RTVSPropertyOp13
 70
     1
102
RTVSPropertyOp14
 70
     1
102
RTVSPropertyOp15
 70
     1
102
RTVSPropertyOp16
 70
     1
102
RTVSPropertyOp17
 70
     1
102
RTVSPropertyOp18
 70
     1
102
RTVSPropertyOp19
 70
     1
102
RTVSPropertyOp20
 70
     1
102
RTVSPropertyOp21
 70
     1
102
RTVSPropertyOp22
 70
     1
102
RTVSPropertyOp23
 70
     1
102
RTVSPropertyOp24
 70
     1
102
RTVSPropertyOp25
 70
     1
102
RTVSPropertyOp26
 70
     1
102
RTVSPropertyOp27
 70
     1
102
RTVSPropertyOp28
 70
     1
102
RTVSPropertyOp29
 70
     1
102
RTVSPropertyOp30
 70
     1
102
RTVSPropertyOp31
 70
     1
102
RTVSPropertyOp32
 70
     1
102
RTVSPropertyOp33
 70
     1
102
RTVSPropertyOp34
 70
     1
102
RTVSPropertyOp35
 70
     1
102
RTVSPropertyOp36
 70
     1
102
RTVSPropertyOp37
 70
     1
102
RTVSPropertyOp38
 70
     1
102
RTVSPropertyOp39
 70
     1
102
RTVSPropertyOp40
 70
     1
102
RTVSPropertyOp41
 70
     1
102
RTVSPropertyOp42
 70
     1
102
RTVSPropertyOp43
 70
     1
102
RTVSPropertyOp44
 70
     1
102
RTVSPropertyOp45
 70
     1
102
RTVSPropertyOp46
 70
     1
102
RTVSPropertyOp47
 70
     1
102
RTVSPropertyOp48
 70
     1
102
RTVSPropertyOp49
 70
     1
102
RTVSPropertyOp50
 70
     1
102
RTVSPropertyOp51
 70
     0
102
RTVSPropertyOp52
 70
     0
102
RTVSPropertyOp53
 70
     1
102
RTVSPropertyOp54
 70
     1
102
RTVSPropertyOp55
 70
     1
102
RTVSPropertyOp56
 70
     1
102
RTVSPropertyOp57
 70
     1
102
RTVSPropertyOp58
 70
     1
102
RTVSPropertyOp59
 70
     1
102
RTVSPropertyOp60
 70
     1
102
RTVSPropertyOp61
 70
     1
102
RTVSPropertyOp62
 70
     1
  0
XRECORD
  5
711
102
{ACAD_REACTORS
330
710
102
}
330
710
100
AcDbXrecord
280
     1
102
RTVSPost2010Prop28
280
     0
102
RTVSPost2010PropOp28
 70
     1
102
RTVSPost2010Prop29
280
     1
102
RTVSPost2010PropOp29
 70
     1
102
RTVSPost2010Prop30
280
     1
102
RTVSPost2010PropOp30
 70
     1
102
RTVSPost2010Prop31
280
     0
102
RTVSPost2010PropOp31
 70
     1
102
RTVSPost2010Prop32
280
     0
102
RTVSPost2010PropOp32
 70
     1
102
RTVSPost2010Prop33
280
     0
102
RTVSPost2010PropOp33
 70
     1
102
RTVSPost2010Prop34
280
     0
102
RTVSPost2010PropOp34
 70
     1
102
RTVSPost2010Prop35
280
     0
102
RTVSPost2010PropOp35
 70
     1
102
RTVSPost2010Prop36
280
     0
102
RTVSPost2010PropOp36
 70
     1
102
RTVSPost2010Prop37
 90
       50
102
RTVSPost2010PropOp37
 70
     1
102
RTVSPost2010Prop38
140
0.0
102
RTVSPost2010PropOp38
 70
     1
102
RTVSPost2010Prop39
140
1.0
102
RTVSPost2010PropOp39
 70
     1
102
RTVSPost2010Prop40
 90
        0
102
RTVSPost2010PropOp40
 70
     1
102
RTVSPost2010Prop41ColorIndex
 90
       18
102
RTVSPost2010Prop41ColorRGB
 90
        0
102
RTVSPost2010PropOp41
 70
     1
102
RTVSPost2010Prop42
 90
       50
102
RTVSPost2010PropOp42
 70
     1
102
RTVSPost2010Prop43
 90
        3
102
RTVSPost2010PropOp43
 70
     1
102
RTVSPost2010Prop44ColorIndex
 90
        5
102
RTVSPost2010Prop44ColorRGB
 90
      255
102
RTVSPost2010PropOp44
 70
     1
102
RTVSPost2010Prop45
280
     0
102
RTVSPost2010PropOp45
 70
     1
102
RTVSPost2010Prop46
 90
       50
102
RTVSPost2010PropOp46
 70
     1
102
RTVSPost2010Prop47
 90
       50
102
RTVSPost2010PropOp47
 70
     1
102
RTVSPost2010Prop48
 90
       50
102
RTVSPost2010PropOp48
 70
     1
102
RTVSPost2010Prop49
280
     0
102
RTVSPost2010PropOp49
 70
     1
102
RTVSPost2010Prop50
 90
       50
102
RTVSPost2010PropOp50
 70
     1
102
RTVSPost2010Prop51ColorIndex
 90
      256
102
RTVSPost2010Prop51ColorRGB
 90
-16777216
102
RTVSPost2010PropOp51
 70
     0
102
RTVSPost2010Prop52
140
1.0
102
RTVSPost2010PropOp52
 70
     0
102
RTVSPost2010Prop53
 90
        2
102
RTVSPost2010PropOp53
 70
     1
102
RTVSPost2010Prop54
  1
strokes_ogs.tif
102
RTVSPost2010PropOp54
 70
     1
102
RTVSPost2010Prop55
280
     0
102
RTVSPost2010PropOp55
 70
     1
102
RTVSPost2010Prop56
140
1.0
102
RTVSPost2010PropOp56
 70
     1
102
RTVSPost2010Prop57
140
1.0
102
RTVSPost2010PropOp57
 70
     1
102
RTVSPropertyOp0
 70
     1
102
RTVSPropertyOp1
 70
     1
102
RTVSPropertyOp2
 70
     1
102
RTVSPropertyOp3
 70
     1
102
RTVSPropertyOp4
 70
     1
102
RTVSPropertyOp5
 70
     1
102
RTVSPropertyOp6
 70
     1
102
RTVSPropertyOp7
 70
     1
102
RTVSPropertyOp8
 70
     1
102
RTVSPropertyOp9
 70
     1
102
RTVSPropertyOp10
 70
     1
102
RTVSPropertyOp11
 70
     1
102
RTVSPropertyOp12
 70
     1
102
RTVSPropertyOp13
 70
     1
102
RTVSPropertyOp14
 70
     1
102
RTVSPropertyOp15
 70
     1
102
RTVSPropertyOp16
 70
     1
102
RTVSPropertyOp17
 70
     1
102
RTVSPropertyOp18
 70
     1
102
RTVSPropertyOp19
 70
     1
102
RTVSPropertyOp20
 70
     1
102
RTVSPropertyOp21
 70
     1
102
RTVSPropertyOp22
 70
     1
102
RTVSPropertyOp23
 70
     1
102
RTVSPropertyOp24
 70
     1
102
RTVSPropertyOp25
 70
     1
102
RTVSPropertyOp26
 70
     1
102
RTVSPropertyOp27
 70
     1
102
RTVSPropertyOp28
 70
     1
102
RTVSPropertyOp29
 70
     1
102
RTVSPropertyOp30
 70
     1
102
RTVSPropertyOp31
 70
     1
102
RTVSPropertyOp32
 70
     1
102
RTVSPropertyOp33
 70
     1
102
RTVSPropertyOp34
 70
     1
102
RTVSPropertyOp35
 70
     1
102
RTVSPropertyOp36
 70
     1
102
RTVSPropertyOp37
 70
     1
102
RTVSPropertyOp38
 70
     1
102
RTVSPropertyOp39
 70
     1
102
RTVSPropertyOp40
 70
     1
102
RTVSPropertyOp41
 70
     1
102
RTVSPropertyOp42
 70
     1
102
RTVSPropertyOp43
 70
     1
102
RTVSPropertyOp44
 70
     1
102
RTVSPropertyOp45
 70
     1
102
RTVSPropertyOp46
 70
     1
102
RTVSPropertyOp47
 70
     1
102
RTVSPropertyOp48
 70
     1
102
RTVSPropertyOp49
 70
     1
102
RTVSPropertyOp50
 70
     1
102
RTVSPropertyOp51
 70
     0
102
RTVSPropertyOp52
 70
     0
102
RTVSPropertyOp53
 70
     1
102
RTVSPropertyOp54
 70
     1
102
RTVSPropertyOp55
 70
     1
102
RTVSPropertyOp56
 70
     1
102
RTVSPropertyOp57
 70
     1
102
RTVSPropertyOp58
 70
     1
102
RTVSPropertyOp59
 70
     1
102
RTVSPropertyOp60
 70
     1
102
RTVSPropertyOp61
 70
     1
102
RTVSPropertyOp62
 70
     1
  0
XRECORD
  5
713
102
{ACAD_REACTORS
330
712
102
}
330
712
100
AcDbXrecord
280
     1
102
RTVSPost2010Prop28
280
     0
102
RTVSPost2010PropOp28
 70
     1
102
RTVSPost2010Prop29
280
     1
102
RTVSPost2010PropOp29
 70
     1
102
RTVSPost2010Prop30
280
     1
102
RTVSPost2010PropOp30
 70
     1
102
RTVSPost2010Prop31
280
     0
102
RTVSPost2010PropOp31
 70
     1
102
RTVSPost2010Prop32
280
     0
102
RTVSPost2010PropOp32
 70
     1
102
RTVSPost2010Prop33
280
     0
102
RTVSPost2010PropOp33
 70
     1
102
RTVSPost2010Prop34
280
     0
102
RTVSPost2010PropOp34
 70
     1
102
RTVSPost2010Prop35
280
     0
102
RTVSPost2010PropOp35
 70
     1
102
RTVSPost2010Prop36
280
     0
102
RTVSPost2010PropOp36
 70
     1
102
RTVSPost2010Prop37
 90
       50
102
RTVSPost2010PropOp37
 70
     1
102
RTVSPost2010Prop38
140
0.0
102
RTVSPost2010PropOp38
 70
     1
102
RTVSPost2010Prop39
140
1.0
102
RTVSPost2010PropOp39
 70
     1
102
RTVSPost2010Prop40
 90
        0
102
RTVSPost2010PropOp40
 70
     1
102
RTVSPost2010Prop41ColorIndex
 90
       18
102
RTVSPost2010Prop41ColorRGB
 90
        0
102
RTVSPost2010PropOp41
 70
     1
102
RTVSPost2010Prop42
 90
       50
102
RTVSPost2010PropOp42
 70
     1
102
RTVSPost2010Prop43
 90
        3
102
RTVSPost2010PropOp43
 70
     1
102
RTVSPost2010Prop44ColorIndex
 90
        5
102
RTVSPost2010Prop44ColorRGB
 90
      255
102
RTVSPost2010PropOp44
 70
     1
102
RTVSPost2010Prop45
280
     0
102
RTVSPost2010PropOp45
 70
     1
102
RTVSPost2010Prop46
 90
       50
102
RTVSPost2010PropOp46
 70
     1
102
RTVSPost2010Prop47
 90
       50
102
RTVSPost2010PropOp47
 70
     1
102
RTVSPost2010Prop48
 90
       50
102
RTVSPost2010PropOp48
 70
     1
102
RTVSPost2010Prop49
280
     0
102
RTVSPost2010PropOp49
 70
     1
102
RTVSPost2010Prop50
 90
       50
102
RTVSPost2010PropOp50
 70
     1
102
RTVSPost2010Prop51ColorIndex
 90
      256
102
RTVSPost2010Prop51ColorRGB
 90
-16777216
102
RTVSPost2010PropOp51
 70
     0
102
RTVSPost2010Prop52
140
1.0
102
RTVSPost2010PropOp52
 70
     0
102
RTVSPost2010Prop53
 90
        2
102
RTVSPost2010PropOp53
 70
     1
102
RTVSPost2010Prop54
  1
strokes_ogs.tif
102
RTVSPost2010PropOp54
 70
     1
102
RTVSPost2010Prop55
280
     0
102
RTVSPost2010PropOp55
 70
     1
102
RTVSPost2010Prop56
140
1.0
102
RTVSPost2010PropOp56
 70
     1
102
RTVSPost2010Prop57
140
1.0
102
RTVSPost2010PropOp57
 70
     1
102
RTVSPropertyOp0
 70
     1
102
RTVSPropertyOp1
 70
     1
102
RTVSPropertyOp2
 70
     1
102
RTVSPropertyOp3
 70
     1
102
RTVSPropertyOp4
 70
     1
102
RTVSPropertyOp5
 70
     1
102
RTVSPropertyOp6
 70
     1
102
RTVSPropertyOp7
 70
     1
102
RTVSPropertyOp8
 70
     1
102
RTVSPropertyOp9
 70
     1
102
RTVSPropertyOp10
 70
     1
102
RTVSPropertyOp11
 70
     1
102
RTVSPropertyOp12
 70
     1
102
RTVSPropertyOp13
 70
     1
102
RTVSPropertyOp14
 70
     1
102
RTVSPropertyOp15
 70
     1
102
RTVSPropertyOp16
 70
     1
102
RTVSPropertyOp17
 70
     1
102
RTVSPropertyOp18
 70
     1
102
RTVSPropertyOp19
 70
     1
102
RTVSPropertyOp20
 70
     1
102
RTVSPropertyOp21
 70
     1
102
RTVSPropertyOp22
 70
     1
102
RTVSPropertyOp23
 70
     1
102
RTVSPropertyOp24
 70
     1
102
RTVSPropertyOp25
 70
     1
102
RTVSPropertyOp26
 70
     1
102
RTVSPropertyOp27
 70
     1
102
RTVSPropertyOp28
 70
     1
102
RTVSPropertyOp29
 70
     1
102
RTVSPropertyOp30
 70
     1
102
RTVSPropertyOp31
 70
     1
102
RTVSPropertyOp32
 70
     1
102
RTVSPropertyOp33
 70
     1
102
RTVSPropertyOp34
 70
     1
102
RTVSPropertyOp35
 70
     1
102
RTVSPropertyOp36
 70
     1
102
RTVSPropertyOp37
 70
     1
102
RTVSPropertyOp38
 70
     1
102
RTVSPropertyOp39
 70
     1
102
RTVSPropertyOp40
 70
     1
102
RTVSPropertyOp41
 70
     1
102
RTVSPropertyOp42
 70
     1
102
RTVSPropertyOp43
 70
     1
102
RTVSPropertyOp44
 70
     1
102
RTVSPropertyOp45
 70
     1
102
RTVSPropertyOp46
 70
     1
102
RTVSPropertyOp47
 70
     1
102
RTVSPropertyOp48
 70
     1
102
RTVSPropertyOp49
 70
     1
102
RTVSPropertyOp50
 70
     1
102
RTVSPropertyOp51
 70
     0
102
RTVSPropertyOp52
 70
     0
102
RTVSPropertyOp53
 70
     1
102
RTVSPropertyOp54
 70
     1
102
RTVSPropertyOp55
 70
     1
102
RTVSPropertyOp56
 70
     1
102
RTVSPropertyOp57
 70
     1
102
RTVSPropertyOp58
 70
     1
102
RTVSPropertyOp59
 70
     1
102
RTVSPropertyOp60
 70
     1
102
RTVSPropertyOp61
 70
     1
102
RTVSPropertyOp62
 70
     1
  0
XRECORD
  5
703
102
{ACAD_REACTORS
330
702
102
}
330
702
100
AcDbXrecord
280
     1
102
RTVSPost2010Prop28
280
     0
102
RTVSPost2010PropOp28
 70
     1
102
RTVSPost2010Prop29
280
     1
102
RTVSPost2010PropOp29
 70
     1
102
RTVSPost2010Prop30
280
     1
102
RTVSPost2010PropOp30
 70
     1
102
RTVSPost2010Prop31
280
     0
102
RTVSPost2010PropOp31
 70
     1
102
RTVSPost2010Prop32
280
     0
102
RTVSPost2010PropOp32
 70
     1
102
RTVSPost2010Prop33
280
     0
102
RTVSPost2010PropOp33
 70
     1
102
RTVSPost2010Prop34
280
     0
102
RTVSPost2010PropOp34
 70
     1
102
RTVSPost2010Prop35
280
     0
102
RTVSPost2010PropOp35
 70
     1
102
RTVSPost2010Prop36
280
     0
102
RTVSPost2010PropOp36
 70
     1
102
RTVSPost2010Prop37
 90
       50
102
RTVSPost2010PropOp37
 70
     1
102
RTVSPost2010Prop38
140
0.0
102
RTVSPost2010PropOp38
 70
     1
102
RTVSPost2010Prop39
140
1.0
102
RTVSPost2010PropOp39
 70
     1
102
RTVSPost2010Prop40
 90
        0
102
RTVSPost2010PropOp40
 70
     1
102
RTVSPost2010Prop41ColorIndex
 90
       18
102
RTVSPost2010Prop41ColorRGB
 90
        0
102
RTVSPost2010PropOp41
 70
     1
102
RTVSPost2010Prop42
 90
       50
102
RTVSPost2010PropOp42
 70
     1
102
RTVSPost2010Prop43
 90
        3
102
RTVSPost2010PropOp43
 70
     1
102
RTVSPost2010Prop44ColorIndex
 90
        5
102
RTVSPost2010Prop44ColorRGB
 90
      255
102
RTVSPost2010PropOp44
 70
     1
102
RTVSPost2010Prop45
280
     0
102
RTVSPost2010PropOp45
 70
     1
102
RTVSPost2010Prop46
 90
       50
102
RTVSPost2010PropOp46
 70
     1
102
RTVSPost2010Prop47
 90
       50
102
RTVSPost2010PropOp47
 70
     1
102
RTVSPost2010Prop48
 90
       50
102
RTVSPost2010PropOp48
 70
     1
102
RTVSPost2010Prop49
280
     0
102
RTVSPost2010PropOp49
 70
     1
102
RTVSPost2010Prop50
 90
       50
102
RTVSPost2010PropOp50
 70
     1
102
RTVSPost2010Prop51ColorIndex
 90
      256
102
RTVSPost2010Prop51ColorRGB
 90
-16777216
102
RTVSPost2010PropOp51
 70
     0
102
RTVSPost2010Prop52
140
1.0
102
RTVSPost2010PropOp52
 70
     0
102
RTVSPost2010Prop53
 90
        2
102
RTVSPost2010PropOp53
 70
     1
102
RTVSPost2010Prop54
  1
strokes_ogs.tif
102
RTVSPost2010PropOp54
 70
     1
102
RTVSPost2010Prop55
280
     0
102
RTVSPost2010PropOp55
 70
     1
102
RTVSPost2010Prop56
140
1.0
102
RTVSPost2010PropOp56
 70
     1
102
RTVSPost2010Prop57
140
1.0
102
RTVSPost2010PropOp57
 70
     1
102
RTVSPropertyOp0
 70
     1
102
RTVSPropertyOp1
 70
     1
102
RTVSPropertyOp2
 70
     1
102
RTVSPropertyOp3
 70
     1
102
RTVSPropertyOp4
 70
     1
102
RTVSPropertyOp5
 70
     1
102
RTVSPropertyOp6
 70
     1
102
RTVSPropertyOp7
 70
     1
102
RTVSPropertyOp8
 70
     1
102
RTVSPropertyOp9
 70
     1
102
RTVSPropertyOp10
 70
     1
102
RTVSPropertyOp11
 70
     1
102
RTVSPropertyOp12
 70
     1
102
RTVSPropertyOp13
 70
     1
102
RTVSPropertyOp14
 70
     1
102
RTVSPropertyOp15
 70
     1
102
RTVSPropertyOp16
 70
     1
102
RTVSPropertyOp17
 70
     1
102
RTVSPropertyOp18
 70
     1
102
RTVSPropertyOp19
 70
     1
102
RTVSPropertyOp20
 70
     1
102
RTVSPropertyOp21
 70
     1
102
RTVSPropertyOp22
 70
     1
102
RTVSPropertyOp23
 70
     1
102
RTVSPropertyOp24
 70
     1
102
RTVSPropertyOp25
 70
     1
102
RTVSPropertyOp26
 70
     1
102
RTVSPropertyOp27
 70
     1
102
RTVSPropertyOp28
 70
     1
102
RTVSPropertyOp29
 70
     1
102
RTVSPropertyOp30
 70
     1
102
RTVSPropertyOp31
 70
     1
102
RTVSPropertyOp32
 70
     1
102
RTVSPropertyOp33
 70
     1
102
RTVSPropertyOp34
 70
     1
102
RTVSPropertyOp35
 70
     1
102
RTVSPropertyOp36
 70
     1
102
RTVSPropertyOp37
 70
     1
102
RTVSPropertyOp38
 70
     1
102
RTVSPropertyOp39
 70
     1
102
RTVSPropertyOp40
 70
     1
102
RTVSPropertyOp41
 70
     1
102
RTVSPropertyOp42
 70
     1
102
RTVSPropertyOp43
 70
     1
102
RTVSPropertyOp44
 70
     1
102
RTVSPropertyOp45
 70
     1
102
RTVSPropertyOp46
 70
     1
102
RTVSPropertyOp47
 70
     1
102
RTVSPropertyOp48
 70
     1
102
RTVSPropertyOp49
 70
     1
102
RTVSPropertyOp50
 70
     1
102
RTVSPropertyOp51
 70
     0
102
RTVSPropertyOp52
 70
     0
102
RTVSPropertyOp53
 70
     1
102
RTVSPropertyOp54
 70
     1
102
RTVSPropertyOp55
 70
     1
102
RTVSPropertyOp56
 70
     1
102
RTVSPropertyOp57
 70
     1
102
RTVSPropertyOp58
 70
     1
102
RTVSPropertyOp59
 70
     1
102
RTVSPropertyOp60
 70
     1
102
RTVSPropertyOp61
 70
     1
102
RTVSPropertyOp62
 70
     1
  0
XRECORD
  5
6F5
102
{ACAD_REACTORS
330
6F4
102
}
330
6F4
100
AcDbXrecord
280
     1
102
RTVSPost2010Prop28
280
     0
102
RTVSPost2010PropOp28
 70
     1
102
RTVSPost2010Prop29
280
     1
102
RTVSPost2010PropOp29
 70
     1
102
RTVSPost2010Prop30
280
     1
102
RTVSPost2010PropOp30
 70
     1
102
RTVSPost2010Prop31
280
     0
102
RTVSPost2010PropOp31
 70
     1
102
RTVSPost2010Prop32
280
     0
102
RTVSPost2010PropOp32
 70
     1
102
RTVSPost2010Prop33
280
     0
102
RTVSPost2010PropOp33
 70
     1
102
RTVSPost2010Prop34
280
     0
102
RTVSPost2010PropOp34
 70
     1
102
RTVSPost2010Prop35
280
     0
102
RTVSPost2010PropOp35
 70
     1
102
RTVSPost2010Prop36
280
     0
102
RTVSPost2010PropOp36
 70
     1
102
RTVSPost2010Prop37
 90
       50
102
RTVSPost2010PropOp37
 70
     1
102
RTVSPost2010Prop38
140
0.0
102
RTVSPost2010PropOp38
 70
     1
102
RTVSPost2010Prop39
140
1.0
102
RTVSPost2010PropOp39
 70
     1
102
RTVSPost2010Prop40
 90
        0
102
RTVSPost2010PropOp40
 70
     1
102
RTVSPost2010Prop41ColorIndex
 90
       18
102
RTVSPost2010Prop41ColorRGB
 90
        0
102
RTVSPost2010PropOp41
 70
     1
102
RTVSPost2010Prop42
 90
       50
102
RTVSPost2010PropOp42
 70
     1
102
RTVSPost2010Prop43
 90
        3
102
RTVSPost2010PropOp43
 70
     1
102
RTVSPost2010Prop44ColorIndex
 90
        5
102
RTVSPost2010Prop44ColorRGB
 90
      255
102
RTVSPost2010PropOp44
 70
     1
102
RTVSPost2010Prop45
280
     0
102
RTVSPost2010PropOp45
 70
     1
102
RTVSPost2010Prop46
 90
       50
102
RTVSPost2010PropOp46
 70
     1
102
RTVSPost2010Prop47
 90
       50
102
RTVSPost2010PropOp47
 70
     1
102
RTVSPost2010Prop48
 90
       50
102
RTVSPost2010PropOp48
 70
     1
102
RTVSPost2010Prop49
280
     0
102
RTVSPost2010PropOp49
 70
     1
102
RTVSPost2010Prop50
 90
       50
102
RTVSPost2010PropOp50
 70
     1
102
RTVSPost2010Prop51ColorIndex
 90
      256
102
RTVSPost2010Prop51ColorRGB
 90
-16777216
102
RTVSPost2010PropOp51
 70
     0
102
RTVSPost2010Prop52
140
1.0
102
RTVSPost2010PropOp52
 70
     0
102
RTVSPost2010Prop53
 90
        2
102
RTVSPost2010PropOp53
 70
     1
102
RTVSPost2010Prop54
  1
strokes_ogs.tif
102
RTVSPost2010PropOp54
 70
     1
102
RTVSPost2010Prop55
280
     0
102
RTVSPost2010PropOp55
 70
     1
102
RTVSPost2010Prop56
140
1.0
102
RTVSPost2010PropOp56
 70
     1
102
RTVSPost2010Prop57
140
1.0
102
RTVSPost2010PropOp57
 70
     1
102
RTVSPropertyOp0
 70
     1
102
RTVSPropertyOp1
 70
     1
102
RTVSPropertyOp2
 70
     1
102
RTVSPropertyOp3
 70
     1
102
RTVSPropertyOp4
 70
     1
102
RTVSPropertyOp5
 70
     1
102
RTVSPropertyOp6
 70
     1
102
RTVSPropertyOp7
 70
     1
102
RTVSPropertyOp8
 70
     1
102
RTVSPropertyOp9
 70
     1
102
RTVSPropertyOp10
 70
     1
102
RTVSPropertyOp11
 70
     1
102
RTVSPropertyOp12
 70
     1
102
RTVSPropertyOp13
 70
     1
102
RTVSPropertyOp14
 70
     1
102
RTVSPropertyOp15
 70
     1
102
RTVSPropertyOp16
 70
     1
102
RTVSPropertyOp17
 70
     1
102
RTVSPropertyOp18
 70
     1
102
RTVSPropertyOp19
 70
     1
102
RTVSPropertyOp20
 70
     1
102
RTVSPropertyOp21
 70
     1
102
RTVSPropertyOp22
 70
     1
102
RTVSPropertyOp23
 70
     1
102
RTVSPropertyOp24
 70
     1
102
RTVSPropertyOp25
 70
     1
102
RTVSPropertyOp26
 70
     1
102
RTVSPropertyOp27
 70
     1
102
RTVSPropertyOp28
 70
     1
102
RTVSPropertyOp29
 70
     1
102
RTVSPropertyOp30
 70
     1
102
RTVSPropertyOp31
 70
     1
102
RTVSPropertyOp32
 70
     1
102
RTVSPropertyOp33
 70
     1
102
RTVSPropertyOp34
 70
     1
102
RTVSPropertyOp35
 70
     1
102
RTVSPropertyOp36
 70
     1
102
RTVSPropertyOp37
 70
     1
102
RTVSPropertyOp38
 70
     1
102
RTVSPropertyOp39
 70
     1
102
RTVSPropertyOp40
 70
     1
102
RTVSPropertyOp41
 70
     1
102
RTVSPropertyOp42
 70
     1
102
RTVSPropertyOp43
 70
     1
102
RTVSPropertyOp44
 70
     1
102
RTVSPropertyOp45
 70
     1
102
RTVSPropertyOp46
 70
     1
102
RTVSPropertyOp47
 70
     1
102
RTVSPropertyOp48
 70
     1
102
RTVSPropertyOp49
 70
     1
102
RTVSPropertyOp50
 70
     1
102
RTVSPropertyOp51
 70
     0
102
RTVSPropertyOp52
 70
     0
102
RTVSPropertyOp53
 70
     1
102
RTVSPropertyOp54
 70
     1
102
RTVSPropertyOp55
 70
     1
102
RTVSPropertyOp56
 70
     1
102
RTVSPropertyOp57
 70
     1
102
RTVSPropertyOp58
 70
     1
102
RTVSPropertyOp59
 70
     1
102
RTVSPropertyOp60
 70
     1
102
RTVSPropertyOp61
 70
     1
102
RTVSPropertyOp62
 70
     1
  0
XRECORD
  5
715
102
{ACAD_REACTORS
330
714
102
}
330
714
100
AcDbXrecord
280
     1
102
RTVSPost2010Prop28
280
     0
102
RTVSPost2010PropOp28
 70
     1
102
RTVSPost2010Prop29
280
     1
102
RTVSPost2010PropOp29
 70
     1
102
RTVSPost2010Prop30
280
     1
102
RTVSPost2010PropOp30
 70
     1
102
RTVSPost2010Prop31
280
     0
102
RTVSPost2010PropOp31
 70
     1
102
RTVSPost2010Prop32
280
     0
102
RTVSPost2010PropOp32
 70
     1
102
RTVSPost2010Prop33
280
     0
102
RTVSPost2010PropOp33
 70
     1
102
RTVSPost2010Prop34
280
     0
102
RTVSPost2010PropOp34
 70
     1
102
RTVSPost2010Prop35
280
     0
102
RTVSPost2010PropOp35
 70
     1
102
RTVSPost2010Prop36
280
     0
102
RTVSPost2010PropOp36
 70
     1
102
RTVSPost2010Prop37
 90
       50
102
RTVSPost2010PropOp37
 70
     1
102
RTVSPost2010Prop38
140
0.0
102
RTVSPost2010PropOp38
 70
     1
102
RTVSPost2010Prop39
140
1.0
102
RTVSPost2010PropOp39
 70
     1
102
RTVSPost2010Prop40
 90
        0
102
RTVSPost2010PropOp40
 70
     1
102
RTVSPost2010Prop41ColorIndex
 90
       18
102
RTVSPost2010Prop41ColorRGB
 90
        0
102
RTVSPost2010PropOp41
 70
     1
102
RTVSPost2010Prop42
 90
       50
102
RTVSPost2010PropOp42
 70
     1
102
RTVSPost2010Prop43
 90
        3
102
RTVSPost2010PropOp43
 70
     1
102
RTVSPost2010Prop44ColorIndex
 90
        5
102
RTVSPost2010Prop44ColorRGB
 90
      255
102
RTVSPost2010PropOp44
 70
     1
102
RTVSPost2010Prop45
280
     0
102
RTVSPost2010PropOp45
 70
     1
102
RTVSPost2010Prop46
 90
       50
102
RTVSPost2010PropOp46
 70
     1
102
RTVSPost2010Prop47
 90
       50
102
RTVSPost2010PropOp47
 70
     1
102
RTVSPost2010Prop48
 90
       50
102
RTVSPost2010PropOp48
 70
     1
102
RTVSPost2010Prop49
280
     0
102
RTVSPost2010PropOp49
 70
     1
102
RTVSPost2010Prop50
 90
       50
102
RTVSPost2010PropOp50
 70
     1
102
RTVSPost2010Prop51ColorIndex
 90
      256
102
RTVSPost2010Prop51ColorRGB
 90
-16777216
102
RTVSPost2010PropOp51
 70
     0
102
RTVSPost2010Prop52
140
1.0
102
RTVSPost2010PropOp52
 70
     0
102
RTVSPost2010Prop53
 90
        2
102
RTVSPost2010PropOp53
 70
     1
102
RTVSPost2010Prop54
  1
strokes_ogs.tif
102
RTVSPost2010PropOp54
 70
     1
102
RTVSPost2010Prop55
280
     0
102
RTVSPost2010PropOp55
 70
     1
102
RTVSPost2010Prop56
140
1.0
102
RTVSPost2010PropOp56
 70
     1
102
RTVSPost2010Prop57
140
1.0
102
RTVSPost2010PropOp57
 70
     1
102
RTVSPropertyOp0
 70
     1
102
RTVSPropertyOp1
 70
     1
102
RTVSPropertyOp2
 70
     1
102
RTVSPropertyOp3
 70
     1
102
RTVSPropertyOp4
 70
     1
102
RTVSPropertyOp5
 70
     1
102
RTVSPropertyOp6
 70
     1
102
RTVSPropertyOp7
 70
     1
102
RTVSPropertyOp8
 70
     1
102
RTVSPropertyOp9
 70
     1
102
RTVSPropertyOp10
 70
     1
102
RTVSPropertyOp11
 70
     1
102
RTVSPropertyOp12
 70
     1
102
RTVSPropertyOp13
 70
     1
102
RTVSPropertyOp14
 70
     1
102
RTVSPropertyOp15
 70
     1
102
RTVSPropertyOp16
 70
     1
102
RTVSPropertyOp17
 70
     1
102
RTVSPropertyOp18
 70
     1
102
RTVSPropertyOp19
 70
     1
102
RTVSPropertyOp20
 70
     1
102
RTVSPropertyOp21
 70
     1
102
RTVSPropertyOp22
 70
     1
102
RTVSPropertyOp23
 70
     1
102
RTVSPropertyOp24
 70
     1
102
RTVSPropertyOp25
 70
     1
102
RTVSPropertyOp26
 70
     1
102
RTVSPropertyOp27
 70
     1
102
RTVSPropertyOp28
 70
     1
102
RTVSPropertyOp29
 70
     1
102
RTVSPropertyOp30
 70
     1
102
RTVSPropertyOp31
 70
     1
102
RTVSPropertyOp32
 70
     1
102
RTVSPropertyOp33
 70
     1
102
RTVSPropertyOp34
 70
     1
102
RTVSPropertyOp35
 70
     1
102
RTVSPropertyOp36
 70
     1
102
RTVSPropertyOp37
 70
     1
102
RTVSPropertyOp38
 70
     1
102
RTVSPropertyOp39
 70
     1
102
RTVSPropertyOp40
 70
     1
102
RTVSPropertyOp41
 70
     1
102
RTVSPropertyOp42
 70
     1
102
RTVSPropertyOp43
 70
     1
102
RTVSPropertyOp44
 70
     1
102
RTVSPropertyOp45
 70
     1
102
RTVSPropertyOp46
 70
     1
102
RTVSPropertyOp47
 70
     1
102
RTVSPropertyOp48
 70
     1
102
RTVSPropertyOp49
 70
     1
102
RTVSPropertyOp50
 70
     1
102
RTVSPropertyOp51
 70
     0
102
RTVSPropertyOp52
 70
     0
102
RTVSPropertyOp53
 70
     1
102
RTVSPropertyOp54
 70
     1
102
RTVSPropertyOp55
 70
     1
102
RTVSPropertyOp56
 70
     1
102
RTVSPropertyOp57
 70
     1
102
RTVSPropertyOp58
 70
     1
102
RTVSPropertyOp59
 70
     1
102
RTVSPropertyOp60
 70
     1
102
RTVSPropertyOp61
 70
     1
102
RTVSPropertyOp62
 70
     1
  0
ENDSEC
  0
EOF
