  0
SECTION
  2
HEADER
  9
$ACADVER
  1
AC1015
  9
$ACADMAINTVER
 70
    20
  9
$DWGCODEPAGE
  3
ANSI_932
  9
$INSBASE
 10
0.0
 20
0.0
 30
0.0
  9
$EXTMIN
 10
18.41849047225128
 20
13.64736421055488
 30
0.0
  9
$EXTMAX
 10
1737.733318392144
 20
1113.60399468617
 30
0.0
  9
$LIMMIN
 10
-525.5934448242189
 20
-478.319709777832
  9
$LIMMAX
 10
1287.593627929688
 20
609.8501205444335
  9
$ORTHOMODE
 70
     0
  9
$REGENMODE
 70
     1
  9
$FILLMODE
 70
     1
  9
$QTEXTMODE
 70
     0
  9
$MIRRTEXT
 70
     1
  9
$LTSCALE
 40
0.3753345559588256
  9
$ATTMODE
 70
     1
  9
$TEXTSIZE
 40
2.5
  9
$TRACEWID
 40
1.0
  9
$TEXTSTYLE
  7
Standard
  9
$CLAYER
  8
0
  9
$CELTYPE
  6
ByLayer
  9
$CECOLOR
 62
   256
  9
$CELTSCALE
 40
1.0
  9
$DISPSILH
 70
     0
  9
$DIMSCALE
 40
1.0
  9
$DIMASZ
 40
2.5
  9
$DIMEXO
 40
0.625
  9
$DIMDLI
 40
3.75
  9
$DIMRND
 40
0.0
  9
$DIMDLE
 40
0.0
  9
$DIMEXE
 40
1.25
  9
$DIMTP
 40
0.0
  9
$DIMTM
 40
0.0
  9
$DIMTXT
 40
2.5
  9
$DIMCEN
 40
2.5
  9
$DIMTSZ
 40
0.0
  9
$DIMTOL
 70
     0
  9
$DIMLIM
 70
     0
  9
$DIMTIH
 70
     0
  9
$DIMTOH
 70
     0
  9
$DIMSE1
 70
     0
  9
$DIMSE2
 70
     0
  9
$DIMTAD
 70
     1
  9
$DIMZIN
 70
     0
  9
$DIMBLK
  1

  9
$DIMASO
 70
     1
  9
$DIMSHO
 70
     1
  9
$DIMPOST
  1

  9
$DIMAPOST
  1

  9
$DIMALT
 70
     0
  9
$DIMALTD
 70
     3
  9
$DIMALTF
 40
0.03937007874016
  9
$DIMLFAC
 40
1.0
  9
$DIMTOFL
 70
     1
  9
$DIMTVP
 40
0.0
  9
$DIMTIX
 70
     0
  9
$DIMSOXD
 70
     0
  9
$DIMSAH
 70
     0
  9
$DIMBLK1
  1

  9
$DIMBLK2
  1

  9
$DIMSTYLE
  2
Standard
  9
$DIMCLRD
 70
     0
  9
$DIMCLRE
 70
     0
  9
$DIMCLRT
 70
     0
  9
$DIMTFAC
 40
0.75
  9
$DIMGAP
 40
0.625
  9
$DIMJUST
 70
     0
  9
$DIMSD1
 70
     0
  9
$DIMSD2
 70
     0
  9
$DIMTOLJ
 70
     0
  9
$DIMTZIN
 70
     8
  9
$DIMALTZ
 70
     0
  9
$DIMALTTZ
 70
     0
  9
$DIMUPT
 70
     0
  9
$DIMDEC
 70
     2
  9
$DIMTDEC
 70
     2
  9
$DIMALTU
 70
     2
  9
$DIMALTTD
 70
     3
  9
$DIMTXSTY
  7
Standard
  9
$DIMAUNIT
 70
     0
  9
$DIMADEC
 70
     0
  9
$DIMALTRND
 40
0.0
  9
$DIMAZIN
 70
     0
  9
$DIMDSEP
 70
    46
  9
$DIMATFIT
 70
     3
  9
$DIMFRAC
 70
     0
  9
$DIMLDRBLK
  1

  9
$DIMLUNIT
 70
     2
  9
$DIMLWD
 70
    -2
  9
$DIMLWE
 70
    -2
  9
$DIMTMOVE
 70
     0
  9
$LUNITS
 70
     2
  9
$LUPREC
 70
     4
  9
$SKETCHINC
 40
1.0
  9
$FILLETRAD
 40
0.0
  9
$AUNITS
 70
     0
  9
$AUPREC
 70
     0
  9
$MENU
  1
.
  9
$ELEVATION
 40
0.0
  9
$PELEVATION
 40
0.0
  9
$THICKNESS
 40
0.0
  9
$LIMCHECK
 70
     0
  9
$CHAMFERA
 40
10.0
  9
$CHAMFERB
 40
10.0
  9
$CHAMFERC
 40
20.0
  9
$CHAMFERD
 40
0.0
  9
$SKPOLY
 70
     0
  9
$TDCREATE
 40
2455188.750000000
  9
$TDUCREATE
 40
2455188.375000000
  9
$TDUPDATE
 40
2459747.327028276
  9
$TDUUPDATE
 40
2459746.952028275
  9
$TDINDWG
 40
0.0068929630
  9
$TDUSRTIMER
 40
0.0068928009
  9
$USRTIMER
 70
     1
  9
$ANGBASE
 50
0.0
  9
$ANGDIR
 70
     0
  9
$PDMODE
 70
     0
  9
$PDSIZE
 40
0.0
  9
$PLINEWID
 40
0.0
  9
$SPLFRAME
 70
     0
  9
$SPLINETYPE
 70
     6
  9
$SPLINESEGS
 70
     8
  9
$HANDSEED
  5
83B
  9
$SURFTAB1
 70
     6
  9
$SURFTAB2
 70
     6
  9
$SURFTYPE
 70
     6
  9
$SURFU
 70
     6
  9
$SURFV
 70
     6
  9
$UCSBASE
  2

  9
$UCSNAME
  2

  9
$UCSORG
 10
0.0
 20
0.0
 30
0.0
  9
$UCSXDIR
 10
1.0
 20
0.0
 30
0.0
  9
$UCSYDIR
 10
0.0
 20
1.0
 30
0.0
  9
$UCSORTHOREF
  2

  9
$UCSORTHOVIEW
 70
     0
  9
$UCSORGTOP
 10
0.0
 20
0.0
 30
0.0
  9
$UCSORGBOTTOM
 10
0.0
 20
0.0
 30
0.0
  9
$UCSORGLEFT
 10
0.0
 20
0.0
 30
0.0
  9
$UCSORGRIGHT
 10
0.0
 20
0.0
 30
0.0
  9
$UCSORGFRONT
 10
0.0
 20
0.0
 30
0.0
  9
$UCSORGBACK
 10
0.0
 20
0.0
 30
0.0
  9
$PUCSBASE
  2

  9
$PUCSNAME
  2

  9
$PUCSORG
 10
0.0
 20
0.0
 30
0.0
  9
$PUCSXDIR
 10
1.0
 20
0.0
 30
0.0
  9
$PUCSYDIR
 10
0.0
 20
1.0
 30
0.0
  9
$PUCSORTHOREF
  2

  9
$PUCSORTHOVIEW
 70
     0
  9
$PUCSORGTOP
 10
0.0
 20
0.0
 30
0.0
  9
$PUCSORGBOTTOM
 10
0.0
 20
0.0
 30
0.0
  9
$PUCSORGLEFT
 10
0.0
 20
0.0
 30
0.0
  9
$PUCSORGRIGHT
 10
0.0
 20
0.0
 30
0.0
  9
$PUCSORGFRONT
 10
0.0
 20
0.0
 30
0.0
  9
$PUCSORGBACK
 10
0.0
 20
0.0
 30
0.0
  9
$USERI1
 70
     0
  9
$USERI2
 70
     0
  9
$USERI3
 70
     0
  9
$USERI4
 70
     0
  9
$USERI5
 70
     0
  9
$USERR1
 40
0.0
  9
$USERR2
 40
0.0
  9
$USERR3
 40
0.0
  9
$USERR4
 40
0.0
  9
$USERR5
 40
0.0
  9
$WORLDVIEW
 70
     1
  9
$SHADEDGE
 70
     3
  9
$SHADEDIF
 70
    70
  9
$TILEMODE
 70
     1
  9
$MAXACTVP
 70
    64
  9
$PINSBASE
 10
0.0
 20
0.0
 30
0.0
  9
$PLIMCHECK
 70
     0
  9
$PEXTMIN
 10
1.000000000000000E+20
 20
1.000000000000000E+20
 30
1.000000000000000E+20
  9
$PEXTMAX
 10
-1.000000000000000E+20
 20
-1.000000000000000E+20
 30
-1.000000000000000E+20
  9
$PLIMMIN
 10
0.0
 20
0.0
  9
$PLIMMAX
 10
420.0
 20
297.0
  9
$UNITMODE
 70
     0
  9
$VISRETAIN
 70
     1
  9
$PLINEGEN
 70
     0
  9
$PSLTSCALE
 70
     1
  9
$TREEDEPTH
 70
  3020
  9
$CMLSTYLE
  2
Standard
  9
$CMLJUST
 70
     0
  9
$CMLSCALE
 40
20.0
  9
$PROXYGRAPHICS
 70
     1
  9
$MEASUREMENT
 70
     1
  9
$CELWEIGHT
370
    -1
  9
$ENDCAPS
280
     0
  9
$JOINSTYLE
280
     0
  9
$LWDISPLAY
290
     0
  9
$INSUNITS
 70
     4
  9
$HYPERLINKBASE
  1

  9
$STYLESHEET
  1

  9
$XEDIT
290
     1
  9
$CEPSNTYPE
380
     0
  9
$PSTYLEMODE
290
     1
  9
$FINGERPRINTGUID
  2
{58EF2BCF-C555-47D9-836D-0983CAAEDFA0}
  9
$VERSIONGUID
  2
{E8F22638-5D3D-4388-A6FC-5D29B4CE90F3}
  9
$EXTNAMES
290
     1
  9
$PSVPSCALE
 40
0.0
  9
$OLESTARTUP
290
     0
  0
ENDSEC
  0
SECTION
  2
CLASSES
  0
CLASS
  1
ACDBDICTIONARYWDFLT
  2
AcDbDictionaryWithDefault
  3
ObjectDBX Classes
 90
        0
280
     0
281
     0
  0
CLASS
  1
VISUALSTYLE
  2
AcDbVisualStyle
  3
ObjectDBX Classes
 90
     4095
280
     0
281
     0
  0
CLASS
  1
MATERIAL
  2
AcDbMaterial
  3
ObjectDBX Classes
 90
     1153
280
     0
281
     0
  0
CLASS
  1
SCALE
  2
AcDbScale
  3
ObjectDBX Classes
 90
     1153
280
     0
281
     0
  0
CLASS
  1
TABLESTYLE
  2
AcDbTableStyle
  3
ObjectDBX Classes
 90
     4095
280
     0
281
     0
  0
CLASS
  1
MLEADERSTYLE
  2
AcDbMLeaderStyle
  3
ACDB_MLEADERSTYLE_CLASS
 90
     4095
280
     0
281
     0
  0
CLASS
  1
SUN
  2
AcDbSun
  3
SCENEOE
 90
    33921
280
     0
281
     0
  0
CLASS
  1
DICTIONARYVAR
  2
AcDbDictionaryVar
  3
ObjectDBX Classes
 90
        0
280
     0
281
     0
  0
CLASS
  1
ACDBSECTIONVIEWSTYLE
  2
AcDbSectionViewStyle
  3
ObjectDBX Classes
 90
     1025
280
     0
281
     0
  0
CLASS
  1
ACDBDETAILVIEWSTYLE
  2
AcDbDetailViewStyle
  3
ObjectDBX Classes
 90
     1025
280
     0
281
     0
  0
CLASS
  1
SORTENTSTABLE
  2
AcDbSortentsTable
  3
ObjectDBX Classes
 90
        0
280
     0
281
     0
  0
CLASS
  1
CELLSTYLEMAP
  2
AcDbCellStyleMap
  3
ObjectDBX Classes
 90
     1152
280
     0
281
     0
  0
CLASS
  1
ACDBPLACEHOLDER
  2
AcDbPlaceHolder
  3
ObjectDBX Classes
 90
        0
280
     0
281
     0
  0
CLASS
  1
LAYOUT
  2
AcDbLayout
  3
ObjectDBX Classes
 90
        0
280
     0
281
     0
  0
ENDSEC
  0
SECTION
  2
TABLES
  0
TABLE
  2
VPORT
  5
8
330
0
100
AcDbSymbolTable
 70
     1
  0
VPORT
  5
29
330
8
100
AcDbSymbolTableRecord
100
AcDbViewportTableRecord
  2
*Active
 70
     0
 10
0.0
 20
0.0
 11
1.0
 21
1.0
 12
1169.367704343781
 22
293.5028262361866
 13
0.0
 23
0.0
 14
10.0
 24
10.0
 15
10.0
 25
10.0
 16
0.0
 26
0.0
 36
1.0
 17
0.0
 27
0.0
 37
0.0
 40
1253.129139592125
 41
2.204301075268817
 42
50.0
 43
0.0
 44
0.0
 50
0.0
 51
0.0
 71
     0
 72
 20000
 73
     1
 74
     3
 75
     0
 76
     0
 77
     0
 78
     0
281
     0
 65
     1
110
0.0
120
0.0
130
0.0
111
1.0
121
0.0
131
0.0
112
0.0
122
1.0
132
0.0
 79
     0
146
0.0
1001
ACAD_NAV_VCDISPLAY
1070
     3
  0
ENDTAB
  0
TABLE
  2
LTYPE
  5
5
330
0
100
AcDbSymbolTable
 70
     2
  0
LTYPE
  5
14
330
5
100
AcDbSymbolTableRecord
100
AcDbLinetypeTableRecord
  2
ByBlock
 70
     0
  3

 72
    65
 73
     0
 40
0.0
  0
LTYPE
  5
15
330
5
100
AcDbSymbolTableRecord
100
AcDbLinetypeTableRecord
  2
ByLayer
 70
     0
  3

 72
    65
 73
     0
 40
0.0
  0
LTYPE
  5
16
330
5
100
AcDbSymbolTableRecord
100
AcDbLinetypeTableRecord
  2
Continuous
 70
     0
  3
Solid line
 72
    65
 73
     0
 40
0.0
  0
LTYPE
  5
26C
330
5
100
AcDbSymbolTableRecord
100
AcDbLinetypeTableRecord
  2
CENTER2
 70
     0
  3
Center (.5x) ___ _ ___ _ ___ _ ___ _ ___ _ ___
 72
    65
 73
     4
 40
28.575
 49
19.05
 74
     0
 49
-3.174999999999998
 74
     0
 49
3.174999999999998
 74
     0
 49
-3.174999999999998
 74
     0
  0
ENDTAB
  0
TABLE
  2
LAYER
  5
2
102
{ACAD_XDICTIONARY
360
272
102
}
330
0
100
AcDbSymbolTable
 70
     4
  0
LAYER
  5
10
102
{ACAD_XDICTIONARY
360
769
102
}
330
2
100
AcDbSymbolTableRecord
100
AcDbLayerTableRecord
  2
0
 70
     0
 62
     7
  6
Continuous
370
    -3
390
F
  0
LAYER
  5
66
330
2
100
AcDbSymbolTableRecord
100
AcDbLayerTableRecord
  2
Defpoints
 70
     0
 62
     7
  6
Continuous
290
     0
370
    -3
390
F
  0
LAYER
  5
26D
102
{ACAD_XDICTIONARY
360
26E
102
}
330
2
100
AcDbSymbolTableRecord
100
AcDbLayerTableRecord
  2
中心線
 70
     0
 62
     3
  6
CENTER2
370
    -3
390
F
  0
LAYER
  5
26F
102
{ACAD_XDICTIONARY
360
270
102
}
330
2
100
AcDbSymbolTableRecord
100
AcDbLayerTableRecord
  2
実線
 70
     0
 62
     7
  6
Continuous
370
    -3
390
F
  0
ENDTAB
  0
TABLE
  2
STYLE
  5
3
330
0
100
AcDbSymbolTable
 70
     1
  0
STYLE
  5
11
330
3
100
AcDbSymbolTableRecord
100
AcDbTextStyleTableRecord
  2
Standard
 70
     0
 40
0.0
 41
1.0
 50
0.0
 71
     0
 42
2.5
  3
txt
  4
extfont2
  0
ENDTAB
  0
TABLE
  2
VIEW
  5
6
330
0
100
AcDbSymbolTable
 70
     0
  0
ENDTAB
  0
TABLE
  2
UCS
  5
7
330
0
100
AcDbSymbolTable
 70
     0
  0
ENDTAB
  0
TABLE
  2
APPID
  5
9
330
0
100
AcDbSymbolTable
 70
     4
  0
APPID
  5
12
330
9
100
AcDbSymbolTableRecord
100
AcDbRegAppTableRecord
  2
ACAD
 70
     0
  0
APPID
  5
25C
330
9
100
AcDbSymbolTableRecord
100
AcDbRegAppTableRecord
  2
ACAD_MLEADERVER
 70
     0
  0
APPID
  5
271
330
9
100
AcDbSymbolTableRecord
100
AcDbRegAppTableRecord
  2
ACAD_NAV_VCDISPLAY
 70
     0
  0
APPID
  5
759
330
9
100
AcDbSymbolTableRecord
100
AcDbRegAppTableRecord
  2
ACAD_EXEMPT_FROM_CAD_STANDARDS
 70
     0
  0
ENDTAB
  0
TABLE
  2
DIMSTYLE
  5
A
330
0
100
AcDbSymbolTable
 70
     1
100
AcDbDimStyleTable
 71
     1
340
27
  0
DIMSTYLE
105
27
330
A
100
AcDbSymbolTableRecord
100
AcDbDimStyleTableRecord
  2
Standard
 70
     0
 41
2.5
 42
0.625
 43
3.75
 44
1.25
 73
     0
 74
     0
 77
     1
140
2.5
141
2.5
143
0.03937007874016
146
0.75
147
0.625
171
     3
172
     1
271
     2
272
     2
274
     3
283
     0
284
     8
340
11
  0
ENDTAB
  0
TABLE
  2
BLOCK_RECORD
  5
1
330
0
100
AcDbSymbolTable
 70
     1
  0
BLOCK_RECORD
  5
1F
102
{ACAD_XDICTIONARY
360
5EF
102
}
330
1
100
AcDbSymbolTableRecord
100
AcDbBlockTableRecord
  2
*Model_Space
340
22
  0
BLOCK_RECORD
  5
1B
330
1
100
AcDbSymbolTableRecord
100
AcDbBlockTableRecord
  2
*Paper_Space
340
1E
  0
BLOCK_RECORD
  5
23
330
1
100
AcDbSymbolTableRecord
100
AcDbBlockTableRecord
  2
*Paper_Space0
340
266
  0
ENDTAB
  0
ENDSEC
  0
SECTION
  2
BLOCKS
  0
BLOCK
  5
20
330
1F
100
AcDbEntity
  8
0
100
AcDbBlockBegin
  2
*Model_Space
 70
     0
 10
0.0
 20
0.0
 30
0.0
  3
*Model_Space
  1

  0
ENDBLK
  5
21
330
1F
100
AcDbEntity
  8
0
100
AcDbBlockEnd
  0
BLOCK
  5
1C
330
1B
100
AcDbEntity
 67
     1
  8
0
100
AcDbBlockBegin
  2
*Paper_Space
 70
     0
 10
0.0
 20
0.0
 30
0.0
  3
*Paper_Space
  1

  0
ENDBLK
  5
1D
330
1B
100
AcDbEntity
 67
     1
  8
0
100
AcDbBlockEnd
  0
BLOCK
  5
24
330
23
100
AcDbEntity
 67
     1
  8
0
100
AcDbBlockBegin
  2
*Paper_Space0
 70
     0
 10
0.0
 20
0.0
 30
0.0
  3
*Paper_Space0
  1

  0
ENDBLK
  5
25
330
23
100
AcDbEntity
 67
     1
  8
0
100
AcDbBlockEnd
  0
ENDSEC
  0
SECTION
  2
ENTITIES
  0
LINE
  5
5B4
102
{ACAD_REACTORS
330
766
102
}
330
1F
100
AcDbEntity
  8
中心線
100
AcDbLine
 10
73.41849047225093
 20
176.6473642105547
 30
0.0
 11
73.41849047225093
 21
497.2565047469798
 31
0.0
  0
LINE
  5
5B8
102
{ACAD_REACTORS
330
767
102
}
330
1F
100
AcDbEntity
  8
中心線
100
AcDbLine
 10
241.4184904722513
 20
608.6473642105548
 30
0.0
 11
385.4184904722513
 21
608.6473642105548
 31
0.0
  0
LINE
  5
5B9
102
{ACAD_REACTORS
330
767
102
}
330
1F
100
AcDbEntity
  8
中心線
100
AcDbLine
 10
313.4184904722512
 20
553.6473642105547
 30
0.0
 11
313.4184904722512
 21
663.6473642105547
 31
0.0
  0
LINE
  5
5BA
102
{ACAD_REACTORS
330
768
102
}
330
1F
100
AcDbEntity
  8
中心線
100
AcDbLine
 10
241.4184904722513
 20
68.64736421055488
 30
0.0
 11
385.4184904722513
 21
68.64736421055488
 31
0.0
  0
LINE
  5
5BB
102
{ACAD_REACTORS
330
768
102
}
330
1F
100
AcDbEntity
  8
中心線
100
AcDbLine
 10
313.4184904722506
 20
13.64736421055488
 30
0.0
 11
313.4184904722505
 21
123.6473642105549
 31
0.0
  0
LINE
  5
5BC
102
{ACAD_REACTORS
330
766
102
}
330
1F
100
AcDbEntity
  8
中心線
100
AcDbLine
 10
18.41849047225128
 20
248.6473642105547
 30
0.0
 11
128.4184904722513
 21
248.6473642105547
 31
0.0
  0
LINE
  5
5BD
102
{ACAD_REACTORS
330
765
102
}
330
1F
100
AcDbEntity
  8
中心線
100
AcDbLine
 10
241.4184904722509
 20
248.6473642105547
 30
0.0
 11
385.4184904722509
 21
248.6473642105547
 31
0.0
  0
LINE
  5
5BE
102
{ACAD_REACTORS
330
764
102
}
330
1F
100
AcDbEntity
  8
中心線
100
AcDbLine
 10
498.4184904722515
 20
248.6473642105549
 30
0.0
 11
608.4184904722515
 21
248.6473642105549
 31
0.0
  0
LINE
  5
5BF
102
{ACAD_REACTORS
330
763
102
}
330
1F
100
AcDbEntity
  8
中心線
100
AcDbLine
 10
721.4184904722503
 20
248.647364210555
 30
0.0
 11
865.4184904722503
 21
248.647364210555
 31
0.0
  0
CIRCLE
  5
5C0
102
{ACAD_REACTORS
330
767
102
}
330
1F
100
AcDbEntity
  8
実線
100
AcDbCircle
 10
313.4184904722513
 20
608.6473642105548
 30
0.0
 40
35.0
  0
LINE
  5
5C1
102
{ACAD_REACTORS
330
767
102
}
330
1F
100
AcDbEntity
  8
実線
100
AcDbLine
 10
248.5184904722506
 20
589.5973642105555
 30
0.0
 11
267.1897385963892
 21
589.5973642105555
 31
0.0
  0
LINE
  5
5C2
102
{ACAD_REACTORS
330
767
102
}
330
1F
100
AcDbEntity
  8
実線
100
AcDbLine
 10
267.18973859639
 20
627.6973642105555
 30
0.0
 11
248.5184904722506
 21
627.6973642105555
 31
0.0
  0
LINE
  5
5C3
102
{ACAD_REACTORS
330
767
102
}
330
1F
100
AcDbEntity
  8
実線
100
AcDbLine
 10
248.5184904722506
 20
627.6973642105555
 30
0.0
 11
246.1684904722507
 21
633.8973642105555
 31
0.0
  0
LINE
  5
5C4
102
{ACAD_REACTORS
330
767
102
}
330
1F
100
AcDbEntity
  8
実線
100
AcDbLine
 10
246.1684904722507
 20
583.3973642105559
 30
0.0
 11
248.5184904722506
 21
589.5973642105555
 31
0.0
  0
LINE
  5
5C5
102
{ACAD_REACTORS
330
767
102
}
330
1F
100
AcDbEntity
  8
実線
100
AcDbLine
 10
248.5184904722506
 20
627.6973642105555
 30
0.0
 11
248.5184904722506
 21
589.5973642105555
 31
0.0
  0
LINE
  5
5C6
102
{ACAD_REACTORS
330
767
102
}
330
1F
100
AcDbEntity
  8
実線
100
AcDbLine
 10
243.4184904722507
 20
583.3973642105559
 30
0.0
 11
246.1684904722507
 21
583.3973642105559
 31
0.0
  0
LINE
  5
5C7
102
{ACAD_REACTORS
330
767
102
}
330
1F
100
AcDbEntity
  8
実線
100
AcDbLine
 10
246.1684904722507
 20
633.8973642105555
 30
0.0
 11
243.4184904722507
 21
633.8973642105555
 31
0.0
  0
LINE
  5
5C8
102
{ACAD_REACTORS
330
767
102
}
330
1F
100
AcDbEntity
  8
実線
100
AcDbLine
 10
243.4184904722507
 20
633.8973642105555
 30
0.0
 11
243.4184904722507
 21
583.3973642105559
 31
0.0
  0
LINE
  5
5C9
102
{ACAD_REACTORS
330
767
102
}
330
1F
100
AcDbEntity
  8
実線
100
AcDbLine
 10
246.1684904722507
 20
633.8973642105555
 30
0.0
 11
246.1684904722507
 21
583.3973642105559
 31
0.0
  0
CIRCLE
  5
5CA
102
{ACAD_REACTORS
330
767
102
}
330
1F
100
AcDbEntity
  8
実線
100
AcDbCircle
 10
313.4184904722513
 20
608.6473642105548
 30
0.0
 40
12.5
  0
LINE
  5
5CB
102
{ACAD_REACTORS
330
767
102
}
330
1F
100
AcDbEntity
  8
実線
100
AcDbLine
 10
339.9184904722514
 20
590.097364210555
 30
0.0
 11
339.9184904722514
 21
593.0973642105547
 31
0.0
  0
LINE
  5
5CC
102
{ACAD_REACTORS
330
767
102
}
330
1F
100
AcDbEntity
  8
実線
100
AcDbLine
 10
333.4184904722516
 20
590.097364210555
 30
0.0
 11
339.9184904722514
 21
590.097364210555
 31
0.0
  0
LINE
  5
5CD
102
{ACAD_REACTORS
330
767
102
}
330
1F
100
AcDbEntity
  8
実線
100
AcDbLine
 10
339.9184904722514
 20
593.0973642105547
 30
0.0
 11
333.4184904722516
 21
593.0973642105547
 31
0.0
  0
LINE
  5
5CE
102
{ACAD_REACTORS
330
767
102
}
330
1F
100
AcDbEntity
  8
実線
100
AcDbLine
 10
333.4184904722516
 20
587.6473642105548
 30
0.0
 11
333.4184904722516
 21
595.5473642105547
 31
0.0
  0
LINE
  5
5CF
102
{ACAD_REACTORS
330
767
102
}
330
1F
100
AcDbEntity
  8
実線
100
AcDbLine
 10
308.4184904722516
 20
595.5473642105547
 30
0.0
 11
333.4184904722516
 21
595.5473642105547
 31
0.0
  0
LINE
  5
5D0
102
{ACAD_REACTORS
330
767
102
}
330
1F
100
AcDbEntity
  8
実線
100
AcDbLine
 10
308.4184904722516
 20
595.5473642105547
 30
0.0
 11
308.4184904722516
 21
587.6473642105548
 31
0.0
  0
LINE
  5
5D1
102
{ACAD_REACTORS
330
767
102
}
330
1F
100
AcDbEntity
  8
実線
100
AcDbLine
 10
328.4184904722514
 20
587.6473642105548
 30
0.0
 11
333.4184904722516
 21
587.6473642105548
 31
0.0
  0
CIRCLE
  5
5D2
102
{ACAD_REACTORS
330
767
102
}
330
1F
100
AcDbEntity
  8
実線
100
AcDbCircle
 10
313.4184904722513
 20
608.6473642105548
 30
0.0
 40
7.5
  0
ARC
  5
5D3
102
{ACAD_REACTORS
330
767
102
}
330
1F
100
AcDbEntity
  8
実線
100
AcDbCircle
 10
313.4184904722513
 20
608.6473642105548
 30
0.0
 40
25.0
100
AcDbArc
 50
233.1301023541533
 51
293.0739180656281
  0
ARC
  5
5D4
102
{ACAD_REACTORS
330
767
102
}
330
1F
100
AcDbEntity
  8
実線
100
AcDbCircle
 10
352.3956602411354
 20
645.2947411536266
 30
0.0
 40
7.999999999999995
100
AcDbArc
 50
325.0000000000026
 51
43.23542625711559
  0
LINE
  5
5D5
102
{ACAD_REACTORS
330
767
102
}
330
1F
100
AcDbEntity
  8
実線
100
AcDbLine
 10
286.3477147980729
 20
650.6851222906226
 30
0.0
 11
281.3597250199878
 21
654.1777503337506
 31
0.0
  0
ARC
  5
5D6
102
{ACAD_REACTORS
330
767
102
}
330
1F
100
AcDbEntity
  8
実線
100
AcDbCircle
 10
276.7711135291795
 20
647.6245339794387
 30
0.0
 40
8.000000000000008
100
AcDbArc
 50
55.00000000000264
 51
133.235426257111
  0
ARC
  5
5D7
102
{ACAD_REACTORS
330
767
102
}
330
1F
100
AcDbEntity
  8
実線
100
AcDbCircle
 10
313.4184904722523
 20
608.6473642105536
 30
0.0
 40
61.50000000000114
100
AcDbArc
 50
133.235426257111
 51
136.7645737428844
  0
ARC
  5
5D8
102
{ACAD_REACTORS
330
767
102
}
330
1F
100
AcDbEntity
  8
実線
100
AcDbCircle
 10
274.4413207033677
 20
645.2947411536266
 30
0.0
 40
8.000000000000008
100
AcDbArc
 50
136.7645737428844
 51
214.9999999999974
  0
LINE
  5
5D9
102
{ACAD_REACTORS
330
767
102
}
330
1F
100
AcDbEntity
  8
実線
100
AcDbLine
 10
267.8881043490558
 20
640.7061296628186
 30
0.0
 11
271.3807323921836
 21
635.7181398847337
 31
0.0
  0
LINE
  5
5DA
102
{ACAD_REACTORS
330
767
102
}
330
1F
100
AcDbEntity
  8
実線
100
AcDbLine
 10
271.3807323921836
 20
581.5765885363762
 30
0.0
 11
267.8881043490558
 21
576.588598758291
 31
0.0
  0
ARC
  5
5DB
102
{ACAD_REACTORS
330
767
102
}
330
1F
100
AcDbEntity
  8
実線
100
AcDbCircle
 10
274.4413207033677
 20
571.9999872674826
 30
0.0
 40
7.999999999999996
100
AcDbArc
 50
145.0000000000026
 51
223.2354262571156
  0
ARC
  5
5DC
102
{ACAD_REACTORS
330
767
102
}
330
1F
100
AcDbEntity
  8
実線
100
AcDbCircle
 10
313.4184904722517
 20
608.6473642105548
 30
0.0
 40
61.50000000000008
100
AcDbArc
 50
223.2354262571156
 51
226.7645737428844
  0
ARC
  5
5DD
102
{ACAD_REACTORS
330
767
102
}
330
1F
100
AcDbEntity
  8
実線
100
AcDbCircle
 10
276.7711135291795
 20
569.670194441671
 30
0.0
 40
8.000000000000021
100
AcDbArc
 50
226.7645737428844
 51
304.9999999999974
  0
LINE
  5
5DE
102
{ACAD_REACTORS
330
767
102
}
330
1F
100
AcDbEntity
  8
実線
100
AcDbLine
 10
281.3597250199878
 20
563.116978087359
 30
0.0
 11
286.3477147980729
 21
566.609606130487
 31
0.0
  0
LINE
  5
5DF
102
{ACAD_REACTORS
330
767
102
}
330
1F
100
AcDbEntity
  8
実線
100
AcDbLine
 10
340.4892661464302
 20
566.609606130487
 30
0.0
 11
345.477255924515
 21
563.116978087359
 31
0.0
  0
ARC
  5
5E0
102
{ACAD_REACTORS
330
767
102
}
330
1F
100
AcDbEntity
  8
実線
100
AcDbCircle
 10
350.0658674153235
 20
569.670194441671
 30
0.0
 40
7.999999999999986
100
AcDbArc
 50
235.0000000000026
 51
313.235426257111
  0
ARC
  5
5E1
102
{ACAD_REACTORS
330
767
102
}
330
1F
100
AcDbEntity
  8
実線
100
AcDbCircle
 10
313.4184904722522
 20
608.6473642105536
 30
0.0
 40
61.49999999999885
100
AcDbArc
 50
313.235426257111
 51
316.7645737428844
  0
ARC
  5
5E2
102
{ACAD_REACTORS
330
767
102
}
330
1F
100
AcDbEntity
  8
実線
100
AcDbCircle
 10
352.3956602411354
 20
571.9999872674826
 30
0.0
 40
8.000000000000023
100
AcDbArc
 50
316.7645737428844
 51
34.99999999999737
  0
LINE
  5
5E3
102
{ACAD_REACTORS
330
767
102
}
330
1F
100
AcDbEntity
  8
実線
100
AcDbLine
 10
358.9488765954474
 20
576.588598758291
 30
0.0
 11
355.4562485523192
 21
581.5765885363762
 31
0.0
  0
LINE
  5
5E4
102
{ACAD_REACTORS
330
767
102
}
330
1F
100
AcDbEntity
  8
実線
100
AcDbLine
 10
355.4562485523192
 20
635.7181398847337
 30
0.0
 11
358.9488765954474
 21
640.7061296628186
 31
0.0
  0
ARC
  5
5E5
102
{ACAD_REACTORS
330
767
102
}
330
1F
100
AcDbEntity
  8
実線
100
AcDbCircle
 10
313.4184904722516
 20
608.6473642105548
 30
0.0
 40
61.50000000000009
100
AcDbArc
 50
43.23542625711559
 51
46.76457374288901
  0
ARC
  5
5E6
102
{ACAD_REACTORS
330
767
102
}
330
1F
100
AcDbEntity
  8
実線
100
AcDbCircle
 10
350.0658674153235
 20
647.6245339794387
 30
0.0
 40
8.000000000000008
100
AcDbArc
 50
46.76457374288901
 51
124.9999999999974
  0
LINE
  5
5E7
102
{ACAD_REACTORS
330
767
102
}
330
1F
100
AcDbEntity
  8
実線
100
AcDbLine
 10
345.477255924515
 20
654.1777503337506
 30
0.0
 11
340.4892661464302
 21
650.6851222906226
 31
0.0
  0
ARC
  5
5E8
102
{ACAD_REACTORS
330
767
102
}
330
1F
100
AcDbEntity
  8
実線
100
AcDbCircle
 10
313.4184904722513
 20
608.6473642105548
 30
0.0
 40
25.0
100
AcDbArc
 50
323.1301023541579
 51
233.1301023541533
  0
LINE
  5
5E9
102
{ACAD_REACTORS
330
767
102
}
330
1F
100
AcDbEntity
  8
実線
100
AcDbLine
 10
298.4184904722516
 20
588.6473642105547
 30
0.0
 11
308.4184904722516
 21
588.6473642105547
 31
0.0
  0
LINE
  5
5EA
102
{ACAD_REACTORS
330
767
102
}
330
1F
100
AcDbEntity
  8
実線
100
AcDbLine
 10
308.4184904722516
 20
587.6473642105548
 30
0.0
 11
328.4184904722514
 21
587.6473642105548
 31
0.0
  0
LINE
  5
5EB
102
{ACAD_REACTORS
330
767
102
}
330
1F
100
AcDbEntity
  8
実線
100
AcDbLine
 10
328.4184904722514
 20
587.6473642105548
 30
0.0
 11
328.4184904722514
 21
585.6473642105548
 31
0.0
  0
LINE
  5
5EC
102
{ACAD_REACTORS
330
767
102
}
330
1F
100
AcDbEntity
  8
実線
100
AcDbLine
 10
308.4184904722516
 20
585.6473642105548
 30
0.0
 11
308.4184904722516
 21
587.6473642105548
 31
0.0
  0
LINE
  5
5ED
102
{ACAD_REACTORS
330
767
102
}
330
1F
100
AcDbEntity
  8
実線
100
AcDbLine
 10
328.4184904722514
 20
585.6473642105548
 30
0.0
 11
308.4184904722516
 21
585.6473642105548
 31
0.0
  0
CIRCLE
  5
5EE
102
{ACAD_REACTORS
330
767
102
}
330
1F
100
AcDbEntity
  8
実線
100
AcDbCircle
 10
313.4184904722513
 20
608.6473642105548
 30
0.0
 40
50.0
  0
ARC
  5
5F1
102
{ACAD_REACTORS
330
768
102
}
330
1F
100
AcDbEntity
  8
実線
100
AcDbCircle
 10
313.4184904722513
 20
68.64736421055557
 30
0.0
 40
50.0
100
AcDbArc
 50
57.2199489371374
 51
122.7800510628626
  0
ARC
  5
5F2
102
{ACAD_REACTORS
330
768
102
}
330
1F
100
AcDbEntity
  8
実線
100
AcDbCircle
 10
313.4184904722513
 20
68.64736421055557
 30
0.0
 40
50.0
100
AcDbArc
 50
147.2199489371374
 51
157.6043612805137
  0
ARC
  5
5F3
102
{ACAD_REACTORS
330
768
102
}
330
1F
100
AcDbEntity
  8
実線
100
AcDbCircle
 10
313.4184904722513
 20
68.64736421055557
 30
0.0
 40
50.0
100
AcDbArc
 50
202.3956387194893
 51
212.7800510628626
  0
ARC
  5
5F4
102
{ACAD_REACTORS
330
768
102
}
330
1F
100
AcDbEntity
  8
実線
100
AcDbCircle
 10
313.4184904722513
 20
68.64736421055557
 30
0.0
 40
50.0
100
AcDbArc
 50
237.2199489371374
 51
302.7800510628626
  0
ARC
  5
5F5
102
{ACAD_REACTORS
330
768
102
}
330
1F
100
AcDbEntity
  8
実線
100
AcDbCircle
 10
313.4184904722513
 20
68.64736421055557
 30
0.0
 40
50.0
100
AcDbArc
 50
327.2199489371374
 51
32.78005106286261
  0
LINE
  5
5F6
102
{ACAD_REACTORS
330
768
102
}
330
1F
100
AcDbEntity
  8
実線
100
AcDbLine
 10
248.5184904722506
 20
49.5973642105547
 30
0.0
 11
278.2460936247228
 21
49.5973642105547
 31
0.0
  0
LINE
  5
5F7
102
{ACAD_REACTORS
330
768
102
}
330
1F
100
AcDbEntity
  8
実線
100
AcDbLine
 10
278.2460936247228
 20
87.69736421055473
 30
0.0
 11
248.5184904722506
 21
87.69736421055473
 31
0.0
  0
LINE
  5
5F8
102
{ACAD_REACTORS
330
768
102
}
330
1F
100
AcDbEntity
  8
実線
100
AcDbLine
 10
248.5184904722506
 20
49.5973642105547
 30
0.0
 11
248.5184904722506
 21
87.69736421055473
 31
0.0
  0
LINE
  5
5F9
102
{ACAD_REACTORS
330
768
102
}
330
1F
100
AcDbEntity
  8
実線
100
AcDbLine
 10
248.5184904722506
 20
87.69736421055473
 30
0.0
 11
246.1684904722507
 21
93.89736421055477
 31
0.0
  0
LINE
  5
5FA
102
{ACAD_REACTORS
330
768
102
}
330
1F
100
AcDbEntity
  8
実線
100
AcDbLine
 10
246.1684904722507
 20
43.39736421055465
 30
0.0
 11
248.5184904722506
 21
49.5973642105547
 31
0.0
  0
LINE
  5
5FB
102
{ACAD_REACTORS
330
768
102
}
330
1F
100
AcDbEntity
  8
実線
100
AcDbLine
 10
243.4184904722507
 20
43.39736421055465
 30
0.0
 11
243.4184904722507
 21
93.89736421055477
 31
0.0
  0
LINE
  5
5FC
102
{ACAD_REACTORS
330
768
102
}
330
1F
100
AcDbEntity
  8
実線
100
AcDbLine
 10
246.1684904722507
 20
43.39736421055465
 30
0.0
 11
246.1684904722507
 21
93.89736421055477
 31
0.0
  0
LINE
  5
5FD
102
{ACAD_REACTORS
330
768
102
}
330
1F
100
AcDbEntity
  8
実線
100
AcDbLine
 10
243.4184904722507
 20
43.39736421055465
 30
0.0
 11
246.1684904722507
 21
43.39736421055465
 31
0.0
  0
LINE
  5
5FE
102
{ACAD_REACTORS
330
768
102
}
330
1F
100
AcDbEntity
  8
実線
100
AcDbLine
 10
246.1684904722507
 20
93.89736421055477
 30
0.0
 11
243.4184904722507
 21
93.89736421055477
 31
0.0
  0
CIRCLE
  5
5FF
102
{ACAD_REACTORS
330
768
102
}
330
1F
100
AcDbEntity
  8
実線
100
AcDbCircle
 10
313.4184904722507
 20
68.64736421055477
 30
0.0
 40
25.25
  0
LINE
  5
600
102
{ACAD_REACTORS
330
768
102
}
330
1F
100
AcDbEntity
  8
実線
100
AcDbLine
 10
358.9488765954468
 20
100.7061296628184
 30
0.0
 11
349.1250568123384
 21
86.67626102097875
 31
0.0
  0
ARC
  5
601
102
{ACAD_REACTORS
330
768
102
}
330
1F
100
AcDbEntity
  8
実線
100
AcDbCircle
 10
352.3956602411345
 20
105.2947411536268
 30
0.0
 40
8.000000000000023
100
AcDbArc
 50
325.0000000000026
 51
43.23542625711335
  0
ARC
  5
602
102
{ACAD_REACTORS
330
768
102
}
330
1F
100
AcDbEntity
  8
実線
100
AcDbCircle
 10
313.4184904722513
 20
68.64736421055557
 30
0.0
 40
61.49999999999885
100
AcDbArc
 50
43.23542625711335
 51
46.76457374288901
  0
ARC
  5
603
102
{ACAD_REACTORS
330
768
102
}
330
1F
100
AcDbEntity
  8
実線
100
AcDbCircle
 10
350.0658674153227
 20
107.6245339794387
 30
0.0
 40
7.999999999999986
100
AcDbArc
 50
46.76457374288901
 51
124.9999999999974
  0
LINE
  5
604
102
{ACAD_REACTORS
330
768
102
}
330
1F
100
AcDbEntity
  8
実線
100
AcDbLine
 10
331.4473872826748
 20
104.3539305506425
 30
0.0
 11
345.4772559245143
 21
114.1777503337506
 31
0.0
  0
ARC
  5
605
102
{ACAD_REACTORS
330
768
102
}
330
1F
100
AcDbEntity
  8
実線
100
AcDbCircle
 10
276.7711135291788
 20
29.6701944416709
 30
0.0
 40
8.000000000000008
100
AcDbArc
 50
226.764573742889
 51
304.9999999999974
  0
ARC
  5
606
102
{ACAD_REACTORS
330
768
102
}
330
1F
100
AcDbEntity
  8
実線
100
AcDbCircle
 10
313.4184904722516
 20
68.64736421055545
 30
0.0
 40
61.50000000000114
100
AcDbArc
 50
223.2354262571134
 51
226.7645737428844
  0
ARC
  5
607
102
{ACAD_REACTORS
330
768
102
}
330
1F
100
AcDbEntity
  8
実線
100
AcDbCircle
 10
274.4413207033669
 20
31.99998726748277
 30
0.0
 40
8.000000000000008
100
AcDbArc
 50
145.0000000000026
 51
223.2354262571134
  0
LINE
  5
608
102
{ACAD_REACTORS
330
768
102
}
330
1F
100
AcDbEntity
  8
実線
100
AcDbLine
 10
267.8881043490549
 20
36.58859875829108
 30
0.0
 11
276.996939981532
 21
49.5973642105547
 31
0.0
  0
LINE
  5
609
102
{ACAD_REACTORS
330
768
102
}
330
1F
100
AcDbEntity
  8
実線
100
AcDbLine
 10
295.3895936618268
 20
32.94079787046712
 30
0.0
 11
281.359725019987
 21
23.11697808735886
 31
0.0
  0
LINE
  5
60A
102
{ACAD_REACTORS
330
768
102
}
330
1F
100
AcDbEntity
  8
実線
100
AcDbLine
 10
345.4772559245143
 20
23.11697808735886
 30
0.0
 11
331.4473872826748
 21
32.94079787046712
 31
0.0
  0
ARC
  5
60B
102
{ACAD_REACTORS
330
768
102
}
330
1F
100
AcDbEntity
  8
実線
100
AcDbCircle
 10
350.0658674153227
 20
29.6701944416709
 30
0.0
 40
8.000000000000008
100
AcDbArc
 50
235.0000000000026
 51
313.235426257111
  0
ARC
  5
60C
102
{ACAD_REACTORS
330
768
102
}
330
1F
100
AcDbEntity
  8
実線
100
AcDbCircle
 10
313.4184904722508
 20
68.647364210555
 30
0.0
 40
61.50000000000009
100
AcDbArc
 50
313.235426257111
 51
316.7645737428866
  0
ARC
  5
60D
102
{ACAD_REACTORS
330
768
102
}
330
1F
100
AcDbEntity
  8
実線
100
AcDbCircle
 10
352.3956602411345
 20
31.99998726748277
 30
0.0
 40
7.999999999999995
100
AcDbArc
 50
316.7645737428866
 51
34.99999999999737
  0
LINE
  5
60E
102
{ACAD_REACTORS
330
768
102
}
330
1F
100
AcDbEntity
  8
実線
100
AcDbLine
 10
349.1250568123384
 20
50.61846740013073
 30
0.0
 11
358.9488765954468
 21
36.58859875829108
 31
0.0
  0
LINE
  5
60F
102
{ACAD_REACTORS
330
768
102
}
330
1F
100
AcDbEntity
  8
実線
100
AcDbLine
 10
281.359725019987
 20
114.1777503337506
 30
0.0
 11
295.3895936618268
 21
104.3539305506425
 31
0.0
  0
ARC
  5
610
102
{ACAD_REACTORS
330
768
102
}
330
1F
100
AcDbEntity
  8
実線
100
AcDbCircle
 10
276.7711135291788
 20
107.6245339794386
 30
0.0
 40
8.000000000000021
100
AcDbArc
 50
55.00000000000264
 51
133.2354262571156
  0
ARC
  5
611
102
{ACAD_REACTORS
330
768
102
}
330
1F
100
AcDbEntity
  8
実線
100
AcDbCircle
 10
313.4184904722508
 20
68.64736421055488
 30
0.0
 40
61.50000000000008
100
AcDbArc
 50
133.2354262571156
 51
136.7645737428866
  0
ARC
  5
612
102
{ACAD_REACTORS
330
768
102
}
330
1F
100
AcDbEntity
  8
実線
100
AcDbCircle
 10
274.4413207033669
 20
105.2947411536268
 30
0.0
 40
7.999999999999996
100
AcDbArc
 50
136.7645737428866
 51
214.9999999999974
  0
LINE
  5
613
102
{ACAD_REACTORS
330
768
102
}
330
1F
100
AcDbEntity
  8
実線
100
AcDbLine
 10
276.996939981532
 20
87.69736421055473
 30
0.0
 11
267.8881043490549
 21
100.7061296628184
 31
0.0
  0
ARC
  5
614
102
{ACAD_REACTORS
330
768
102
}
330
1F
100
AcDbEntity
  8
実線
100
AcDbCircle
 10
313.4184904722507
 20
68.64736421055477
 30
0.0
 40
40.0
100
AcDbArc
 50
204.1042497819163
 51
155.8957502180837
  0
LINE
  5
615
102
{ACAD_REACTORS
330
768
102
}
330
1F
100
AcDbEntity
  8
実線
100
AcDbLine
 10
357.7184904722512
 20
57.39736421055557
 30
0.0
 11
351.8038718042117
 21
57.39736421055557
 31
0.0
  0
LINE
  5
616
102
{ACAD_REACTORS
330
768
102
}
330
1F
100
AcDbEntity
  8
実線
100
AcDbLine
 10
357.7184904722512
 20
79.89736421055557
 30
0.0
 11
351.8038718042117
 21
79.89736421055557
 31
0.0
  0
LINE
  5
617
102
{ACAD_REACTORS
330
768
102
}
330
1F
100
AcDbEntity
  8
実線
100
AcDbLine
 10
357.7184904722512
 20
57.39736421055557
 30
0.0
 11
357.7184904722512
 21
79.89736421055557
 31
0.0
  0
LINE
  5
618
102
{ACAD_REACTORS
330
763
102
}
330
1F
100
AcDbEntity
  8
実線
100
AcDbLine
 10
758.4184904722497
 20
451.547364210555
 30
0.0
 11
828.4184904722497
 21
451.547364210555
 31
0.0
  0
LINE
  5
619
102
{ACAD_REACTORS
330
763
102
}
330
1F
100
AcDbEntity
  8
実線
100
AcDbLine
 10
828.4184904722497
 20
441.0473642105549
 30
0.0
 11
828.4184904722497
 21
451.547364210555
 31
0.0
  0
LINE
  5
61A
102
{ACAD_REACTORS
330
763
102
}
330
1F
100
AcDbEntity
  8
実線
100
AcDbLine
 10
758.4184904722497
 20
451.547364210555
 30
0.0
 11
758.4184904722497
 21
441.0473642105549
 31
0.0
  0
LINE
  5
61B
102
{ACAD_REACTORS
330
763
102
}
330
1F
100
AcDbEntity
  8
実線
100
AcDbLine
 10
743.4184904722497
 20
436.5473642105549
 30
0.0
 11
843.4184904722496
 21
436.5473642105549
 31
0.0
  0
LINE
  5
61C
102
{ACAD_REACTORS
330
763
102
}
330
1F
100
AcDbEntity
  8
実線
100
AcDbLine
 10
843.4184904722496
 20
360.547364210555
 30
0.0
 11
843.4184904722496
 21
436.5473642105549
 31
0.0
  0
LINE
  5
61D
102
{ACAD_REACTORS
330
763
102
}
330
1F
100
AcDbEntity
  8
実線
100
AcDbLine
 10
743.4184904722497
 20
436.5473642105549
 30
0.0
 11
743.4184904722497
 21
360.547364210555
 31
0.0
  0
LINE
  5
61E
102
{ACAD_REACTORS
330
763
102
}
330
1F
100
AcDbEntity
  8
実線
100
AcDbLine
 10
743.4184904722497
 20
360.547364210555
 30
0.0
 11
843.4184904722496
 21
360.547364210555
 31
0.0
  0
LINE
  5
61F
102
{ACAD_REACTORS
330
763
102
}
330
1F
100
AcDbEntity
  8
実線
100
AcDbLine
 10
799.4184904722496
 20
290.047364210555
 30
0.0
 11
799.4184904722496
 21
317.047364210555
 31
0.0
  0
LINE
  5
620
102
{ACAD_REACTORS
330
763
102
}
330
1F
100
AcDbEntity
  8
実線
100
AcDbLine
 10
787.4184904722497
 20
317.047364210555
 30
0.0
 11
787.4184904722497
 21
290.047364210555
 31
0.0
  0
LINE
  5
621
102
{ACAD_REACTORS
330
763
102
}
330
1F
100
AcDbEntity
  8
実線
100
AcDbLine
 10
858.3184904722507
 20
267.6973642105549
 30
0.0
 11
840.3956602411346
 21
267.6973642105549
 31
0.0
  0
LINE
  5
622
102
{ACAD_REACTORS
330
763
102
}
330
1F
100
AcDbEntity
  8
実線
100
AcDbLine
 10
829.5529034254737
 20
229.5973642105549
 30
0.0
 11
858.3184904722507
 21
229.5973642105549
 31
0.0
  0
LINE
  5
623
102
{ACAD_REACTORS
330
763
102
}
330
1F
100
AcDbEntity
  8
実線
100
AcDbLine
 10
863.4184904722506
 20
223.3973642105549
 30
0.0
 11
863.4184904722506
 21
273.8973642105549
 31
0.0
  0
LINE
  5
624
102
{ACAD_REACTORS
330
763
102
}
330
1F
100
AcDbEntity
  8
実線
100
AcDbLine
 10
863.4184904722506
 20
273.8973642105549
 30
0.0
 11
860.6684904722506
 21
273.8973642105549
 31
0.0
  0
LINE
  5
625
102
{ACAD_REACTORS
330
763
102
}
330
1F
100
AcDbEntity
  8
実線
100
AcDbLine
 10
860.6684904722506
 20
223.3973642105549
 30
0.0
 11
863.4184904722506
 21
223.3973642105549
 31
0.0
  0
LINE
  5
626
102
{ACAD_REACTORS
330
763
102
}
330
1F
100
AcDbEntity
  8
実線
100
AcDbLine
 10
860.6684904722506
 20
223.3973642105549
 30
0.0
 11
860.6684904722506
 21
273.8973642105549
 31
0.0
  0
LINE
  5
627
102
{ACAD_REACTORS
330
763
102
}
330
1F
100
AcDbEntity
  8
実線
100
AcDbLine
 10
858.3184904722507
 20
229.5973642105549
 30
0.0
 11
858.3184904722507
 21
267.6973642105549
 31
0.0
  0
LINE
  5
628
102
{ACAD_REACTORS
330
763
102
}
330
1F
100
AcDbEntity
  8
実線
100
AcDbLine
 10
858.3184904722507
 20
229.5973642105549
 30
0.0
 11
860.6684904722506
 21
223.3973642105549
 31
0.0
  0
LINE
  5
629
102
{ACAD_REACTORS
330
763
102
}
330
1F
100
AcDbEntity
  8
実線
100
AcDbLine
 10
860.6684904722506
 20
273.8973642105549
 30
0.0
 11
858.3184904722507
 21
267.6973642105549
 31
0.0
  0
LINE
  5
62A
102
{ACAD_REACTORS
330
763
102
}
330
1F
100
AcDbEntity
  8
実線
100
AcDbLine
 10
812.4684904722505
 20
183.747364210555
 30
0.0
 11
812.4684904722505
 21
225.8473642105549
 31
0.0
  0
LINE
  5
62B
102
{ACAD_REACTORS
330
763
102
}
330
1F
100
AcDbEntity
  8
実線
100
AcDbLine
 10
774.3684904722506
 20
225.8473642105549
 30
0.0
 11
774.3684904722506
 21
183.747364210555
 31
0.0
  0
LINE
  5
62C
102
{ACAD_REACTORS
330
763
102
}
330
1F
100
AcDbEntity
  8
実線
100
AcDbLine
 10
774.3684904722506
 20
183.747364210555
 30
0.0
 11
812.4684904722505
 21
183.747364210555
 31
0.0
  0
LINE
  5
62D
102
{ACAD_REACTORS
330
763
102
}
330
1F
100
AcDbEntity
  8
実線
100
AcDbLine
 10
774.3684904722506
 20
183.747364210555
 30
0.0
 11
768.1684904722506
 21
181.3973642105549
 31
0.0
  0
LINE
  5
62E
102
{ACAD_REACTORS
330
763
102
}
330
1F
100
AcDbEntity
  8
実線
100
AcDbLine
 10
818.6684904722506
 20
181.3973642105549
 30
0.0
 11
812.4684904722505
 21
183.747364210555
 31
0.0
  0
LINE
  5
62F
102
{ACAD_REACTORS
330
763
102
}
330
1F
100
AcDbEntity
  8
実線
100
AcDbLine
 10
768.1684904722506
 20
178.6473642105549
 30
0.0
 11
818.6684904722506
 21
178.6473642105549
 31
0.0
  0
LINE
  5
630
102
{ACAD_REACTORS
330
763
102
}
330
1F
100
AcDbEntity
  8
実線
100
AcDbLine
 10
768.1684904722506
 20
181.3973642105549
 30
0.0
 11
818.6684904722506
 21
181.3973642105549
 31
0.0
  0
LINE
  5
631
102
{ACAD_REACTORS
330
763
102
}
330
1F
100
AcDbEntity
  8
実線
100
AcDbLine
 10
818.6684904722506
 20
178.6473642105549
 30
0.0
 11
818.6684904722506
 21
181.3973642105549
 31
0.0
  0
LINE
  5
632
102
{ACAD_REACTORS
330
763
102
}
330
1F
100
AcDbEntity
  8
実線
100
AcDbLine
 10
768.1684904722506
 20
181.3973642105549
 30
0.0
 11
768.1684904722506
 21
178.6473642105549
 31
0.0
  0
LINE
  5
633
102
{ACAD_REACTORS
330
763
102
}
330
1F
100
AcDbEntity
  8
実線
100
AcDbLine
 10
780.9184904722497
 20
485.047364210555
 30
0.0
 11
805.9184904722496
 21
485.047364210555
 31
0.0
  0
LINE
  5
634
102
{ACAD_REACTORS
330
763
102
}
330
1F
100
AcDbEntity
  8
実線
100
AcDbLine
 10
805.9184904722496
 20
480.047364210555
 30
0.0
 11
805.9184904722496
 21
485.047364210555
 31
0.0
  0
LINE
  5
635
102
{ACAD_REACTORS
330
763
102
}
330
1F
100
AcDbEntity
  8
実線
100
AcDbLine
 10
780.9184904722497
 20
485.047364210555
 30
0.0
 11
780.9184904722497
 21
480.047364210555
 31
0.0
  0
LINE
  5
636
102
{ACAD_REACTORS
330
763
102
}
330
1F
100
AcDbEntity
  8
実線
100
AcDbLine
 10
805.9184904722496
 20
480.047364210555
 30
0.0
 11
780.9184904722497
 21
480.047364210555
 31
0.0
  0
LINE
  5
637
102
{ACAD_REACTORS
330
763
102
}
330
1F
100
AcDbEntity
  8
実線
100
AcDbLine
 10
773.4184904722496
 20
484.0473642105549
 30
0.0
 11
766.9184904722497
 21
484.0473642105549
 31
0.0
  0
LINE
  5
638
102
{ACAD_REACTORS
330
763
102
}
330
1F
100
AcDbEntity
  8
実線
100
AcDbLine
 10
766.9184904722497
 20
481.047364210555
 30
0.0
 11
773.4184904722496
 21
481.047364210555
 31
0.0
  0
LINE
  5
639
102
{ACAD_REACTORS
330
763
102
}
330
1F
100
AcDbEntity
  8
実線
100
AcDbLine
 10
766.9184904722497
 20
484.0473642105549
 30
0.0
 11
766.9184904722497
 21
481.047364210555
 31
0.0
  0
LINE
  5
63A
102
{ACAD_REACTORS
330
763
102
}
330
1F
100
AcDbEntity
  8
実線
100
AcDbLine
 10
787.4184904722497
 20
467.0973642105549
 30
0.0
 11
773.4184904722496
 21
467.0973642105549
 31
0.0
  0
LINE
  5
63B
102
{ACAD_REACTORS
330
763
102
}
330
1F
100
AcDbEntity
  8
実線
100
AcDbLine
 10
787.4184904722497
 20
474.9973642105548
 30
0.0
 11
773.4184904722496
 21
474.9973642105548
 31
0.0
  0
LINE
  5
63C
102
{ACAD_REACTORS
330
763
102
}
330
1F
100
AcDbEntity
  8
実線
100
AcDbLine
 10
773.4184904722496
 20
474.9973642105548
 30
0.0
 11
773.4184904722496
 21
467.0973642105549
 31
0.0
  0
LINE
  5
63D
102
{ACAD_REACTORS
330
763
102
}
330
1F
100
AcDbEntity
  8
実線
100
AcDbLine
 10
773.4184904722496
 20
472.547364210555
 30
0.0
 11
766.9184904722497
 21
472.547364210555
 31
0.0
  0
LINE
  5
63E
102
{ACAD_REACTORS
330
763
102
}
330
1F
100
AcDbEntity
  8
実線
100
AcDbLine
 10
766.9184904722497
 20
469.5473642105549
 30
0.0
 11
773.4184904722496
 21
469.5473642105549
 31
0.0
  0
LINE
  5
63F
102
{ACAD_REACTORS
330
763
102
}
330
1F
100
AcDbEntity
  8
実線
100
AcDbLine
 10
766.9184904722497
 20
472.547364210555
 30
0.0
 11
766.9184904722497
 21
469.5473642105549
 31
0.0
  0
LINE
  5
640
102
{ACAD_REACTORS
330
763
102
}
330
1F
100
AcDbEntity
  8
実線
100
AcDbLine
 10
785.9184904722496
 20
486.4973642105548
 30
0.0
 11
773.4184904722496
 21
486.4973642105548
 31
0.0
  0
LINE
  5
641
102
{ACAD_REACTORS
330
763
102
}
330
1F
100
AcDbEntity
  8
実線
100
AcDbLine
 10
773.4184904722496
 20
486.4973642105549
 30
0.0
 11
773.4184904722496
 21
478.5973642105548
 31
0.0
  0
LINE
  5
642
102
{ACAD_REACTORS
330
763
102
}
330
1F
100
AcDbEntity
  8
実線
100
AcDbLine
 10
787.4184904722497
 20
478.5973642105548
 30
0.0
 11
773.4184904722496
 21
478.5973642105548
 31
0.0
  0
LINE
  5
643
102
{ACAD_REACTORS
330
763
102
}
330
1F
100
AcDbEntity
  8
実線
100
AcDbLine
 10
785.9184904722496
 20
490.3473642105548
 30
0.0
 11
800.9184904722497
 21
490.3473642105548
 31
0.0
  0
LINE
  5
644
102
{ACAD_REACTORS
330
763
102
}
330
1F
100
AcDbEntity
  8
実線
100
AcDbLine
 10
800.9184904722497
 20
485.047364210555
 30
0.0
 11
800.9184904722497
 21
490.3473642105549
 31
0.0
  0
LINE
  5
645
102
{ACAD_REACTORS
330
763
102
}
330
1F
100
AcDbEntity
  8
実線
100
AcDbLine
 10
785.9184904722496
 20
490.3473642105548
 30
0.0
 11
785.9184904722496
 21
485.0473642105547
 31
0.0
  0
LINE
  5
646
102
{ACAD_REACTORS
330
763
102
}
330
1F
100
AcDbEntity
  8
実線
100
AcDbLine
 10
818.4184904722496
 20
451.547364210555
 30
0.0
 11
818.4184904722496
 21
456.5473642105549
 31
0.0
  0
LINE
  5
647
102
{ACAD_REACTORS
330
763
102
}
330
1F
100
AcDbEntity
  8
実線
100
AcDbLine
 10
768.4184904722497
 20
456.5473642105549
 30
0.0
 11
768.4184904722497
 21
451.547364210555
 31
0.0
  0
LINE
  5
648
102
{ACAD_REACTORS
330
763
102
}
330
1F
100
AcDbEntity
  8
実線
100
AcDbLine
 10
799.4184904722496
 20
458.5473642105549
 30
0.0
 11
799.4184904722496
 21
480.047364210555
 31
0.0
  0
LINE
  5
649
102
{ACAD_REACTORS
330
763
102
}
330
1F
100
AcDbEntity
  8
実線
100
AcDbLine
 10
787.4184904722497
 20
480.047364210555
 30
0.0
 11
787.4184904722497
 21
458.5473642105549
 31
0.0
  0
LINE
  5
64A
102
{ACAD_REACTORS
330
763
102
}
330
1F
100
AcDbEntity
  8
実線
100
AcDbLine
 10
746.4413207033658
 20
276.547364210555
 30
0.0
 11
840.3956602411337
 21
276.547364210555
 31
0.0
  0
LINE
  5
64B
102
{ACAD_REACTORS
330
763
102
}
330
1F
100
AcDbEntity
  8
実線
100
AcDbLine
 10
746.4413207033658
 20
290.047364210555
 30
0.0
 11
840.3956602411337
 21
290.047364210555
 31
0.0
  0
LINE
  5
64C
102
{ACAD_REACTORS
330
763
102
}
330
1F
100
AcDbEntity
  8
実線
100
AcDbLine
 10
840.3956602411337
 20
276.547364210555
 30
0.0
 11
840.3956602411337
 21
290.047364210555
 31
0.0
  0
LINE
  5
64D
102
{ACAD_REACTORS
330
763
102
}
330
1F
100
AcDbEntity
  8
実線
100
AcDbLine
 10
746.4413207033658
 20
290.047364210555
 30
0.0
 11
746.4413207033658
 21
276.547364210555
 31
0.0
  0
LINE
  5
64E
102
{ACAD_REACTORS
330
763
102
}
330
1F
100
AcDbEntity
  8
実線
100
AcDbLine
 10
775.3895936618255
 20
290.047364210555
 30
0.0
 11
775.3895936618255
 21
276.547364210555
 31
0.0
  0
LINE
  5
64F
102
{ACAD_REACTORS
330
763
102
}
330
1F
100
AcDbEntity
  8
実線
100
AcDbLine
 10
811.4473872826746
 20
290.047364210555
 30
0.0
 11
811.4473872826746
 21
276.547364210555
 31
0.0
  0
LINE
  5
650
102
{ACAD_REACTORS
330
763
102
}
330
1F
100
AcDbEntity
  8
実線
100
AcDbLine
 10
778.4184904722496
 20
486.4973642105549
 30
0.0
 11
778.4184904722496
 21
487.5473642105549
 31
0.0
  0
LINE
  5
651
102
{ACAD_REACTORS
330
763
102
}
330
1F
100
AcDbEntity
  8
実線
100
AcDbLine
 10
778.4184904722496
 20
474.9973642105548
 30
0.0
 11
778.4184904722496
 21
478.597364210555
 31
0.0
  0
LINE
  5
652
102
{ACAD_REACTORS
330
763
102
}
330
1F
100
AcDbEntity
  8
実線
100
AcDbLine
 10
778.4184904722496
 20
458.5473642105077
 30
0.0
 11
778.4184904722496
 21
467.0973642105548
 31
0.0
  0
LINE
  5
653
102
{ACAD_REACTORS
330
763
102
}
330
1F
100
AcDbEntity
  8
実線
100
AcDbLine
 10
785.9184904722496
 20
487.5473642105549
 30
0.0
 11
778.4184904722496
 21
487.5473642105549
 31
0.0
  0
LINE
  5
654
102
{ACAD_REACTORS
330
763
102
}
330
1F
100
AcDbEntity
  8
実線
100
AcDbLine
 10
818.4184904722496
 20
456.5473642105549
 30
0.0
 11
818.4184904722496
 21
458.5473642105549
 31
0.0
  0
LINE
  5
655
102
{ACAD_REACTORS
330
763
102
}
330
1F
100
AcDbEntity
  8
実線
100
AcDbLine
 10
768.4184904722497
 20
458.5473642105549
 30
0.0
 11
768.4184904722497
 21
456.5473642105549
 31
0.0
  0
LINE
  5
656
102
{ACAD_REACTORS
330
763
102
}
330
1F
100
AcDbEntity
  8
実線
100
AcDbLine
 10
818.4184904722496
 20
458.5473642105549
 30
0.0
 11
768.4184904722497
 21
458.5473642105549
 31
0.0
  0
LINE
  5
657
102
{ACAD_REACTORS
330
763
102
}
330
1F
100
AcDbEntity
  8
実線
100
AcDbLine
 10
818.4184904722496
 20
456.5473642105549
 30
0.0
 11
768.4184904722497
 21
456.5473642105549
 31
0.0
  0
LINE
  5
658
102
{ACAD_REACTORS
330
763
102
}
330
1F
100
AcDbEntity
  8
実線
100
AcDbLine
 10
820.4184904722506
 20
225.8473642105549
 30
0.0
 11
766.4184904736546
 21
225.8473642105549
 31
0.0
  0
ARC
  5
659
102
{ACAD_REACTORS
330
763
102
}
330
1F
100
AcDbEntity
  8
実線
100
AcDbCircle
 10
766.4184904722506
 20
238.847364210555
 30
0.0
 40
13.0
100
AcDbArc
 50
180.0
 51
270.0
  0
ARC
  5
65A
102
{ACAD_REACTORS
330
763
102
}
330
1F
100
AcDbEntity
  8
実線
100
AcDbCircle
 10
820.4184904722506
 20
238.847364210555
 30
0.0
 40
13.0
100
AcDbArc
 50
270.0
 51
314.6397729585952
  0
LINE
  5
65B
102
{ACAD_REACTORS
330
763
102
}
330
1F
100
AcDbEntity
  8
実線
100
AcDbLine
 10
753.4184904722506
 20
266.547364210555
 30
0.0
 11
753.4184904722506
 21
238.847364210555
 31
0.0
  0
LINE
  5
65C
102
{ACAD_REACTORS
330
763
102
}
330
1F
100
AcDbEntity
  8
実線
100
AcDbLine
 10
840.3956602411346
 20
266.547364210555
 30
0.0
 11
811.4473872826746
 21
266.547364210555
 31
0.0
  0
LINE
  5
65D
102
{ACAD_REACTORS
330
763
102
}
330
1F
100
AcDbEntity
  8
実線
100
AcDbLine
 10
840.3956602411346
 20
266.547364210555
 30
0.0
 11
840.3956602411346
 21
276.547364210555
 31
0.0
  0
LINE
  5
65E
102
{ACAD_REACTORS
330
763
102
}
330
1F
100
AcDbEntity
  8
実線
100
AcDbLine
 10
746.4413207033667
 20
276.547364210555
 30
0.0
 11
746.4413207033667
 21
266.547364210555
 31
0.0
  0
LINE
  5
65F
102
{ACAD_REACTORS
330
763
102
}
330
1F
100
AcDbEntity
  8
実線
100
AcDbLine
 10
746.4413207033667
 20
266.547364210555
 30
0.0
 11
775.3895936618266
 21
266.547364210555
 31
0.0
  0
LINE
  5
660
102
{ACAD_REACTORS
330
763
102
}
330
1F
100
AcDbEntity
  8
実線
100
AcDbLine
 10
775.3895936618266
 20
276.547364210555
 30
0.0
 11
775.3895936618266
 21
266.547364210555
 31
0.0
  0
LINE
  5
661
102
{ACAD_REACTORS
330
763
102
}
330
1F
100
AcDbEntity
  8
実線
100
AcDbLine
 10
811.4473872826746
 20
276.547364210555
 30
0.0
 11
811.4473872826746
 21
266.547364210555
 31
0.0
  0
LINE
  5
662
102
{ACAD_REACTORS
330
763
102
}
330
1F
100
AcDbEntity
  8
実線
100
AcDbLine
 10
840.4184904722496
 20
441.0473642105549
 30
0.0
 11
746.4184904722497
 21
441.0473642105549
 31
0.0
  0
ARC
  5
663
102
{ACAD_REACTORS
330
763
102
}
330
1F
100
AcDbEntity
  8
実線
100
AcDbCircle
 10
840.4184904722496
 20
438.0473642105549
 30
0.0
 40
3.0
100
AcDbArc
 50
0.0
 51
90.0
  0
ARC
  5
664
102
{ACAD_REACTORS
330
763
102
}
330
1F
100
AcDbEntity
  8
実線
100
AcDbCircle
 10
746.4184904722497
 20
438.0473642105549
 30
0.0
 40
3.0
100
AcDbArc
 50
90.0
 51
180.0
  0
LINE
  5
665
102
{ACAD_REACTORS
330
763
102
}
330
1F
100
AcDbEntity
  8
実線
100
AcDbLine
 10
843.4184904722496
 20
436.5473642105549
 30
0.0
 11
843.4184904722496
 21
438.0473642105549
 31
0.0
  0
LINE
  5
666
102
{ACAD_REACTORS
330
763
102
}
330
1F
100
AcDbEntity
  8
実線
100
AcDbLine
 10
743.4184904722497
 20
438.0473642105549
 30
0.0
 11
743.4184904722497
 21
436.5473642105549
 31
0.0
  0
ARC
  5
667
102
{ACAD_REACTORS
330
763
102
}
330
1F
100
AcDbEntity
  8
実線
100
AcDbCircle
 10
817.1184904722498
 20
331.047364210555
 30
0.0
 40
57.99999999999997
100
AcDbArc
 50
193.9679626746507
 51
224.9829679599105
  0
LINE
  5
668
102
{ACAD_REACTORS
330
763
102
}
330
1F
100
AcDbEntity
  8
実線
100
AcDbLine
 10
749.1184904722497
 20
360.547364210555
 30
0.0
 11
749.1184904722497
 21
331.047364210555
 31
0.0
  0
ARC
  5
669
102
{ACAD_REACTORS
330
763
102
}
330
1F
100
AcDbEntity
  8
実線
100
AcDbCircle
 10
819.1184904722497
 20
331.047364210555
 30
0.0
 40
70.00000000000003
100
AcDbArc
 50
180.0
 51
215.8534670634654
  0
ARC
  5
66A
102
{ACAD_REACTORS
330
763
102
}
330
1F
100
AcDbEntity
  8
実線
100
AcDbCircle
 10
769.7184904722496
 20
331.047364210555
 30
0.0
 40
57.99999999999997
100
AcDbArc
 50
315.0170320400895
 51
346.0320373253493
  0
ARC
  5
66B
102
{ACAD_REACTORS
330
763
102
}
330
1F
100
AcDbEntity
  8
実線
100
AcDbCircle
 10
767.7184904722496
 20
331.047364210555
 30
0.0
 40
70.00000000000003
100
AcDbArc
 50
324.1465329365346
 51
0.0
  0
LINE
  5
66C
102
{ACAD_REACTORS
330
763
102
}
330
1F
100
AcDbEntity
  8
実線
100
AcDbLine
 10
837.7184904722495
 20
360.547364210555
 30
0.0
 11
837.7184904722495
 21
331.047364210555
 31
0.0
  0
LINE
  5
66D
102
{ACAD_REACTORS
330
763
102
}
330
1F
100
AcDbEntity
  8
実線
100
AcDbLine
 10
755.0331091402895
 20
317.047364210555
 30
0.0
 11
831.8038718042096
 21
317.047364210555
 31
0.0
  0
LINE
  5
66E
102
{ACAD_REACTORS
330
763
102
}
330
1F
100
AcDbEntity
  8
実線
100
AcDbLine
 10
831.8038718042096
 20
360.547364210555
 30
0.0
 11
831.8038718042096
 21
317.047364210555
 31
0.0
  0
LINE
  5
66F
102
{ACAD_REACTORS
330
763
102
}
330
1F
100
AcDbEntity
  8
実線
100
AcDbLine
 10
755.0331091402895
 20
360.547364210555
 30
0.0
 11
755.0331091402895
 21
317.047364210555
 31
0.0
  0
LINE
  5
670
102
{ACAD_REACTORS
330
764
102
}
330
1F
100
AcDbEntity
  8
実線
100
AcDbLine
 10
588.4184904722506
 20
451.5473642105548
 30
0.0
 11
518.4184904722505
 21
451.5473642105548
 31
0.0
  0
LINE
  5
671
102
{ACAD_REACTORS
330
764
102
}
330
1F
100
AcDbEntity
  8
実線
100
AcDbLine
 10
588.4184904722506
 20
441.0473642105548
 30
0.0
 11
588.4184904722506
 21
451.5473642105548
 31
0.0
  0
LINE
  5
672
102
{ACAD_REACTORS
330
764
102
}
330
1F
100
AcDbEntity
  8
実線
100
AcDbLine
 10
518.4184904722505
 20
451.5473642105548
 30
0.0
 11
518.4184904722505
 21
441.0473642105548
 31
0.0
  0
LINE
  5
673
102
{ACAD_REACTORS
330
764
102
}
330
1F
100
AcDbEntity
  8
実線
100
AcDbLine
 10
603.4184904722506
 20
436.5473642105548
 30
0.0
 11
503.4184904722506
 21
436.5473642105548
 31
0.0
  0
LINE
  5
674
102
{ACAD_REACTORS
330
764
102
}
330
1F
100
AcDbEntity
  8
実線
100
AcDbLine
 10
503.4184904722506
 20
360.5473642105549
 30
0.0
 11
603.4184904722506
 21
360.5473642105549
 31
0.0
  0
LINE
  5
675
102
{ACAD_REACTORS
330
764
102
}
330
1F
100
AcDbEntity
  8
実線
100
AcDbLine
 10
603.4184904722506
 20
360.5473642105549
 30
0.0
 11
603.4184904722506
 21
436.5473642105548
 31
0.0
  0
LINE
  5
676
102
{ACAD_REACTORS
330
764
102
}
330
1F
100
AcDbEntity
  8
実線
100
AcDbLine
 10
503.4184904722506
 20
436.5473642105548
 30
0.0
 11
503.4184904722506
 21
360.5473642105549
 31
0.0
  0
LINE
  5
677
102
{ACAD_REACTORS
330
764
102
}
330
1F
100
AcDbEntity
  8
実線
100
AcDbLine
 10
572.4684904722517
 20
183.7473642105548
 30
0.0
 11
572.4684904722517
 21
225.8473642105548
 31
0.0
  0
LINE
  5
678
102
{ACAD_REACTORS
330
764
102
}
330
1F
100
AcDbEntity
  8
実線
100
AcDbLine
 10
534.3684904722515
 20
225.8473642105548
 30
0.0
 11
534.3684904722515
 21
183.7473642105549
 31
0.0
  0
LINE
  5
679
102
{ACAD_REACTORS
330
764
102
}
330
1F
100
AcDbEntity
  8
実線
100
AcDbLine
 10
578.6684904722514
 20
178.6473642105548
 30
0.0
 11
528.1684904722514
 21
178.6473642105548
 31
0.0
  0
LINE
  5
67A
102
{ACAD_REACTORS
330
764
102
}
330
1F
100
AcDbEntity
  8
実線
100
AcDbLine
 10
578.6684904722514
 20
178.6473642105548
 30
0.0
 11
578.6684904722514
 21
181.3973642105548
 31
0.0
  0
LINE
  5
67B
102
{ACAD_REACTORS
330
764
102
}
330
1F
100
AcDbEntity
  8
実線
100
AcDbLine
 10
528.1684904722514
 20
181.3973642105548
 30
0.0
 11
528.1684904722514
 21
178.6473642105548
 31
0.0
  0
LINE
  5
67C
102
{ACAD_REACTORS
330
764
102
}
330
1F
100
AcDbEntity
  8
実線
100
AcDbLine
 10
578.6684904722514
 20
181.3973642105548
 30
0.0
 11
528.1684904722514
 21
181.3973642105548
 31
0.0
  0
LINE
  5
67D
102
{ACAD_REACTORS
330
764
102
}
330
1F
100
AcDbEntity
  8
実線
100
AcDbLine
 10
572.4684904722517
 20
183.7473642105548
 30
0.0
 11
534.3684904722515
 21
183.7473642105548
 31
0.0
  0
LINE
  5
67E
102
{ACAD_REACTORS
330
764
102
}
330
1F
100
AcDbEntity
  8
実線
100
AcDbLine
 10
534.3684904722515
 20
183.7473642105548
 30
0.0
 11
528.1684904722514
 21
181.3973642105548
 31
0.0
  0
LINE
  5
67F
102
{ACAD_REACTORS
330
764
102
}
330
1F
100
AcDbEntity
  8
実線
100
AcDbLine
 10
578.6684904722514
 20
181.3973642105548
 30
0.0
 11
572.4684904722517
 21
183.7473642105549
 31
0.0
  0
LINE
  5
680
102
{ACAD_REACTORS
330
764
102
}
330
1F
100
AcDbEntity
  8
実線
100
AcDbLine
 10
565.9184904722506
 20
485.0473642105548
 30
0.0
 11
540.9184904722506
 21
485.0473642105548
 31
0.0
  0
LINE
  5
681
102
{ACAD_REACTORS
330
764
102
}
330
1F
100
AcDbEntity
  8
実線
100
AcDbLine
 10
540.9184904722506
 20
480.0473642105548
 30
0.0
 11
565.9184904722506
 21
480.0473642105548
 31
0.0
  0
LINE
  5
682
102
{ACAD_REACTORS
330
764
102
}
330
1F
100
AcDbEntity
  8
実線
100
AcDbLine
 10
565.9184904722506
 20
480.0473642105548
 30
0.0
 11
565.9184904722506
 21
485.0473642105548
 31
0.0
  0
LINE
  5
683
102
{ACAD_REACTORS
330
764
102
}
330
1F
100
AcDbEntity
  8
実線
100
AcDbLine
 10
540.9184904722506
 20
485.0473642105548
 30
0.0
 11
540.9184904722506
 21
480.0473642105548
 31
0.0
  0
CIRCLE
  5
684
102
{ACAD_REACTORS
330
764
102
}
330
1F
100
AcDbEntity
  8
実線
100
AcDbCircle
 10
536.3684904722506
 20
482.5473642105548
 30
0.0
 40
1.5
  0
LINE
  5
685
102
{ACAD_REACTORS
330
764
102
}
330
1F
100
AcDbEntity
  8
実線
100
AcDbLine
 10
532.4184904722506
 20
467.0973642105548
 30
0.0
 11
532.4184904722506
 21
474.9973642105548
 31
0.0
  0
LINE
  5
686
102
{ACAD_REACTORS
330
764
102
}
330
1F
100
AcDbEntity
  8
実線
100
AcDbLine
 10
532.4184904722506
 20
474.9973642105548
 30
0.0
 11
540.3184904722507
 21
474.9973642105548
 31
0.0
  0
LINE
  5
687
102
{ACAD_REACTORS
330
764
102
}
330
1F
100
AcDbEntity
  8
実線
100
AcDbLine
 10
540.3184904722507
 20
474.9973642105548
 30
0.0
 11
540.3184904722507
 21
467.0973642105548
 31
0.0
  0
LINE
  5
688
102
{ACAD_REACTORS
330
764
102
}
330
1F
100
AcDbEntity
  8
実線
100
AcDbLine
 10
540.3184904722507
 20
467.0973642105548
 30
0.0
 11
532.4184904722506
 21
467.0973642105548
 31
0.0
  0
CIRCLE
  5
689
102
{ACAD_REACTORS
330
764
102
}
330
1F
100
AcDbEntity
  8
実線
100
AcDbCircle
 10
536.3684904722506
 20
471.0473642105548
 30
0.0
 40
1.5
  0
LINE
  5
68A
102
{ACAD_REACTORS
330
764
102
}
330
1F
100
AcDbEntity
  8
実線
100
AcDbLine
 10
540.3184904722507
 20
486.4973642105548
 30
0.0
 11
540.3184904722507
 21
478.5973642105546
 31
0.0
  0
LINE
  5
68B
102
{ACAD_REACTORS
330
764
102
}
330
1F
100
AcDbEntity
  8
実線
100
AcDbLine
 10
540.3184904722507
 20
478.5973642105546
 30
0.0
 11
532.4184904722506
 21
478.5973642105546
 31
0.0
  0
LINE
  5
68C
102
{ACAD_REACTORS
330
764
102
}
330
1F
100
AcDbEntity
  8
実線
100
AcDbLine
 10
532.4184904722506
 20
486.4973642105548
 30
0.0
 11
540.3184904722507
 21
486.4973642105548
 31
0.0
  0
LINE
  5
68D
102
{ACAD_REACTORS
330
764
102
}
330
1F
100
AcDbEntity
  8
実線
100
AcDbLine
 10
532.4184904722506
 20
478.5973642105546
 30
0.0
 11
532.4184904722506
 21
486.4973642105546
 31
0.0
  0
LINE
  5
68E
102
{ACAD_REACTORS
330
764
102
}
330
1F
100
AcDbEntity
  8
実線
100
AcDbLine
 10
560.9184904722505
 20
490.3473642105547
 30
0.0
 11
545.9184904722506
 21
490.3473642105547
 31
0.0
  0
LINE
  5
68F
102
{ACAD_REACTORS
330
764
102
}
330
1F
100
AcDbEntity
  8
実線
100
AcDbLine
 10
560.9184904722505
 20
485.0473642105548
 30
0.0
 11
560.9184904722505
 21
490.3473642105548
 31
0.0
  0
LINE
  5
690
102
{ACAD_REACTORS
330
764
102
}
330
1F
100
AcDbEntity
  8
実線
100
AcDbLine
 10
545.9184904722506
 20
490.3473642105547
 30
0.0
 11
545.9184904722506
 21
485.0473642105546
 31
0.0
  0
LINE
  5
691
102
{ACAD_REACTORS
330
764
102
}
330
1F
100
AcDbEntity
  8
実線
100
AcDbLine
 10
530.4184904722506
 20
456.5473642105549
 30
0.0
 11
528.4184904722506
 21
456.5473642105549
 31
0.0
  0
LINE
  5
692
102
{ACAD_REACTORS
330
764
102
}
330
1F
100
AcDbEntity
  8
実線
100
AcDbLine
 10
578.4184904722506
 20
451.5473642105548
 30
0.0
 11
578.4184904722506
 21
456.5473642105549
 31
0.0
  0
LINE
  5
693
102
{ACAD_REACTORS
330
764
102
}
330
1F
100
AcDbEntity
  8
実線
100
AcDbLine
 10
528.4184904722506
 20
456.5473642105549
 30
0.0
 11
528.4184904722506
 21
451.5473642105548
 31
0.0
  0
LINE
  5
694
102
{ACAD_REACTORS
330
764
102
}
330
1F
100
AcDbEntity
  8
実線
100
AcDbLine
 10
559.4184904722506
 20
458.5473642105548
 30
0.0
 11
559.4184904722506
 21
480.0473642105548
 31
0.0
  0
LINE
  5
695
102
{ACAD_REACTORS
330
764
102
}
330
1F
100
AcDbEntity
  8
実線
100
AcDbLine
 10
547.4184904722505
 20
480.0473642105548
 30
0.0
 11
547.4184904722505
 21
458.5473642105548
 31
0.0
  0
LINE
  5
696
102
{ACAD_REACTORS
330
764
102
}
330
1F
100
AcDbEntity
  8
実線
100
AcDbLine
 10
600.3956602411347
 20
290.0473642105549
 30
0.0
 11
506.4413207033667
 21
290.0473642105549
 31
0.0
  0
LINE
  5
697
102
{ACAD_REACTORS
330
764
102
}
330
1F
100
AcDbEntity
  8
実線
100
AcDbLine
 10
600.3956602411347
 20
276.5473642105549
 30
0.0
 11
506.4413207033667
 21
276.5473642105549
 31
0.0
  0
LINE
  5
698
102
{ACAD_REACTORS
330
764
102
}
330
1F
100
AcDbEntity
  8
実線
100
AcDbLine
 10
506.4413207033667
 20
290.0473642105549
 30
0.0
 11
506.4413207033667
 21
276.5473642105549
 31
0.0
  0
LINE
  5
699
102
{ACAD_REACTORS
330
764
102
}
330
1F
100
AcDbEntity
  8
実線
100
AcDbLine
 10
600.3956602411347
 20
276.5473642105549
 30
0.0
 11
600.3956602411347
 21
290.0473642105549
 31
0.0
  0
LINE
  5
69A
102
{ACAD_REACTORS
330
764
102
}
330
1F
100
AcDbEntity
  8
実線
100
AcDbLine
 10
535.3895936618267
 20
290.0473642105549
 30
0.0
 11
535.3895936618267
 21
276.5473642105549
 31
0.0
  0
LINE
  5
69B
102
{ACAD_REACTORS
330
764
102
}
330
1F
100
AcDbEntity
  8
実線
100
AcDbLine
 10
571.4473872826747
 20
290.0473642105549
 30
0.0
 11
571.4473872826747
 21
276.5473642105549
 31
0.0
  0
LINE
  5
69C
102
{ACAD_REACTORS
330
764
102
}
330
1F
100
AcDbEntity
  8
実線
100
AcDbLine
 10
530.4184904722506
 20
456.5473642105549
 30
0.0
 11
578.4184904722506
 21
456.5473642105549
 31
0.0
  0
LINE
  5
69D
102
{ACAD_REACTORS
330
764
102
}
330
1F
100
AcDbEntity
  8
実線
100
AcDbLine
 10
532.4184904722506
 20
458.5473642105076
 30
0.0
 11
578.4184904722506
 21
458.5473642105076
 31
0.0
  0
LINE
  5
69E
102
{ACAD_REACTORS
330
764
102
}
330
1F
100
AcDbEntity
  8
実線
100
AcDbLine
 10
532.4184904722506
 20
486.4973642105548
 30
0.0
 11
532.4184904722506
 21
487.5473642105548
 31
0.0
  0
LINE
  5
69F
102
{ACAD_REACTORS
330
764
102
}
330
1F
100
AcDbEntity
  8
実線
100
AcDbLine
 10
532.4184904722506
 20
474.9973642105548
 30
0.0
 11
532.4184904722506
 21
478.5973642105549
 31
0.0
  0
LINE
  5
6A0
102
{ACAD_REACTORS
330
764
102
}
330
1F
100
AcDbEntity
  8
実線
100
AcDbLine
 10
532.4184904722506
 20
458.5473642105076
 30
0.0
 11
532.4184904722506
 21
467.0973642105547
 31
0.0
  0
LINE
  5
6A1
102
{ACAD_REACTORS
330
764
102
}
330
1F
100
AcDbEntity
  8
実線
100
AcDbLine
 10
532.4184904722506
 20
487.5473642105548
 30
0.0
 11
530.4184904722506
 21
487.5473642105548
 31
0.0
  0
LINE
  5
6A2
102
{ACAD_REACTORS
330
764
102
}
330
1F
100
AcDbEntity
  8
実線
100
AcDbLine
 10
530.4184904722506
 20
456.5473642105549
 30
0.0
 11
530.4184904722506
 21
487.5473642105548
 31
0.0
  0
LINE
  5
6A3
102
{ACAD_REACTORS
330
764
102
}
330
1F
100
AcDbEntity
  8
実線
100
AcDbLine
 10
533.4184904722688
 20
456.5473642105549
 30
0.0
 11
533.4184904722688
 21
458.5473642105076
 31
0.0
  0
LINE
  5
6A4
102
{ACAD_REACTORS
330
764
102
}
330
1F
100
AcDbEntity
  8
実線
100
AcDbLine
 10
578.4184904722506
 20
456.5473642105549
 30
0.0
 11
578.4184904722506
 21
458.5473642105548
 31
0.0
  0
LINE
  5
6A5
102
{ACAD_REACTORS
330
764
102
}
330
1F
100
AcDbEntity
  8
実線
100
AcDbLine
 10
580.4184904722514
 20
225.8473642105548
 30
0.0
 11
526.4184904722514
 21
225.8473642105548
 31
0.0
  0
ARC
  5
6A6
102
{ACAD_REACTORS
330
764
102
}
330
1F
100
AcDbEntity
  8
実線
100
AcDbCircle
 10
526.4184904722514
 20
238.8473642105549
 30
0.0
 40
13.0
100
AcDbArc
 50
180.0
 51
270.0
  0
ARC
  5
6A7
102
{ACAD_REACTORS
330
764
102
}
330
1F
100
AcDbEntity
  8
実線
100
AcDbCircle
 10
580.4184904722514
 20
238.8473642105549
 30
0.0
 40
13.0
100
AcDbArc
 50
270.0
 51
0.0
  0
LINE
  5
6A8
102
{ACAD_REACTORS
330
764
102
}
330
1F
100
AcDbEntity
  8
実線
100
AcDbLine
 10
593.4184904722514
 20
238.8473642105549
 30
0.0
 11
593.4184904722514
 21
266.5473642105549
 31
0.0
  0
LINE
  5
6A9
102
{ACAD_REACTORS
330
764
102
}
330
1F
100
AcDbEntity
  8
実線
100
AcDbLine
 10
513.4184904722514
 20
266.5473642105549
 30
0.0
 11
513.4184904722514
 21
238.8473642105549
 31
0.0
  0
LINE
  5
6AA
102
{ACAD_REACTORS
330
764
102
}
330
1F
100
AcDbEntity
  8
実線
100
AcDbLine
 10
506.4413207033676
 20
276.5473642105549
 30
0.0
 11
506.4413207033676
 21
266.5473642105549
 31
0.0
  0
LINE
  5
6AB
102
{ACAD_REACTORS
330
764
102
}
330
1F
100
AcDbEntity
  8
実線
100
AcDbLine
 10
506.4413207033676
 20
266.5473642105549
 30
0.0
 11
535.3895936618278
 21
266.5473642105549
 31
0.0
  0
LINE
  5
6AC
102
{ACAD_REACTORS
330
764
102
}
330
1F
100
AcDbEntity
  8
実線
100
AcDbLine
 10
600.3956602411355
 20
266.5473642105549
 30
0.0
 11
571.4473872826756
 21
266.5473642105549
 31
0.0
  0
LINE
  5
6AD
102
{ACAD_REACTORS
330
764
102
}
330
1F
100
AcDbEntity
  8
実線
100
AcDbLine
 10
600.3956602411355
 20
266.5473642105549
 30
0.0
 11
600.3956602411355
 21
276.5473642105549
 31
0.0
  0
LINE
  5
6AE
102
{ACAD_REACTORS
330
764
102
}
330
1F
100
AcDbEntity
  8
実線
100
AcDbLine
 10
535.3895936618278
 20
276.5473642105549
 30
0.0
 11
535.3895936618278
 21
266.5473642105549
 31
0.0
  0
LINE
  5
6AF
102
{ACAD_REACTORS
330
764
102
}
330
1F
100
AcDbEntity
  8
実線
100
AcDbLine
 10
571.4473872826756
 20
276.5473642105549
 30
0.0
 11
571.4473872826756
 21
266.5473642105549
 31
0.0
  0
LINE
  5
6B0
102
{ACAD_REACTORS
330
764
102
}
330
1F
100
AcDbEntity
  8
実線
100
AcDbLine
 10
600.4184904722506
 20
441.0473642105548
 30
0.0
 11
506.4184904722505
 21
441.0473642105548
 31
0.0
  0
ARC
  5
6B1
102
{ACAD_REACTORS
330
764
102
}
330
1F
100
AcDbEntity
  8
実線
100
AcDbCircle
 10
600.4184904722506
 20
438.0473642105548
 30
0.0
 40
3.0
100
AcDbArc
 50
0.0
 51
90.0
  0
ARC
  5
6B2
102
{ACAD_REACTORS
330
764
102
}
330
1F
100
AcDbEntity
  8
実線
100
AcDbCircle
 10
506.4184904722505
 20
438.0473642105548
 30
0.0
 40
3.0
100
AcDbArc
 50
90.0
 51
180.0
  0
LINE
  5
6B3
102
{ACAD_REACTORS
330
764
102
}
330
1F
100
AcDbEntity
  8
実線
100
AcDbLine
 10
603.4184904722506
 20
436.5473642105548
 30
0.0
 11
603.4184904722506
 21
438.0473642105548
 31
0.0
  0
LINE
  5
6B4
102
{ACAD_REACTORS
330
764
102
}
330
1F
100
AcDbEntity
  8
実線
100
AcDbLine
 10
503.4184904722506
 20
438.0473642105548
 30
0.0
 11
503.4184904722506
 21
436.5473642105548
 31
0.0
  0
LINE
  5
6B5
102
{ACAD_REACTORS
330
764
102
}
330
1F
100
AcDbEntity
  8
実線
100
AcDbLine
 10
564.6684904722506
 20
317.0473642105549
 30
0.0
 11
593.4184904722505
 21
317.0473642105549
 31
0.0
  0
LINE
  5
6B6
102
{ACAD_REACTORS
330
764
102
}
330
1F
100
AcDbEntity
  8
実線
100
AcDbLine
 10
593.4184904722505
 20
317.0473642105549
 30
0.0
 11
593.4184904722505
 21
360.5473642105549
 31
0.0
  0
LINE
  5
6B7
102
{ACAD_REACTORS
330
764
102
}
330
1F
100
AcDbEntity
  8
実線
100
AcDbLine
 10
513.4184904722506
 20
360.5473642105549
 30
0.0
 11
513.4184904722506
 21
317.0473642105549
 31
0.0
  0
LINE
  5
6B8
102
{ACAD_REACTORS
330
764
102
}
330
1F
100
AcDbEntity
  8
実線
100
AcDbLine
 10
513.4184904722506
 20
317.0473642105549
 30
0.0
 11
542.1684904722505
 21
317.0473642105549
 31
0.0
  0
LINE
  5
6B9
102
{ACAD_REACTORS
330
764
102
}
330
1F
100
AcDbEntity
  8
実線
100
AcDbLine
 10
542.1684904722505
 20
360.5473642105549
 30
0.0
 11
542.1684904722505
 21
290.0473642105549
 31
0.0
  0
LINE
  5
6BA
102
{ACAD_REACTORS
330
764
102
}
330
1F
100
AcDbEntity
  8
実線
100
AcDbLine
 10
564.6684904722506
 20
360.5473642105549
 30
0.0
 11
564.6684904722506
 21
290.0473642105549
 31
0.0
  0
LINE
  5
6BB
102
{ACAD_REACTORS
330
766
102
}
330
1F
100
AcDbEntity
  8
実線
100
AcDbLine
 10
108.4184904722515
 20
441.0473642105547
 30
0.0
 11
108.4184904722515
 21
451.5473642105547
 31
0.0
  0
LINE
  5
6BC
102
{ACAD_REACTORS
330
766
102
}
330
1F
100
AcDbEntity
  8
実線
100
AcDbLine
 10
38.41849047225151
 20
451.5473642105547
 30
0.0
 11
38.41849047225151
 21
441.0473642105547
 31
0.0
  0
LINE
  5
6BD
102
{ACAD_REACTORS
330
766
102
}
330
1F
100
AcDbEntity
  8
実線
100
AcDbLine
 10
108.4184904722515
 20
451.5473642105547
 30
0.0
 11
38.41849047225151
 21
451.5473642105547
 31
0.0
  0
LINE
  5
6BE
102
{ACAD_REACTORS
330
766
102
}
330
1F
100
AcDbEntity
  8
実線
100
AcDbLine
 10
123.4184904722515
 20
360.5473642105547
 30
0.0
 11
123.4184904722515
 21
436.5473642105548
 31
0.0
  0
LINE
  5
6BF
102
{ACAD_REACTORS
330
766
102
}
330
1F
100
AcDbEntity
  8
実線
100
AcDbLine
 10
23.41849047225151
 20
436.5473642105548
 30
0.0
 11
23.41849047225151
 21
360.5473642105547
 31
0.0
  0
LINE
  5
6C0
102
{ACAD_REACTORS
330
766
102
}
330
1F
100
AcDbEntity
  8
実線
100
AcDbLine
 10
123.4184904722515
 20
436.5473642105548
 30
0.0
 11
23.41849047225151
 21
436.5473642105548
 31
0.0
  0
LINE
  5
6C1
102
{ACAD_REACTORS
330
766
102
}
330
1F
100
AcDbEntity
  8
実線
100
AcDbLine
 10
23.41849047225151
 20
360.5473642105547
 30
0.0
 11
123.4184904722515
 21
360.5473642105547
 31
0.0
  0
CIRCLE
  5
6C2
102
{ACAD_REACTORS
330
766
102
}
330
1F
100
AcDbEntity
  8
実線
100
AcDbCircle
 10
73.41849047225071
 20
248.6473642105547
 30
0.0
 40
25.25
  0
LINE
  5
6C3
102
{ACAD_REACTORS
330
766
102
}
330
1F
100
AcDbEntity
  8
実線
100
AcDbLine
 10
92.46849047225078
 20
183.7473642105547
 30
0.0
 11
92.46849047225078
 21
225.8473642105547
 31
0.0
  0
LINE
  5
6C4
102
{ACAD_REACTORS
330
766
102
}
330
1F
100
AcDbEntity
  8
実線
100
AcDbLine
 10
54.36849047225064
 20
225.8473642105547
 30
0.0
 11
54.36849047225064
 21
183.7473642105548
 31
0.0
  0
LINE
  5
6C5
102
{ACAD_REACTORS
330
766
102
}
330
1F
100
AcDbEntity
  8
実線
100
AcDbLine
 10
54.36849047225064
 20
183.7473642105547
 30
0.0
 11
48.16849047225071
 21
181.3973642105547
 31
0.0
  0
LINE
  5
6C6
102
{ACAD_REACTORS
330
766
102
}
330
1F
100
AcDbEntity
  8
実線
100
AcDbLine
 10
98.66849047225072
 20
181.3973642105547
 30
0.0
 11
92.46849047225078
 21
183.7473642105548
 31
0.0
  0
LINE
  5
6C7
102
{ACAD_REACTORS
330
766
102
}
330
1F
100
AcDbEntity
  8
実線
100
AcDbLine
 10
54.36849047225064
 20
183.7473642105547
 30
0.0
 11
92.46849047225078
 21
183.7473642105547
 31
0.0
  0
LINE
  5
6C8
102
{ACAD_REACTORS
330
766
102
}
330
1F
100
AcDbEntity
  8
実線
100
AcDbLine
 10
98.66849047225072
 20
178.6473642105547
 30
0.0
 11
98.66849047225072
 21
181.3973642105547
 31
0.0
  0
LINE
  5
6C9
102
{ACAD_REACTORS
330
766
102
}
330
1F
100
AcDbEntity
  8
実線
100
AcDbLine
 10
48.16849047225071
 20
181.3973642105547
 30
0.0
 11
48.16849047225071
 21
178.6473642105547
 31
0.0
  0
LINE
  5
6CA
102
{ACAD_REACTORS
330
766
102
}
330
1F
100
AcDbEntity
  8
実線
100
AcDbLine
 10
48.16849047225071
 20
178.6473642105547
 30
0.0
 11
98.66849047225072
 21
178.6473642105547
 31
0.0
  0
LINE
  5
6CB
102
{ACAD_REACTORS
330
766
102
}
330
1F
100
AcDbEntity
  8
実線
100
AcDbLine
 10
48.16849047225071
 20
181.3973642105547
 30
0.0
 11
98.66849047225072
 21
181.3973642105547
 31
0.0
  0
LINE
  5
6CC
102
{ACAD_REACTORS
330
766
102
}
330
1F
100
AcDbEntity
  8
実線
100
AcDbLine
 10
85.91849047225151
 20
480.0473642105547
 30
0.0
 11
85.91849047225151
 21
485.0473642105547
 31
0.0
  0
LINE
  5
6CD
102
{ACAD_REACTORS
330
766
102
}
330
1F
100
AcDbEntity
  8
実線
100
AcDbLine
 10
60.9184904722515
 20
485.0473642105547
 30
0.0
 11
60.9184904722515
 21
480.0473642105547
 31
0.0
  0
LINE
  5
6CE
102
{ACAD_REACTORS
330
766
102
}
330
1F
100
AcDbEntity
  8
実線
100
AcDbLine
 10
85.91849047225151
 20
485.0473642105547
 30
0.0
 11
60.9184904722515
 21
485.0473642105547
 31
0.0
  0
LINE
  5
6CF
102
{ACAD_REACTORS
330
766
102
}
330
1F
100
AcDbEntity
  8
実線
100
AcDbLine
 10
60.9184904722515
 20
480.0473642105547
 30
0.0
 11
85.91849047225151
 21
480.0473642105547
 31
0.0
  0
LINE
  5
6D0
102
{ACAD_REACTORS
330
766
102
}
330
1F
100
AcDbEntity
  8
実線
100
AcDbLine
 10
94.41849047225151
 20
467.0973642105547
 30
0.0
 11
86.51849047225141
 21
467.0973642105547
 31
0.0
  0
LINE
  5
6D1
102
{ACAD_REACTORS
330
766
102
}
330
1F
100
AcDbEntity
  8
実線
100
AcDbLine
 10
86.51849047225141
 20
474.9973642105547
 30
0.0
 11
94.41849047225151
 21
474.9973642105547
 31
0.0
  0
LINE
  5
6D2
102
{ACAD_REACTORS
330
766
102
}
330
1F
100
AcDbEntity
  8
実線
100
AcDbLine
 10
86.51849047225141
 20
467.0973642105547
 30
0.0
 11
86.51849047225141
 21
474.9973642105547
 31
0.0
  0
LINE
  5
6D3
102
{ACAD_REACTORS
330
766
102
}
330
1F
100
AcDbEntity
  8
実線
100
AcDbLine
 10
86.51849047225141
 20
486.4973642105546
 30
0.0
 11
94.41849047225151
 21
486.4973642105546
 31
0.0
  0
LINE
  5
6D4
102
{ACAD_REACTORS
330
766
102
}
330
1F
100
AcDbEntity
  8
実線
100
AcDbLine
 10
86.51849047225141
 20
478.5973642105545
 30
0.0
 11
86.51849047225141
 21
486.4973642105545
 31
0.0
  0
LINE
  5
6D5
102
{ACAD_REACTORS
330
766
102
}
330
1F
100
AcDbEntity
  8
実線
100
AcDbLine
 10
94.41849047225151
 20
478.5973642105545
 30
0.0
 11
86.51849047225141
 21
478.5973642105545
 31
0.0
  0
LINE
  5
6D6
102
{ACAD_REACTORS
330
766
102
}
330
1F
100
AcDbEntity
  8
実線
100
AcDbLine
 10
80.91849047225139
 20
485.0473642105547
 30
0.0
 11
80.91849047225139
 21
490.3473642105547
 31
0.0
  0
LINE
  5
6D7
102
{ACAD_REACTORS
330
766
102
}
330
1F
100
AcDbEntity
  8
実線
100
AcDbLine
 10
65.9184904722515
 20
490.3473642105545
 30
0.0
 11
65.9184904722515
 21
485.0473642105545
 31
0.0
  0
LINE
  5
6D8
102
{ACAD_REACTORS
330
766
102
}
330
1F
100
AcDbEntity
  8
実線
100
AcDbLine
 10
80.91849047225139
 20
490.3473642105545
 30
0.0
 11
65.9184904722515
 21
490.3473642105545
 31
0.0
  0
LINE
  5
6D9
102
{ACAD_REACTORS
330
766
102
}
330
1F
100
AcDbEntity
  8
実線
100
AcDbLine
 10
98.41849047225151
 20
451.5473642105547
 30
0.0
 11
98.41849047225151
 21
456.5473642105547
 31
0.0
  0
LINE
  5
6DA
102
{ACAD_REACTORS
330
766
102
}
330
1F
100
AcDbEntity
  8
実線
100
AcDbLine
 10
48.4184904722515
 20
456.5473642105547
 30
0.0
 11
48.4184904722515
 21
451.5473642105547
 31
0.0
  0
LINE
  5
6DB
102
{ACAD_REACTORS
330
766
102
}
330
1F
100
AcDbEntity
  8
実線
100
AcDbLine
 10
48.4184904722515
 20
456.5473642105547
 30
0.0
 11
98.41849047225151
 21
456.5473642105547
 31
0.0
  0
LINE
  5
6DC
102
{ACAD_REACTORS
330
766
102
}
330
1F
100
AcDbEntity
  8
実線
100
AcDbLine
 10
79.41849047225151
 20
458.5473642105547
 30
0.0
 11
79.41849047225151
 21
480.0473642105547
 31
0.0
  0
LINE
  5
6DD
102
{ACAD_REACTORS
330
766
102
}
330
1F
100
AcDbEntity
  8
実線
100
AcDbLine
 10
67.41849047225151
 20
480.0473642105547
 30
0.0
 11
67.41849047225151
 21
458.5473642105547
 31
0.0
  0
LINE
  5
6DE
102
{ACAD_REACTORS
330
766
102
}
330
1F
100
AcDbEntity
  8
実線
100
AcDbLine
 10
120.3956602411353
 20
290.0473642105548
 30
0.0
 11
26.44132070336775
 21
290.0473642105548
 31
0.0
  0
LINE
  5
6DF
102
{ACAD_REACTORS
330
766
102
}
330
1F
100
AcDbEntity
  8
実線
100
AcDbLine
 10
26.44132070336775
 20
290.0473642105548
 30
0.0
 11
26.44132070336775
 21
276.5473642105547
 31
0.0
  0
LINE
  5
6E0
102
{ACAD_REACTORS
330
766
102
}
330
1F
100
AcDbEntity
  8
実線
100
AcDbLine
 10
120.3956602411353
 20
276.5473642105547
 30
0.0
 11
120.3956602411353
 21
290.0473642105548
 31
0.0
  0
LINE
  5
6E1
102
{ACAD_REACTORS
330
766
102
}
330
1F
100
AcDbEntity
  8
実線
100
AcDbLine
 10
55.38959366182758
 20
290.0473642105548
 30
0.0
 11
55.38959366182758
 21
276.5473642105547
 31
0.0
  0
LINE
  5
6E2
102
{ACAD_REACTORS
330
766
102
}
330
1F
100
AcDbEntity
  8
実線
100
AcDbLine
 10
91.44738728267544
 20
290.0473642105548
 30
0.0
 11
91.44738728267544
 21
276.5473642105547
 31
0.0
  0
LINE
  5
6E3
102
{ACAD_REACTORS
330
766
102
}
330
1F
100
AcDbEntity
  8
実線
100
AcDbLine
 10
94.41849047225151
 20
458.5473642105074
 30
0.0
 11
48.4184904722515
 21
458.5473642105074
 31
0.0
  0
LINE
  5
6E4
102
{ACAD_REACTORS
330
766
102
}
330
1F
100
AcDbEntity
  8
実線
100
AcDbLine
 10
94.41849047225151
 20
487.5473642105547
 30
0.0
 11
94.41849047225151
 21
458.5473642105074
 31
0.0
  0
LINE
  5
6E5
102
{ACAD_REACTORS
330
766
102
}
330
1F
100
AcDbEntity
  8
実線
100
AcDbLine
 10
96.4184904722515
 20
487.5473642105547
 30
0.0
 11
94.41849047225151
 21
487.5473642105547
 31
0.0
  0
LINE
  5
6E6
102
{ACAD_REACTORS
330
766
102
}
330
1F
100
AcDbEntity
  8
実線
100
AcDbLine
 10
96.4184904722515
 20
456.5473642105547
 30
0.0
 11
96.4184904722515
 21
487.5473642105547
 31
0.0
  0
LINE
  5
6E7
102
{ACAD_REACTORS
330
766
102
}
330
1F
100
AcDbEntity
  8
実線
100
AcDbLine
 10
93.41849047225151
 20
458.5473642105547
 30
0.0
 11
93.41849047225151
 21
456.5473642105547
 31
0.0
  0
LINE
  5
6E8
102
{ACAD_REACTORS
330
766
102
}
330
1F
100
AcDbEntity
  8
実線
100
AcDbLine
 10
48.4184904722515
 20
458.5473642105547
 30
0.0
 11
48.4184904722515
 21
456.5473642105547
 31
0.0
  0
LINE
  5
6E9
102
{ACAD_REACTORS
330
766
102
}
330
1F
100
AcDbEntity
  8
実線
100
AcDbLine
 10
62.56849047225069
 20
225.8473642105547
 30
0.0
 11
46.41849047225071
 21
225.8473642105547
 31
0.0
  0
LINE
  5
6EA
102
{ACAD_REACTORS
330
766
102
}
330
1F
100
AcDbEntity
  8
実線
100
AcDbLine
 10
100.4184904722507
 20
225.8473642105547
 30
0.0
 11
84.26849047225074
 21
225.8473642105547
 31
0.0
  0
ARC
  5
6EB
102
{ACAD_REACTORS
330
766
102
}
330
1F
100
AcDbEntity
  8
実線
100
AcDbCircle
 10
46.41849047225071
 20
238.8473642105548
 30
0.0
 40
13.0
100
AcDbArc
 50
180.0
 51
270.0
  0
ARC
  5
6EC
102
{ACAD_REACTORS
330
766
102
}
330
1F
100
AcDbEntity
  8
実線
100
AcDbCircle
 10
100.4184904722507
 20
238.8473642105548
 30
0.0
 40
13.0
100
AcDbArc
 50
270.0
 51
0.0
  0
LINE
  5
6ED
102
{ACAD_REACTORS
330
766
102
}
330
1F
100
AcDbEntity
  8
実線
100
AcDbLine
 10
120.3956602411347
 20
276.5473642105547
 30
0.0
 11
26.44132070336695
 21
276.5473642105547
 31
0.0
  0
LINE
  5
6EE
102
{ACAD_REACTORS
330
766
102
}
330
1F
100
AcDbEntity
  8
実線
100
AcDbLine
 10
113.4184904722507
 20
238.8473642105548
 30
0.0
 11
113.4184904722507
 21
266.5473642105547
 31
0.0
  0
LINE
  5
6EF
102
{ACAD_REACTORS
330
766
102
}
330
1F
100
AcDbEntity
  8
実線
100
AcDbLine
 10
33.41849047225071
 20
266.5473642105547
 30
0.0
 11
33.41849047225071
 21
238.8473642105548
 31
0.0
  0
LINE
  5
6F0
102
{ACAD_REACTORS
330
766
102
}
330
1F
100
AcDbEntity
  8
実線
100
AcDbLine
 10
26.44132070336695
 20
276.5473642105547
 30
0.0
 11
26.44132070336695
 21
266.5473642105547
 31
0.0
  0
LINE
  5
6F1
102
{ACAD_REACTORS
330
766
102
}
330
1F
100
AcDbEntity
  8
実線
100
AcDbLine
 10
26.44132070336695
 20
266.5473642105547
 30
0.0
 11
55.38959366182666
 21
266.5473642105547
 31
0.0
  0
LINE
  5
6F2
102
{ACAD_REACTORS
330
766
102
}
330
1F
100
AcDbEntity
  8
実線
100
AcDbLine
 10
120.3956602411347
 20
266.5473642105547
 30
0.0
 11
91.44738728267475
 21
266.5473642105547
 31
0.0
  0
LINE
  5
6F3
102
{ACAD_REACTORS
330
766
102
}
330
1F
100
AcDbEntity
  8
実線
100
AcDbLine
 10
120.3956602411347
 20
266.5473642105547
 30
0.0
 11
120.3956602411347
 21
276.5473642105547
 31
0.0
  0
LINE
  5
6F4
102
{ACAD_REACTORS
330
766
102
}
330
1F
100
AcDbEntity
  8
実線
100
AcDbLine
 10
55.38959366182666
 20
276.5473642105547
 30
0.0
 11
55.38959366182666
 21
266.5473642105547
 31
0.0
  0
LINE
  5
6F5
102
{ACAD_REACTORS
330
766
102
}
330
1F
100
AcDbEntity
  8
実線
100
AcDbLine
 10
91.44738728267475
 20
276.5473642105547
 30
0.0
 11
91.44738728267475
 21
266.5473642105547
 31
0.0
  0
LINE
  5
6F6
102
{ACAD_REACTORS
330
766
102
}
330
1F
100
AcDbEntity
  8
実線
100
AcDbLine
 10
123.4184904722515
 20
436.5473642105548
 30
0.0
 11
123.4184904722515
 21
438.0473642105547
 31
0.0
  0
LINE
  5
6F7
102
{ACAD_REACTORS
330
766
102
}
330
1F
100
AcDbEntity
  8
実線
100
AcDbLine
 10
23.41849047225151
 20
438.0473642105547
 30
0.0
 11
23.41849047225151
 21
436.5473642105548
 31
0.0
  0
LINE
  5
6F8
102
{ACAD_REACTORS
330
766
102
}
330
1F
100
AcDbEntity
  8
実線
100
AcDbLine
 10
26.41849047225151
 20
441.0473642105547
 30
0.0
 11
120.4184904720869
 21
441.0473642105547
 31
0.0
  0
ARC
  5
6F9
102
{ACAD_REACTORS
330
766
102
}
330
1F
100
AcDbEntity
  8
実線
100
AcDbCircle
 10
120.4184904722515
 20
438.0473642105547
 30
0.0
 40
3.0
100
AcDbArc
 50
0.0
 51
90.0
  0
ARC
  5
6FA
102
{ACAD_REACTORS
330
766
102
}
330
1F
100
AcDbEntity
  8
実線
100
AcDbCircle
 10
26.41849047225151
 20
438.0473642105547
 30
0.0
 40
3.0
100
AcDbArc
 50
90.0
 51
180.0
  0
LINE
  5
6FB
102
{ACAD_REACTORS
330
766
102
}
330
1F
100
AcDbEntity
  8
実線
100
AcDbLine
 10
33.41849047225151
 20
360.5473642105547
 30
0.0
 11
33.41849047225151
 21
317.0473642105548
 31
0.0
  0
LINE
  5
6FC
102
{ACAD_REACTORS
330
766
102
}
330
1F
100
AcDbEntity
  8
実線
100
AcDbLine
 10
33.41849047225151
 20
317.0473642105548
 30
0.0
 11
62.1684904722515
 21
317.0473642105548
 31
0.0
  0
LINE
  5
6FD
102
{ACAD_REACTORS
330
766
102
}
330
1F
100
AcDbEntity
  8
実線
100
AcDbLine
 10
84.66849047225151
 20
317.0473642105548
 30
0.0
 11
113.4184904722515
 21
317.0473642105548
 31
0.0
  0
LINE
  5
6FE
102
{ACAD_REACTORS
330
766
102
}
330
1F
100
AcDbEntity
  8
実線
100
AcDbLine
 10
113.4184904722515
 20
317.0473642105548
 30
0.0
 11
113.4184904722515
 21
360.5473642105547
 31
0.0
  0
LINE
  5
6FF
102
{ACAD_REACTORS
330
766
102
}
330
1F
100
AcDbEntity
  8
実線
100
AcDbLine
 10
84.66849047225151
 20
360.5473642105547
 30
0.0
 11
84.66849047225151
 21
290.0473642105548
 31
0.0
  0
LINE
  5
700
102
{ACAD_REACTORS
330
766
102
}
330
1F
100
AcDbEntity
  8
実線
100
AcDbLine
 10
62.1684904722515
 20
360.5473642105547
 30
0.0
 11
62.1684904722515
 21
290.0473642105548
 31
0.0
  0
LINE
  5
701
102
{ACAD_REACTORS
330
765
102
}
330
1F
100
AcDbEntity
  8
実線
100
AcDbLine
 10
348.4184904722516
 20
441.0473642105547
 30
0.0
 11
348.4184904722516
 21
451.5473642105547
 31
0.0
  0
LINE
  5
702
102
{ACAD_REACTORS
330
765
102
}
330
1F
100
AcDbEntity
  8
実線
100
AcDbLine
 10
278.4184904722514
 20
451.5473642105547
 30
0.0
 11
278.4184904722514
 21
441.0473642105547
 31
0.0
  0
LINE
  5
703
102
{ACAD_REACTORS
330
765
102
}
330
1F
100
AcDbEntity
  8
実線
100
AcDbLine
 10
348.4184904722516
 20
451.5473642105547
 30
0.0
 11
278.4184904722514
 21
451.5473642105547
 31
0.0
  0
LINE
  5
704
102
{ACAD_REACTORS
330
765
102
}
330
1F
100
AcDbEntity
  8
実線
100
AcDbLine
 10
363.4184904722513
 20
360.5473642105547
 30
0.0
 11
263.4184904722514
 21
360.5473642105547
 31
0.0
  0
LINE
  5
705
102
{ACAD_REACTORS
330
765
102
}
330
1F
100
AcDbEntity
  8
実線
100
AcDbLine
 10
363.4184904722513
 20
360.5473642105547
 30
0.0
 11
363.4184904722513
 21
436.5473642105548
 31
0.0
  0
LINE
  5
706
102
{ACAD_REACTORS
330
765
102
}
330
1F
100
AcDbEntity
  8
実線
100
AcDbLine
 10
263.4184904722514
 20
436.5473642105548
 30
0.0
 11
263.4184904722514
 21
360.5473642105547
 31
0.0
  0
LINE
  5
707
102
{ACAD_REACTORS
330
765
102
}
330
1F
100
AcDbEntity
  8
実線
100
AcDbLine
 10
363.4184904722513
 20
436.5473642105548
 30
0.0
 11
263.4184904722514
 21
436.5473642105548
 31
0.0
  0
LINE
  5
708
102
{ACAD_REACTORS
330
765
102
}
330
1F
100
AcDbEntity
  8
実線
100
AcDbLine
 10
319.4184904722514
 20
290.0473642105548
 30
0.0
 11
319.4184904722514
 21
317.0473642105548
 31
0.0
  0
LINE
  5
709
102
{ACAD_REACTORS
330
765
102
}
330
1F
100
AcDbEntity
  8
実線
100
AcDbLine
 10
307.4184904722516
 20
317.0473642105548
 30
0.0
 11
307.4184904722516
 21
290.0473642105548
 31
0.0
  0
LINE
  5
70A
102
{ACAD_REACTORS
330
765
102
}
330
1F
100
AcDbEntity
  8
実線
100
AcDbLine
 10
248.5184904722506
 20
229.5973642105547
 30
0.0
 11
277.2840775190282
 21
229.5973642105547
 31
0.0
  0
LINE
  5
70B
102
{ACAD_REACTORS
330
765
102
}
330
1F
100
AcDbEntity
  8
実線
100
AcDbLine
 10
266.4413207033667
 20
267.6973642105547
 30
0.0
 11
248.5184904722506
 21
267.6973642105547
 31
0.0
  0
LINE
  5
70C
102
{ACAD_REACTORS
330
765
102
}
330
1F
100
AcDbEntity
  8
実線
100
AcDbLine
 10
243.4184904722507
 20
223.3973642105547
 30
0.0
 11
246.1684904722507
 21
223.3973642105547
 31
0.0
  0
LINE
  5
70D
102
{ACAD_REACTORS
330
765
102
}
330
1F
100
AcDbEntity
  8
実線
100
AcDbLine
 10
246.1684904722507
 20
273.8973642105547
 30
0.0
 11
243.4184904722507
 21
273.8973642105547
 31
0.0
  0
LINE
  5
70E
102
{ACAD_REACTORS
330
765
102
}
330
1F
100
AcDbEntity
  8
実線
100
AcDbLine
 10
243.4184904722507
 20
223.3973642105547
 30
0.0
 11
243.4184904722507
 21
273.8973642105547
 31
0.0
  0
LINE
  5
70F
102
{ACAD_REACTORS
330
765
102
}
330
1F
100
AcDbEntity
  8
実線
100
AcDbLine
 10
248.5184904722506
 20
267.6973642105547
 30
0.0
 11
246.1684904722507
 21
273.8973642105547
 31
0.0
  0
LINE
  5
710
102
{ACAD_REACTORS
330
765
102
}
330
1F
100
AcDbEntity
  8
実線
100
AcDbLine
 10
246.1684904722507
 20
223.3973642105547
 30
0.0
 11
248.5184904722506
 21
229.5973642105547
 31
0.0
  0
LINE
  5
711
102
{ACAD_REACTORS
330
765
102
}
330
1F
100
AcDbEntity
  8
実線
100
AcDbLine
 10
246.1684904722507
 20
273.8973642105547
 30
0.0
 11
246.1684904722507
 21
223.3973642105547
 31
0.0
  0
LINE
  5
712
102
{ACAD_REACTORS
330
765
102
}
330
1F
100
AcDbEntity
  8
実線
100
AcDbLine
 10
248.5184904722506
 20
267.6973642105547
 30
0.0
 11
248.5184904722506
 21
229.5973642105547
 31
0.0
  0
LINE
  5
713
102
{ACAD_REACTORS
330
765
102
}
330
1F
100
AcDbEntity
  8
実線
100
AcDbLine
 10
332.4684904722507
 20
183.7473642105547
 30
0.0
 11
332.4684904722507
 21
225.8473642105547
 31
0.0
  0
LINE
  5
714
102
{ACAD_REACTORS
330
765
102
}
330
1F
100
AcDbEntity
  8
実線
100
AcDbLine
 10
294.3684904722506
 20
225.8473642105547
 30
0.0
 11
294.3684904722506
 21
183.7473642105548
 31
0.0
  0
LINE
  5
715
102
{ACAD_REACTORS
330
765
102
}
330
1F
100
AcDbEntity
  8
実線
100
AcDbLine
 10
294.3684904722506
 20
183.7473642105547
 30
0.0
 11
288.1684904722507
 21
181.3973642105547
 31
0.0
  0
LINE
  5
716
102
{ACAD_REACTORS
330
765
102
}
330
1F
100
AcDbEntity
  8
実線
100
AcDbLine
 10
338.6684904722507
 20
181.3973642105547
 30
0.0
 11
332.4684904722507
 21
183.7473642105548
 31
0.0
  0
LINE
  5
717
102
{ACAD_REACTORS
330
765
102
}
330
1F
100
AcDbEntity
  8
実線
100
AcDbLine
 10
294.3684904722506
 20
183.7473642105547
 30
0.0
 11
332.4684904722507
 21
183.7473642105547
 31
0.0
  0
LINE
  5
718
102
{ACAD_REACTORS
330
765
102
}
330
1F
100
AcDbEntity
  8
実線
100
AcDbLine
 10
338.6684904722507
 20
178.6473642105547
 30
0.0
 11
338.6684904722507
 21
181.3973642105547
 31
0.0
  0
LINE
  5
719
102
{ACAD_REACTORS
330
765
102
}
330
1F
100
AcDbEntity
  8
実線
100
AcDbLine
 10
288.1684904722507
 20
181.3973642105547
 30
0.0
 11
288.1684904722507
 21
178.6473642105547
 31
0.0
  0
LINE
  5
71A
102
{ACAD_REACTORS
330
765
102
}
330
1F
100
AcDbEntity
  8
実線
100
AcDbLine
 10
338.6684904722507
 20
178.6473642105547
 30
0.0
 11
288.1684904722507
 21
178.6473642105547
 31
0.0
  0
LINE
  5
71B
102
{ACAD_REACTORS
330
765
102
}
330
1F
100
AcDbEntity
  8
実線
100
AcDbLine
 10
338.6684904722507
 20
181.3973642105547
 30
0.0
 11
288.1684904722507
 21
181.3973642105547
 31
0.0
  0
LINE
  5
71C
102
{ACAD_REACTORS
330
765
102
}
330
1F
100
AcDbEntity
  8
実線
100
AcDbLine
 10
300.9184904722513
 20
485.0473642105547
 30
0.0
 11
300.9184904722513
 21
480.0473642105547
 31
0.0
  0
LINE
  5
71D
102
{ACAD_REACTORS
330
765
102
}
330
1F
100
AcDbEntity
  8
実線
100
AcDbLine
 10
308.4184904722516
 20
485.0473642105547
 30
0.0
 11
300.9184904722513
 21
485.0473642105547
 31
0.0
  0
LINE
  5
71E
102
{ACAD_REACTORS
330
765
102
}
330
1F
100
AcDbEntity
  8
実線
100
AcDbLine
 10
308.4184904722516
 20
480.0473642105547
 30
0.0
 11
300.9184904722513
 21
480.0473642105547
 31
0.0
  0
LINE
  5
71F
102
{ACAD_REACTORS
330
765
102
}
330
1F
100
AcDbEntity
  8
実線
100
AcDbLine
 10
339.9184904722514
 20
484.0473642105547
 30
0.0
 11
339.9184904722514
 21
481.0473642105547
 31
0.0
  0
LINE
  5
720
102
{ACAD_REACTORS
330
765
102
}
330
1F
100
AcDbEntity
  8
実線
100
AcDbLine
 10
333.4184904722516
 20
481.0473642105547
 30
0.0
 11
339.9184904722514
 21
481.0473642105547
 31
0.0
  0
LINE
  5
721
102
{ACAD_REACTORS
330
765
102
}
330
1F
100
AcDbEntity
  8
実線
100
AcDbLine
 10
339.9184904722514
 20
484.0473642105547
 30
0.0
 11
333.4184904722516
 21
484.0473642105547
 31
0.0
  0
LINE
  5
722
102
{ACAD_REACTORS
330
765
102
}
330
1F
100
AcDbEntity
  8
実線
100
AcDbLine
 10
328.4184904722514
 20
474.9973642105547
 30
0.0
 11
333.4184904722516
 21
474.9973642105547
 31
0.0
  0
LINE
  5
723
102
{ACAD_REACTORS
330
765
102
}
330
1F
100
AcDbEntity
  8
実線
100
AcDbLine
 10
333.4184904722516
 20
467.0973642105547
 30
0.0
 11
333.4184904722516
 21
474.9973642105547
 31
0.0
  0
LINE
  5
724
102
{ACAD_REACTORS
330
765
102
}
330
1F
100
AcDbEntity
  8
実線
100
AcDbLine
 10
328.4184904722514
 20
467.0973642105547
 30
0.0
 11
333.4184904722516
 21
467.0973642105547
 31
0.0
  0
LINE
  5
725
102
{ACAD_REACTORS
330
765
102
}
330
1F
100
AcDbEntity
  8
実線
100
AcDbLine
 10
339.9184904722514
 20
472.5473642105547
 30
0.0
 11
339.9184904722514
 21
469.5473642105547
 31
0.0
  0
LINE
  5
726
102
{ACAD_REACTORS
330
765
102
}
330
1F
100
AcDbEntity
  8
実線
100
AcDbLine
 10
333.4184904722516
 20
469.5473642105547
 30
0.0
 11
339.9184904722514
 21
469.5473642105547
 31
0.0
  0
LINE
  5
727
102
{ACAD_REACTORS
330
765
102
}
330
1F
100
AcDbEntity
  8
実線
100
AcDbLine
 10
339.9184904722514
 20
472.5473642105547
 30
0.0
 11
333.4184904722516
 21
472.5473642105547
 31
0.0
  0
LINE
  5
728
102
{ACAD_REACTORS
330
765
102
}
330
1F
100
AcDbEntity
  8
実線
100
AcDbLine
 10
333.4184904722516
 20
478.5973642105545
 30
0.0
 11
333.4184904722516
 21
486.4973642105545
 31
0.0
  0
LINE
  5
729
102
{ACAD_REACTORS
330
765
102
}
330
1F
100
AcDbEntity
  8
実線
100
AcDbLine
 10
328.4184904722514
 20
478.5973642105545
 30
0.0
 11
333.4184904722516
 21
478.5973642105545
 31
0.0
  0
LINE
  5
72A
102
{ACAD_REACTORS
330
765
102
}
330
1F
100
AcDbEntity
  8
実線
100
AcDbLine
 10
328.4184904722514
 20
486.4973642105546
 30
0.0
 11
333.4184904722516
 21
486.4973642105546
 31
0.0
  0
LINE
  5
72B
102
{ACAD_REACTORS
330
765
102
}
330
1F
100
AcDbEntity
  8
実線
100
AcDbLine
 10
320.9184904722516
 20
487.5473642105547
 30
0.0
 11
320.9184904722516
 21
490.3473642105547
 31
0.0
  0
LINE
  5
72C
102
{ACAD_REACTORS
330
765
102
}
330
1F
100
AcDbEntity
  8
実線
100
AcDbLine
 10
305.9184904722514
 20
490.3473642105545
 30
0.0
 11
305.9184904722514
 21
485.0473642105545
 31
0.0
  0
LINE
  5
72D
102
{ACAD_REACTORS
330
765
102
}
330
1F
100
AcDbEntity
  8
実線
100
AcDbLine
 10
320.9184904722516
 20
490.3473642105545
 30
0.0
 11
305.9184904722514
 21
490.3473642105545
 31
0.0
  0
LINE
  5
72E
102
{ACAD_REACTORS
330
765
102
}
330
1F
100
AcDbEntity
  8
実線
100
AcDbLine
 10
338.4184904722513
 20
451.5473642105547
 30
0.0
 11
338.4184904722513
 21
456.5473642105547
 31
0.0
  0
LINE
  5
72F
102
{ACAD_REACTORS
330
765
102
}
330
1F
100
AcDbEntity
  8
実線
100
AcDbLine
 10
288.4184904722514
 20
456.5473642105547
 30
0.0
 11
288.4184904722514
 21
451.5473642105547
 31
0.0
  0
LINE
  5
730
102
{ACAD_REACTORS
330
765
102
}
330
1F
100
AcDbEntity
  8
実線
100
AcDbLine
 10
288.4184904722514
 20
456.5473642105547
 30
0.0
 11
323.2164494433842
 21
456.5473642105547
 31
0.0
  0
LINE
  5
731
102
{ACAD_REACTORS
330
765
102
}
330
1F
100
AcDbEntity
  8
実線
100
AcDbLine
 10
307.4184904722516
 20
480.0473642105547
 30
0.0
 11
307.4184904722516
 21
458.5473642105547
 31
0.0
  0
LINE
  5
732
102
{ACAD_REACTORS
330
765
102
}
330
1F
100
AcDbEntity
  8
実線
100
AcDbLine
 10
360.3956602411354
 20
290.0473642105548
 30
0.0
 11
266.4413207033677
 21
290.0473642105548
 31
0.0
  0
LINE
  5
733
102
{ACAD_REACTORS
330
765
102
}
330
1F
100
AcDbEntity
  8
実線
100
AcDbLine
 10
266.4413207033677
 20
290.0473642105548
 30
0.0
 11
266.4413207033677
 21
276.5473642105547
 31
0.0
  0
LINE
  5
734
102
{ACAD_REACTORS
330
765
102
}
330
1F
100
AcDbEntity
  8
実線
100
AcDbLine
 10
360.3956602411354
 20
276.5473642105547
 30
0.0
 11
360.3956602411354
 21
290.0473642105548
 31
0.0
  0
LINE
  5
735
102
{ACAD_REACTORS
330
765
102
}
330
1F
100
AcDbEntity
  8
実線
100
AcDbLine
 10
331.4473872826753
 20
290.0473642105548
 30
0.0
 11
331.4473872826753
 21
276.5473642105547
 31
0.0
  0
LINE
  5
736
102
{ACAD_REACTORS
330
765
102
}
330
1F
100
AcDbEntity
  8
実線
100
AcDbLine
 10
295.3895936618273
 20
290.0473642105548
 30
0.0
 11
295.3895936618273
 21
276.5473642105547
 31
0.0
  0
LINE
  5
737
102
{ACAD_REACTORS
330
765
102
}
330
1F
100
AcDbEntity
  8
実線
100
AcDbLine
 10
338.4184904722513
 20
456.5473642105547
 30
0.0
 11
323.2164494433842
 21
456.5473642105547
 31
0.0
  0
LINE
  5
738
102
{ACAD_REACTORS
330
765
102
}
330
1F
100
AcDbEntity
  8
実線
100
AcDbLine
 10
288.4184904722514
 20
458.5473642105547
 30
0.0
 11
308.4184904722516
 21
458.5473642105547
 31
0.0
  0
LINE
  5
739
102
{ACAD_REACTORS
330
765
102
}
330
1F
100
AcDbEntity
  8
実線
100
AcDbLine
 10
338.4184904722513
 20
456.5473642105547
 30
0.0
 11
338.4184904722513
 21
458.5473642105547
 31
0.0
  0
LINE
  5
73A
102
{ACAD_REACTORS
330
765
102
}
330
1F
100
AcDbEntity
  8
実線
100
AcDbLine
 10
288.4184904722514
 20
458.5473642105547
 30
0.0
 11
288.4184904722514
 21
456.5473642105547
 31
0.0
  0
LINE
  5
73B
102
{ACAD_REACTORS
330
765
102
}
330
1F
100
AcDbEntity
  8
実線
100
AcDbLine
 10
338.4184904722513
 20
458.5473642105547
 30
0.0
 11
328.4184904722514
 21
458.5473642105074
 31
0.0
  0
LINE
  5
73C
102
{ACAD_REACTORS
330
765
102
}
330
1F
100
AcDbEntity
  8
実線
100
AcDbLine
 10
298.4184904722516
 20
458.5473642105547
 30
0.0
 11
298.4184904722516
 21
456.5473642105547
 31
0.0
  0
LINE
  5
73D
102
{ACAD_REACTORS
330
765
102
}
330
1F
100
AcDbEntity
  8
実線
100
AcDbLine
 10
308.4184904722516
 20
456.5473642105547
 30
0.0
 11
308.4184904722516
 21
487.5473642105547
 31
0.0
  0
LINE
  5
73E
102
{ACAD_REACTORS
330
765
102
}
330
1F
100
AcDbEntity
  8
実線
100
AcDbLine
 10
328.4184904722514
 20
456.5473642105547
 30
0.0
 11
328.4184904722514
 21
487.5473642105547
 31
0.0
  0
LINE
  5
73F
102
{ACAD_REACTORS
330
765
102
}
330
1F
100
AcDbEntity
  8
実線
100
AcDbLine
 10
328.4184904722514
 20
487.5473642105547
 30
0.0
 11
308.4184904722516
 21
487.5473642105547
 31
0.0
  0
LINE
  5
740
102
{ACAD_REACTORS
330
765
102
}
330
1F
100
AcDbEntity
  8
実線
100
AcDbLine
 10
360.3956602411344
 20
276.5473642105547
 30
0.0
 11
266.4413207033667
 21
276.5473642105547
 31
0.0
  0
LINE
  5
741
102
{ACAD_REACTORS
330
765
102
}
330
1F
100
AcDbEntity
  8
実線
100
AcDbLine
 10
353.4184904722507
 20
238.8473642105548
 30
0.0
 11
353.4184904722507
 21
266.5473642105547
 31
0.0
  0
LINE
  5
742
102
{ACAD_REACTORS
330
765
102
}
330
1F
100
AcDbEntity
  8
実線
100
AcDbLine
 10
286.4184904722507
 20
225.8473642105547
 30
0.0
 11
340.4184904722507
 21
225.8473642105547
 31
0.0
  0
ARC
  5
743
102
{ACAD_REACTORS
330
765
102
}
330
1F
100
AcDbEntity
  8
実線
100
AcDbCircle
 10
286.4184904722507
 20
238.8473642105548
 30
0.0
 40
13.0
100
AcDbArc
 50
225.3602270413955
 51
270.0
  0
ARC
  5
744
102
{ACAD_REACTORS
330
765
102
}
330
1F
100
AcDbEntity
  8
実線
100
AcDbCircle
 10
340.4184904722507
 20
238.8473642105548
 30
0.0
 40
13.0
100
AcDbArc
 50
270.0
 51
0.0
  0
LINE
  5
745
102
{ACAD_REACTORS
330
765
102
}
330
1F
100
AcDbEntity
  8
実線
100
AcDbLine
 10
266.4413207033667
 20
276.5473642105547
 30
0.0
 11
266.4413207033667
 21
266.5473642105547
 31
0.0
  0
LINE
  5
746
102
{ACAD_REACTORS
330
765
102
}
330
1F
100
AcDbEntity
  8
実線
100
AcDbLine
 10
266.4413207033667
 20
266.5473642105547
 30
0.0
 11
295.3895936618268
 21
266.5473642105547
 31
0.0
  0
LINE
  5
747
102
{ACAD_REACTORS
330
765
102
}
330
1F
100
AcDbEntity
  8
実線
100
AcDbLine
 10
360.3956602411344
 20
266.5473642105547
 30
0.0
 11
331.4473872826748
 21
266.5473642105547
 31
0.0
  0
LINE
  5
748
102
{ACAD_REACTORS
330
765
102
}
330
1F
100
AcDbEntity
  8
実線
100
AcDbLine
 10
360.3956602411344
 20
266.5473642105547
 30
0.0
 11
360.3956602411344
 21
276.5473642105547
 31
0.0
  0
LINE
  5
749
102
{ACAD_REACTORS
330
765
102
}
330
1F
100
AcDbEntity
  8
実線
100
AcDbLine
 10
331.4473872826748
 20
276.5473642105547
 30
0.0
 11
331.4473872826748
 21
266.5473642105547
 31
0.0
  0
LINE
  5
74A
102
{ACAD_REACTORS
330
765
102
}
330
1F
100
AcDbEntity
  8
実線
100
AcDbLine
 10
295.3895936618268
 20
276.5473642105547
 30
0.0
 11
295.3895936618268
 21
266.5473642105547
 31
0.0
  0
LINE
  5
74B
102
{ACAD_REACTORS
330
765
102
}
330
1F
100
AcDbEntity
  8
実線
100
AcDbLine
 10
266.4184904722516
 20
441.0473642105547
 30
0.0
 11
360.4184904722514
 21
441.0473642105547
 31
0.0
  0
ARC
  5
74C
102
{ACAD_REACTORS
330
765
102
}
330
1F
100
AcDbEntity
  8
実線
100
AcDbCircle
 10
360.4184904722514
 20
438.0473642105547
 30
0.0
 40
3.0
100
AcDbArc
 50
0.0
 51
90.0
  0
ARC
  5
74D
102
{ACAD_REACTORS
330
765
102
}
330
1F
100
AcDbEntity
  8
実線
100
AcDbCircle
 10
266.4184904722516
 20
438.0473642105547
 30
0.0
 40
3.0
100
AcDbArc
 50
90.0
 51
180.0
  0
LINE
  5
74E
102
{ACAD_REACTORS
330
765
102
}
330
1F
100
AcDbEntity
  8
実線
100
AcDbLine
 10
363.4184904722513
 20
436.5473642105548
 30
0.0
 11
363.4184904722513
 21
438.0473642105547
 31
0.0
  0
LINE
  5
74F
102
{ACAD_REACTORS
330
765
102
}
330
1F
100
AcDbEntity
  8
実線
100
AcDbLine
 10
263.4184904722514
 20
438.0473642105547
 30
0.0
 11
263.4184904722514
 21
436.5473642105548
 31
0.0
  0
ARC
  5
750
102
{ACAD_REACTORS
330
765
102
}
330
1F
100
AcDbEntity
  8
実線
100
AcDbCircle
 10
287.7184904722515
 20
331.0473642105547
 30
0.0
 40
70.00000000000003
100
AcDbArc
 50
324.1465329365346
 51
0.0
  0
LINE
  5
751
102
{ACAD_REACTORS
330
765
102
}
330
1F
100
AcDbEntity
  8
実線
100
AcDbLine
 10
357.7184904722512
 20
360.5473642105547
 30
0.0
 11
357.7184904722512
 21
331.0473642105547
 31
0.0
  0
ARC
  5
752
102
{ACAD_REACTORS
330
765
102
}
330
1F
100
AcDbEntity
  8
実線
100
AcDbCircle
 10
289.7184904722516
 20
331.0473642105547
 30
0.0
 40
57.99999999999997
100
AcDbArc
 50
315.0170320400987
 51
346.0320373253493
  0
ARC
  5
753
102
{ACAD_REACTORS
330
765
102
}
330
1F
100
AcDbEntity
  8
実線
100
AcDbCircle
 10
339.1184904722515
 20
331.0473642105547
 30
0.0
 40
70.00000000000003
100
AcDbArc
 50
180.0
 51
215.8534670634654
  0
LINE
  5
754
102
{ACAD_REACTORS
330
765
102
}
330
1F
100
AcDbEntity
  8
実線
100
AcDbLine
 10
269.1184904722515
 20
360.5473642105547
 30
0.0
 11
269.1184904722515
 21
331.0473642105547
 31
0.0
  0
ARC
  5
755
102
{ACAD_REACTORS
330
765
102
}
330
1F
100
AcDbEntity
  8
実線
100
AcDbCircle
 10
337.1184904722515
 20
331.0473642105547
 30
0.0
 40
57.99999999999997
100
AcDbArc
 50
193.9679626746507
 51
224.9829679599013
  0
LINE
  5
756
102
{ACAD_REACTORS
330
765
102
}
330
1F
100
AcDbEntity
  8
実線
100
AcDbLine
 10
275.0331091402911
 20
317.0473642105548
 30
0.0
 11
351.8038718042117
 21
317.0473642105548
 31
0.0
  0
LINE
  5
757
102
{ACAD_REACTORS
330
765
102
}
330
1F
100
AcDbEntity
  8
実線
100
AcDbLine
 10
275.0331091402911
 20
360.5473642105547
 30
0.0
 11
275.0331091402911
 21
317.0473642105548
 31
0.0
  0
LINE
  5
758
102
{ACAD_REACTORS
330
765
102
}
330
1F
100
AcDbEntity
  8
実線
100
AcDbLine
 10
351.8038718042117
 20
360.5473642105547
 30
0.0
 11
351.8038718042117
 21
317.0473642105548
 31
0.0
  0
LINE
  5
760
102
{ACAD_REACTORS
330
765
102
}
330
1F
100
AcDbEntity
  8
中心線
100
AcDbLine
 10
313.4184904722507
 20
176.6473642105547
 30
0.0
 11
313.4184904722508
 21
497.2565047469798
 31
0.0
  0
LINE
  5
761
102
{ACAD_REACTORS
330
764
102
}
330
1F
100
AcDbEntity
  8
中心線
100
AcDbLine
 10
553.4184904722517
 20
176.6473642105549
 30
0.0
 11
553.4184904722515
 21
497.2565047469799
 31
0.0
  0
LINE
  5
762
102
{ACAD_REACTORS
330
763
102
}
330
1F
100
AcDbEntity
  8
中心線
100
AcDbLine
 10
793.4184904722505
 20
176.6473642105549
 30
0.0
 11
793.4184904722505
 21
497.2565047469799
 31
0.0
  0
ENDSEC
  0
SECTION
  2
OBJECTS
  0
DICTIONARY
  5
C
330
0
100
AcDbDictionary
281
     1
  3
ACAD_CIP_PREVIOUS_PRODUCT_INFO
350
26B
  3
ACAD_COLOR
350
261
  3
ACAD_DETAILVIEWSTYLE
350
264
  3
ACAD_GROUP
350
D
  3
ACAD_LAYOUT
350
1A
  3
ACAD_MATERIAL
350
43
  3
ACAD_MLEADERSTYLE
350
5B
  3
ACAD_MLINESTYLE
350
17
  3
ACAD_PLOTSETTINGS
350
19
  3
ACAD_PLOTSTYLENAME
350
E
  3
ACAD_SCALELIST
350
47
  3
ACAD_SECTIONVIEWSTYLE
350
262
  3
ACAD_TABLESTYLE
350
59
  3
ACAD_VISUALSTYLE
350
2A
  3
ACDB_RECOMPOSE_DATA
350
7FE
  3
AcDbVariableDictionary
350
216
  3
DWGPROPS
350
7FF
  0
DICTIONARY
  5
272
330
2
100
AcDbDictionary
280
     1
281
     1
  3
ACAD_LAYERSTATES
360
273
  0
DICTIONARY
  5
769
330
10
100
AcDbDictionary
280
     1
281
     1
  3
ADSK_XREC_LAYER_RECONCILED
360
76A
  0
DICTIONARY
  5
26E
330
26D
100
AcDbDictionary
280
     1
281
     1
  3
ADSK_XREC_LAYER_RECONCILED
360
76B
  0
DICTIONARY
  5
270
330
26F
100
AcDbDictionary
280
     1
281
     1
  3
ADSK_XREC_LAYER_RECONCILED
360
76C
  0
DICTIONARY
  5
5EF
330
1F
100
AcDbDictionary
280
     1
281
     1
  3
ACAD_SORTENTS
360
5F0
  0
XRECORD
  5
26B
102
{ACAD_REACTORS
330
C
102
}
330
C
100
AcDbXrecord
280
     1
300
ACDLT
300
2016
300
ACDLT_F_S
  0
DICTIONARY
  5
261
102
{ACAD_REACTORS
330
C
102
}
330
C
100
AcDbDictionary
281
     1
  0
DICTIONARY
  5
264
102
{ACAD_REACTORS
330
C
102
}
330
C
100
AcDbDictionary
281
     1
  3
Metric50
350
265
  0
DICTIONARY
  5
D
102
{ACAD_REACTORS
330
C
102
}
330
C
100
AcDbDictionary
281
     1
  3
*A1
350
763
  3
*A2
350
764
  3
*A3
350
765
  3
*A4
350
766
  3
*A5
350
767
  3
*A6
350
768
  0
DICTIONARY
  5
1A
102
{ACAD_REACTORS
330
C
102
}
330
C
100
AcDbDictionary
281
     1
  3
Layout1
350
1E
  3
Model
350
22
  3
レイアウト1
350
266
  0
DICTIONARY
  5
43
102
{ACAD_REACTORS
330
C
102
}
330
C
100
AcDbDictionary
281
     1
  3
ByBlock
350
45
  3
ByLayer
350
44
  3
Global
350
46
  0
DICTIONARY
  5
5B
102
{ACAD_REACTORS
330
C
102
}
330
C
100
AcDbDictionary
281
     1
  3
Standard
350
5C
  0
DICTIONARY
  5
17
102
{ACAD_REACTORS
330
C
102
}
330
C
100
AcDbDictionary
281
     1
  3
Standard
350
18
  0
DICTIONARY
  5
19
102
{ACAD_REACTORS
330
C
102
}
330
C
100
AcDbDictionary
281
     1
  0
ACDBDICTIONARYWDFLT
  5
E
102
{ACAD_REACTORS
330
C
102
}
330
C
100
AcDbDictionary
281
     1
  3
Normal
350
F
100
AcDbDictionaryWithDefault
340
F
  0
DICTIONARY
  5
47
102
{ACAD_REACTORS
330
C
102
}
330
C
100
AcDbDictionary
281
     1
  3
A0
350
48
  3
A1
350
49
  3
A2
350
4A
  3
A3
350
4B
  3
A4
350
4C
  3
A5
350
4D
  3
A6
350
4E
  3
A7
350
4F
  3
A8
350
50
  3
A9
350
51
  3
B0
350
52
  3
B1
350
53
  3
B2
350
54
  3
B3
350
55
  3
B4
350
56
  3
B5
350
57
  3
B6
350
58
  0
DICTIONARY
  5
262
102
{ACAD_REACTORS
330
C
102
}
330
C
100
AcDbDictionary
281
     1
  3
Metric50
350
263
  0
DICTIONARY
  5
59
102
{ACAD_REACTORS
330
C
102
}
330
C
100
AcDbDictionary
281
     1
  3
Standard
350
5A
  0
DICTIONARY
  5
2A
102
{ACAD_REACTORS
330
C
102
}
330
C
100
AcDbDictionary
281
     1
  3
2dWireframe
350
2F
  3
Basic
350
32
  3
Brighten
350
36
  3
ColorChange
350
3A
  3
Conceptual
350
34
  3
Dim
350
35
  3
EdgeColorOff
350
3D
  3
Facepattern
350
39
  3
Flat
350
2B
  3
FlatWithEdges
350
2C
  3
Gouraud
350
2D
  3
GouraudWithEdges
350
2E
  3
Hidden
350
31
  3
JitterOff
350
3B
  3
Linepattern
350
38
  3
OverhangOff
350
3C
  3
Realistic
350
33
  3
Shaded
350
42
  3
Shaded with edges
350
41
  3
Shades of Gray
350
3E
  3
Sketchy
350
3F
  3
Thicken
350
37
  3
Wireframe
350
30
  3
X-Ray
350
40
  0
XRECORD
  5
7FE
102
{ACAD_REACTORS
330
C
102
}
330
C
100
AcDbXrecord
280
     1
 90
        1
330
5A
  0
DICTIONARY
  5
216
102
{ACAD_REACTORS
330
C
102
}
330
C
100
AcDbDictionary
281
     1
  3
CANNOSCALE
350
224
  3
CENTEREXE
350
21D
  3
CENTERLTYPEFILE
350
21E
  3
CMLEADERSTYLE
350
218
  3
CTABLESTYLE
350
217
  3
CVIEWDETAILSTYLE
350
76D
  3
CVIEWSECTIONSTYLE
350
76E
  3
DIMASSOC
350
21F
  3
HIDETEXT
350
220
  3
INDEXCTL
350
7B8
  3
LAYEREVAL
350
770
  3
LAYERNOTIFY
350
771
  3
LIGHTINGUNITS
350
76F
  3
LOFTANG1
350
7BB
  3
LOFTANG2
350
7BC
  3
LONGITUDE
350
7BD
  3
MSLTSCALE
350
225
  3
PSOLHEIGHT
350
7BA
  3
PSOLWIDTH
350
7B9
  3
SORTENTS
350
7B7
  3
XCLIPFRAME
350
7BE
  0
XRECORD
  5
7FF
102
{ACAD_REACTORS
330
C
102
}
330
C
100
AcDbXrecord
280
     1
  1
DWGPROPS COOKIE
  2

  3

  4

  6
File was created by TR2_DExp
  7

  8
fujino
  9

300
=
301
=
302
=
303
=
304
=
305
=
306
=
307
=
308
=
309
=
 40
0.0068921759259259
 41
2455188.75
 42
2459747.327028276
  1

 90
        0
  0
DICTIONARY
  5
273
102
{ACAD_REACTORS
330
272
102
}
330
272
100
AcDbDictionary
281
     1
  0
XRECORD
  5
76A
102
{ACAD_REACTORS
330
769
102
}
330
769
100
AcDbXrecord
280
     1
290
     1
  0
XRECORD
  5
76B
102
{ACAD_REACTORS
330
26E
102
}
330
26E
100
AcDbXrecord
280
     1
290
     1
  0
XRECORD
  5
76C
102
{ACAD_REACTORS
330
270
102
}
330
270
100
AcDbXrecord
280
     1
290
     1
  0
SORTENTSTABLE
  5
5F0
102
{ACAD_REACTORS
330
5EF
102
}
330
5EF
100
AcDbSortentsTable
330
1F
331
694
  5
4DF
331
655
  5
543
331
651
  5
53F
331
690
  5
4DB
331
73D
  5
459
331
64D
  5
53B
331
68C
  5
4D7
331
5DF
  5
5A4
331
626
  5
514
331
622
  5
510
331
739
  5
455
331
649
  5
537
331
5DB
  5
5A0
331
688
  5
4D3
331
61E
  5
50C
331
735
  5
451
331
5D7
  5
59C
331
5D3
  5
598
331
61A
  5
508
331
731
  5
44D
331
6C7
  5
481
331
706
  5
422
331
762
  5
762
331
6C3
  5
47D
331
702
  5
41E
331
6FE
  5
4B8
331
6BF
  5
479
331
6FA
  5
4B4
331
6BB
  5
475
331
684
  5
4CF
331
645
  5
533
331
641
  5
52F
331
680
  5
4CB
331
72D
  5
449
331
63D
  5
52B
331
67C
  5
4C7
331
5CF
  5
594
331
616
  5
583
331
729
  5
445
331
639
  5
527
331
678
  5
4C3
331
5CB
  5
590
331
612
  5
57F
331
60E
  5
57B
331
725
  5
441
331
5C7
  5
58C
331
5C3
  5
588
331
60A
  5
577
331
721
  5
43D
331
6B7
  5
502
331
6F6
  5
4B0
331
6B3
  5
4FE
331
6F2
  5
4AC
331
6AF
  5
4FA
331
6EE
  5
4A8
331
6EA
  5
4A4
331
6AB
  5
4F6
331
674
  5
4BF
331
635
  5
523
331
631
  5
51F
331
670
  5
4BB
331
66C
  5
55A
331
606
  5
573
331
71D
  5
439
331
719
  5
435
331
668
  5
556
331
602
  5
56F
331
5FE
  5
56B
331
715
  5
431
331
754
  5
470
331
5FA
  5
567
331
711
  5
42D
331
750
  5
46C
331
5EE
  5
5B3
331
5EA
  5
5AF
331
6A7
  5
4F2
331
6E6
  5
4A0
331
6A3
  5
4EE
331
6E2
  5
49C
331
6DE
  5
498
331
6DA
  5
494
331
664
  5
552
331
660
  5
54E
331
69F
  5
4EA
331
74C
  5
468
331
65C
  5
54A
331
5F6
  5
563
331
69B
  5
4E6
331
748
  5
464
331
658
  5
546
331
5F2
  5
55F
331
5E6
  5
5AB
331
62D
  5
51B
331
744
  5
460
331
5E2
  5
5A7
331
629
  5
517
331
740
  5
45C
331
5BD
  5
756
331
6D6
  5
490
331
5B9
  5
752
331
6D2
  5
48C
331
70D
  5
429
331
6CE
  5
488
331
6CA
  5
484
331
709
  5
425
331
697
  5
4E2
331
654
  5
542
331
693
  5
4DE
331
650
  5
53E
331
68F
  5
4DA
331
73C
  5
458
331
64C
  5
53A
331
68B
  5
4D6
331
5DE
  5
5A3
331
625
  5
513
331
621
  5
50F
331
738
  5
454
331
648
  5
536
331
5DA
  5
59F
331
5D6
  5
59B
331
61D
  5
50B
331
734
  5
450
331
5D2
  5
597
331
619
  5
507
331
730
  5
44C
331
6C6
  5
480
331
705
  5
421
331
761
  5
761
331
6C2
  5
47C
331
701
  5
41D
331
6FD
  5
4B7
331
6BE
  5
478
331
6BA
  5
505
331
6F9
  5
4B3
331
687
  5
4D2
331
683
  5
4CE
331
644
  5
532
331
640
  5
52E
331
67F
  5
4CA
331
72C
  5
448
331
63C
  5
52A
331
67B
  5
4C6
331
5CE
  5
593
331
615
  5
582
331
611
  5
57E
331
728
  5
444
331
638
  5
526
331
5CA
  5
58F
331
60D
  5
57A
331
724
  5
440
331
5C6
  5
58B
331
5C2
  5
587
331
609
  5
576
331
720
  5
43C
331
6B6
  5
501
331
6F5
  5
4AF
331
6B2
  5
4FD
331
6F1
  5
4AB
331
6ED
  5
4A7
331
6AE
  5
4F9
331
6E9
  5
4A3
331
6AA
  5
4F5
331
677
  5
4C2
331
673
  5
4BE
331
634
  5
522
331
630
  5
51E
331
66F
  5
55D
331
71C
  5
438
331
66B
  5
559
331
605
  5
572
331
718
  5
434
331
757
  5
473
331
601
  5
56E
331
5FD
  5
56A
331
714
  5
430
331
753
  5
46F
331
5F9
  5
566
331
710
  5
42C
331
5ED
  5
5B2
331
5E9
  5
5AE
331
6A6
  5
4F1
331
6E5
  5
49F
331
6A2
  5
4ED
331
6E1
  5
49B
331
6DD
  5
497
331
6D9
  5
493
331
667
  5
555
331
663
  5
551
331
74F
  5
46B
331
65F
  5
54D
331
69E
  5
4E9
331
74B
  5
467
331
65B
  5
549
331
5F5
  5
562
331
69A
  5
4E5
331
747
  5
463
331
5F1
  5
55E
331
5E5
  5
5AA
331
62C
  5
51A
331
743
  5
45F
331
5E1
  5
5A6
331
628
  5
516
331
5BC
  5
755
331
6D5
  5
48F
331
5B8
  5
751
331
6D1
  5
48B
331
70C
  5
428
331
6CD
  5
487
331
6C9
  5
483
331
708
  5
424
331
696
  5
4E1
331
657
  5
545
331
653
  5
541
331
692
  5
4DD
331
64F
  5
53D
331
68E
  5
4D9
331
73F
  5
45B
331
73B
  5
457
331
64B
  5
539
331
68A
  5
4D5
331
5DD
  5
5A2
331
624
  5
512
331
620
  5
50E
331
737
  5
453
331
5D9
  5
59E
331
5D5
  5
59A
331
61C
  5
50A
331
733
  5
44F
331
5D1
  5
596
331
618
  5
506
331
5B4
  5
74D
331
6C5
  5
47F
331
704
  5
420
331
760
  5
760
331
6C1
  5
47B
331
700
  5
4BA
331
6FC
  5
4B6
331
6BD
  5
477
331
6B9
  5
504
331
6F8
  5
4B2
331
686
  5
4D1
331
647
  5
535
331
643
  5
531
331
682
  5
4CD
331
63F
  5
52D
331
67E
  5
4C9
331
72F
  5
44B
331
72B
  5
447
331
63B
  5
529
331
67A
  5
4C5
331
5CD
  5
592
331
614
  5
581
331
610
  5
57D
331
727
  5
443
331
5C9
  5
58E
331
5C5
  5
58A
331
60C
  5
579
331
723
  5
43F
331
5C1
  5
586
331
608
  5
575
331
6B5
  5
500
331
6F4
  5
4AE
331
6B1
  5
4FC
331
6F0
  5
4AA
331
6EC
  5
4A6
331
6AD
  5
4F8
331
6A9
  5
4F4
331
6E8
  5
4A2
331
676
  5
4C1
331
637
  5
525
331
672
  5
4BD
331
633
  5
521
331
66E
  5
55C
331
71F
  5
43B
331
71B
  5
437
331
66A
  5
558
331
604
  5
571
331
600
  5
56D
331
717
  5
433
331
756
  5
472
331
5FC
  5
569
331
713
  5
42F
331
752
  5
46E
331
5F8
  5
565
331
5EC
  5
5B1
331
5E8
  5
5AD
331
6A5
  5
4F0
331
6E4
  5
49E
331
6A1
  5
4EC
331
6E0
  5
49A
331
6DC
  5
496
331
6D8
  5
492
331
666
  5
554
331
662
  5
550
331
74E
  5
46A
331
65E
  5
54C
331
69D
  5
4E8
331
74A
  5
466
331
65A
  5
548
331
5F4
  5
561
331
699
  5
4E4
331
62F
  5
51D
331
746
  5
462
331
5E4
  5
5A9
331
62B
  5
519
331
742
  5
45E
331
5E0
  5
5A5
331
5BF
  5
758
331
5BB
  5
754
331
6D4
  5
48E
331
70F
  5
42B
331
758
  5
474
331
6D0
  5
48A
331
70B
  5
427
331
6CC
  5
486
331
6C8
  5
482
331
695
  5
4E0
331
656
  5
544
331
652
  5
540
331
691
  5
4DC
331
73E
  5
45A
331
64E
  5
53C
331
68D
  5
4D8
331
627
  5
515
331
73A
  5
456
331
64A
  5
538
331
689
  5
4D4
331
5DC
  5
5A1
331
623
  5
511
331
61F
  5
50D
331
736
  5
452
331
5D8
  5
59D
331
5D4
  5
599
331
61B
  5
509
331
732
  5
44E
331
5D0
  5
595
331
707
  5
423
331
6C4
  5
47E
331
703
  5
41F
331
6C0
  5
47A
331
6FF
  5
4B9
331
6FB
  5
4B5
331
6BC
  5
476
331
6B8
  5
503
331
685
  5
4D0
331
646
  5
534
331
642
  5
530
331
681
  5
4CC
331
63E
  5
52C
331
67D
  5
4C8
331
617
  5
584
331
72E
  5
44A
331
72A
  5
446
331
63A
  5
528
331
679
  5
4C4
331
5CC
  5
591
331
613
  5
580
331
60F
  5
57C
331
726
  5
442
331
5C8
  5
58D
331
5C4
  5
589
331
60B
  5
578
331
722
  5
43E
331
5C0
  5
585
331
6F7
  5
4B1
331
6B4
  5
4FF
331
6F3
  5
4AD
331
6B0
  5
4FB
331
6EF
  5
4A9
331
6EB
  5
4A5
331
6AC
  5
4F7
331
6A8
  5
4F3
331
675
  5
4C0
331
636
  5
524
331
632
  5
520
331
671
  5
4BC
331
66D
  5
55B
331
607
  5
574
331
71E
  5
43A
331
71A
  5
436
331
669
  5
557
331
603
  5
570
331
5FF
  5
56C
331
716
  5
432
331
755
  5
471
331
5FB
  5
568
331
712
  5
42E
331
751
  5
46D
331
5EB
  5
5B0
331
6E7
  5
4A1
331
6A4
  5
4EF
331
6E3
  5
49D
331
6A0
  5
4EB
331
6DF
  5
499
331
6DB
  5
495
331
665
  5
553
331
661
  5
54F
331
74D
  5
469
331
65D
  5
54B
331
5F7
  5
564
331
69C
  5
4E7
331
698
  5
4E3
331
749
  5
465
331
659
  5
547
331
5F3
  5
560
331
5E7
  5
5AC
331
62E
  5
51C
331
745
  5
461
331
5E3
  5
5A8
331
62A
  5
518
331
741
  5
45D
331
6D7
  5
491
331
5BE
  5
757
331
5BA
  5
753
331
6D3
  5
48D
331
70E
  5
42A
331
6CF
  5
489
331
6CB
  5
485
331
70A
  5
426
  0
ACDBDETAILVIEWSTYLE
  5
265
102
{ACAD_XDICTIONARY
360
837
102
}
102
{ACAD_REACTORS
330
264
102
}
330
264
100
AcDbModelDocViewStyle
 70
     0
  3
Metric50
290
     0
100
AcDbDetailViewStyle
 70
     0
 71
     0
 90
        3
 71
     1
340
11
 40
5.0
340
0
 40
5.0
300

 40
0.0
280
     1
 71
     2
340
16
 90
       25
 71
     3
340
11
 40
5.0
 90
        0
 40
15.0
 90
        1
300
%<\AcVar ViewDetailId>% (%<\AcVar ViewScale \f "%sn">%)
 71
     4
340
16
 90
       25
340
16
 90
       25
280
     0
  0
GROUP
  5
763
102
{ACAD_REACTORS
330
D
102
}
330
D
100
AcDbGroup
300

 70
     1
 71
     1
340
762
340
5BF
340
66F
340
66E
340
66D
340
66C
340
66B
340
66A
340
669
340
668
340
667
340
666
340
665
340
664
340
663
340
662
340
661
340
660
340
65F
340
65E
340
65D
340
65C
340
65B
340
65A
340
659
340
658
340
657
340
656
340
655
340
654
340
653
340
652
340
651
340
650
340
64F
340
64E
340
64D
340
64C
340
64B
340
64A
340
649
340
648
340
647
340
646
340
645
340
644
340
643
340
642
340
641
340
640
340
63F
340
63E
340
63D
340
63C
340
63B
340
63A
340
639
340
638
340
637
340
636
340
635
340
634
340
633
340
632
340
631
340
630
340
62F
340
62E
340
62D
340
62C
340
62B
340
62A
340
629
340
628
340
627
340
626
340
625
340
624
340
623
340
622
340
621
340
620
340
61F
340
61E
340
61D
340
61C
340
61B
340
61A
340
619
340
618
  0
GROUP
  5
764
102
{ACAD_REACTORS
330
D
102
}
330
D
100
AcDbGroup
300

 70
     1
 71
     1
340
761
340
5BE
340
6BA
340
6B9
340
6B8
340
6B7
340
6B6
340
6B5
340
6B4
340
6B3
340
6B2
340
6B1
340
6B0
340
6AF
340
6AE
340
6AD
340
6AC
340
6AB
340
6AA
340
6A9
340
6A8
340
6A7
340
6A6
340
6A5
340
6A4
340
6A3
340
6A2
340
6A1
340
6A0
340
69F
340
69E
340
69D
340
69C
340
69B
340
69A
340
699
340
698
340
697
340
696
340
695
340
694
340
693
340
692
340
691
340
690
340
68F
340
68E
340
68D
340
68C
340
68B
340
68A
340
689
340
688
340
687
340
686
340
685
340
684
340
683
340
682
340
681
340
680
340
67F
340
67E
340
67D
340
67C
340
67B
340
67A
340
679
340
678
340
677
340
676
340
675
340
674
340
673
340
672
340
671
340
670
  0
GROUP
  5
765
102
{ACAD_REACTORS
330
D
102
}
330
D
100
AcDbGroup
300

 70
     1
 71
     1
340
760
340
5BD
340
758
340
757
340
756
340
755
340
754
340
753
340
752
340
751
340
750
340
74F
340
74E
340
74D
340
74C
340
74B
340
74A
340
749
340
748
340
747
340
746
340
745
340
744
340
743
340
742
340
741
340
740
340
73F
340
73E
340
73D
340
73C
340
73B
340
73A
340
739
340
738
340
737
340
736
340
735
340
734
340
733
340
732
340
731
340
730
340
72F
340
72E
340
72D
340
72C
340
72B
340
72A
340
729
340
728
340
727
340
726
340
725
340
724
340
723
340
722
340
721
340
720
340
71F
340
71E
340
71D
340
71C
340
71B
340
71A
340
719
340
718
340
717
340
716
340
715
340
714
340
713
340
712
340
711
340
710
340
70F
340
70E
340
70D
340
70C
340
70B
340
70A
340
709
340
708
340
707
340
706
340
705
340
704
340
703
340
702
340
701
  0
GROUP
  5
766
102
{ACAD_REACTORS
330
D
102
}
330
D
100
AcDbGroup
300

 70
     1
 71
     1
340
5BC
340
5B4
340
700
340
6FF
340
6FE
340
6FD
340
6FC
340
6FB
340
6FA
340
6F9
340
6F8
340
6F7
340
6F6
340
6F5
340
6F4
340
6F3
340
6F2
340
6F1
340
6F0
340
6EF
340
6EE
340
6ED
340
6EC
340
6EB
340
6EA
340
6E9
340
6E8
340
6E7
340
6E6
340
6E5
340
6E4
340
6E3
340
6E2
340
6E1
340
6E0
340
6DF
340
6DE
340
6DD
340
6DC
340
6DB
340
6DA
340
6D9
340
6D8
340
6D7
340
6D6
340
6D5
340
6D4
340
6D3
340
6D2
340
6D1
340
6D0
340
6CF
340
6CE
340
6CD
340
6CC
340
6CB
340
6CA
340
6C9
340
6C8
340
6C7
340
6C6
340
6C5
340
6C4
340
6C3
340
6C2
340
6C1
340
6C0
340
6BF
340
6BE
340
6BD
340
6BC
340
6BB
  0
GROUP
  5
767
102
{ACAD_REACTORS
330
D
102
}
330
D
100
AcDbGroup
300

 70
     1
 71
     1
340
5B9
340
5B8
340
5EE
340
5ED
340
5EC
340
5EB
340
5EA
340
5E9
340
5E8
340
5E7
340
5E6
340
5E5
340
5E4
340
5E3
340
5E2
340
5E1
340
5E0
340
5DF
340
5DE
340
5DD
340
5DC
340
5DB
340
5DA
340
5D9
340
5D8
340
5D7
340
5D6
340
5D5
340
5D4
340
5D3
340
5D2
340
5D1
340
5D0
340
5CF
340
5CE
340
5CD
340
5CC
340
5CB
340
5CA
340
5C9
340
5C8
340
5C7
340
5C6
340
5C5
340
5C4
340
5C3
340
5C2
340
5C1
340
5C0
  0
GROUP
  5
768
102
{ACAD_REACTORS
330
D
102
}
330
D
100
AcDbGroup
300

 70
     1
 71
     1
340
5BB
340
5BA
340
617
340
616
340
615
340
614
340
613
340
612
340
611
340
610
340
60F
340
60E
340
60D
340
60C
340
60B
340
60A
340
609
340
608
340
607
340
606
340
605
340
604
340
603
340
602
340
601
340
600
340
5FF
340
5FE
340
5FD
340
5FC
340
5FB
340
5FA
340
5F9
340
5F8
340
5F7
340
5F6
340
5F5
340
5F4
340
5F3
340
5F2
340
5F1
  0
LAYOUT
  5
1E
102
{ACAD_XDICTIONARY
360
800
102
}
102
{ACAD_REACTORS
330
1A
102
}
330
1A
100
AcDbPlotSettings
  1

  2
none_device
  4

  6

 40
0.0
 41
0.0
 42
0.0
 43
0.0
 44
0.0
 45
0.0
 46
0.0
 47
0.0
 48
0.0
 49
0.0
140
0.0
141
0.0
142
1.0
143
1.0
 70
   688
 72
     1
 73
     0
 74
     5
  7

 75
    16
147
1.0
148
0.0
149
0.0
100
AcDbLayout
  1
Layout1
 70
     1
 71
     1
 10
0.0
 20
0.0
 11
420.0
 21
297.0
 12
0.0
 22
0.0
 32
0.0
 14
1.000000000000000E+20
 24
1.000000000000000E+20
 34
1.000000000000000E+20
 15
-1.000000000000000E+20
 25
-1.000000000000000E+20
 35
-1.000000000000000E+20
146
0.0
 13
0.0
 23
0.0
 33
0.0
 16
1.0
 26
0.0
 36
0.0
 17
0.0
 27
1.0
 37
0.0
 76
     0
330
1B
  0
LAYOUT
  5
22
102
{ACAD_XDICTIONARY
360
802
102
}
102
{ACAD_REACTORS
330
1A
102
}
330
1A
100
AcDbPlotSettings
  1

  2
none_device
  4
Letter_(8.50_x_11.00_Inches)
  6

 40
6.349999999999998
 41
6.349999999999998
 42
6.350005079999998
 43
6.350005079999998
 44
215.9
 45
279.4
 46
0.0
 47
0.0
 48
0.0
 49
0.0
140
0.0
141
0.0
142
1.0
143
1.0
 70
  1712
 72
     1
 73
     0
 74
     0
  7

 75
     0
147
1.0
148
0.0
149
0.0
100
AcDbLayout
  1
Model
 70
     1
 71
     0
 10
-525.5934448242189
 20
-478.319709777832
 11
1287.593627929688
 21
609.8501205444335
 12
0.0
 22
0.0
 32
0.0
 14
-525.5934448242189
 24
-478.319709777832
 34
0.0
 15
1287.593627929688
 25
609.8501205444335
 35
0.0
146
0.0
 13
0.0
 23
0.0
 33
0.0
 16
1.0
 26
0.0
 36
0.0
 17
0.0
 27
1.0
 37
0.0
 76
     0
330
1F
331
29
  0
LAYOUT
  5
266
102
{ACAD_XDICTIONARY
360
839
102
}
102
{ACAD_REACTORS
330
1A
102
}
330
1A
100
AcDbPlotSettings
  1

  2
青梅 FX DocuCentre-V C2275 T2
  4

  6

 40
0.0
 41
0.0
 42
0.0
 43
0.0
 44
0.0
 45
0.0
 46
0.0
 47
0.0
 48
0.0
 49
0.0
140
0.0
141
0.0
142
1.0
143
1.0
 70
   688
 72
     0
 73
     0
 74
     5
  7
AutoCAD_PEN.ctb
 75
    16
147
1.0
148
0.0
149
0.0
100
AcDbLayout
  1
レイアウト1
 70
     1
 71
     2
 10
0.0
 20
0.0
 11
12.0
 21
9.0
 12
0.0
 22
0.0
 32
0.0
 14
0.0
 24
0.0
 34
0.0
 15
0.0
 25
0.0
 35
0.0
146
0.0
 13
0.0
 23
0.0
 33
0.0
 16
1.0
 26
0.0
 36
0.0
 17
0.0
 27
1.0
 37
0.0
 76
     0
330
23
  0
MATERIAL
  5
45
102
{ACAD_XDICTIONARY
360
258
102
}
102
{ACAD_REACTORS
330
43
102
}
330
43
100
AcDbMaterial
  1
ByBlock
  0
MATERIAL
  5
44
102
{ACAD_XDICTIONARY
360
256
102
}
102
{ACAD_REACTORS
330
43
102
}
330
43
100
AcDbMaterial
  1
ByLayer
  0
MATERIAL
  5
46
102
{ACAD_XDICTIONARY
360
25A
102
}
102
{ACAD_REACTORS
330
43
102
}
330
43
100
AcDbMaterial
  1
Global
  0
MLEADERSTYLE
  5
5C
102
{ACAD_REACTORS
330
5B
102
}
330
5B
100
AcDbMLeaderStyle
170
     2
171
     1
172
     0
 90
        2
 40
0.0
 41
0.0
173
     1
 91
-1056964608
340
14
 92
       -2
290
     1
 42
2.0
291
     1
 43
8.0
  3
Standard
 44
4.0
300

342
11
174
     1
178
     6
175
     1
176
     0
 93
-1056964608
 45
4.0
292
     0
297
     0
 46
4.0
 94
-1056964608
 47
1.0
 49
1.0
140
1.0
293
     1
141
0.0
294
     1
177
     0
142
1.0
295
     0
296
     0
143
3.75
1001
ACAD_MLEADERVER
1070
     2
  0
MLINESTYLE
  5
18
102
{ACAD_REACTORS
330
17
102
}
330
17
100
AcDbMlineStyle
  2
STANDARD
 70
     0
  3

 62
   256
 51
90.0
 52
90.0
 71
     2
 49
0.5
 62
   256
  6
BYLAYER
 49
-0.5
 62
   256
  6
BYLAYER
  0
ACDBPLACEHOLDER
  5
F
102
{ACAD_REACTORS
330
E
102
}
330
E
  0
SCALE
  5
48
102
{ACAD_REACTORS
330
47
102
}
330
47
100
AcDbScale
 70
     0
300
1:1
140
1.0
141
1.0
290
     1
  0
SCALE
  5
49
102
{ACAD_REACTORS
330
47
102
}
330
47
100
AcDbScale
 70
     0
300
1:2
140
1.0
141
2.0
290
     0
  0
SCALE
  5
4A
102
{ACAD_REACTORS
330
47
102
}
330
47
100
AcDbScale
 70
     0
300
1:4
140
1.0
141
4.0
290
     0
  0
SCALE
  5
4B
102
{ACAD_REACTORS
330
47
102
}
330
47
100
AcDbScale
 70
     0
300
1:5
140
1.0
141
5.0
290
     0
  0
SCALE
  5
4C
102
{ACAD_REACTORS
330
47
102
}
330
47
100
AcDbScale
 70
     0
300
1:8
140
1.0
141
8.0
290
     0
  0
SCALE
  5
4D
102
{ACAD_REACTORS
330
47
102
}
330
47
100
AcDbScale
 70
     0
300
1:10
140
1.0
141
10.0
290
     0
  0
SCALE
  5
4E
102
{ACAD_REACTORS
330
47
102
}
330
47
100
AcDbScale
 70
     0
300
1:16
140
1.0
141
16.0
290
     0
  0
SCALE
  5
4F
102
{ACAD_REACTORS
330
47
102
}
330
47
100
AcDbScale
 70
     0
300
1:20
140
1.0
141
20.0
290
     0
  0
SCALE
  5
50
102
{ACAD_REACTORS
330
47
102
}
330
47
100
AcDbScale
 70
     0
300
1:30
140
1.0
141
30.0
290
     0
  0
SCALE
  5
51
102
{ACAD_REACTORS
330
47
102
}
330
47
100
AcDbScale
 70
     0
300
1:40
140
1.0
141
40.0
290
     0
  0
SCALE
  5
52
102
{ACAD_REACTORS
330
47
102
}
330
47
100
AcDbScale
 70
     0
300
1:50
140
1.0
141
50.0
290
     0
  0
SCALE
  5
53
102
{ACAD_REACTORS
330
47
102
}
330
47
100
AcDbScale
 70
     0
300
1:100
140
1.0
141
100.0
290
     0
  0
SCALE
  5
54
102
{ACAD_REACTORS
330
47
102
}
330
47
100
AcDbScale
 70
     0
300
2:1
140
2.0
141
1.0
290
     0
  0
SCALE
  5
55
102
{ACAD_REACTORS
330
47
102
}
330
47
100
AcDbScale
 70
     0
300
4:1
140
4.0
141
1.0
290
     0
  0
SCALE
  5
56
102
{ACAD_REACTORS
330
47
102
}
330
47
100
AcDbScale
 70
     0
300
8:1
140
8.0
141
1.0
290
     0
  0
SCALE
  5
57
102
{ACAD_REACTORS
330
47
102
}
330
47
100
AcDbScale
 70
     0
300
10:1
140
10.0
141
1.0
290
     0
  0
SCALE
  5
58
102
{ACAD_REACTORS
330
47
102
}
330
47
100
AcDbScale
 70
     0
300
100:1
140
100.0
141
1.0
290
     0
  0
ACDBSECTIONVIEWSTYLE
  5
263
102
{ACAD_XDICTIONARY
360
835
102
}
102
{ACAD_REACTORS
330
262
102
}
330
262
100
AcDbModelDocViewStyle
 70
     0
  3
Metric50
290
     0
100
AcDbSectionViewStyle
 70
     0
 71
     0
 90
      102
 71
     1
340
11
 40
5.0
340
0
340
0
 40
5.0
300
I, O, Q, S, X, Z
 40
10.0
 90
        0
 40
2.5
 90
        0
 71
     2
340
16
 90
       25
340
16
 90
       50
 40
5.0
 40
2.5
 40
5.0
 71
     3
340
11
 40
5.0
 90
        0
 40
15.0
 90
        1
300
%<\AcVar ViewSectionStartId>%-%<\AcVar ViewSectionEndId>% (%<\AcVar ViewScale \f "%sn">%)
 71
     4
300
ANSI31
 40
1.0
 90
        0
290
     0
290
     0
 90
        6
 40
0.0
 40
1.570796326794896
 40
0.2617993877991494
 40
1.308996938995747
 40
-0.2617993877991494
 40
1.832595714594045
  0
TABLESTYLE
  5
5A
102
{ACAD_XDICTIONARY
360
772
102
}
102
{ACAD_REACTORS
330
59
102
}
330
59
100
AcDbTableStyle
  3
Standard
 70
     0
 71
     0
 40
1.5
 41
1.5
280
     0
281
     0
  7
Standard
140
4.5
170
     2
 62
     0
 63
     7
283
     0
274
    -2
284
     1
 64
     0
275
    -2
285
     1
 65
     0
276
    -2
286
     1
 66
     0
277
    -2
287
     1
 67
     0
278
    -2
288
     1
 68
     0
279
    -2
289
     1
 69
     0
  7
Standard
140
6.0
170
     5
 62
     0
 63
     7
283
     0
274
    -2
284
     1
 64
     0
275
    -2
285
     1
 65
     0
276
    -2
286
     1
 66
     0
277
    -2
287
     1
 67
     0
278
    -2
288
     1
 68
     0
279
    -2
289
     1
 69
     0
  7
Standard
140
4.5
170
     5
 62
     0
 63
     7
283
     0
274
    -2
284
     1
 64
     0
275
    -2
285
     1
 65
     0
276
    -2
286
     1
 66
     0
277
    -2
287
     1
 67
     0
278
    -2
288
     1
 68
     0
279
    -2
289
     1
 69
     0
  0
VISUALSTYLE
  5
2F
102
{ACAD_XDICTIONARY
360
80C
102
}
102
{ACAD_REACTORS
330
2A
102
}
330
2A
100
AcDbVisualStyle
  2

 70
     4
 71
     0
 72
     2
 73
     0
 90
        0
 40
-0.6
 41
-30.0
 62
     5
 63
     7
 74
     1
 91
        4
 64
     7
 65
   257
 75
     1
175
     1
 42
1.0
 92
        0
 66
   257
 43
1.0
 76
     1
 77
     6
 78
     2
 67
     7
 79
     5
170
     0
171
     0
290
     0
174
     0
 93
        1
 44
0.0
173
     0
291
     0
 45
0.0
1001
ACAD
1000
AcDbSavedByObjectVersion
1070
     0
  0
VISUALSTYLE
  5
32
102
{ACAD_XDICTIONARY
360
812
102
}
102
{ACAD_REACTORS
330
2A
102
}
330
2A
100
AcDbVisualStyle
  2

 70
     7
 71
     1
 72
     0
 73
     1
 90
        0
 40
-0.6
 41
-30.0
 62
     5
 63
     7
 74
     0
 91
        4
 64
     7
 65
   257
 75
     1
175
     1
 42
1.0
 92
        8
 66
     7
 43
1.0
 76
     1
 77
     6
 78
     2
 67
     7
 79
     5
170
     0
171
     0
290
     0
174
     0
 93
        1
 44
0.0
173
     0
291
     1
 45
0.0
1001
ACAD
1000
AcDbSavedByObjectVersion
1070
     0
  0
VISUALSTYLE
  5
36
102
{ACAD_XDICTIONARY
360
81A
102
}
102
{ACAD_REACTORS
330
2A
102
}
330
2A
100
AcDbVisualStyle
  2

 70
    12
 71
     2
 72
     2
 73
     0
 90
        0
 40
-0.6
 41
-30.0
 62
     5
 63
     7
 74
     1
 91
        4
 64
     7
 65
   257
 75
     1
175
     1
 42
1.0
 92
        8
 66
     7
 43
1.0
 76
     1
 77
     6
 78
     2
 67
     7
 79
     5
170
     0
171
     0
290
     0
174
     0
 93
        1
 44
50.0
173
     0
291
     1
 45
0.0
1001
ACAD
1000
AcDbSavedByObjectVersion
1070
     0
  0
VISUALSTYLE
  5
3A
102
{ACAD_XDICTIONARY
360
822
102
}
102
{ACAD_REACTORS
330
2A
102
}
330
2A
100
AcDbVisualStyle
  2

 70
    16
 71
     2
 72
     2
 73
     3
 90
        0
 40
-0.6
 41
-30.0
 62
     5
 63
     8
 74
     1
 91
        4
 64
     7
 65
   257
 75
     1
175
     1
 42
1.0
 92
        8
 66
     8
 43
1.0
 76
     1
 77
     6
 78
     2
 67
     7
 79
     5
170
     0
171
     0
290
     0
174
     0
 93
        1
 44
0.0
173
     0
291
     1
 45
0.0
1001
ACAD
1000
AcDbSavedByObjectVersion
1070
     0
  0
VISUALSTYLE
  5
34
102
{ACAD_XDICTIONARY
360
816
102
}
102
{ACAD_REACTORS
330
2A
102
}
330
2A
100
AcDbVisualStyle
  2

 70
     9
 71
     3
 72
     2
 73
     0
 90
        0
 40
-0.6
 41
-30.0
 62
     5
 63
     7
 74
     2
 91
        2
 64
     7
 65
   257
 75
     1
175
     1
 42
179.0
 92
        8
 66
     7
 43
1.0
 76
     1
 77
     6
 78
     2
 67
     7
 79
     3
170
     0
171
     0
290
     0
174
     0
 93
        1
 44
0.0
173
     0
291
     0
 45
0.0
1001
ACAD
1000
AcDbSavedByObjectVersion
1070
     0
  0
VISUALSTYLE
  5
35
102
{ACAD_XDICTIONARY
360
818
102
}
102
{ACAD_REACTORS
330
2A
102
}
330
2A
100
AcDbVisualStyle
  2

 70
    11
 71
     2
 72
     2
 73
     0
 90
        0
 40
-0.6
 41
-30.0
 62
     5
 63
     7
 74
     1
 91
        4
 64
     7
 65
   257
 75
     1
175
     1
 42
1.0
 92
        8
 66
     7
 43
1.0
 76
     1
 77
     6
 78
     2
 67
     7
 79
     5
170
     0
171
     0
290
     0
174
     0
 93
        1
 44
-50.0
173
     0
291
     1
 45
0.0
1001
ACAD
1000
AcDbSavedByObjectVersion
1070
     0
  0
VISUALSTYLE
  5
3D
102
{ACAD_XDICTIONARY
360
828
102
}
102
{ACAD_REACTORS
330
2A
102
}
330
2A
100
AcDbVisualStyle
  2

 70
    22
 71
     2
 72
     2
 73
     0
 90
        0
 40
-0.6
 41
-30.0
 62
     5
 63
     7
 74
     1
 91
        4
 64
     7
 65
   257
 75
     1
175
     1
 42
1.0
 92
        8
 66
     7
 43
1.0
 76
     1
 77
     6
 78
     2
 67
     7
 79
     5
170
     0
171
     0
290
     0
174
     0
 93
        1
 44
0.0
173
     0
291
     1
 45
0.0
1001
ACAD
1000
AcDbSavedByObjectVersion
1070
     0
  0
VISUALSTYLE
  5
39
102
{ACAD_XDICTIONARY
360
820
102
}
102
{ACAD_REACTORS
330
2A
102
}
330
2A
100
AcDbVisualStyle
  2

 70
    15
 71
     2
 72
     2
 73
     0
 90
        0
 40
-0.6
 41
-30.0
 62
     5
 63
     7
 74
     1
 91
        4
 64
     7
 65
   257
 75
     1
175
     1
 42
1.0
 92
        8
 66
     7
 43
1.0
 76
     1
 77
     6
 78
     2
 67
     7
 79
     5
170
     0
171
     0
290
     0
174
     0
 93
        1
 44
0.0
173
     0
291
     1
 45
0.0
1001
ACAD
1000
AcDbSavedByObjectVersion
1070
     0
  0
VISUALSTYLE
  5
2B
102
{ACAD_XDICTIONARY
360
804
102
}
102
{ACAD_REACTORS
330
2A
102
}
330
2A
100
AcDbVisualStyle
  2

 70
     0
 71
     2
 72
     1
 73
     1
 90
        2
 40
-0.6
 41
30.0
 62
     5
 63
     7
 74
     0
 91
        0
 64
     7
 65
   257
 75
     1
175
     1
 42
1.0
 92
        8
 66
     7
 43
1.0
 76
     1
 77
     6
 78
     2
 67
     7
 79
     5
170
     0
171
     0
290
     0
174
     0
 93
       13
 44
0.0
173
     0
291
     1
 45
0.0
1001
ACAD
1000
AcDbSavedByObjectVersion
1070
     0
  0
VISUALSTYLE
  5
2C
102
{ACAD_XDICTIONARY
360
806
102
}
102
{ACAD_REACTORS
330
2A
102
}
330
2A
100
AcDbVisualStyle
  2

 70
     1
 71
     2
 72
     1
 73
     1
 90
        2
 40
-0.6
 41
30.0
 62
     5
 63
     7
 74
     1
 91
        0
 64
     7
 65
   257
 75
     1
175
     1
 42
1.0
 92
        0
 66
   257
 43
1.0
 76
     1
 77
     6
 78
     2
 67
     7
 79
     5
170
     0
171
     0
290
     0
174
     0
 93
       13
 44
0.0
173
     0
291
     1
 45
0.0
1001
ACAD
1000
AcDbSavedByObjectVersion
1070
     0
  0
VISUALSTYLE
  5
2D
102
{ACAD_XDICTIONARY
360
808
102
}
102
{ACAD_REACTORS
330
2A
102
}
330
2A
100
AcDbVisualStyle
  2

 70
     2
 71
     2
 72
     2
 73
     1
 90
        2
 40
-0.6
 41
30.0
 62
     5
 63
     7
 74
     0
 91
        0
 64
     7
 65
   257
 75
     1
175
     1
 42
1.0
 92
        0
 66
     7
 43
1.0
 76
     1
 77
     6
 78
     2
 67
     7
 79
     5
170
     0
171
     0
290
     0
174
     0
 93
       13
 44
0.0
173
     0
291
     1
 45
0.0
1001
ACAD
1000
AcDbSavedByObjectVersion
1070
     0
  0
VISUALSTYLE
  5
2E
102
{ACAD_XDICTIONARY
360
80A
102
}
102
{ACAD_REACTORS
330
2A
102
}
330
2A
100
AcDbVisualStyle
  2

 70
     3
 71
     2
 72
     2
 73
     1
 90
        2
 40
-0.6
 41
30.0
 62
     5
 63
     7
 74
     1
 91
        0
 64
     7
 65
   257
 75
     1
175
     1
 42
1.0
 92
        0
 66
   257
 43
1.0
 76
     1
 77
     6
 78
     2
 67
     7
 79
     5
170
     0
171
     0
290
     0
174
     0
 93
       13
 44
0.0
173
     0
291
     1
 45
0.0
1001
ACAD
1000
AcDbSavedByObjectVersion
1070
     0
  0
VISUALSTYLE
  5
31
102
{ACAD_XDICTIONARY
360
810
102
}
102
{ACAD_REACTORS
330
2A
102
}
330
2A
100
AcDbVisualStyle
  2

 70
     6
 71
     1
 72
     2
 73
     2
 90
        0
 40
-0.6
 41
-30.0
 62
     5
 63
     7
 74
     2
 91
        2
 64
     7
 65
   257
 75
     2
175
     1
 42
40.0
 92
        0
 66
   257
 43
1.0
 76
     1
 77
     6
 78
     2
 67
     7
 79
     3
170
     0
171
     0
290
     0
174
     0
 93
        1
 44
0.0
173
     0
291
     0
 45
0.0
1001
ACAD
1000
AcDbSavedByObjectVersion
1070
     0
  0
VISUALSTYLE
  5
3B
102
{ACAD_XDICTIONARY
360
824
102
}
102
{ACAD_REACTORS
330
2A
102
}
330
2A
100
AcDbVisualStyle
  2

 70
    20
 71
     2
 72
     2
 73
     0
 90
        0
 40
-0.6
 41
-30.0
 62
     5
 63
     7
 74
     1
 91
        4
 64
     7
 65
   257
 75
     1
175
     1
 42
1.0
 92
       10
 66
     7
 43
1.0
 76
     1
 77
     6
 78
     2
 67
     7
 79
     5
170
     0
171
     0
290
     0
174
     0
 93
        1
 44
0.0
173
     0
291
     1
 45
0.0
1001
ACAD
1000
AcDbSavedByObjectVersion
1070
     0
  0
VISUALSTYLE
  5
38
102
{ACAD_XDICTIONARY
360
81E
102
}
102
{ACAD_REACTORS
330
2A
102
}
330
2A
100
AcDbVisualStyle
  2

 70
    14
 71
     2
 72
     2
 73
     0
 90
        0
 40
-0.6
 41
-30.0
 62
     5
 63
     7
 74
     1
 91
        4
 64
     7
 65
   257
 75
     7
175
     7
 42
1.0
 92
        8
 66
     7
 43
1.0
 76
     1
 77
     6
 78
     2
 67
     7
 79
     5
170
     0
171
     0
290
     0
174
     0
 93
        1
 44
0.0
173
     0
291
     1
 45
0.0
1001
ACAD
1000
AcDbSavedByObjectVersion
1070
     0
  0
VISUALSTYLE
  5
3C
102
{ACAD_XDICTIONARY
360
826
102
}
102
{ACAD_REACTORS
330
2A
102
}
330
2A
100
AcDbVisualStyle
  2

 70
    21
 71
     2
 72
     2
 73
     0
 90
        0
 40
-0.6
 41
-30.0
 62
     5
 63
     7
 74
     1
 91
        4
 64
     7
 65
   257
 75
     1
175
     1
 42
1.0
 92
        9
 66
     7
 43
1.0
 76
     1
 77
     6
 78
     2
 67
     7
 79
     5
170
     0
171
     0
290
     0
174
     0
 93
        1
 44
0.0
173
     0
291
     1
 45
0.0
1001
ACAD
1000
AcDbSavedByObjectVersion
1070
     0
  0
VISUALSTYLE
  5
33
102
{ACAD_XDICTIONARY
360
814
102
}
102
{ACAD_REACTORS
330
2A
102
}
330
2A
100
AcDbVisualStyle
  2

 70
     8
 71
     2
 72
     3
 73
     0
 90
        2
 40
-0.6
 41
30.0
 62
     5
 63
     7
 74
     0
 91
        0
 64
     7
 65
   257
 75
     1
175
     1
 42
1.0
 92
        8
 66
   257
 43
1.0
 76
     1
 77
     6
 78
     2
 67
     7
 79
     3
170
     0
171
     0
290
     0
174
     0
 93
       13
 44
0.0
173
     0
291
     0
 45
0.0
1001
ACAD
1000
AcDbSavedByObjectVersion
1070
     0
  0
VISUALSTYLE
  5
42
102
{ACAD_XDICTIONARY
360
832
102
}
102
{ACAD_REACTORS
330
2A
102
}
330
2A
100
AcDbVisualStyle
  2

 70
    27
 71
     2
 72
     2
 73
     1
 90
        2
 40
-0.6
 41
30.0
 62
     5
 63
     7
 74
     0
 91
        4
 64
     7
 65
   257
 75
     1
175
     1
 42
1.0
 92
        8
 66
   257
 43
1.0
 76
     1
 77
     6
 78
     2
 67
     8
 79
     3
170
     0
171
     0
290
     0
174
     0
 93
        5
 44
0.0
173
     0
291
     0
 45
0.0
1001
ACAD
1000
AcDbSavedByObjectVersion
1070
     0
  0
VISUALSTYLE
  5
41
102
{ACAD_XDICTIONARY
360
830
102
}
102
{ACAD_REACTORS
330
2A
102
}
330
2A
100
AcDbVisualStyle
  2

 70
    26
 71
     2
 72
     2
 73
     1
 90
        2
 40
-0.6
 41
30.0
 62
     5
 63
     7
 74
     1
 91
       10
 64
     7
 65
   257
 75
     2
175
     1
 42
1.0
 92
        8
 66
   257
 43
1.0
 76
     1
 77
     6
 78
     2
 67
     7
 79
     3
170
     0
171
     0
290
     0
174
     0
 93
        5
 44
0.0
173
     0
291
     0
 45
0.0
1001
ACAD
1000
AcDbSavedByObjectVersion
1070
     0
  0
VISUALSTYLE
  5
3E
102
{ACAD_XDICTIONARY
360
82A
102
}
102
{ACAD_REACTORS
330
2A
102
}
330
2A
100
AcDbVisualStyle
  2

 70
    23
 71
     2
 72
     2
 73
     3
 90
        0
 40
-0.6
 41
-30.0
 62
     5
 63
     7
 74
     2
 91
        2
 64
     7
 65
     7
 75
     1
175
     1
 42
40.0
 92
        8
 66
     7
 43
1.0
 76
     1
 77
     6
 78
     2
 67
     7
 79
     3
170
     0
171
     0
290
     0
174
     0
 93
        1
 44
0.0
173
     0
291
     0
 45
0.0
1001
ACAD
1000
AcDbSavedByObjectVersion
1070
     0
  0
VISUALSTYLE
  5
3F
102
{ACAD_XDICTIONARY
360
82C
102
}
102
{ACAD_REACTORS
330
2A
102
}
330
2A
100
AcDbVisualStyle
  2

 70
    24
 71
     1
 72
     2
 73
     2
 90
        0
 40
-0.6
 41
-30.0
 62
     5
 63
     7
 74
     2
 91
        2
 64
     7
 65
     7
 75
     1
175
     1
 42
40.0
 92
       11
 66
     7
 43
1.0
 76
     1
 77
     6
 78
     2
 67
     7
 79
     6
170
     0
171
     0
290
     0
174
     0
 93
        1
 44
0.0
173
     0
291
     0
 45
0.0
1001
ACAD
1000
AcDbSavedByObjectVersion
1070
     0
  0
VISUALSTYLE
  5
37
102
{ACAD_XDICTIONARY
360
81C
102
}
102
{ACAD_REACTORS
330
2A
102
}
330
2A
100
AcDbVisualStyle
  2

 70
    13
 71
     2
 72
     2
 73
     0
 90
        0
 40
-0.6
 41
-30.0
 62
     5
 63
     7
 74
     1
 91
        4
 64
     7
 65
   257
 75
     1
175
     1
 42
1.0
 92
       12
 66
     7
 43
1.0
 76
     1
 77
     6
 78
     2
 67
     7
 79
     5
170
     0
171
     0
290
     0
174
     0
 93
        1
 44
0.0
173
     0
291
     1
 45
0.0
1001
ACAD
1000
AcDbSavedByObjectVersion
1070
     0
  0
VISUALSTYLE
  5
30
102
{ACAD_XDICTIONARY
360
80E
102
}
102
{ACAD_REACTORS
330
2A
102
}
330
2A
100
AcDbVisualStyle
  2

 70
     5
 71
     0
 72
     2
 73
     0
 90
        0
 40
-0.6
 41
-30.0
 62
     5
 63
     7
 74
     1
 91
        4
 64
     7
 65
   257
 75
     1
175
     1
 42
1.0
 92
        0
 66
   257
 43
1.0
 76
     1
 77
     6
 78
     2
 67
     7
 79
     3
170
     0
171
     0
290
     0
174
     0
 93
        1
 44
0.0
173
     0
291
     0
 45
0.0
1001
ACAD
1000
AcDbSavedByObjectVersion
1070
     0
  0
VISUALSTYLE
  5
40
102
{ACAD_XDICTIONARY
360
82E
102
}
102
{ACAD_REACTORS
330
2A
102
}
330
2A
100
AcDbVisualStyle
  2

 70
    25
 71
     2
 72
     2
 73
     1
 90
        1
 40
0.5
 41
-30.0
 62
     5
 63
     7
 74
     1
 91
        0
 64
     7
 65
   257
 75
     1
175
     1
 42
1.0
 92
        8
 66
     7
 43
1.0
 76
     1
 77
     6
 78
     2
 67
     7
 79
     3
170
     0
171
     0
290
     0
174
     0
 93
       13
 44
0.0
173
     0
291
     0
 45
0.0
1001
ACAD
1000
AcDbSavedByObjectVersion
1070
     0
  0
DICTIONARYVAR
  5
224
102
{ACAD_REACTORS
330
216
102
}
330
216
100
DictionaryVariables
280
     0
  1
1:1
  0
DICTIONARYVAR
  5
21D
102
{ACAD_REACTORS
330
216
102
}
330
216
100
DictionaryVariables
280
     0
  1
3.500000
  0
DICTIONARYVAR
  5
21E
102
{ACAD_REACTORS
330
216
102
}
330
216
100
DictionaryVariables
280
     0
  1
acadiso.lin
  0
DICTIONARYVAR
  5
218
102
{ACAD_REACTORS
330
216
102
}
330
216
100
DictionaryVariables
280
     0
  1
STANDARD
  0
DICTIONARYVAR
  5
217
102
{ACAD_REACTORS
330
216
102
}
330
216
100
DictionaryVariables
280
     0
  1
STANDARD
  0
DICTIONARYVAR
  5
76D
102
{ACAD_REACTORS
330
216
102
}
330
216
100
DictionaryVariables
280
     0
  1
Metric50
  0
DICTIONARYVAR
  5
76E
102
{ACAD_REACTORS
330
216
102
}
330
216
100
DictionaryVariables
280
     0
  1
Metric50
  0
DICTIONARYVAR
  5
21F
102
{ACAD_REACTORS
330
216
102
}
330
216
100
DictionaryVariables
280
     0
  1
2
  0
DICTIONARYVAR
  5
220
102
{ACAD_REACTORS
330
216
102
}
330
216
100
DictionaryVariables
280
     0
  1
1
  0
DICTIONARYVAR
  5
7B8
102
{ACAD_REACTORS
330
216
102
}
330
216
100
DictionaryVariables
280
     0
  1
0
  0
DICTIONARYVAR
  5
770
102
{ACAD_REACTORS
330
216
102
}
330
216
100
DictionaryVariables
280
     0
  1
1
  0
DICTIONARYVAR
  5
771
102
{ACAD_REACTORS
330
216
102
}
330
216
100
DictionaryVariables
280
     0
  1
15
  0
DICTIONARYVAR
  5
76F
102
{ACAD_REACTORS
330
216
102
}
330
216
100
DictionaryVariables
280
     0
  1
0
  0
DICTIONARYVAR
  5
7BB
102
{ACAD_REACTORS
330
216
102
}
330
216
100
DictionaryVariables
280
     0
  1
1.570796
  0
DICTIONARYVAR
  5
7BC
102
{ACAD_REACTORS
330
216
102
}
330
216
100
DictionaryVariables
280
     0
  1
1.570796
  0
DICTIONARYVAR
  5
7BD
102
{ACAD_REACTORS
330
216
102
}
330
216
100
DictionaryVariables
280
     0
  1
-122.394000
  0
DICTIONARYVAR
  5
225
102
{ACAD_REACTORS
330
216
102
}
330
216
100
DictionaryVariables
280
     0
  1
1
  0
DICTIONARYVAR
  5
7BA
102
{ACAD_REACTORS
330
216
102
}
330
216
100
DictionaryVariables
280
     0
  1
80.000000
  0
DICTIONARYVAR
  5
7B9
102
{ACAD_REACTORS
330
216
102
}
330
216
100
DictionaryVariables
280
     0
  1
5.000000
  0
DICTIONARYVAR
  5
7B7
102
{ACAD_REACTORS
330
216
102
}
330
216
100
DictionaryVariables
280
     0
  1
127
  0
DICTIONARYVAR
  5
7BE
102
{ACAD_REACTORS
330
216
102
}
330
216
100
DictionaryVariables
280
     0
  1
2
  0
DICTIONARY
  5
837
330
265
100
AcDbDictionary
280
     1
281
     1
  3
ACAD_XREC_ROUNDTRIP
360
838
  0
DICTIONARY
  5
800
330
1E
100
AcDbDictionary
280
     1
281
     1
  3
ACAD_XREC_ROUNDTRIP
360
801
  0
DICTIONARY
  5
802
330
22
100
AcDbDictionary
280
     1
281
     1
  3
ACAD_XREC_ROUNDTRIP
360
803
  0
DICTIONARY
  5
839
330
266
100
AcDbDictionary
280
     1
281
     1
  3
ACAD_XREC_ROUNDTRIP
360
83A
  0
DICTIONARY
  5
258
330
45
100
AcDbDictionary
280
     1
281
     1
  3
ACAD_XREC_ROUNDTRIP
360
259
  0
DICTIONARY
  5
256
330
44
100
AcDbDictionary
280
     1
281
     1
  3
ACAD_XREC_ROUNDTRIP
360
257
  0
DICTIONARY
  5
25A
330
46
100
AcDbDictionary
280
     1
281
     1
  3
ACAD_XREC_ROUNDTRIP
360
25B
  0
DICTIONARY
  5
835
330
263
100
AcDbDictionary
280
     1
281
     1
  3
ACAD_XREC_ROUNDTRIP
360
836
  0
DICTIONARY
  5
772
330
5A
100
AcDbDictionary
280
     1
281
     1
  3
ACAD_ROUNDTRIP_2008_TABLESTYLE_CELLSTYLEMAP
360
7FD
  3
ACAD_XREC_ROUNDTRIP
360
834
  0
DICTIONARY
  5
80C
330
2F
100
AcDbDictionary
280
     1
281
     1
  3
ACAD_XREC_ROUNDTRIP
360
80D
  0
DICTIONARY
  5
812
330
32
100
AcDbDictionary
280
     1
281
     1
  3
ACAD_XREC_ROUNDTRIP
360
813
  0
DICTIONARY
  5
81A
330
36
100
AcDbDictionary
280
     1
281
     1
  3
ACAD_XREC_ROUNDTRIP
360
81B
  0
DICTIONARY
  5
822
330
3A
100
AcDbDictionary
280
     1
281
     1
  3
ACAD_XREC_ROUNDTRIP
360
823
  0
DICTIONARY
  5
816
330
34
100
AcDbDictionary
280
     1
281
     1
  3
ACAD_XREC_ROUNDTRIP
360
817
  0
DICTIONARY
  5
818
330
35
100
AcDbDictionary
280
     1
281
     1
  3
ACAD_XREC_ROUNDTRIP
360
819
  0
DICTIONARY
  5
828
330
3D
100
AcDbDictionary
280
     1
281
     1
  3
ACAD_XREC_ROUNDTRIP
360
829
  0
DICTIONARY
  5
820
330
39
100
AcDbDictionary
280
     1
281
     1
  3
ACAD_XREC_ROUNDTRIP
360
821
  0
DICTIONARY
  5
804
330
2B
100
AcDbDictionary
280
     1
281
     1
  3
ACAD_XREC_ROUNDTRIP
360
805
  0
DICTIONARY
  5
806
330
2C
100
AcDbDictionary
280
     1
281
     1
  3
ACAD_XREC_ROUNDTRIP
360
807
  0
DICTIONARY
  5
808
330
2D
100
AcDbDictionary
280
     1
281
     1
  3
ACAD_XREC_ROUNDTRIP
360
809
  0
DICTIONARY
  5
80A
330
2E
100
AcDbDictionary
280
     1
281
     1
  3
ACAD_XREC_ROUNDTRIP
360
80B
  0
DICTIONARY
  5
810
330
31
100
AcDbDictionary
280
     1
281
     1
  3
ACAD_XREC_ROUNDTRIP
360
811
  0
DICTIONARY
  5
824
330
3B
100
AcDbDictionary
280
     1
281
     1
  3
ACAD_XREC_ROUNDTRIP
360
825
  0
DICTIONARY
  5
81E
330
38
100
AcDbDictionary
280
     1
281
     1
  3
ACAD_XREC_ROUNDTRIP
360
81F
  0
DICTIONARY
  5
826
330
3C
100
AcDbDictionary
280
     1
281
     1
  3
ACAD_XREC_ROUNDTRIP
360
827
  0
DICTIONARY
  5
814
330
33
100
AcDbDictionary
280
     1
281
     1
  3
ACAD_XREC_ROUNDTRIP
360
815
  0
DICTIONARY
  5
832
330
42
100
AcDbDictionary
280
     1
281
     1
  3
ACAD_XREC_ROUNDTRIP
360
833
  0
DICTIONARY
  5
830
330
41
100
AcDbDictionary
280
     1
281
     1
  3
ACAD_XREC_ROUNDTRIP
360
831
  0
DICTIONARY
  5
82A
330
3E
100
AcDbDictionary
280
     1
281
     1
  3
ACAD_XREC_ROUNDTRIP
360
82B
  0
DICTIONARY
  5
82C
330
3F
100
AcDbDictionary
280
     1
281
     1
  3
ACAD_XREC_ROUNDTRIP
360
82D
  0
DICTIONARY
  5
81C
330
37
100
AcDbDictionary
280
     1
281
     1
  3
ACAD_XREC_ROUNDTRIP
360
81D
  0
DICTIONARY
  5
80E
330
30
100
AcDbDictionary
280
     1
281
     1
  3
ACAD_XREC_ROUNDTRIP
360
80F
  0
DICTIONARY
  5
82E
330
40
100
AcDbDictionary
280
     1
281
     1
  3
ACAD_XREC_ROUNDTRIP
360
82F
  0
XRECORD
  5
838
102
{ACAD_REACTORS
330
837
102
}
330
837
100
AcDbXrecord
280
     1
102
DISPLAYNAME
  1
Metric50
102
FLAGS
 90
        0
  0
XRECORD
  5
801
102
{ACAD_REACTORS
330
800
102
}
330
800
100
AcDbXrecord
280
     1
102
SHADEPLOT
 70
     0
102
SHADEPLOTRESLEVEL
 70
     2
102
SHADEPLOTCUSTOMDPI
 70
   300
  0
XRECORD
  5
803
102
{ACAD_REACTORS
330
802
102
}
330
802
100
AcDbXrecord
280
     1
102
SHADEPLOT
 70
     0
102
SHADEPLOTRESLEVEL
 70
     2
102
SHADEPLOTCUSTOMDPI
 70
   300
  0
XRECORD
  5
83A
102
{ACAD_REACTORS
330
839
102
}
330
839
100
AcDbXrecord
280
     1
102
SHADEPLOT
 70
     0
102
SHADEPLOTRESLEVEL
 70
     2
102
SHADEPLOTCUSTOMDPI
 70
   300
  0
XRECORD
  5
259
102
{ACAD_REACTORS
330
258
102
}
330
258
100
AcDbXrecord
280
     1
102
MATERIAL
148
0.0
149
0.0
149
0.0
 93
        0
 94
      127
282
     0
 72
     1
 77
     1
171
     1
175
     1
179
     1
273
     0
  0
XRECORD
  5
257
102
{ACAD_REACTORS
330
256
102
}
330
256
100
AcDbXrecord
280
     1
102
MATERIAL
148
0.0
149
0.0
149
0.0
 93
        0
 94
      127
282
     0
 72
     1
 77
     1
171
     1
175
     1
179
     1
273
     0
  0
XRECORD
  5
25B
102
{ACAD_REACTORS
330
25A
102
}
330
25A
100
AcDbXrecord
280
     1
102
MATERIAL
148
0.0
149
0.0
149
0.0
 93
        0
 94
      127
282
     0
 72
     1
 77
     1
171
     1
175
     1
179
     1
273
     0
  0
XRECORD
  5
836
102
{ACAD_REACTORS
330
835
102
}
330
835
100
AcDbXrecord
280
     1
102
DISPLAYNAME
  1
Metric50
102
FLAGS
 90
        0
  0
CELLSTYLEMAP
  5
7FD
102
{ACAD_REACTORS
330
772
102
}
330
772
100
AcDbCellStyleMap
 90
        3
300
CELLSTYLE
  1
TABLEFORMAT_BEGIN
 90
        5
170
     1
 91
        0
 92
    32768
 62
   257
 93
        1
300
CONTENTFORMAT
  1
CONTENTFORMAT_BEGIN
 90
        0
 91
        0
 92
        4
 93
        0
300

 40
0.0
140
1.0
 94
        5
 62
     0
340
11
144
6.0
309
CONTENTFORMAT_END
171
     1
301
MARGIN
  1
CELLMARGIN_BEGIN
 40
1.5
 40
1.5
 40
1.5
 40
1.5
 40
0.18
 40
0.18
309
CELLMARGIN_END
 94
        6
 95
        1
302
GRIDFORMAT
  1
GRIDFORMAT_BEGIN
 90
        0
 91
        1
 62
     0
 92
       -2
340
0
 93
        0
 40
0.045
309
GRIDFORMAT_END
 95
        2
302
GRIDFORMAT
  1
GRIDFORMAT_BEGIN
 90
        0
 91
        1
 62
     0
 92
       -2
340
0
 93
        0
 40
0.045
309
GRIDFORMAT_END
 95
        4
302
GRIDFORMAT
  1
GRIDFORMAT_BEGIN
 90
        0
 91
        1
 62
     0
 92
       -2
340
0
 93
        0
 40
0.045
309
GRIDFORMAT_END
 95
        8
302
GRIDFORMAT
  1
GRIDFORMAT_BEGIN
 90
        0
 91
        1
 62
     0
 92
       -2
340
0
 93
        0
 40
0.045
309
GRIDFORMAT_END
 95
       16
302
GRIDFORMAT
  1
GRIDFORMAT_BEGIN
 90
        0
 91
        1
 62
     0
 92
       -2
340
0
 93
        0
 40
0.045
309
GRIDFORMAT_END
 95
       32
302
GRIDFORMAT
  1
GRIDFORMAT_BEGIN
 90
        0
 91
        1
 62
     0
 92
       -2
340
0
 93
        0
 40
0.045
309
GRIDFORMAT_END
309
TABLEFORMAT_END
  1
CELLSTYLE_BEGIN
 90
        1
 91
        1
300
_TITLE
309
CELLSTYLE_END
300
CELLSTYLE
  1
TABLEFORMAT_BEGIN
 90
        5
170
     1
 91
        0
 92
        0
 62
   257
 93
        1
300
CONTENTFORMAT
  1
CONTENTFORMAT_BEGIN
 90
        0
 91
        0
 92
        4
 93
        0
300

 40
0.0
140
1.0
 94
        5
 62
     0
340
11
144
4.5
309
CONTENTFORMAT_END
171
     1
301
MARGIN
  1
CELLMARGIN_BEGIN
 40
1.5
 40
1.5
 40
1.5
 40
1.5
 40
0.18
 40
0.18
309
CELLMARGIN_END
 94
        6
 95
        1
302
GRIDFORMAT
  1
GRIDFORMAT_BEGIN
 90
        0
 91
        1
 62
     0
 92
       -2
340
0
 93
        0
 40
0.045
309
GRIDFORMAT_END
 95
        2
302
GRIDFORMAT
  1
GRIDFORMAT_BEGIN
 90
        0
 91
        1
 62
     0
 92
       -2
340
0
 93
        0
 40
0.045
309
GRIDFORMAT_END
 95
        4
302
GRIDFORMAT
  1
GRIDFORMAT_BEGIN
 90
        0
 91
        1
 62
     0
 92
       -2
340
0
 93
        0
 40
0.045
309
GRIDFORMAT_END
 95
        8
302
GRIDFORMAT
  1
GRIDFORMAT_BEGIN
 90
        0
 91
        1
 62
     0
 92
       -2
340
0
 93
        0
 40
0.045
309
GRIDFORMAT_END
 95
       16
302
GRIDFORMAT
  1
GRIDFORMAT_BEGIN
 90
        0
 91
        1
 62
     0
 92
       -2
340
0
 93
        0
 40
0.045
309
GRIDFORMAT_END
 95
       32
302
GRIDFORMAT
  1
GRIDFORMAT_BEGIN
 90
        0
 91
        1
 62
     0
 92
       -2
340
0
 93
        0
 40
0.045
309
GRIDFORMAT_END
309
TABLEFORMAT_END
  1
CELLSTYLE_BEGIN
 90
        2
 91
        1
300
_HEADER
309
CELLSTYLE_END
300
CELLSTYLE
  1
TABLEFORMAT_BEGIN
 90
        5
170
     1
 91
        0
 92
        0
 62
   257
 93
        1
300
CONTENTFORMAT
  1
CONTENTFORMAT_BEGIN
 90
        0
 91
        0
 92
        4
 93
        0
300

 40
0.0
140
1.0
 94
        2
 62
     0
340
11
144
4.5
309
CONTENTFORMAT_END
171
     1
301
MARGIN
  1
CELLMARGIN_BEGIN
 40
1.5
 40
1.5
 40
1.5
 40
1.5
 40
0.18
 40
0.18
309
CELLMARGIN_END
 94
        6
 95
        1
302
GRIDFORMAT
  1
GRIDFORMAT_BEGIN
 90
        0
 91
        1
 62
     0
 92
       -2
340
0
 93
        0
 40
0.045
309
GRIDFORMAT_END
 95
        2
302
GRIDFORMAT
  1
GRIDFORMAT_BEGIN
 90
        0
 91
        1
 62
     0
 92
       -2
340
0
 93
        0
 40
0.045
309
GRIDFORMAT_END
 95
        4
302
GRIDFORMAT
  1
GRIDFORMAT_BEGIN
 90
        0
 91
        1
 62
     0
 92
       -2
340
0
 93
        0
 40
0.045
309
GRIDFORMAT_END
 95
        8
302
GRIDFORMAT
  1
GRIDFORMAT_BEGIN
 90
        0
 91
        1
 62
     0
 92
       -2
340
0
 93
        0
 40
0.045
309
GRIDFORMAT_END
 95
       16
302
GRIDFORMAT
  1
GRIDFORMAT_BEGIN
 90
        0
 91
        1
 62
     0
 92
       -2
340
0
 93
        0
 40
0.045
309
GRIDFORMAT_END
 95
       32
302
GRIDFORMAT
  1
GRIDFORMAT_BEGIN
 90
        0
 91
        1
 62
     0
 92
       -2
340
0
 93
        0
 40
0.045
309
GRIDFORMAT_END
309
TABLEFORMAT_END
  1
CELLSTYLE_BEGIN
 90
        3
 91
        2
300
_DATA
309
CELLSTYLE_END
  0
XRECORD
  5
834
102
{ACAD_REACTORS
330
772
102
}
330
772
100
AcDbXrecord
280
     1
102
ACAD_ROUNDTRIP_PRE2007_TABLESTYLE
 90
        4
 91
        0
  1

 92
        4
 93
        0
  2

 94
        4
 95
        0
  3

  0
XRECORD
  5
80D
102
{ACAD_REACTORS
330
80C
102
}
330
80C
100
AcDbXrecord
280
     1
102
RTVSPost2010Prop28
280
     1
102
RTVSPost2010PropOp28
 70
     1
102
RTVSPost2010Prop29
280
     1
102
RTVSPost2010PropOp29
 70
     1
102
RTVSPost2010Prop30
280
     0
102
RTVSPost2010PropOp30
 70
     1
102
RTVSPost2010Prop31
280
     0
102
RTVSPost2010PropOp31
 70
     1
102
RTVSPost2010Prop32
280
     0
102
RTVSPost2010PropOp32
 70
     1
102
RTVSPost2010Prop33
280
     0
102
RTVSPost2010PropOp33
 70
     1
102
RTVSPost2010Prop34
280
     0
102
RTVSPost2010PropOp34
 70
     1
102
RTVSPost2010Prop35
280
     0
102
RTVSPost2010PropOp35
 70
     1
102
RTVSPost2010Prop36
280
     0
102
RTVSPost2010PropOp36
 70
     1
102
RTVSPost2010Prop37
 90
       50
102
RTVSPost2010PropOp37
 70
     1
102
RTVSPost2010Prop38
140
0.0
102
RTVSPost2010PropOp38
 70
     1
102
RTVSPost2010Prop39
140
1.0
102
RTVSPost2010PropOp39
 70
     1
102
RTVSPost2010Prop40
 90
        0
102
RTVSPost2010PropOp40
 70
     1
102
RTVSPost2010Prop41ColorIndex
 90
       18
102
RTVSPost2010Prop41ColorRGB
 90
        0
102
RTVSPost2010PropOp41
 70
     1
102
RTVSPost2010Prop42
 90
       50
102
RTVSPost2010PropOp42
 70
     1
102
RTVSPost2010Prop43
 90
        3
102
RTVSPost2010PropOp43
 70
     1
102
RTVSPost2010Prop44ColorIndex
 90
        5
102
RTVSPost2010Prop44ColorRGB
 90
      255
102
RTVSPost2010PropOp44
 70
     1
102
RTVSPost2010Prop45
280
     0
102
RTVSPost2010PropOp45
 70
     1
102
RTVSPost2010Prop46
 90
       50
102
RTVSPost2010PropOp46
 70
     1
102
RTVSPost2010Prop47
 90
       50
102
RTVSPost2010PropOp47
 70
     1
102
RTVSPost2010Prop48
 90
       50
102
RTVSPost2010PropOp48
 70
     1
102
RTVSPost2010Prop49
280
     0
102
RTVSPost2010PropOp49
 70
     1
102
RTVSPost2010Prop50
 90
       50
102
RTVSPost2010PropOp50
 70
     1
102
RTVSPost2010Prop51ColorIndex
 90
      256
102
RTVSPost2010Prop51ColorRGB
 90
-16777216
102
RTVSPost2010PropOp51
 70
     0
102
RTVSPost2010Prop52
140
1.0
102
RTVSPost2010PropOp52
 70
     0
102
RTVSPost2010Prop53
 90
        2
102
RTVSPost2010PropOp53
 70
     1
102
RTVSPost2010Prop54
  1
strokes_ogs.tif
102
RTVSPost2010PropOp54
 70
     1
102
RTVSPost2010Prop55
280
     0
102
RTVSPost2010PropOp55
 70
     1
102
RTVSPost2010Prop56
140
1.0
102
RTVSPost2010PropOp56
 70
     1
102
RTVSPost2010Prop57
140
1.0
102
RTVSPost2010PropOp57
 70
     1
102
RTVSPropertyOp0
 70
     1
102
RTVSPropertyOp1
 70
     1
102
RTVSPropertyOp2
 70
     1
102
RTVSPropertyOp3
 70
     1
102
RTVSPropertyOp4
 70
     1
102
RTVSPropertyOp5
 70
     1
102
RTVSPropertyOp6
 70
     1
102
RTVSPropertyOp7
 70
     1
102
RTVSPropertyOp8
 70
     1
102
RTVSPropertyOp9
 70
     1
102
RTVSPropertyOp10
 70
     1
102
RTVSPropertyOp11
 70
     1
102
RTVSPropertyOp12
 70
     1
102
RTVSPropertyOp13
 70
     1
102
RTVSPropertyOp14
 70
     1
102
RTVSPropertyOp15
 70
     1
102
RTVSPropertyOp16
 70
     1
102
RTVSPropertyOp17
 70
     1
102
RTVSPropertyOp18
 70
     1
102
RTVSPropertyOp19
 70
     1
102
RTVSPropertyOp20
 70
     1
102
RTVSPropertyOp21
 70
     1
102
RTVSPropertyOp22
 70
     1
102
RTVSPropertyOp23
 70
     1
102
RTVSPropertyOp24
 70
     1
102
RTVSPropertyOp25
 70
     1
102
RTVSPropertyOp26
 70
     1
102
RTVSPropertyOp27
 70
     1
102
RTVSPropertyOp28
 70
     1
102
RTVSPropertyOp29
 70
     1
102
RTVSPropertyOp30
 70
     1
102
RTVSPropertyOp31
 70
     1
102
RTVSPropertyOp32
 70
     1
102
RTVSPropertyOp33
 70
     1
102
RTVSPropertyOp34
 70
     1
102
RTVSPropertyOp35
 70
     1
102
RTVSPropertyOp36
 70
     1
102
RTVSPropertyOp37
 70
     1
102
RTVSPropertyOp38
 70
     1
102
RTVSPropertyOp39
 70
     1
102
RTVSPropertyOp40
 70
     1
102
RTVSPropertyOp41
 70
     1
102
RTVSPropertyOp42
 70
     1
102
RTVSPropertyOp43
 70
     1
102
RTVSPropertyOp44
 70
     1
102
RTVSPropertyOp45
 70
     1
102
RTVSPropertyOp46
 70
     1
102
RTVSPropertyOp47
 70
     1
102
RTVSPropertyOp48
 70
     1
102
RTVSPropertyOp49
 70
     1
102
RTVSPropertyOp50
 70
     1
102
RTVSPropertyOp51
 70
     0
102
RTVSPropertyOp52
 70
     0
102
RTVSPropertyOp53
 70
     1
102
RTVSPropertyOp54
 70
     1
102
RTVSPropertyOp55
 70
     1
102
RTVSPropertyOp56
 70
     1
102
RTVSPropertyOp57
 70
     1
102
RTVSPropertyOp58
 70
     1
102
RTVSPropertyOp59
 70
     1
102
RTVSPropertyOp60
 70
     1
102
RTVSPropertyOp61
 70
     1
102
RTVSPropertyOp62
 70
     1
  0
XRECORD
  5
813
102
{ACAD_REACTORS
330
812
102
}
330
812
100
AcDbXrecord
280
     1
102
RTVSPost2010Prop28
280
     0
102
RTVSPost2010PropOp28
 70
     1
102
RTVSPost2010Prop29
280
     1
102
RTVSPost2010PropOp29
 70
     1
102
RTVSPost2010Prop30
280
     1
102
RTVSPost2010PropOp30
 70
     1
102
RTVSPost2010Prop31
280
     0
102
RTVSPost2010PropOp31
 70
     1
102
RTVSPost2010Prop32
280
     0
102
RTVSPost2010PropOp32
 70
     1
102
RTVSPost2010Prop33
280
     0
102
RTVSPost2010PropOp33
 70
     1
102
RTVSPost2010Prop34
280
     0
102
RTVSPost2010PropOp34
 70
     1
102
RTVSPost2010Prop35
280
     0
102
RTVSPost2010PropOp35
 70
     1
102
RTVSPost2010Prop36
280
     0
102
RTVSPost2010PropOp36
 70
     1
102
RTVSPost2010Prop37
 90
       50
102
RTVSPost2010PropOp37
 70
     1
102
RTVSPost2010Prop38
140
0.0
102
RTVSPost2010PropOp38
 70
     1
102
RTVSPost2010Prop39
140
1.0
102
RTVSPost2010PropOp39
 70
     1
102
RTVSPost2010Prop40
 90
        0
102
RTVSPost2010PropOp40
 70
     1
102
RTVSPost2010Prop41ColorIndex
 90
       18
102
RTVSPost2010Prop41ColorRGB
 90
        0
102
RTVSPost2010PropOp41
 70
     1
102
RTVSPost2010Prop42
 90
       50
102
RTVSPost2010PropOp42
 70
     1
102
RTVSPost2010Prop43
 90
        3
102
RTVSPost2010PropOp43
 70
     1
102
RTVSPost2010Prop44ColorIndex
 90
        5
102
RTVSPost2010Prop44ColorRGB
 90
      255
102
RTVSPost2010PropOp44
 70
     1
102
RTVSPost2010Prop45
280
     0
102
RTVSPost2010PropOp45
 70
     1
102
RTVSPost2010Prop46
 90
       50
102
RTVSPost2010PropOp46
 70
     1
102
RTVSPost2010Prop47
 90
       50
102
RTVSPost2010PropOp47
 70
     1
102
RTVSPost2010Prop48
 90
       50
102
RTVSPost2010PropOp48
 70
     1
102
RTVSPost2010Prop49
280
     0
102
RTVSPost2010PropOp49
 70
     1
102
RTVSPost2010Prop50
 90
       50
102
RTVSPost2010PropOp50
 70
     1
102
RTVSPost2010Prop51ColorIndex
 90
      256
102
RTVSPost2010Prop51ColorRGB
 90
-16777216
102
RTVSPost2010PropOp51
 70
     0
102
RTVSPost2010Prop52
140
1.0
102
RTVSPost2010PropOp52
 70
     0
102
RTVSPost2010Prop53
 90
        2
102
RTVSPost2010PropOp53
 70
     1
102
RTVSPost2010Prop54
  1
strokes_ogs.tif
102
RTVSPost2010PropOp54
 70
     1
102
RTVSPost2010Prop55
280
     0
102
RTVSPost2010PropOp55
 70
     1
102
RTVSPost2010Prop56
140
1.0
102
RTVSPost2010PropOp56
 70
     1
102
RTVSPost2010Prop57
140
1.0
102
RTVSPost2010PropOp57
 70
     1
102
RTVSPropertyOp0
 70
     1
102
RTVSPropertyOp1
 70
     1
102
RTVSPropertyOp2
 70
     1
102
RTVSPropertyOp3
 70
     1
102
RTVSPropertyOp4
 70
     1
102
RTVSPropertyOp5
 70
     1
102
RTVSPropertyOp6
 70
     1
102
RTVSPropertyOp7
 70
     1
102
RTVSPropertyOp8
 70
     1
102
RTVSPropertyOp9
 70
     1
102
RTVSPropertyOp10
 70
     1
102
RTVSPropertyOp11
 70
     1
102
RTVSPropertyOp12
 70
     1
102
RTVSPropertyOp13
 70
     1
102
RTVSPropertyOp14
 70
     1
102
RTVSPropertyOp15
 70
     1
102
RTVSPropertyOp16
 70
     1
102
RTVSPropertyOp17
 70
     1
102
RTVSPropertyOp18
 70
     1
102
RTVSPropertyOp19
 70
     1
102
RTVSPropertyOp20
 70
     1
102
RTVSPropertyOp21
 70
     1
102
RTVSPropertyOp22
 70
     1
102
RTVSPropertyOp23
 70
     1
102
RTVSPropertyOp24
 70
     1
102
RTVSPropertyOp25
 70
     1
102
RTVSPropertyOp26
 70
     1
102
RTVSPropertyOp27
 70
     1
102
RTVSPropertyOp28
 70
     1
102
RTVSPropertyOp29
 70
     1
102
RTVSPropertyOp30
 70
     1
102
RTVSPropertyOp31
 70
     1
102
RTVSPropertyOp32
 70
     1
102
RTVSPropertyOp33
 70
     1
102
RTVSPropertyOp34
 70
     1
102
RTVSPropertyOp35
 70
     1
102
RTVSPropertyOp36
 70
     1
102
RTVSPropertyOp37
 70
     1
102
RTVSPropertyOp38
 70
     1
102
RTVSPropertyOp39
 70
     1
102
RTVSPropertyOp40
 70
     1
102
RTVSPropertyOp41
 70
     1
102
RTVSPropertyOp42
 70
     1
102
RTVSPropertyOp43
 70
     1
102
RTVSPropertyOp44
 70
     1
102
RTVSPropertyOp45
 70
     1
102
RTVSPropertyOp46
 70
     1
102
RTVSPropertyOp47
 70
     1
102
RTVSPropertyOp48
 70
     1
102
RTVSPropertyOp49
 70
     1
102
RTVSPropertyOp50
 70
     1
102
RTVSPropertyOp51
 70
     0
102
RTVSPropertyOp52
 70
     0
102
RTVSPropertyOp53
 70
     1
102
RTVSPropertyOp54
 70
     1
102
RTVSPropertyOp55
 70
     1
102
RTVSPropertyOp56
 70
     1
102
RTVSPropertyOp57
 70
     1
102
RTVSPropertyOp58
 70
     1
102
RTVSPropertyOp59
 70
     1
102
RTVSPropertyOp60
 70
     1
102
RTVSPropertyOp61
 70
     1
102
RTVSPropertyOp62
 70
     1
  0
XRECORD
  5
81B
102
{ACAD_REACTORS
330
81A
102
}
330
81A
100
AcDbXrecord
280
     1
102
RTVSPost2010Prop28
280
     0
102
RTVSPost2010PropOp28
 70
     1
102
RTVSPost2010Prop29
280
     1
102
RTVSPost2010PropOp29
 70
     1
102
RTVSPost2010Prop30
280
     1
102
RTVSPost2010PropOp30
 70
     1
102
RTVSPost2010Prop31
280
     0
102
RTVSPost2010PropOp31
 70
     1
102
RTVSPost2010Prop32
280
     0
102
RTVSPost2010PropOp32
 70
     1
102
RTVSPost2010Prop33
280
     0
102
RTVSPost2010PropOp33
 70
     1
102
RTVSPost2010Prop34
280
     0
102
RTVSPost2010PropOp34
 70
     1
102
RTVSPost2010Prop35
280
     0
102
RTVSPost2010PropOp35
 70
     1
102
RTVSPost2010Prop36
280
     0
102
RTVSPost2010PropOp36
 70
     1
102
RTVSPost2010Prop37
 90
       50
102
RTVSPost2010PropOp37
 70
     1
102
RTVSPost2010Prop38
140
0.0
102
RTVSPost2010PropOp38
 70
     1
102
RTVSPost2010Prop39
140
1.0
102
RTVSPost2010PropOp39
 70
     1
102
RTVSPost2010Prop40
 90
        0
102
RTVSPost2010PropOp40
 70
     1
102
RTVSPost2010Prop41ColorIndex
 90
       18
102
RTVSPost2010Prop41ColorRGB
 90
        0
102
RTVSPost2010PropOp41
 70
     1
102
RTVSPost2010Prop42
 90
       50
102
RTVSPost2010PropOp42
 70
     1
102
RTVSPost2010Prop43
 90
        3
102
RTVSPost2010PropOp43
 70
     1
102
RTVSPost2010Prop44ColorIndex
 90
        5
102
RTVSPost2010Prop44ColorRGB
 90
      255
102
RTVSPost2010PropOp44
 70
     1
102
RTVSPost2010Prop45
280
     0
102
RTVSPost2010PropOp45
 70
     1
102
RTVSPost2010Prop46
 90
       50
102
RTVSPost2010PropOp46
 70
     1
102
RTVSPost2010Prop47
 90
       50
102
RTVSPost2010PropOp47
 70
     1
102
RTVSPost2010Prop48
 90
       50
102
RTVSPost2010PropOp48
 70
     1
102
RTVSPost2010Prop49
280
     0
102
RTVSPost2010PropOp49
 70
     1
102
RTVSPost2010Prop50
 90
       50
102
RTVSPost2010PropOp50
 70
     1
102
RTVSPost2010Prop51ColorIndex
 90
      256
102
RTVSPost2010Prop51ColorRGB
 90
-16777216
102
RTVSPost2010PropOp51
 70
     0
102
RTVSPost2010Prop52
140
1.0
102
RTVSPost2010PropOp52
 70
     0
102
RTVSPost2010Prop53
 90
        2
102
RTVSPost2010PropOp53
 70
     1
102
RTVSPost2010Prop54
  1
strokes_ogs.tif
102
RTVSPost2010PropOp54
 70
     1
102
RTVSPost2010Prop55
280
     0
102
RTVSPost2010PropOp55
 70
     1
102
RTVSPost2010Prop56
140
1.0
102
RTVSPost2010PropOp56
 70
     1
102
RTVSPost2010Prop57
140
1.0
102
RTVSPost2010PropOp57
 70
     1
102
RTVSPropertyOp0
 70
     1
102
RTVSPropertyOp1
 70
     1
102
RTVSPropertyOp2
 70
     1
102
RTVSPropertyOp3
 70
     1
102
RTVSPropertyOp4
 70
     1
102
RTVSPropertyOp5
 70
     1
102
RTVSPropertyOp6
 70
     1
102
RTVSPropertyOp7
 70
     1
102
RTVSPropertyOp8
 70
     1
102
RTVSPropertyOp9
 70
     1
102
RTVSPropertyOp10
 70
     1
102
RTVSPropertyOp11
 70
     1
102
RTVSPropertyOp12
 70
     1
102
RTVSPropertyOp13
 70
     1
102
RTVSPropertyOp14
 70
     1
102
RTVSPropertyOp15
 70
     1
102
RTVSPropertyOp16
 70
     1
102
RTVSPropertyOp17
 70
     1
102
RTVSPropertyOp18
 70
     1
102
RTVSPropertyOp19
 70
     1
102
RTVSPropertyOp20
 70
     1
102
RTVSPropertyOp21
 70
     1
102
RTVSPropertyOp22
 70
     1
102
RTVSPropertyOp23
 70
     1
102
RTVSPropertyOp24
 70
     1
102
RTVSPropertyOp25
 70
     1
102
RTVSPropertyOp26
 70
     1
102
RTVSPropertyOp27
 70
     1
102
RTVSPropertyOp28
 70
     1
102
RTVSPropertyOp29
 70
     1
102
RTVSPropertyOp30
 70
     1
102
RTVSPropertyOp31
 70
     1
102
RTVSPropertyOp32
 70
     1
102
RTVSPropertyOp33
 70
     1
102
RTVSPropertyOp34
 70
     1
102
RTVSPropertyOp35
 70
     1
102
RTVSPropertyOp36
 70
     1
102
RTVSPropertyOp37
 70
     1
102
RTVSPropertyOp38
 70
     1
102
RTVSPropertyOp39
 70
     1
102
RTVSPropertyOp40
 70
     1
102
RTVSPropertyOp41
 70
     1
102
RTVSPropertyOp42
 70
     1
102
RTVSPropertyOp43
 70
     1
102
RTVSPropertyOp44
 70
     1
102
RTVSPropertyOp45
 70
     1
102
RTVSPropertyOp46
 70
     1
102
RTVSPropertyOp47
 70
     1
102
RTVSPropertyOp48
 70
     1
102
RTVSPropertyOp49
 70
     1
102
RTVSPropertyOp50
 70
     1
102
RTVSPropertyOp51
 70
     0
102
RTVSPropertyOp52
 70
     0
102
RTVSPropertyOp53
 70
     1
102
RTVSPropertyOp54
 70
     1
102
RTVSPropertyOp55
 70
     1
102
RTVSPropertyOp56
 70
     1
102
RTVSPropertyOp57
 70
     1
102
RTVSPropertyOp58
 70
     1
102
RTVSPropertyOp59
 70
     1
102
RTVSPropertyOp60
 70
     1
102
RTVSPropertyOp61
 70
     1
102
RTVSPropertyOp62
 70
     1
  0
XRECORD
  5
823
102
{ACAD_REACTORS
330
822
102
}
330
822
100
AcDbXrecord
280
     1
102
RTVSPost2010Prop28
280
     0
102
RTVSPost2010PropOp28
 70
     1
102
RTVSPost2010Prop29
280
     1
102
RTVSPost2010PropOp29
 70
     1
102
RTVSPost2010Prop30
280
     1
102
RTVSPost2010PropOp30
 70
     1
102
RTVSPost2010Prop31
280
     0
102
RTVSPost2010PropOp31
 70
     1
102
RTVSPost2010Prop32
280
     0
102
RTVSPost2010PropOp32
 70
     1
102
RTVSPost2010Prop33
280
     0
102
RTVSPost2010PropOp33
 70
     1
102
RTVSPost2010Prop34
280
     0
102
RTVSPost2010PropOp34
 70
     1
102
RTVSPost2010Prop35
280
     0
102
RTVSPost2010PropOp35
 70
     1
102
RTVSPost2010Prop36
280
     0
102
RTVSPost2010PropOp36
 70
     1
102
RTVSPost2010Prop37
 90
       50
102
RTVSPost2010PropOp37
 70
     1
102
RTVSPost2010Prop38
140
0.0
102
RTVSPost2010PropOp38
 70
     1
102
RTVSPost2010Prop39
140
1.0
102
RTVSPost2010PropOp39
 70
     1
102
RTVSPost2010Prop40
 90
        0
102
RTVSPost2010PropOp40
 70
     1
102
RTVSPost2010Prop41ColorIndex
 90
       18
102
RTVSPost2010Prop41ColorRGB
 90
        0
102
RTVSPost2010PropOp41
 70
     1
102
RTVSPost2010Prop42
 90
       50
102
RTVSPost2010PropOp42
 70
     1
102
RTVSPost2010Prop43
 90
        3
102
RTVSPost2010PropOp43
 70
     1
102
RTVSPost2010Prop44ColorIndex
 90
        5
102
RTVSPost2010Prop44ColorRGB
 90
      255
102
RTVSPost2010PropOp44
 70
     1
102
RTVSPost2010Prop45
280
     0
102
RTVSPost2010PropOp45
 70
     1
102
RTVSPost2010Prop46
 90
       50
102
RTVSPost2010PropOp46
 70
     1
102
RTVSPost2010Prop47
 90
       50
102
RTVSPost2010PropOp47
 70
     1
102
RTVSPost2010Prop48
 90
       50
102
RTVSPost2010PropOp48
 70
     1
102
RTVSPost2010Prop49
280
     0
102
RTVSPost2010PropOp49
 70
     1
102
RTVSPost2010Prop50
 90
       50
102
RTVSPost2010PropOp50
 70
     1
102
RTVSPost2010Prop51ColorIndex
 90
      256
102
RTVSPost2010Prop51ColorRGB
 90
-16777216
102
RTVSPost2010PropOp51
 70
     0
102
RTVSPost2010Prop52
140
1.0
102
RTVSPost2010PropOp52
 70
     0
102
RTVSPost2010Prop53
 90
        2
102
RTVSPost2010PropOp53
 70
     1
102
RTVSPost2010Prop54
  1
strokes_ogs.tif
102
RTVSPost2010PropOp54
 70
     1
102
RTVSPost2010Prop55
280
     0
102
RTVSPost2010PropOp55
 70
     1
102
RTVSPost2010Prop56
140
1.0
102
RTVSPost2010PropOp56
 70
     1
102
RTVSPost2010Prop57
140
1.0
102
RTVSPost2010PropOp57
 70
     1
102
RTVSPropertyOp0
 70
     1
102
RTVSPropertyOp1
 70
     1
102
RTVSPropertyOp2
 70
     1
102
RTVSPropertyOp3
 70
     1
102
RTVSPropertyOp4
 70
     1
102
RTVSPropertyOp5
 70
     1
102
RTVSPropertyOp6
 70
     1
102
RTVSPropertyOp7
 70
     1
102
RTVSPropertyOp8
 70
     1
102
RTVSPropertyOp9
 70
     1
102
RTVSPropertyOp10
 70
     1
102
RTVSPropertyOp11
 70
     1
102
RTVSPropertyOp12
 70
     1
102
RTVSPropertyOp13
 70
     1
102
RTVSPropertyOp14
 70
     1
102
RTVSPropertyOp15
 70
     1
102
RTVSPropertyOp16
 70
     1
102
RTVSPropertyOp17
 70
     1
102
RTVSPropertyOp18
 70
     1
102
RTVSPropertyOp19
 70
     1
102
RTVSPropertyOp20
 70
     1
102
RTVSPropertyOp21
 70
     1
102
RTVSPropertyOp22
 70
     1
102
RTVSPropertyOp23
 70
     1
102
RTVSPropertyOp24
 70
     1
102
RTVSPropertyOp25
 70
     1
102
RTVSPropertyOp26
 70
     1
102
RTVSPropertyOp27
 70
     1
102
RTVSPropertyOp28
 70
     1
102
RTVSPropertyOp29
 70
     1
102
RTVSPropertyOp30
 70
     1
102
RTVSPropertyOp31
 70
     1
102
RTVSPropertyOp32
 70
     1
102
RTVSPropertyOp33
 70
     1
102
RTVSPropertyOp34
 70
     1
102
RTVSPropertyOp35
 70
     1
102
RTVSPropertyOp36
 70
     1
102
RTVSPropertyOp37
 70
     1
102
RTVSPropertyOp38
 70
     1
102
RTVSPropertyOp39
 70
     1
102
RTVSPropertyOp40
 70
     1
102
RTVSPropertyOp41
 70
     1
102
RTVSPropertyOp42
 70
     1
102
RTVSPropertyOp43
 70
     1
102
RTVSPropertyOp44
 70
     1
102
RTVSPropertyOp45
 70
     1
102
RTVSPropertyOp46
 70
     1
102
RTVSPropertyOp47
 70
     1
102
RTVSPropertyOp48
 70
     1
102
RTVSPropertyOp49
 70
     1
102
RTVSPropertyOp50
 70
     1
102
RTVSPropertyOp51
 70
     0
102
RTVSPropertyOp52
 70
     0
102
RTVSPropertyOp53
 70
     1
102
RTVSPropertyOp54
 70
     1
102
RTVSPropertyOp55
 70
     1
102
RTVSPropertyOp56
 70
     1
102
RTVSPropertyOp57
 70
     1
102
RTVSPropertyOp58
 70
     1
102
RTVSPropertyOp59
 70
     1
102
RTVSPropertyOp60
 70
     1
102
RTVSPropertyOp61
 70
     1
102
RTVSPropertyOp62
 70
     1
  0
XRECORD
  5
817
102
{ACAD_REACTORS
330
816
102
}
330
816
100
AcDbXrecord
280
     1
102
RTVSPost2010Prop28
280
     0
102
RTVSPost2010PropOp28
 70
     1
102
RTVSPost2010Prop29
280
     1
102
RTVSPost2010PropOp29
 70
     1
102
RTVSPost2010Prop30
280
     1
102
RTVSPost2010PropOp30
 70
     1
102
RTVSPost2010Prop31
280
     0
102
RTVSPost2010PropOp31
 70
     1
102
RTVSPost2010Prop32
280
     0
102
RTVSPost2010PropOp32
 70
     1
102
RTVSPost2010Prop33
280
     0
102
RTVSPost2010PropOp33
 70
     1
102
RTVSPost2010Prop34
280
     0
102
RTVSPost2010PropOp34
 70
     1
102
RTVSPost2010Prop35
280
     0
102
RTVSPost2010PropOp35
 70
     1
102
RTVSPost2010Prop36
280
     0
102
RTVSPost2010PropOp36
 70
     1
102
RTVSPost2010Prop37
 90
       50
102
RTVSPost2010PropOp37
 70
     1
102
RTVSPost2010Prop38
140
0.0
102
RTVSPost2010PropOp38
 70
     1
102
RTVSPost2010Prop39
140
1.0
102
RTVSPost2010PropOp39
 70
     1
102
RTVSPost2010Prop40
 90
        0
102
RTVSPost2010PropOp40
 70
     1
102
RTVSPost2010Prop41ColorIndex
 90
       18
102
RTVSPost2010Prop41ColorRGB
 90
        0
102
RTVSPost2010PropOp41
 70
     1
102
RTVSPost2010Prop42
 90
       50
102
RTVSPost2010PropOp42
 70
     1
102
RTVSPost2010Prop43
 90
        3
102
RTVSPost2010PropOp43
 70
     1
102
RTVSPost2010Prop44ColorIndex
 90
        5
102
RTVSPost2010Prop44ColorRGB
 90
      255
102
RTVSPost2010PropOp44
 70
     1
102
RTVSPost2010Prop45
280
     0
102
RTVSPost2010PropOp45
 70
     1
102
RTVSPost2010Prop46
 90
       50
102
RTVSPost2010PropOp46
 70
     1
102
RTVSPost2010Prop47
 90
       50
102
RTVSPost2010PropOp47
 70
     1
102
RTVSPost2010Prop48
 90
       50
102
RTVSPost2010PropOp48
 70
     1
102
RTVSPost2010Prop49
280
     0
102
RTVSPost2010PropOp49
 70
     1
102
RTVSPost2010Prop50
 90
       50
102
RTVSPost2010PropOp50
 70
     1
102
RTVSPost2010Prop51ColorIndex
 90
      256
102
RTVSPost2010Prop51ColorRGB
 90
-16777216
102
RTVSPost2010PropOp51
 70
     0
102
RTVSPost2010Prop52
140
1.0
102
RTVSPost2010PropOp52
 70
     0
102
RTVSPost2010Prop53
 90
        2
102
RTVSPost2010PropOp53
 70
     1
102
RTVSPost2010Prop54
  1
strokes_ogs.tif
102
RTVSPost2010PropOp54
 70
     1
102
RTVSPost2010Prop55
280
     0
102
RTVSPost2010PropOp55
 70
     1
102
RTVSPost2010Prop56
140
1.0
102
RTVSPost2010PropOp56
 70
     1
102
RTVSPost2010Prop57
140
1.0
102
RTVSPost2010PropOp57
 70
     1
102
RTVSPropertyOp0
 70
     1
102
RTVSPropertyOp1
 70
     1
102
RTVSPropertyOp2
 70
     1
102
RTVSPropertyOp3
 70
     1
102
RTVSPropertyOp4
 70
     1
102
RTVSPropertyOp5
 70
     1
102
RTVSPropertyOp6
 70
     1
102
RTVSPropertyOp7
 70
     1
102
RTVSPropertyOp8
 70
     1
102
RTVSPropertyOp9
 70
     1
102
RTVSPropertyOp10
 70
     1
102
RTVSPropertyOp11
 70
     1
102
RTVSPropertyOp12
 70
     1
102
RTVSPropertyOp13
 70
     1
102
RTVSPropertyOp14
 70
     1
102
RTVSPropertyOp15
 70
     1
102
RTVSPropertyOp16
 70
     1
102
RTVSPropertyOp17
 70
     1
102
RTVSPropertyOp18
 70
     1
102
RTVSPropertyOp19
 70
     1
102
RTVSPropertyOp20
 70
     1
102
RTVSPropertyOp21
 70
     1
102
RTVSPropertyOp22
 70
     1
102
RTVSPropertyOp23
 70
     1
102
RTVSPropertyOp24
 70
     1
102
RTVSPropertyOp25
 70
     1
102
RTVSPropertyOp26
 70
     1
102
RTVSPropertyOp27
 70
     1
102
RTVSPropertyOp28
 70
     1
102
RTVSPropertyOp29
 70
     1
102
RTVSPropertyOp30
 70
     1
102
RTVSPropertyOp31
 70
     1
102
RTVSPropertyOp32
 70
     1
102
RTVSPropertyOp33
 70
     1
102
RTVSPropertyOp34
 70
     1
102
RTVSPropertyOp35
 70
     1
102
RTVSPropertyOp36
 70
     1
102
RTVSPropertyOp37
 70
     1
102
RTVSPropertyOp38
 70
     1
102
RTVSPropertyOp39
 70
     1
102
RTVSPropertyOp40
 70
     1
102
RTVSPropertyOp41
 70
     1
102
RTVSPropertyOp42
 70
     1
102
RTVSPropertyOp43
 70
     1
102
RTVSPropertyOp44
 70
     1
102
RTVSPropertyOp45
 70
     1
102
RTVSPropertyOp46
 70
     1
102
RTVSPropertyOp47
 70
     1
102
RTVSPropertyOp48
 70
     1
102
RTVSPropertyOp49
 70
     1
102
RTVSPropertyOp50
 70
     1
102
RTVSPropertyOp51
 70
     0
102
RTVSPropertyOp52
 70
     0
102
RTVSPropertyOp53
 70
     1
102
RTVSPropertyOp54
 70
     1
102
RTVSPropertyOp55
 70
     1
102
RTVSPropertyOp56
 70
     1
102
RTVSPropertyOp57
 70
     1
102
RTVSPropertyOp58
 70
     1
102
RTVSPropertyOp59
 70
     1
102
RTVSPropertyOp60
 70
     1
102
RTVSPropertyOp61
 70
     1
102
RTVSPropertyOp62
 70
     1
  0
XRECORD
  5
819
102
{ACAD_REACTORS
330
818
102
}
330
818
100
AcDbXrecord
280
     1
102
RTVSPost2010Prop28
280
     0
102
RTVSPost2010PropOp28
 70
     1
102
RTVSPost2010Prop29
280
     1
102
RTVSPost2010PropOp29
 70
     1
102
RTVSPost2010Prop30
280
     1
102
RTVSPost2010PropOp30
 70
     1
102
RTVSPost2010Prop31
280
     0
102
RTVSPost2010PropOp31
 70
     1
102
RTVSPost2010Prop32
280
     0
102
RTVSPost2010PropOp32
 70
     1
102
RTVSPost2010Prop33
280
     0
102
RTVSPost2010PropOp33
 70
     1
102
RTVSPost2010Prop34
280
     0
102
RTVSPost2010PropOp34
 70
     1
102
RTVSPost2010Prop35
280
     0
102
RTVSPost2010PropOp35
 70
     1
102
RTVSPost2010Prop36
280
     0
102
RTVSPost2010PropOp36
 70
     1
102
RTVSPost2010Prop37
 90
       50
102
RTVSPost2010PropOp37
 70
     1
102
RTVSPost2010Prop38
140
0.0
102
RTVSPost2010PropOp38
 70
     1
102
RTVSPost2010Prop39
140
1.0
102
RTVSPost2010PropOp39
 70
     1
102
RTVSPost2010Prop40
 90
        0
102
RTVSPost2010PropOp40
 70
     1
102
RTVSPost2010Prop41ColorIndex
 90
       18
102
RTVSPost2010Prop41ColorRGB
 90
        0
102
RTVSPost2010PropOp41
 70
     1
102
RTVSPost2010Prop42
 90
       50
102
RTVSPost2010PropOp42
 70
     1
102
RTVSPost2010Prop43
 90
        3
102
RTVSPost2010PropOp43
 70
     1
102
RTVSPost2010Prop44ColorIndex
 90
        5
102
RTVSPost2010Prop44ColorRGB
 90
      255
102
RTVSPost2010PropOp44
 70
     1
102
RTVSPost2010Prop45
280
     0
102
RTVSPost2010PropOp45
 70
     1
102
RTVSPost2010Prop46
 90
       50
102
RTVSPost2010PropOp46
 70
     1
102
RTVSPost2010Prop47
 90
       50
102
RTVSPost2010PropOp47
 70
     1
102
RTVSPost2010Prop48
 90
       50
102
RTVSPost2010PropOp48
 70
     1
102
RTVSPost2010Prop49
280
     0
102
RTVSPost2010PropOp49
 70
     1
102
RTVSPost2010Prop50
 90
       50
102
RTVSPost2010PropOp50
 70
     1
102
RTVSPost2010Prop51ColorIndex
 90
      256
102
RTVSPost2010Prop51ColorRGB
 90
-16777216
102
RTVSPost2010PropOp51
 70
     0
102
RTVSPost2010Prop52
140
1.0
102
RTVSPost2010PropOp52
 70
     0
102
RTVSPost2010Prop53
 90
        2
102
RTVSPost2010PropOp53
 70
     1
102
RTVSPost2010Prop54
  1
strokes_ogs.tif
102
RTVSPost2010PropOp54
 70
     1
102
RTVSPost2010Prop55
280
     0
102
RTVSPost2010PropOp55
 70
     1
102
RTVSPost2010Prop56
140
1.0
102
RTVSPost2010PropOp56
 70
     1
102
RTVSPost2010Prop57
140
1.0
102
RTVSPost2010PropOp57
 70
     1
102
RTVSPropertyOp0
 70
     1
102
RTVSPropertyOp1
 70
     1
102
RTVSPropertyOp2
 70
     1
102
RTVSPropertyOp3
 70
     1
102
RTVSPropertyOp4
 70
     1
102
RTVSPropertyOp5
 70
     1
102
RTVSPropertyOp6
 70
     1
102
RTVSPropertyOp7
 70
     1
102
RTVSPropertyOp8
 70
     1
102
RTVSPropertyOp9
 70
     1
102
RTVSPropertyOp10
 70
     1
102
RTVSPropertyOp11
 70
     1
102
RTVSPropertyOp12
 70
     1
102
RTVSPropertyOp13
 70
     1
102
RTVSPropertyOp14
 70
     1
102
RTVSPropertyOp15
 70
     1
102
RTVSPropertyOp16
 70
     1
102
RTVSPropertyOp17
 70
     1
102
RTVSPropertyOp18
 70
     1
102
RTVSPropertyOp19
 70
     1
102
RTVSPropertyOp20
 70
     1
102
RTVSPropertyOp21
 70
     1
102
RTVSPropertyOp22
 70
     1
102
RTVSPropertyOp23
 70
     1
102
RTVSPropertyOp24
 70
     1
102
RTVSPropertyOp25
 70
     1
102
RTVSPropertyOp26
 70
     1
102
RTVSPropertyOp27
 70
     1
102
RTVSPropertyOp28
 70
     1
102
RTVSPropertyOp29
 70
     1
102
RTVSPropertyOp30
 70
     1
102
RTVSPropertyOp31
 70
     1
102
RTVSPropertyOp32
 70
     1
102
RTVSPropertyOp33
 70
     1
102
RTVSPropertyOp34
 70
     1
102
RTVSPropertyOp35
 70
     1
102
RTVSPropertyOp36
 70
     1
102
RTVSPropertyOp37
 70
     1
102
RTVSPropertyOp38
 70
     1
102
RTVSPropertyOp39
 70
     1
102
RTVSPropertyOp40
 70
     1
102
RTVSPropertyOp41
 70
     1
102
RTVSPropertyOp42
 70
     1
102
RTVSPropertyOp43
 70
     1
102
RTVSPropertyOp44
 70
     1
102
RTVSPropertyOp45
 70
     1
102
RTVSPropertyOp46
 70
     1
102
RTVSPropertyOp47
 70
     1
102
RTVSPropertyOp48
 70
     1
102
RTVSPropertyOp49
 70
     1
102
RTVSPropertyOp50
 70
     1
102
RTVSPropertyOp51
 70
     0
102
RTVSPropertyOp52
 70
     0
102
RTVSPropertyOp53
 70
     1
102
RTVSPropertyOp54
 70
     1
102
RTVSPropertyOp55
 70
     1
102
RTVSPropertyOp56
 70
     1
102
RTVSPropertyOp57
 70
     1
102
RTVSPropertyOp58
 70
     1
102
RTVSPropertyOp59
 70
     1
102
RTVSPropertyOp60
 70
     1
102
RTVSPropertyOp61
 70
     1
102
RTVSPropertyOp62
 70
     1
  0
XRECORD
  5
829
102
{ACAD_REACTORS
330
828
102
}
330
828
100
AcDbXrecord
280
     1
102
RTVSPost2010Prop28
280
     0
102
RTVSPost2010PropOp28
 70
     0
102
RTVSPost2010Prop29
280
     1
102
RTVSPost2010PropOp29
 70
     0
102
RTVSPost2010Prop30
280
     1
102
RTVSPost2010PropOp30
 70
     0
102
RTVSPost2010Prop31
280
     0
102
RTVSPost2010PropOp31
 70
     0
102
RTVSPost2010Prop32
280
     0
102
RTVSPost2010PropOp32
 70
     0
102
RTVSPost2010Prop33
280
     0
102
RTVSPost2010PropOp33
 70
     0
102
RTVSPost2010Prop34
280
     0
102
RTVSPost2010PropOp34
 70
     0
102
RTVSPost2010Prop35
280
     0
102
RTVSPost2010PropOp35
 70
     0
102
RTVSPost2010Prop36
280
     0
102
RTVSPost2010PropOp36
 70
     0
102
RTVSPost2010Prop37
 90
       50
102
RTVSPost2010PropOp37
 70
     0
102
RTVSPost2010Prop38
140
0.0
102
RTVSPost2010PropOp38
 70
     0
102
RTVSPost2010Prop39
140
1.0
102
RTVSPost2010PropOp39
 70
     0
102
RTVSPost2010Prop40
 90
        0
102
RTVSPost2010PropOp40
 70
     0
102
RTVSPost2010Prop41ColorIndex
 90
       18
102
RTVSPost2010Prop41ColorRGB
 90
        0
102
RTVSPost2010PropOp41
 70
     0
102
RTVSPost2010Prop42
 90
       50
102
RTVSPost2010PropOp42
 70
     0
102
RTVSPost2010Prop43
 90
        3
102
RTVSPost2010PropOp43
 70
     0
102
RTVSPost2010Prop44ColorIndex
 90
        5
102
RTVSPost2010Prop44ColorRGB
 90
      255
102
RTVSPost2010PropOp44
 70
     0
102
RTVSPost2010Prop45
280
     0
102
RTVSPost2010PropOp45
 70
     0
102
RTVSPost2010Prop46
 90
       50
102
RTVSPost2010PropOp46
 70
     0
102
RTVSPost2010Prop47
 90
       50
102
RTVSPost2010PropOp47
 70
     0
102
RTVSPost2010Prop48
 90
       50
102
RTVSPost2010PropOp48
 70
     0
102
RTVSPost2010Prop49
280
     0
102
RTVSPost2010PropOp49
 70
     0
102
RTVSPost2010Prop50
 90
       50
102
RTVSPost2010PropOp50
 70
     0
102
RTVSPost2010Prop51ColorIndex
 90
      256
102
RTVSPost2010Prop51ColorRGB
 90
-16777216
102
RTVSPost2010PropOp51
 70
     0
102
RTVSPost2010Prop52
140
1.0
102
RTVSPost2010PropOp52
 70
     0
102
RTVSPost2010Prop53
 90
        2
102
RTVSPost2010PropOp53
 70
     0
102
RTVSPost2010Prop54
  1
strokes_ogs.tif
102
RTVSPost2010PropOp54
 70
     0
102
RTVSPost2010Prop55
280
     0
102
RTVSPost2010PropOp55
 70
     0
102
RTVSPost2010Prop56
140
1.0
102
RTVSPost2010PropOp56
 70
     0
102
RTVSPost2010Prop57
140
1.0
102
RTVSPost2010PropOp57
 70
     0
102
RTVSPropertyOp0
 70
     0
102
RTVSPropertyOp1
 70
     0
102
RTVSPropertyOp2
 70
     0
102
RTVSPropertyOp3
 70
     0
102
RTVSPropertyOp4
 70
     0
102
RTVSPropertyOp5
 70
     0
102
RTVSPropertyOp6
 70
     0
102
RTVSPropertyOp7
 70
     0
102
RTVSPropertyOp8
 70
     0
102
RTVSPropertyOp9
 70
     0
102
RTVSPropertyOp10
 70
     0
102
RTVSPropertyOp11
 70
     0
102
RTVSPropertyOp12
 70
     0
102
RTVSPropertyOp13
 70
     0
102
RTVSPropertyOp14
 70
     2
102
RTVSPropertyOp15
 70
     0
102
RTVSPropertyOp16
 70
     0
102
RTVSPropertyOp17
 70
     0
102
RTVSPropertyOp18
 70
     0
102
RTVSPropertyOp19
 70
     0
102
RTVSPropertyOp20
 70
     0
102
RTVSPropertyOp21
 70
     0
102
RTVSPropertyOp22
 70
     0
102
RTVSPropertyOp23
 70
     0
102
RTVSPropertyOp24
 70
     0
102
RTVSPropertyOp25
 70
     0
102
RTVSPropertyOp26
 70
     0
102
RTVSPropertyOp27
 70
     0
102
RTVSPropertyOp28
 70
     0
102
RTVSPropertyOp29
 70
     0
102
RTVSPropertyOp30
 70
     0
102
RTVSPropertyOp31
 70
     0
102
RTVSPropertyOp32
 70
     0
102
RTVSPropertyOp33
 70
     0
102
RTVSPropertyOp34
 70
     0
102
RTVSPropertyOp35
 70
     0
102
RTVSPropertyOp36
 70
     0
102
RTVSPropertyOp37
 70
     0
102
RTVSPropertyOp38
 70
     0
102
RTVSPropertyOp39
 70
     0
102
RTVSPropertyOp40
 70
     0
102
RTVSPropertyOp41
 70
     0
102
RTVSPropertyOp42
 70
     0
102
RTVSPropertyOp43
 70
     0
102
RTVSPropertyOp44
 70
     0
102
RTVSPropertyOp45
 70
     0
102
RTVSPropertyOp46
 70
     0
102
RTVSPropertyOp47
 70
     0
102
RTVSPropertyOp48
 70
     0
102
RTVSPropertyOp49
 70
     0
102
RTVSPropertyOp50
 70
     0
102
RTVSPropertyOp51
 70
     0
102
RTVSPropertyOp52
 70
     0
102
RTVSPropertyOp53
 70
     0
102
RTVSPropertyOp54
 70
     0
102
RTVSPropertyOp55
 70
     0
102
RTVSPropertyOp56
 70
     0
102
RTVSPropertyOp57
 70
     0
102
RTVSPropertyOp58
 70
     1
102
RTVSPropertyOp59
 70
     1
102
RTVSPropertyOp60
 70
     1
102
RTVSPropertyOp61
 70
     1
102
RTVSPropertyOp62
 70
     1
  0
XRECORD
  5
821
102
{ACAD_REACTORS
330
820
102
}
330
820
100
AcDbXrecord
280
     1
102
RTVSPost2010Prop28
280
     0
102
RTVSPost2010PropOp28
 70
     1
102
RTVSPost2010Prop29
280
     1
102
RTVSPost2010PropOp29
 70
     1
102
RTVSPost2010Prop30
280
     1
102
RTVSPost2010PropOp30
 70
     1
102
RTVSPost2010Prop31
280
     0
102
RTVSPost2010PropOp31
 70
     1
102
RTVSPost2010Prop32
280
     0
102
RTVSPost2010PropOp32
 70
     1
102
RTVSPost2010Prop33
280
     0
102
RTVSPost2010PropOp33
 70
     1
102
RTVSPost2010Prop34
280
     0
102
RTVSPost2010PropOp34
 70
     1
102
RTVSPost2010Prop35
280
     0
102
RTVSPost2010PropOp35
 70
     1
102
RTVSPost2010Prop36
280
     0
102
RTVSPost2010PropOp36
 70
     1
102
RTVSPost2010Prop37
 90
       50
102
RTVSPost2010PropOp37
 70
     1
102
RTVSPost2010Prop38
140
0.0
102
RTVSPost2010PropOp38
 70
     1
102
RTVSPost2010Prop39
140
1.0
102
RTVSPost2010PropOp39
 70
     1
102
RTVSPost2010Prop40
 90
        0
102
RTVSPost2010PropOp40
 70
     1
102
RTVSPost2010Prop41ColorIndex
 90
       18
102
RTVSPost2010Prop41ColorRGB
 90
        0
102
RTVSPost2010PropOp41
 70
     1
102
RTVSPost2010Prop42
 90
       50
102
RTVSPost2010PropOp42
 70
     1
102
RTVSPost2010Prop43
 90
        3
102
RTVSPost2010PropOp43
 70
     1
102
RTVSPost2010Prop44ColorIndex
 90
        5
102
RTVSPost2010Prop44ColorRGB
 90
      255
102
RTVSPost2010PropOp44
 70
     1
102
RTVSPost2010Prop45
280
     0
102
RTVSPost2010PropOp45
 70
     1
102
RTVSPost2010Prop46
 90
       50
102
RTVSPost2010PropOp46
 70
     1
102
RTVSPost2010Prop47
 90
       50
102
RTVSPost2010PropOp47
 70
     1
102
RTVSPost2010Prop48
 90
       50
102
RTVSPost2010PropOp48
 70
     1
102
RTVSPost2010Prop49
280
     0
102
RTVSPost2010PropOp49
 70
     1
102
RTVSPost2010Prop50
 90
       50
102
RTVSPost2010PropOp50
 70
     1
102
RTVSPost2010Prop51ColorIndex
 90
      256
102
RTVSPost2010Prop51ColorRGB
 90
-16777216
102
RTVSPost2010PropOp51
 70
     0
102
RTVSPost2010Prop52
140
1.0
102
RTVSPost2010PropOp52
 70
     0
102
RTVSPost2010Prop53
 90
        2
102
RTVSPost2010PropOp53
 70
     1
102
RTVSPost2010Prop54
  1
strokes_ogs.tif
102
RTVSPost2010PropOp54
 70
     1
102
RTVSPost2010Prop55
280
     0
102
RTVSPost2010PropOp55
 70
     1
102
RTVSPost2010Prop56
140
1.0
102
RTVSPost2010PropOp56
 70
     1
102
RTVSPost2010Prop57
140
1.0
102
RTVSPost2010PropOp57
 70
     1
102
RTVSPropertyOp0
 70
     1
102
RTVSPropertyOp1
 70
     1
102
RTVSPropertyOp2
 70
     1
102
RTVSPropertyOp3
 70
     1
102
RTVSPropertyOp4
 70
     1
102
RTVSPropertyOp5
 70
     1
102
RTVSPropertyOp6
 70
     1
102
RTVSPropertyOp7
 70
     1
102
RTVSPropertyOp8
 70
     1
102
RTVSPropertyOp9
 70
     1
102
RTVSPropertyOp10
 70
     1
102
RTVSPropertyOp11
 70
     1
102
RTVSPropertyOp12
 70
     1
102
RTVSPropertyOp13
 70
     1
102
RTVSPropertyOp14
 70
     1
102
RTVSPropertyOp15
 70
     1
102
RTVSPropertyOp16
 70
     1
102
RTVSPropertyOp17
 70
     1
102
RTVSPropertyOp18
 70
     1
102
RTVSPropertyOp19
 70
     1
102
RTVSPropertyOp20
 70
     1
102
RTVSPropertyOp21
 70
     1
102
RTVSPropertyOp22
 70
     1
102
RTVSPropertyOp23
 70
     1
102
RTVSPropertyOp24
 70
     1
102
RTVSPropertyOp25
 70
     1
102
RTVSPropertyOp26
 70
     1
102
RTVSPropertyOp27
 70
     1
102
RTVSPropertyOp28
 70
     1
102
RTVSPropertyOp29
 70
     1
102
RTVSPropertyOp30
 70
     1
102
RTVSPropertyOp31
 70
     1
102
RTVSPropertyOp32
 70
     1
102
RTVSPropertyOp33
 70
     1
102
RTVSPropertyOp34
 70
     1
102
RTVSPropertyOp35
 70
     1
102
RTVSPropertyOp36
 70
     1
102
RTVSPropertyOp37
 70
     1
102
RTVSPropertyOp38
 70
     1
102
RTVSPropertyOp39
 70
     1
102
RTVSPropertyOp40
 70
     1
102
RTVSPropertyOp41
 70
     1
102
RTVSPropertyOp42
 70
     1
102
RTVSPropertyOp43
 70
     1
102
RTVSPropertyOp44
 70
     1
102
RTVSPropertyOp45
 70
     1
102
RTVSPropertyOp46
 70
     1
102
RTVSPropertyOp47
 70
     1
102
RTVSPropertyOp48
 70
     1
102
RTVSPropertyOp49
 70
     1
102
RTVSPropertyOp50
 70
     1
102
RTVSPropertyOp51
 70
     0
102
RTVSPropertyOp52
 70
     0
102
RTVSPropertyOp53
 70
     1
102
RTVSPropertyOp54
 70
     1
102
RTVSPropertyOp55
 70
     1
102
RTVSPropertyOp56
 70
     1
102
RTVSPropertyOp57
 70
     1
102
RTVSPropertyOp58
 70
     1
102
RTVSPropertyOp59
 70
     1
102
RTVSPropertyOp60
 70
     1
102
RTVSPropertyOp61
 70
     1
102
RTVSPropertyOp62
 70
     1
  0
XRECORD
  5
805
102
{ACAD_REACTORS
330
804
102
}
330
804
100
AcDbXrecord
280
     1
102
RTVSPost2010Prop28
280
     0
102
RTVSPost2010PropOp28
 70
     1
102
RTVSPost2010Prop29
280
     1
102
RTVSPost2010PropOp29
 70
     1
102
RTVSPost2010Prop30
280
     1
102
RTVSPost2010PropOp30
 70
     1
102
RTVSPost2010Prop31
280
     0
102
RTVSPost2010PropOp31
 70
     1
102
RTVSPost2010Prop32
280
     0
102
RTVSPost2010PropOp32
 70
     1
102
RTVSPost2010Prop33
280
     0
102
RTVSPost2010PropOp33
 70
     1
102
RTVSPost2010Prop34
280
     0
102
RTVSPost2010PropOp34
 70
     1
102
RTVSPost2010Prop35
280
     0
102
RTVSPost2010PropOp35
 70
     1
102
RTVSPost2010Prop36
280
     0
102
RTVSPost2010PropOp36
 70
     1
102
RTVSPost2010Prop37
 90
       50
102
RTVSPost2010PropOp37
 70
     1
102
RTVSPost2010Prop38
140
0.0
102
RTVSPost2010PropOp38
 70
     1
102
RTVSPost2010Prop39
140
1.0
102
RTVSPost2010PropOp39
 70
     1
102
RTVSPost2010Prop40
 90
        0
102
RTVSPost2010PropOp40
 70
     1
102
RTVSPost2010Prop41ColorIndex
 90
       18
102
RTVSPost2010Prop41ColorRGB
 90
        0
102
RTVSPost2010PropOp41
 70
     1
102
RTVSPost2010Prop42
 90
       50
102
RTVSPost2010PropOp42
 70
     1
102
RTVSPost2010Prop43
 90
        3
102
RTVSPost2010PropOp43
 70
     1
102
RTVSPost2010Prop44ColorIndex
 90
        5
102
RTVSPost2010Prop44ColorRGB
 90
      255
102
RTVSPost2010PropOp44
 70
     1
102
RTVSPost2010Prop45
280
     0
102
RTVSPost2010PropOp45
 70
     1
102
RTVSPost2010Prop46
 90
       50
102
RTVSPost2010PropOp46
 70
     1
102
RTVSPost2010Prop47
 90
       50
102
RTVSPost2010PropOp47
 70
     1
102
RTVSPost2010Prop48
 90
       50
102
RTVSPost2010PropOp48
 70
     1
102
RTVSPost2010Prop49
280
     0
102
RTVSPost2010PropOp49
 70
     1
102
RTVSPost2010Prop50
 90
       50
102
RTVSPost2010PropOp50
 70
     1
102
RTVSPost2010Prop51ColorIndex
 90
      256
102
RTVSPost2010Prop51ColorRGB
 90
-16777216
102
RTVSPost2010PropOp51
 70
     0
102
RTVSPost2010Prop52
140
1.0
102
RTVSPost2010PropOp52
 70
     0
102
RTVSPost2010Prop53
 90
        2
102
RTVSPost2010PropOp53
 70
     1
102
RTVSPost2010Prop54
  1
strokes_ogs.tif
102
RTVSPost2010PropOp54
 70
     1
102
RTVSPost2010Prop55
280
     0
102
RTVSPost2010PropOp55
 70
     1
102
RTVSPost2010Prop56
140
1.0
102
RTVSPost2010PropOp56
 70
     1
102
RTVSPost2010Prop57
140
1.0
102
RTVSPost2010PropOp57
 70
     1
102
RTVSPropertyOp0
 70
     1
102
RTVSPropertyOp1
 70
     1
102
RTVSPropertyOp2
 70
     1
102
RTVSPropertyOp3
 70
     1
102
RTVSPropertyOp4
 70
     1
102
RTVSPropertyOp5
 70
     1
102
RTVSPropertyOp6
 70
     1
102
RTVSPropertyOp7
 70
     1
102
RTVSPropertyOp8
 70
     1
102
RTVSPropertyOp9
 70
     1
102
RTVSPropertyOp10
 70
     1
102
RTVSPropertyOp11
 70
     1
102
RTVSPropertyOp12
 70
     1
102
RTVSPropertyOp13
 70
     1
102
RTVSPropertyOp14
 70
     1
102
RTVSPropertyOp15
 70
     1
102
RTVSPropertyOp16
 70
     1
102
RTVSPropertyOp17
 70
     1
102
RTVSPropertyOp18
 70
     1
102
RTVSPropertyOp19
 70
     1
102
RTVSPropertyOp20
 70
     1
102
RTVSPropertyOp21
 70
     1
102
RTVSPropertyOp22
 70
     1
102
RTVSPropertyOp23
 70
     1
102
RTVSPropertyOp24
 70
     1
102
RTVSPropertyOp25
 70
     1
102
RTVSPropertyOp26
 70
     1
102
RTVSPropertyOp27
 70
     1
102
RTVSPropertyOp28
 70
     1
102
RTVSPropertyOp29
 70
     1
102
RTVSPropertyOp30
 70
     1
102
RTVSPropertyOp31
 70
     1
102
RTVSPropertyOp32
 70
     1
102
RTVSPropertyOp33
 70
     1
102
RTVSPropertyOp34
 70
     1
102
RTVSPropertyOp35
 70
     1
102
RTVSPropertyOp36
 70
     1
102
RTVSPropertyOp37
 70
     1
102
RTVSPropertyOp38
 70
     1
102
RTVSPropertyOp39
 70
     1
102
RTVSPropertyOp40
 70
     1
102
RTVSPropertyOp41
 70
     1
102
RTVSPropertyOp42
 70
     1
102
RTVSPropertyOp43
 70
     1
102
RTVSPropertyOp44
 70
     1
102
RTVSPropertyOp45
 70
     1
102
RTVSPropertyOp46
 70
     1
102
RTVSPropertyOp47
 70
     1
102
RTVSPropertyOp48
 70
     1
102
RTVSPropertyOp49
 70
     1
102
RTVSPropertyOp50
 70
     1
102
RTVSPropertyOp51
 70
     0
102
RTVSPropertyOp52
 70
     0
102
RTVSPropertyOp53
 70
     1
102
RTVSPropertyOp54
 70
     1
102
RTVSPropertyOp55
 70
     1
102
RTVSPropertyOp56
 70
     1
102
RTVSPropertyOp57
 70
     1
102
RTVSPropertyOp58
 70
     1
102
RTVSPropertyOp59
 70
     1
102
RTVSPropertyOp60
 70
     1
102
RTVSPropertyOp61
 70
     1
102
RTVSPropertyOp62
 70
     1
  0
XRECORD
  5
807
102
{ACAD_REACTORS
330
806
102
}
330
806
100
AcDbXrecord
280
     1
102
RTVSPost2010Prop28
280
     0
102
RTVSPost2010PropOp28
 70
     1
102
RTVSPost2010Prop29
280
     1
102
RTVSPost2010PropOp29
 70
     1
102
RTVSPost2010Prop30
280
     1
102
RTVSPost2010PropOp30
 70
     1
102
RTVSPost2010Prop31
280
     0
102
RTVSPost2010PropOp31
 70
     1
102
RTVSPost2010Prop32
280
     0
102
RTVSPost2010PropOp32
 70
     1
102
RTVSPost2010Prop33
280
     0
102
RTVSPost2010PropOp33
 70
     1
102
RTVSPost2010Prop34
280
     0
102
RTVSPost2010PropOp34
 70
     1
102
RTVSPost2010Prop35
280
     0
102
RTVSPost2010PropOp35
 70
     1
102
RTVSPost2010Prop36
280
     0
102
RTVSPost2010PropOp36
 70
     1
102
RTVSPost2010Prop37
 90
       50
102
RTVSPost2010PropOp37
 70
     1
102
RTVSPost2010Prop38
140
0.0
102
RTVSPost2010PropOp38
 70
     1
102
RTVSPost2010Prop39
140
1.0
102
RTVSPost2010PropOp39
 70
     1
102
RTVSPost2010Prop40
 90
        0
102
RTVSPost2010PropOp40
 70
     1
102
RTVSPost2010Prop41ColorIndex
 90
       18
102
RTVSPost2010Prop41ColorRGB
 90
        0
102
RTVSPost2010PropOp41
 70
     1
102
RTVSPost2010Prop42
 90
       50
102
RTVSPost2010PropOp42
 70
     1
102
RTVSPost2010Prop43
 90
        3
102
RTVSPost2010PropOp43
 70
     1
102
RTVSPost2010Prop44ColorIndex
 90
        5
102
RTVSPost2010Prop44ColorRGB
 90
      255
102
RTVSPost2010PropOp44
 70
     1
102
RTVSPost2010Prop45
280
     0
102
RTVSPost2010PropOp45
 70
     1
102
RTVSPost2010Prop46
 90
       50
102
RTVSPost2010PropOp46
 70
     1
102
RTVSPost2010Prop47
 90
       50
102
RTVSPost2010PropOp47
 70
     1
102
RTVSPost2010Prop48
 90
       50
102
RTVSPost2010PropOp48
 70
     1
102
RTVSPost2010Prop49
280
     0
102
RTVSPost2010PropOp49
 70
     1
102
RTVSPost2010Prop50
 90
       50
102
RTVSPost2010PropOp50
 70
     1
102
RTVSPost2010Prop51ColorIndex
 90
      256
102
RTVSPost2010Prop51ColorRGB
 90
-16777216
102
RTVSPost2010PropOp51
 70
     0
102
RTVSPost2010Prop52
140
1.0
102
RTVSPost2010PropOp52
 70
     0
102
RTVSPost2010Prop53
 90
        2
102
RTVSPost2010PropOp53
 70
     1
102
RTVSPost2010Prop54
  1
strokes_ogs.tif
102
RTVSPost2010PropOp54
 70
     1
102
RTVSPost2010Prop55
280
     0
102
RTVSPost2010PropOp55
 70
     1
102
RTVSPost2010Prop56
140
1.0
102
RTVSPost2010PropOp56
 70
     1
102
RTVSPost2010Prop57
140
1.0
102
RTVSPost2010PropOp57
 70
     1
102
RTVSPropertyOp0
 70
     1
102
RTVSPropertyOp1
 70
     1
102
RTVSPropertyOp2
 70
     1
102
RTVSPropertyOp3
 70
     1
102
RTVSPropertyOp4
 70
     1
102
RTVSPropertyOp5
 70
     1
102
RTVSPropertyOp6
 70
     1
102
RTVSPropertyOp7
 70
     1
102
RTVSPropertyOp8
 70
     1
102
RTVSPropertyOp9
 70
     1
102
RTVSPropertyOp10
 70
     1
102
RTVSPropertyOp11
 70
     1
102
RTVSPropertyOp12
 70
     1
102
RTVSPropertyOp13
 70
     1
102
RTVSPropertyOp14
 70
     1
102
RTVSPropertyOp15
 70
     1
102
RTVSPropertyOp16
 70
     1
102
RTVSPropertyOp17
 70
     1
102
RTVSPropertyOp18
 70
     1
102
RTVSPropertyOp19
 70
     1
102
RTVSPropertyOp20
 70
     1
102
RTVSPropertyOp21
 70
     1
102
RTVSPropertyOp22
 70
     1
102
RTVSPropertyOp23
 70
     1
102
RTVSPropertyOp24
 70
     1
102
RTVSPropertyOp25
 70
     1
102
RTVSPropertyOp26
 70
     1
102
RTVSPropertyOp27
 70
     1
102
RTVSPropertyOp28
 70
     1
102
RTVSPropertyOp29
 70
     1
102
RTVSPropertyOp30
 70
     1
102
RTVSPropertyOp31
 70
     1
102
RTVSPropertyOp32
 70
     1
102
RTVSPropertyOp33
 70
     1
102
RTVSPropertyOp34
 70
     1
102
RTVSPropertyOp35
 70
     1
102
RTVSPropertyOp36
 70
     1
102
RTVSPropertyOp37
 70
     1
102
RTVSPropertyOp38
 70
     1
102
RTVSPropertyOp39
 70
     1
102
RTVSPropertyOp40
 70
     1
102
RTVSPropertyOp41
 70
     1
102
RTVSPropertyOp42
 70
     1
102
RTVSPropertyOp43
 70
     1
102
RTVSPropertyOp44
 70
     1
102
RTVSPropertyOp45
 70
     1
102
RTVSPropertyOp46
 70
     1
102
RTVSPropertyOp47
 70
     1
102
RTVSPropertyOp48
 70
     1
102
RTVSPropertyOp49
 70
     1
102
RTVSPropertyOp50
 70
     1
102
RTVSPropertyOp51
 70
     0
102
RTVSPropertyOp52
 70
     0
102
RTVSPropertyOp53
 70
     1
102
RTVSPropertyOp54
 70
     1
102
RTVSPropertyOp55
 70
     1
102
RTVSPropertyOp56
 70
     1
102
RTVSPropertyOp57
 70
     1
102
RTVSPropertyOp58
 70
     1
102
RTVSPropertyOp59
 70
     1
102
RTVSPropertyOp60
 70
     1
102
RTVSPropertyOp61
 70
     1
102
RTVSPropertyOp62
 70
     1
  0
XRECORD
  5
809
102
{ACAD_REACTORS
330
808
102
}
330
808
100
AcDbXrecord
280
     1
102
RTVSPost2010Prop28
280
     0
102
RTVSPost2010PropOp28
 70
     1
102
RTVSPost2010Prop29
280
     1
102
RTVSPost2010PropOp29
 70
     1
102
RTVSPost2010Prop30
280
     1
102
RTVSPost2010PropOp30
 70
     1
102
RTVSPost2010Prop31
280
     0
102
RTVSPost2010PropOp31
 70
     1
102
RTVSPost2010Prop32
280
     0
102
RTVSPost2010PropOp32
 70
     1
102
RTVSPost2010Prop33
280
     0
102
RTVSPost2010PropOp33
 70
     1
102
RTVSPost2010Prop34
280
     0
102
RTVSPost2010PropOp34
 70
     1
102
RTVSPost2010Prop35
280
     0
102
RTVSPost2010PropOp35
 70
     1
102
RTVSPost2010Prop36
280
     0
102
RTVSPost2010PropOp36
 70
     1
102
RTVSPost2010Prop37
 90
       50
102
RTVSPost2010PropOp37
 70
     1
102
RTVSPost2010Prop38
140
0.0
102
RTVSPost2010PropOp38
 70
     1
102
RTVSPost2010Prop39
140
1.0
102
RTVSPost2010PropOp39
 70
     1
102
RTVSPost2010Prop40
 90
        0
102
RTVSPost2010PropOp40
 70
     1
102
RTVSPost2010Prop41ColorIndex
 90
       18
102
RTVSPost2010Prop41ColorRGB
 90
        0
102
RTVSPost2010PropOp41
 70
     1
102
RTVSPost2010Prop42
 90
       50
102
RTVSPost2010PropOp42
 70
     1
102
RTVSPost2010Prop43
 90
        3
102
RTVSPost2010PropOp43
 70
     1
102
RTVSPost2010Prop44ColorIndex
 90
        5
102
RTVSPost2010Prop44ColorRGB
 90
      255
102
RTVSPost2010PropOp44
 70
     1
102
RTVSPost2010Prop45
280
     0
102
RTVSPost2010PropOp45
 70
     1
102
RTVSPost2010Prop46
 90
       50
102
RTVSPost2010PropOp46
 70
     1
102
RTVSPost2010Prop47
 90
       50
102
RTVSPost2010PropOp47
 70
     1
102
RTVSPost2010Prop48
 90
       50
102
RTVSPost2010PropOp48
 70
     1
102
RTVSPost2010Prop49
280
     0
102
RTVSPost2010PropOp49
 70
     1
102
RTVSPost2010Prop50
 90
       50
102
RTVSPost2010PropOp50
 70
     1
102
RTVSPost2010Prop51ColorIndex
 90
      256
102
RTVSPost2010Prop51ColorRGB
 90
-16777216
102
RTVSPost2010PropOp51
 70
     0
102
RTVSPost2010Prop52
140
1.0
102
RTVSPost2010PropOp52
 70
     0
102
RTVSPost2010Prop53
 90
        2
102
RTVSPost2010PropOp53
 70
     1
102
RTVSPost2010Prop54
  1
strokes_ogs.tif
102
RTVSPost2010PropOp54
 70
     1
102
RTVSPost2010Prop55
280
     0
102
RTVSPost2010PropOp55
 70
     1
102
RTVSPost2010Prop56
140
1.0
102
RTVSPost2010PropOp56
 70
     1
102
RTVSPost2010Prop57
140
1.0
102
RTVSPost2010PropOp57
 70
     1
102
RTVSPropertyOp0
 70
     1
102
RTVSPropertyOp1
 70
     1
102
RTVSPropertyOp2
 70
     1
102
RTVSPropertyOp3
 70
     1
102
RTVSPropertyOp4
 70
     1
102
RTVSPropertyOp5
 70
     1
102
RTVSPropertyOp6
 70
     1
102
RTVSPropertyOp7
 70
     1
102
RTVSPropertyOp8
 70
     1
102
RTVSPropertyOp9
 70
     1
102
RTVSPropertyOp10
 70
     1
102
RTVSPropertyOp11
 70
     1
102
RTVSPropertyOp12
 70
     1
102
RTVSPropertyOp13
 70
     1
102
RTVSPropertyOp14
 70
     1
102
RTVSPropertyOp15
 70
     1
102
RTVSPropertyOp16
 70
     1
102
RTVSPropertyOp17
 70
     1
102
RTVSPropertyOp18
 70
     1
102
RTVSPropertyOp19
 70
     1
102
RTVSPropertyOp20
 70
     1
102
RTVSPropertyOp21
 70
     1
102
RTVSPropertyOp22
 70
     1
102
RTVSPropertyOp23
 70
     1
102
RTVSPropertyOp24
 70
     1
102
RTVSPropertyOp25
 70
     1
102
RTVSPropertyOp26
 70
     1
102
RTVSPropertyOp27
 70
     1
102
RTVSPropertyOp28
 70
     1
102
RTVSPropertyOp29
 70
     1
102
RTVSPropertyOp30
 70
     1
102
RTVSPropertyOp31
 70
     1
102
RTVSPropertyOp32
 70
     1
102
RTVSPropertyOp33
 70
     1
102
RTVSPropertyOp34
 70
     1
102
RTVSPropertyOp35
 70
     1
102
RTVSPropertyOp36
 70
     1
102
RTVSPropertyOp37
 70
     1
102
RTVSPropertyOp38
 70
     1
102
RTVSPropertyOp39
 70
     1
102
RTVSPropertyOp40
 70
     1
102
RTVSPropertyOp41
 70
     1
102
RTVSPropertyOp42
 70
     1
102
RTVSPropertyOp43
 70
     1
102
RTVSPropertyOp44
 70
     1
102
RTVSPropertyOp45
 70
     1
102
RTVSPropertyOp46
 70
     1
102
RTVSPropertyOp47
 70
     1
102
RTVSPropertyOp48
 70
     1
102
RTVSPropertyOp49
 70
     1
102
RTVSPropertyOp50
 70
     1
102
RTVSPropertyOp51
 70
     0
102
RTVSPropertyOp52
 70
     0
102
RTVSPropertyOp53
 70
     1
102
RTVSPropertyOp54
 70
     1
102
RTVSPropertyOp55
 70
     1
102
RTVSPropertyOp56
 70
     1
102
RTVSPropertyOp57
 70
     1
102
RTVSPropertyOp58
 70
     1
102
RTVSPropertyOp59
 70
     1
102
RTVSPropertyOp60
 70
     1
102
RTVSPropertyOp61
 70
     1
102
RTVSPropertyOp62
 70
     1
  0
XRECORD
  5
80B
102
{ACAD_REACTORS
330
80A
102
}
330
80A
100
AcDbXrecord
280
     1
102
RTVSPost2010Prop28
280
     0
102
RTVSPost2010PropOp28
 70
     1
102
RTVSPost2010Prop29
280
     1
102
RTVSPost2010PropOp29
 70
     1
102
RTVSPost2010Prop30
280
     1
102
RTVSPost2010PropOp30
 70
     1
102
RTVSPost2010Prop31
280
     0
102
RTVSPost2010PropOp31
 70
     1
102
RTVSPost2010Prop32
280
     0
102
RTVSPost2010PropOp32
 70
     1
102
RTVSPost2010Prop33
280
     0
102
RTVSPost2010PropOp33
 70
     1
102
RTVSPost2010Prop34
280
     0
102
RTVSPost2010PropOp34
 70
     1
102
RTVSPost2010Prop35
280
     0
102
RTVSPost2010PropOp35
 70
     1
102
RTVSPost2010Prop36
280
     0
102
RTVSPost2010PropOp36
 70
     1
102
RTVSPost2010Prop37
 90
       50
102
RTVSPost2010PropOp37
 70
     1
102
RTVSPost2010Prop38
140
0.0
102
RTVSPost2010PropOp38
 70
     1
102
RTVSPost2010Prop39
140
1.0
102
RTVSPost2010PropOp39
 70
     1
102
RTVSPost2010Prop40
 90
        0
102
RTVSPost2010PropOp40
 70
     1
102
RTVSPost2010Prop41ColorIndex
 90
       18
102
RTVSPost2010Prop41ColorRGB
 90
        0
102
RTVSPost2010PropOp41
 70
     1
102
RTVSPost2010Prop42
 90
       50
102
RTVSPost2010PropOp42
 70
     1
102
RTVSPost2010Prop43
 90
        3
102
RTVSPost2010PropOp43
 70
     1
102
RTVSPost2010Prop44ColorIndex
 90
        5
102
RTVSPost2010Prop44ColorRGB
 90
      255
102
RTVSPost2010PropOp44
 70
     1
102
RTVSPost2010Prop45
280
     0
102
RTVSPost2010PropOp45
 70
     1
102
RTVSPost2010Prop46
 90
       50
102
RTVSPost2010PropOp46
 70
     1
102
RTVSPost2010Prop47
 90
       50
102
RTVSPost2010PropOp47
 70
     1
102
RTVSPost2010Prop48
 90
       50
102
RTVSPost2010PropOp48
 70
     1
102
RTVSPost2010Prop49
280
     0
102
RTVSPost2010PropOp49
 70
     1
102
RTVSPost2010Prop50
 90
       50
102
RTVSPost2010PropOp50
 70
     1
102
RTVSPost2010Prop51ColorIndex
 90
      256
102
RTVSPost2010Prop51ColorRGB
 90
-16777216
102
RTVSPost2010PropOp51
 70
     0
102
RTVSPost2010Prop52
140
1.0
102
RTVSPost2010PropOp52
 70
     0
102
RTVSPost2010Prop53
 90
        2
102
RTVSPost2010PropOp53
 70
     1
102
RTVSPost2010Prop54
  1
strokes_ogs.tif
102
RTVSPost2010PropOp54
 70
     1
102
RTVSPost2010Prop55
280
     0
102
RTVSPost2010PropOp55
 70
     1
102
RTVSPost2010Prop56
140
1.0
102
RTVSPost2010PropOp56
 70
     1
102
RTVSPost2010Prop57
140
1.0
102
RTVSPost2010PropOp57
 70
     1
102
RTVSPropertyOp0
 70
     1
102
RTVSPropertyOp1
 70
     1
102
RTVSPropertyOp2
 70
     1
102
RTVSPropertyOp3
 70
     1
102
RTVSPropertyOp4
 70
     1
102
RTVSPropertyOp5
 70
     1
102
RTVSPropertyOp6
 70
     1
102
RTVSPropertyOp7
 70
     1
102
RTVSPropertyOp8
 70
     1
102
RTVSPropertyOp9
 70
     1
102
RTVSPropertyOp10
 70
     1
102
RTVSPropertyOp11
 70
     1
102
RTVSPropertyOp12
 70
     1
102
RTVSPropertyOp13
 70
     1
102
RTVSPropertyOp14
 70
     1
102
RTVSPropertyOp15
 70
     1
102
RTVSPropertyOp16
 70
     1
102
RTVSPropertyOp17
 70
     1
102
RTVSPropertyOp18
 70
     1
102
RTVSPropertyOp19
 70
     1
102
RTVSPropertyOp20
 70
     1
102
RTVSPropertyOp21
 70
     1
102
RTVSPropertyOp22
 70
     1
102
RTVSPropertyOp23
 70
     1
102
RTVSPropertyOp24
 70
     1
102
RTVSPropertyOp25
 70
     1
102
RTVSPropertyOp26
 70
     1
102
RTVSPropertyOp27
 70
     1
102
RTVSPropertyOp28
 70
     1
102
RTVSPropertyOp29
 70
     1
102
RTVSPropertyOp30
 70
     1
102
RTVSPropertyOp31
 70
     1
102
RTVSPropertyOp32
 70
     1
102
RTVSPropertyOp33
 70
     1
102
RTVSPropertyOp34
 70
     1
102
RTVSPropertyOp35
 70
     1
102
RTVSPropertyOp36
 70
     1
102
RTVSPropertyOp37
 70
     1
102
RTVSPropertyOp38
 70
     1
102
RTVSPropertyOp39
 70
     1
102
RTVSPropertyOp40
 70
     1
102
RTVSPropertyOp41
 70
     1
102
RTVSPropertyOp42
 70
     1
102
RTVSPropertyOp43
 70
     1
102
RTVSPropertyOp44
 70
     1
102
RTVSPropertyOp45
 70
     1
102
RTVSPropertyOp46
 70
     1
102
RTVSPropertyOp47
 70
     1
102
RTVSPropertyOp48
 70
     1
102
RTVSPropertyOp49
 70
     1
102
RTVSPropertyOp50
 70
     1
102
RTVSPropertyOp51
 70
     0
102
RTVSPropertyOp52
 70
     0
102
RTVSPropertyOp53
 70
     1
102
RTVSPropertyOp54
 70
     1
102
RTVSPropertyOp55
 70
     1
102
RTVSPropertyOp56
 70
     1
102
RTVSPropertyOp57
 70
     1
102
RTVSPropertyOp58
 70
     1
102
RTVSPropertyOp59
 70
     1
102
RTVSPropertyOp60
 70
     1
102
RTVSPropertyOp61
 70
     1
102
RTVSPropertyOp62
 70
     1
  0
XRECORD
  5
811
102
{ACAD_REACTORS
330
810
102
}
330
810
100
AcDbXrecord
280
     1
102
RTVSPost2010Prop28
280
     0
102
RTVSPost2010PropOp28
 70
     1
102
RTVSPost2010Prop29
280
     1
102
RTVSPost2010PropOp29
 70
     1
102
RTVSPost2010Prop30
280
     1
102
RTVSPost2010PropOp30
 70
     1
102
RTVSPost2010Prop31
280
     0
102
RTVSPost2010PropOp31
 70
     1
102
RTVSPost2010Prop32
280
     0
102
RTVSPost2010PropOp32
 70
     1
102
RTVSPost2010Prop33
280
     0
102
RTVSPost2010PropOp33
 70
     1
102
RTVSPost2010Prop34
280
     0
102
RTVSPost2010PropOp34
 70
     1
102
RTVSPost2010Prop35
280
     0
102
RTVSPost2010PropOp35
 70
     1
102
RTVSPost2010Prop36
280
     0
102
RTVSPost2010PropOp36
 70
     1
102
RTVSPost2010Prop37
 90
       50
102
RTVSPost2010PropOp37
 70
     1
102
RTVSPost2010Prop38
140
0.0
102
RTVSPost2010PropOp38
 70
     1
102
RTVSPost2010Prop39
140
1.0
102
RTVSPost2010PropOp39
 70
     1
102
RTVSPost2010Prop40
 90
        0
102
RTVSPost2010PropOp40
 70
     1
102
RTVSPost2010Prop41ColorIndex
 90
       18
102
RTVSPost2010Prop41ColorRGB
 90
        0
102
RTVSPost2010PropOp41
 70
     1
102
RTVSPost2010Prop42
 90
       50
102
RTVSPost2010PropOp42
 70
     1
102
RTVSPost2010Prop43
 90
        3
102
RTVSPost2010PropOp43
 70
     1
102
RTVSPost2010Prop44ColorIndex
 90
        5
102
RTVSPost2010Prop44ColorRGB
 90
      255
102
RTVSPost2010PropOp44
 70
     1
102
RTVSPost2010Prop45
280
     0
102
RTVSPost2010PropOp45
 70
     1
102
RTVSPost2010Prop46
 90
       50
102
RTVSPost2010PropOp46
 70
     1
102
RTVSPost2010Prop47
 90
       50
102
RTVSPost2010PropOp47
 70
     1
102
RTVSPost2010Prop48
 90
       50
102
RTVSPost2010PropOp48
 70
     1
102
RTVSPost2010Prop49
280
     0
102
RTVSPost2010PropOp49
 70
     1
102
RTVSPost2010Prop50
 90
       50
102
RTVSPost2010PropOp50
 70
     1
102
RTVSPost2010Prop51ColorIndex
 90
      256
102
RTVSPost2010Prop51ColorRGB
 90
-16777216
102
RTVSPost2010PropOp51
 70
     0
102
RTVSPost2010Prop52
140
1.0
102
RTVSPost2010PropOp52
 70
     0
102
RTVSPost2010Prop53
 90
        2
102
RTVSPost2010PropOp53
 70
     1
102
RTVSPost2010Prop54
  1
strokes_ogs.tif
102
RTVSPost2010PropOp54
 70
     1
102
RTVSPost2010Prop55
280
     0
102
RTVSPost2010PropOp55
 70
     1
102
RTVSPost2010Prop56
140
1.0
102
RTVSPost2010PropOp56
 70
     1
102
RTVSPost2010Prop57
140
1.0
102
RTVSPost2010PropOp57
 70
     1
102
RTVSPropertyOp0
 70
     1
102
RTVSPropertyOp1
 70
     1
102
RTVSPropertyOp2
 70
     1
102
RTVSPropertyOp3
 70
     1
102
RTVSPropertyOp4
 70
     1
102
RTVSPropertyOp5
 70
     1
102
RTVSPropertyOp6
 70
     1
102
RTVSPropertyOp7
 70
     1
102
RTVSPropertyOp8
 70
     1
102
RTVSPropertyOp9
 70
     1
102
RTVSPropertyOp10
 70
     1
102
RTVSPropertyOp11
 70
     1
102
RTVSPropertyOp12
 70
     1
102
RTVSPropertyOp13
 70
     1
102
RTVSPropertyOp14
 70
     1
102
RTVSPropertyOp15
 70
     1
102
RTVSPropertyOp16
 70
     1
102
RTVSPropertyOp17
 70
     1
102
RTVSPropertyOp18
 70
     1
102
RTVSPropertyOp19
 70
     1
102
RTVSPropertyOp20
 70
     1
102
RTVSPropertyOp21
 70
     1
102
RTVSPropertyOp22
 70
     1
102
RTVSPropertyOp23
 70
     1
102
RTVSPropertyOp24
 70
     1
102
RTVSPropertyOp25
 70
     1
102
RTVSPropertyOp26
 70
     1
102
RTVSPropertyOp27
 70
     1
102
RTVSPropertyOp28
 70
     1
102
RTVSPropertyOp29
 70
     1
102
RTVSPropertyOp30
 70
     1
102
RTVSPropertyOp31
 70
     1
102
RTVSPropertyOp32
 70
     1
102
RTVSPropertyOp33
 70
     1
102
RTVSPropertyOp34
 70
     1
102
RTVSPropertyOp35
 70
     1
102
RTVSPropertyOp36
 70
     1
102
RTVSPropertyOp37
 70
     1
102
RTVSPropertyOp38
 70
     1
102
RTVSPropertyOp39
 70
     1
102
RTVSPropertyOp40
 70
     1
102
RTVSPropertyOp41
 70
     1
102
RTVSPropertyOp42
 70
     1
102
RTVSPropertyOp43
 70
     1
102
RTVSPropertyOp44
 70
     1
102
RTVSPropertyOp45
 70
     1
102
RTVSPropertyOp46
 70
     1
102
RTVSPropertyOp47
 70
     1
102
RTVSPropertyOp48
 70
     1
102
RTVSPropertyOp49
 70
     1
102
RTVSPropertyOp50
 70
     1
102
RTVSPropertyOp51
 70
     0
102
RTVSPropertyOp52
 70
     0
102
RTVSPropertyOp53
 70
     1
102
RTVSPropertyOp54
 70
     1
102
RTVSPropertyOp55
 70
     1
102
RTVSPropertyOp56
 70
     1
102
RTVSPropertyOp57
 70
     1
102
RTVSPropertyOp58
 70
     1
102
RTVSPropertyOp59
 70
     1
102
RTVSPropertyOp60
 70
     1
102
RTVSPropertyOp61
 70
     1
102
RTVSPropertyOp62
 70
     1
  0
XRECORD
  5
825
102
{ACAD_REACTORS
330
824
102
}
330
824
100
AcDbXrecord
280
     1
102
RTVSPost2010Prop28
280
     0
102
RTVSPost2010PropOp28
 70
     0
102
RTVSPost2010Prop29
280
     1
102
RTVSPost2010PropOp29
 70
     0
102
RTVSPost2010Prop30
280
     1
102
RTVSPost2010PropOp30
 70
     0
102
RTVSPost2010Prop31
280
     0
102
RTVSPost2010PropOp31
 70
     0
102
RTVSPost2010Prop32
280
     0
102
RTVSPost2010PropOp32
 70
     0
102
RTVSPost2010Prop33
280
     0
102
RTVSPost2010PropOp33
 70
     0
102
RTVSPost2010Prop34
280
     0
102
RTVSPost2010PropOp34
 70
     0
102
RTVSPost2010Prop35
280
     0
102
RTVSPost2010PropOp35
 70
     0
102
RTVSPost2010Prop36
280
     0
102
RTVSPost2010PropOp36
 70
     0
102
RTVSPost2010Prop37
 90
       50
102
RTVSPost2010PropOp37
 70
     0
102
RTVSPost2010Prop38
140
0.0
102
RTVSPost2010PropOp38
 70
     0
102
RTVSPost2010Prop39
140
1.0
102
RTVSPost2010PropOp39
 70
     0
102
RTVSPost2010Prop40
 90
        0
102
RTVSPost2010PropOp40
 70
     0
102
RTVSPost2010Prop41ColorIndex
 90
       18
102
RTVSPost2010Prop41ColorRGB
 90
        0
102
RTVSPost2010PropOp41
 70
     0
102
RTVSPost2010Prop42
 90
       50
102
RTVSPost2010PropOp42
 70
     0
102
RTVSPost2010Prop43
 90
        3
102
RTVSPost2010PropOp43
 70
     0
102
RTVSPost2010Prop44ColorIndex
 90
        5
102
RTVSPost2010Prop44ColorRGB
 90
      255
102
RTVSPost2010PropOp44
 70
     0
102
RTVSPost2010Prop45
280
     0
102
RTVSPost2010PropOp45
 70
     0
102
RTVSPost2010Prop46
 90
       50
102
RTVSPost2010PropOp46
 70
     0
102
RTVSPost2010Prop47
 90
       50
102
RTVSPost2010PropOp47
 70
     0
102
RTVSPost2010Prop48
 90
       50
102
RTVSPost2010PropOp48
 70
     0
102
RTVSPost2010Prop49
280
     0
102
RTVSPost2010PropOp49
 70
     0
102
RTVSPost2010Prop50
 90
       50
102
RTVSPost2010PropOp50
 70
     0
102
RTVSPost2010Prop51ColorIndex
 90
      256
102
RTVSPost2010Prop51ColorRGB
 90
-16777216
102
RTVSPost2010PropOp51
 70
     0
102
RTVSPost2010Prop52
140
1.0
102
RTVSPost2010PropOp52
 70
     0
102
RTVSPost2010Prop53
 90
        2
102
RTVSPost2010PropOp53
 70
     0
102
RTVSPost2010Prop54
  1
strokes_ogs.tif
102
RTVSPost2010PropOp54
 70
     0
102
RTVSPost2010Prop55
280
     0
102
RTVSPost2010PropOp55
 70
     0
102
RTVSPost2010Prop56
140
1.0
102
RTVSPost2010PropOp56
 70
     0
102
RTVSPost2010Prop57
140
1.0
102
RTVSPost2010PropOp57
 70
     0
102
RTVSPropertyOp0
 70
     0
102
RTVSPropertyOp1
 70
     0
102
RTVSPropertyOp2
 70
     0
102
RTVSPropertyOp3
 70
     0
102
RTVSPropertyOp4
 70
     0
102
RTVSPropertyOp5
 70
     0
102
RTVSPropertyOp6
 70
     0
102
RTVSPropertyOp7
 70
     0
102
RTVSPropertyOp8
 70
     0
102
RTVSPropertyOp9
 70
     0
102
RTVSPropertyOp10
 70
     0
102
RTVSPropertyOp11
 70
     0
102
RTVSPropertyOp12
 70
     0
102
RTVSPropertyOp13
 70
     0
102
RTVSPropertyOp14
 70
     2
102
RTVSPropertyOp15
 70
     0
102
RTVSPropertyOp16
 70
     0
102
RTVSPropertyOp17
 70
     0
102
RTVSPropertyOp18
 70
     0
102
RTVSPropertyOp19
 70
     0
102
RTVSPropertyOp20
 70
     0
102
RTVSPropertyOp21
 70
     0
102
RTVSPropertyOp22
 70
     0
102
RTVSPropertyOp23
 70
     0
102
RTVSPropertyOp24
 70
     0
102
RTVSPropertyOp25
 70
     0
102
RTVSPropertyOp26
 70
     0
102
RTVSPropertyOp27
 70
     0
102
RTVSPropertyOp28
 70
     0
102
RTVSPropertyOp29
 70
     0
102
RTVSPropertyOp30
 70
     0
102
RTVSPropertyOp31
 70
     0
102
RTVSPropertyOp32
 70
     0
102
RTVSPropertyOp33
 70
     0
102
RTVSPropertyOp34
 70
     0
102
RTVSPropertyOp35
 70
     0
102
RTVSPropertyOp36
 70
     0
102
RTVSPropertyOp37
 70
     0
102
RTVSPropertyOp38
 70
     0
102
RTVSPropertyOp39
 70
     0
102
RTVSPropertyOp40
 70
     0
102
RTVSPropertyOp41
 70
     0
102
RTVSPropertyOp42
 70
     0
102
RTVSPropertyOp43
 70
     0
102
RTVSPropertyOp44
 70
     0
102
RTVSPropertyOp45
 70
     0
102
RTVSPropertyOp46
 70
     0
102
RTVSPropertyOp47
 70
     0
102
RTVSPropertyOp48
 70
     0
102
RTVSPropertyOp49
 70
     0
102
RTVSPropertyOp50
 70
     0
102
RTVSPropertyOp51
 70
     0
102
RTVSPropertyOp52
 70
     0
102
RTVSPropertyOp53
 70
     0
102
RTVSPropertyOp54
 70
     0
102
RTVSPropertyOp55
 70
     0
102
RTVSPropertyOp56
 70
     0
102
RTVSPropertyOp57
 70
     0
102
RTVSPropertyOp58
 70
     1
102
RTVSPropertyOp59
 70
     1
102
RTVSPropertyOp60
 70
     1
102
RTVSPropertyOp61
 70
     1
102
RTVSPropertyOp62
 70
     1
  0
XRECORD
  5
81F
102
{ACAD_REACTORS
330
81E
102
}
330
81E
100
AcDbXrecord
280
     1
102
RTVSPost2010Prop28
280
     0
102
RTVSPost2010PropOp28
 70
     1
102
RTVSPost2010Prop29
280
     1
102
RTVSPost2010PropOp29
 70
     1
102
RTVSPost2010Prop30
280
     1
102
RTVSPost2010PropOp30
 70
     1
102
RTVSPost2010Prop31
280
     0
102
RTVSPost2010PropOp31
 70
     1
102
RTVSPost2010Prop32
280
     0
102
RTVSPost2010PropOp32
 70
     1
102
RTVSPost2010Prop33
280
     0
102
RTVSPost2010PropOp33
 70
     1
102
RTVSPost2010Prop34
280
     0
102
RTVSPost2010PropOp34
 70
     1
102
RTVSPost2010Prop35
280
     0
102
RTVSPost2010PropOp35
 70
     1
102
RTVSPost2010Prop36
280
     0
102
RTVSPost2010PropOp36
 70
     1
102
RTVSPost2010Prop37
 90
       50
102
RTVSPost2010PropOp37
 70
     1
102
RTVSPost2010Prop38
140
0.0
102
RTVSPost2010PropOp38
 70
     1
102
RTVSPost2010Prop39
140
1.0
102
RTVSPost2010PropOp39
 70
     1
102
RTVSPost2010Prop40
 90
        0
102
RTVSPost2010PropOp40
 70
     1
102
RTVSPost2010Prop41ColorIndex
 90
       18
102
RTVSPost2010Prop41ColorRGB
 90
        0
102
RTVSPost2010PropOp41
 70
     1
102
RTVSPost2010Prop42
 90
       50
102
RTVSPost2010PropOp42
 70
     1
102
RTVSPost2010Prop43
 90
        3
102
RTVSPost2010PropOp43
 70
     1
102
RTVSPost2010Prop44ColorIndex
 90
        5
102
RTVSPost2010Prop44ColorRGB
 90
      255
102
RTVSPost2010PropOp44
 70
     1
102
RTVSPost2010Prop45
280
     0
102
RTVSPost2010PropOp45
 70
     1
102
RTVSPost2010Prop46
 90
       50
102
RTVSPost2010PropOp46
 70
     1
102
RTVSPost2010Prop47
 90
       50
102
RTVSPost2010PropOp47
 70
     1
102
RTVSPost2010Prop48
 90
       50
102
RTVSPost2010PropOp48
 70
     1
102
RTVSPost2010Prop49
280
     0
102
RTVSPost2010PropOp49
 70
     1
102
RTVSPost2010Prop50
 90
       50
102
RTVSPost2010PropOp50
 70
     1
102
RTVSPost2010Prop51ColorIndex
 90
      256
102
RTVSPost2010Prop51ColorRGB
 90
-16777216
102
RTVSPost2010PropOp51
 70
     0
102
RTVSPost2010Prop52
140
1.0
102
RTVSPost2010PropOp52
 70
     0
102
RTVSPost2010Prop53
 90
        2
102
RTVSPost2010PropOp53
 70
     1
102
RTVSPost2010Prop54
  1
strokes_ogs.tif
102
RTVSPost2010PropOp54
 70
     1
102
RTVSPost2010Prop55
280
     0
102
RTVSPost2010PropOp55
 70
     1
102
RTVSPost2010Prop56
140
1.0
102
RTVSPost2010PropOp56
 70
     1
102
RTVSPost2010Prop57
140
1.0
102
RTVSPost2010PropOp57
 70
     1
102
RTVSPropertyOp0
 70
     1
102
RTVSPropertyOp1
 70
     1
102
RTVSPropertyOp2
 70
     1
102
RTVSPropertyOp3
 70
     1
102
RTVSPropertyOp4
 70
     1
102
RTVSPropertyOp5
 70
     1
102
RTVSPropertyOp6
 70
     1
102
RTVSPropertyOp7
 70
     1
102
RTVSPropertyOp8
 70
     1
102
RTVSPropertyOp9
 70
     1
102
RTVSPropertyOp10
 70
     1
102
RTVSPropertyOp11
 70
     1
102
RTVSPropertyOp12
 70
     1
102
RTVSPropertyOp13
 70
     1
102
RTVSPropertyOp14
 70
     1
102
RTVSPropertyOp15
 70
     1
102
RTVSPropertyOp16
 70
     1
102
RTVSPropertyOp17
 70
     1
102
RTVSPropertyOp18
 70
     1
102
RTVSPropertyOp19
 70
     1
102
RTVSPropertyOp20
 70
     1
102
RTVSPropertyOp21
 70
     1
102
RTVSPropertyOp22
 70
     1
102
RTVSPropertyOp23
 70
     1
102
RTVSPropertyOp24
 70
     1
102
RTVSPropertyOp25
 70
     1
102
RTVSPropertyOp26
 70
     1
102
RTVSPropertyOp27
 70
     1
102
RTVSPropertyOp28
 70
     1
102
RTVSPropertyOp29
 70
     1
102
RTVSPropertyOp30
 70
     1
102
RTVSPropertyOp31
 70
     1
102
RTVSPropertyOp32
 70
     1
102
RTVSPropertyOp33
 70
     1
102
RTVSPropertyOp34
 70
     1
102
RTVSPropertyOp35
 70
     1
102
RTVSPropertyOp36
 70
     1
102
RTVSPropertyOp37
 70
     1
102
RTVSPropertyOp38
 70
     1
102
RTVSPropertyOp39
 70
     1
102
RTVSPropertyOp40
 70
     1
102
RTVSPropertyOp41
 70
     1
102
RTVSPropertyOp42
 70
     1
102
RTVSPropertyOp43
 70
     1
102
RTVSPropertyOp44
 70
     1
102
RTVSPropertyOp45
 70
     1
102
RTVSPropertyOp46
 70
     1
102
RTVSPropertyOp47
 70
     1
102
RTVSPropertyOp48
 70
     1
102
RTVSPropertyOp49
 70
     1
102
RTVSPropertyOp50
 70
     1
102
RTVSPropertyOp51
 70
     0
102
RTVSPropertyOp52
 70
     0
102
RTVSPropertyOp53
 70
     1
102
RTVSPropertyOp54
 70
     1
102
RTVSPropertyOp55
 70
     1
102
RTVSPropertyOp56
 70
     1
102
RTVSPropertyOp57
 70
     1
102
RTVSPropertyOp58
 70
     1
102
RTVSPropertyOp59
 70
     1
102
RTVSPropertyOp60
 70
     1
102
RTVSPropertyOp61
 70
     1
102
RTVSPropertyOp62
 70
     1
  0
XRECORD
  5
827
102
{ACAD_REACTORS
330
826
102
}
330
826
100
AcDbXrecord
280
     1
102
RTVSPost2010Prop28
280
     0
102
RTVSPost2010PropOp28
 70
     0
102
RTVSPost2010Prop29
280
     1
102
RTVSPost2010PropOp29
 70
     0
102
RTVSPost2010Prop30
280
     1
102
RTVSPost2010PropOp30
 70
     0
102
RTVSPost2010Prop31
280
     0
102
RTVSPost2010PropOp31
 70
     0
102
RTVSPost2010Prop32
280
     0
102
RTVSPost2010PropOp32
 70
     0
102
RTVSPost2010Prop33
280
     0
102
RTVSPost2010PropOp33
 70
     0
102
RTVSPost2010Prop34
280
     0
102
RTVSPost2010PropOp34
 70
     0
102
RTVSPost2010Prop35
280
     0
102
RTVSPost2010PropOp35
 70
     0
102
RTVSPost2010Prop36
280
     0
102
RTVSPost2010PropOp36
 70
     0
102
RTVSPost2010Prop37
 90
       50
102
RTVSPost2010PropOp37
 70
     0
102
RTVSPost2010Prop38
140
0.0
102
RTVSPost2010PropOp38
 70
     0
102
RTVSPost2010Prop39
140
1.0
102
RTVSPost2010PropOp39
 70
     0
102
RTVSPost2010Prop40
 90
        0
102
RTVSPost2010PropOp40
 70
     0
102
RTVSPost2010Prop41ColorIndex
 90
       18
102
RTVSPost2010Prop41ColorRGB
 90
        0
102
RTVSPost2010PropOp41
 70
     0
102
RTVSPost2010Prop42
 90
       50
102
RTVSPost2010PropOp42
 70
     0
102
RTVSPost2010Prop43
 90
        3
102
RTVSPost2010PropOp43
 70
     0
102
RTVSPost2010Prop44ColorIndex
 90
        5
102
RTVSPost2010Prop44ColorRGB
 90
      255
102
RTVSPost2010PropOp44
 70
     0
102
RTVSPost2010Prop45
280
     0
102
RTVSPost2010PropOp45
 70
     0
102
RTVSPost2010Prop46
 90
       50
102
RTVSPost2010PropOp46
 70
     0
102
RTVSPost2010Prop47
 90
       50
102
RTVSPost2010PropOp47
 70
     0
102
RTVSPost2010Prop48
 90
       50
102
RTVSPost2010PropOp48
 70
     0
102
RTVSPost2010Prop49
280
     0
102
RTVSPost2010PropOp49
 70
     0
102
RTVSPost2010Prop50
 90
       50
102
RTVSPost2010PropOp50
 70
     0
102
RTVSPost2010Prop51ColorIndex
 90
      256
102
RTVSPost2010Prop51ColorRGB
 90
-16777216
102
RTVSPost2010PropOp51
 70
     0
102
RTVSPost2010Prop52
140
1.0
102
RTVSPost2010PropOp52
 70
     0
102
RTVSPost2010Prop53
 90
        2
102
RTVSPost2010PropOp53
 70
     0
102
RTVSPost2010Prop54
  1
strokes_ogs.tif
102
RTVSPost2010PropOp54
 70
     0
102
RTVSPost2010Prop55
280
     0
102
RTVSPost2010PropOp55
 70
     0
102
RTVSPost2010Prop56
140
1.0
102
RTVSPost2010PropOp56
 70
     0
102
RTVSPost2010Prop57
140
1.0
102
RTVSPost2010PropOp57
 70
     0
102
RTVSPropertyOp0
 70
     0
102
RTVSPropertyOp1
 70
     0
102
RTVSPropertyOp2
 70
     0
102
RTVSPropertyOp3
 70
     0
102
RTVSPropertyOp4
 70
     0
102
RTVSPropertyOp5
 70
     0
102
RTVSPropertyOp6
 70
     0
102
RTVSPropertyOp7
 70
     0
102
RTVSPropertyOp8
 70
     0
102
RTVSPropertyOp9
 70
     0
102
RTVSPropertyOp10
 70
     0
102
RTVSPropertyOp11
 70
     0
102
RTVSPropertyOp12
 70
     0
102
RTVSPropertyOp13
 70
     0
102
RTVSPropertyOp14
 70
     2
102
RTVSPropertyOp15
 70
     0
102
RTVSPropertyOp16
 70
     0
102
RTVSPropertyOp17
 70
     0
102
RTVSPropertyOp18
 70
     0
102
RTVSPropertyOp19
 70
     0
102
RTVSPropertyOp20
 70
     0
102
RTVSPropertyOp21
 70
     0
102
RTVSPropertyOp22
 70
     0
102
RTVSPropertyOp23
 70
     0
102
RTVSPropertyOp24
 70
     0
102
RTVSPropertyOp25
 70
     0
102
RTVSPropertyOp26
 70
     0
102
RTVSPropertyOp27
 70
     0
102
RTVSPropertyOp28
 70
     0
102
RTVSPropertyOp29
 70
     0
102
RTVSPropertyOp30
 70
     0
102
RTVSPropertyOp31
 70
     0
102
RTVSPropertyOp32
 70
     0
102
RTVSPropertyOp33
 70
     0
102
RTVSPropertyOp34
 70
     0
102
RTVSPropertyOp35
 70
     0
102
RTVSPropertyOp36
 70
     0
102
RTVSPropertyOp37
 70
     0
102
RTVSPropertyOp38
 70
     0
102
RTVSPropertyOp39
 70
     0
102
RTVSPropertyOp40
 70
     0
102
RTVSPropertyOp41
 70
     0
102
RTVSPropertyOp42
 70
     0
102
RTVSPropertyOp43
 70
     0
102
RTVSPropertyOp44
 70
     0
102
RTVSPropertyOp45
 70
     0
102
RTVSPropertyOp46
 70
     0
102
RTVSPropertyOp47
 70
     0
102
RTVSPropertyOp48
 70
     0
102
RTVSPropertyOp49
 70
     0
102
RTVSPropertyOp50
 70
     0
102
RTVSPropertyOp51
 70
     0
102
RTVSPropertyOp52
 70
     0
102
RTVSPropertyOp53
 70
     0
102
RTVSPropertyOp54
 70
     0
102
RTVSPropertyOp55
 70
     0
102
RTVSPropertyOp56
 70
     0
102
RTVSPropertyOp57
 70
     0
102
RTVSPropertyOp58
 70
     1
102
RTVSPropertyOp59
 70
     1
102
RTVSPropertyOp60
 70
     1
102
RTVSPropertyOp61
 70
     1
102
RTVSPropertyOp62
 70
     1
  0
XRECORD
  5
815
102
{ACAD_REACTORS
330
814
102
}
330
814
100
AcDbXrecord
280
     1
102
RTVSPost2010Prop28
280
     0
102
RTVSPost2010PropOp28
 70
     1
102
RTVSPost2010Prop29
280
     1
102
RTVSPost2010PropOp29
 70
     1
102
RTVSPost2010Prop30
280
     1
102
RTVSPost2010PropOp30
 70
     1
102
RTVSPost2010Prop31
280
     0
102
RTVSPost2010PropOp31
 70
     1
102
RTVSPost2010Prop32
280
     0
102
RTVSPost2010PropOp32
 70
     1
102
RTVSPost2010Prop33
280
     0
102
RTVSPost2010PropOp33
 70
     1
102
RTVSPost2010Prop34
280
     0
102
RTVSPost2010PropOp34
 70
     1
102
RTVSPost2010Prop35
280
     0
102
RTVSPost2010PropOp35
 70
     1
102
RTVSPost2010Prop36
280
     0
102
RTVSPost2010PropOp36
 70
     1
102
RTVSPost2010Prop37
 90
       50
102
RTVSPost2010PropOp37
 70
     1
102
RTVSPost2010Prop38
140
0.0
102
RTVSPost2010PropOp38
 70
     1
102
RTVSPost2010Prop39
140
1.0
102
RTVSPost2010PropOp39
 70
     1
102
RTVSPost2010Prop40
 90
        0
102
RTVSPost2010PropOp40
 70
     1
102
RTVSPost2010Prop41ColorIndex
 90
       18
102
RTVSPost2010Prop41ColorRGB
 90
        0
102
RTVSPost2010PropOp41
 70
     1
102
RTVSPost2010Prop42
 90
       50
102
RTVSPost2010PropOp42
 70
     1
102
RTVSPost2010Prop43
 90
        3
102
RTVSPost2010PropOp43
 70
     1
102
RTVSPost2010Prop44ColorIndex
 90
        5
102
RTVSPost2010Prop44ColorRGB
 90
      255
102
RTVSPost2010PropOp44
 70
     1
102
RTVSPost2010Prop45
280
     0
102
RTVSPost2010PropOp45
 70
     1
102
RTVSPost2010Prop46
 90
       50
102
RTVSPost2010PropOp46
 70
     1
102
RTVSPost2010Prop47
 90
       50
102
RTVSPost2010PropOp47
 70
     1
102
RTVSPost2010Prop48
 90
       50
102
RTVSPost2010PropOp48
 70
     1
102
RTVSPost2010Prop49
280
     0
102
RTVSPost2010PropOp49
 70
     1
102
RTVSPost2010Prop50
 90
       50
102
RTVSPost2010PropOp50
 70
     1
102
RTVSPost2010Prop51ColorIndex
 90
      256
102
RTVSPost2010Prop51ColorRGB
 90
-16777216
102
RTVSPost2010PropOp51
 70
     0
102
RTVSPost2010Prop52
140
1.0
102
RTVSPost2010PropOp52
 70
     0
102
RTVSPost2010Prop53
 90
        2
102
RTVSPost2010PropOp53
 70
     1
102
RTVSPost2010Prop54
  1
strokes_ogs.tif
102
RTVSPost2010PropOp54
 70
     1
102
RTVSPost2010Prop55
280
     0
102
RTVSPost2010PropOp55
 70
     1
102
RTVSPost2010Prop56
140
1.0
102
RTVSPost2010PropOp56
 70
     1
102
RTVSPost2010Prop57
140
1.0
102
RTVSPost2010PropOp57
 70
     1
102
RTVSPropertyOp0
 70
     1
102
RTVSPropertyOp1
 70
     1
102
RTVSPropertyOp2
 70
     1
102
RTVSPropertyOp3
 70
     1
102
RTVSPropertyOp4
 70
     1
102
RTVSPropertyOp5
 70
     1
102
RTVSPropertyOp6
 70
     1
102
RTVSPropertyOp7
 70
     1
102
RTVSPropertyOp8
 70
     1
102
RTVSPropertyOp9
 70
     1
102
RTVSPropertyOp10
 70
     1
102
RTVSPropertyOp11
 70
     1
102
RTVSPropertyOp12
 70
     1
102
RTVSPropertyOp13
 70
     1
102
RTVSPropertyOp14
 70
     1
102
RTVSPropertyOp15
 70
     1
102
RTVSPropertyOp16
 70
     1
102
RTVSPropertyOp17
 70
     1
102
RTVSPropertyOp18
 70
     1
102
RTVSPropertyOp19
 70
     1
102
RTVSPropertyOp20
 70
     1
102
RTVSPropertyOp21
 70
     1
102
RTVSPropertyOp22
 70
     1
102
RTVSPropertyOp23
 70
     1
102
RTVSPropertyOp24
 70
     1
102
RTVSPropertyOp25
 70
     1
102
RTVSPropertyOp26
 70
     1
102
RTVSPropertyOp27
 70
     1
102
RTVSPropertyOp28
 70
     1
102
RTVSPropertyOp29
 70
     1
102
RTVSPropertyOp30
 70
     1
102
RTVSPropertyOp31
 70
     1
102
RTVSPropertyOp32
 70
     1
102
RTVSPropertyOp33
 70
     1
102
RTVSPropertyOp34
 70
     1
102
RTVSPropertyOp35
 70
     1
102
RTVSPropertyOp36
 70
     1
102
RTVSPropertyOp37
 70
     1
102
RTVSPropertyOp38
 70
     1
102
RTVSPropertyOp39
 70
     1
102
RTVSPropertyOp40
 70
     1
102
RTVSPropertyOp41
 70
     1
102
RTVSPropertyOp42
 70
     1
102
RTVSPropertyOp43
 70
     1
102
RTVSPropertyOp44
 70
     1
102
RTVSPropertyOp45
 70
     1
102
RTVSPropertyOp46
 70
     1
102
RTVSPropertyOp47
 70
     1
102
RTVSPropertyOp48
 70
     1
102
RTVSPropertyOp49
 70
     1
102
RTVSPropertyOp50
 70
     1
102
RTVSPropertyOp51
 70
     0
102
RTVSPropertyOp52
 70
     0
102
RTVSPropertyOp53
 70
     1
102
RTVSPropertyOp54
 70
     1
102
RTVSPropertyOp55
 70
     1
102
RTVSPropertyOp56
 70
     1
102
RTVSPropertyOp57
 70
     1
102
RTVSPropertyOp58
 70
     1
102
RTVSPropertyOp59
 70
     1
102
RTVSPropertyOp60
 70
     1
102
RTVSPropertyOp61
 70
     1
102
RTVSPropertyOp62
 70
     1
  0
XRECORD
  5
833
102
{ACAD_REACTORS
330
832
102
}
330
832
100
AcDbXrecord
280
     1
102
RTVSPost2010Prop28
280
     0
102
RTVSPost2010PropOp28
 70
     1
102
RTVSPost2010Prop29
280
     1
102
RTVSPost2010PropOp29
 70
     1
102
RTVSPost2010Prop30
280
     1
102
RTVSPost2010PropOp30
 70
     1
102
RTVSPost2010Prop31
280
     0
102
RTVSPost2010PropOp31
 70
     1
102
RTVSPost2010Prop32
280
     0
102
RTVSPost2010PropOp32
 70
     1
102
RTVSPost2010Prop33
280
     0
102
RTVSPost2010PropOp33
 70
     1
102
RTVSPost2010Prop34
280
     0
102
RTVSPost2010PropOp34
 70
     1
102
RTVSPost2010Prop35
280
     0
102
RTVSPost2010PropOp35
 70
     1
102
RTVSPost2010Prop36
280
     0
102
RTVSPost2010PropOp36
 70
     1
102
RTVSPost2010Prop37
 90
       50
102
RTVSPost2010PropOp37
 70
     1
102
RTVSPost2010Prop38
140
0.0
102
RTVSPost2010PropOp38
 70
     1
102
RTVSPost2010Prop39
140
1.0
102
RTVSPost2010PropOp39
 70
     1
102
RTVSPost2010Prop40
 90
        0
102
RTVSPost2010PropOp40
 70
     1
102
RTVSPost2010Prop41ColorIndex
 90
       18
102
RTVSPost2010Prop41ColorRGB
 90
        0
102
RTVSPost2010PropOp41
 70
     1
102
RTVSPost2010Prop42
 90
       50
102
RTVSPost2010PropOp42
 70
     1
102
RTVSPost2010Prop43
 90
        3
102
RTVSPost2010PropOp43
 70
     1
102
RTVSPost2010Prop44ColorIndex
 90
        5
102
RTVSPost2010Prop44ColorRGB
 90
      255
102
RTVSPost2010PropOp44
 70
     1
102
RTVSPost2010Prop45
280
     0
102
RTVSPost2010PropOp45
 70
     1
102
RTVSPost2010Prop46
 90
       50
102
RTVSPost2010PropOp46
 70
     1
102
RTVSPost2010Prop47
 90
       50
102
RTVSPost2010PropOp47
 70
     1
102
RTVSPost2010Prop48
 90
       50
102
RTVSPost2010PropOp48
 70
     1
102
RTVSPost2010Prop49
280
     0
102
RTVSPost2010PropOp49
 70
     1
102
RTVSPost2010Prop50
 90
       50
102
RTVSPost2010PropOp50
 70
     1
102
RTVSPost2010Prop51ColorIndex
 90
      256
102
RTVSPost2010Prop51ColorRGB
 90
-16777216
102
RTVSPost2010PropOp51
 70
     0
102
RTVSPost2010Prop52
140
1.0
102
RTVSPost2010PropOp52
 70
     0
102
RTVSPost2010Prop53
 90
        2
102
RTVSPost2010PropOp53
 70
     1
102
RTVSPost2010Prop54
  1
strokes_ogs.tif
102
RTVSPost2010PropOp54
 70
     1
102
RTVSPost2010Prop55
280
     0
102
RTVSPost2010PropOp55
 70
     1
102
RTVSPost2010Prop56
140
1.0
102
RTVSPost2010PropOp56
 70
     1
102
RTVSPost2010Prop57
140
1.0
102
RTVSPost2010PropOp57
 70
     1
102
RTVSPropertyOp0
 70
     1
102
RTVSPropertyOp1
 70
     1
102
RTVSPropertyOp2
 70
     1
102
RTVSPropertyOp3
 70
     1
102
RTVSPropertyOp4
 70
     1
102
RTVSPropertyOp5
 70
     1
102
RTVSPropertyOp6
 70
     1
102
RTVSPropertyOp7
 70
     1
102
RTVSPropertyOp8
 70
     1
102
RTVSPropertyOp9
 70
     1
102
RTVSPropertyOp10
 70
     1
102
RTVSPropertyOp11
 70
     1
102
RTVSPropertyOp12
 70
     1
102
RTVSPropertyOp13
 70
     1
102
RTVSPropertyOp14
 70
     1
102
RTVSPropertyOp15
 70
     1
102
RTVSPropertyOp16
 70
     1
102
RTVSPropertyOp17
 70
     1
102
RTVSPropertyOp18
 70
     1
102
RTVSPropertyOp19
 70
     1
102
RTVSPropertyOp20
 70
     1
102
RTVSPropertyOp21
 70
     1
102
RTVSPropertyOp22
 70
     1
102
RTVSPropertyOp23
 70
     1
102
RTVSPropertyOp24
 70
     1
102
RTVSPropertyOp25
 70
     1
102
RTVSPropertyOp26
 70
     1
102
RTVSPropertyOp27
 70
     1
102
RTVSPropertyOp28
 70
     1
102
RTVSPropertyOp29
 70
     1
102
RTVSPropertyOp30
 70
     1
102
RTVSPropertyOp31
 70
     1
102
RTVSPropertyOp32
 70
     1
102
RTVSPropertyOp33
 70
     1
102
RTVSPropertyOp34
 70
     1
102
RTVSPropertyOp35
 70
     1
102
RTVSPropertyOp36
 70
     1
102
RTVSPropertyOp37
 70
     1
102
RTVSPropertyOp38
 70
     1
102
RTVSPropertyOp39
 70
     1
102
RTVSPropertyOp40
 70
     1
102
RTVSPropertyOp41
 70
     1
102
RTVSPropertyOp42
 70
     1
102
RTVSPropertyOp43
 70
     1
102
RTVSPropertyOp44
 70
     1
102
RTVSPropertyOp45
 70
     1
102
RTVSPropertyOp46
 70
     1
102
RTVSPropertyOp47
 70
     1
102
RTVSPropertyOp48
 70
     1
102
RTVSPropertyOp49
 70
     1
102
RTVSPropertyOp50
 70
     1
102
RTVSPropertyOp51
 70
     0
102
RTVSPropertyOp52
 70
     0
102
RTVSPropertyOp53
 70
     1
102
RTVSPropertyOp54
 70
     1
102
RTVSPropertyOp55
 70
     1
102
RTVSPropertyOp56
 70
     1
102
RTVSPropertyOp57
 70
     1
102
RTVSPropertyOp58
 70
     1
102
RTVSPropertyOp59
 70
     1
102
RTVSPropertyOp60
 70
     1
102
RTVSPropertyOp61
 70
     1
102
RTVSPropertyOp62
 70
     1
  0
XRECORD
  5
831
102
{ACAD_REACTORS
330
830
102
}
330
830
100
AcDbXrecord
280
     1
102
RTVSPost2010Prop28
280
     0
102
RTVSPost2010PropOp28
 70
     1
102
RTVSPost2010Prop29
280
     1
102
RTVSPost2010PropOp29
 70
     1
102
RTVSPost2010Prop30
280
     1
102
RTVSPost2010PropOp30
 70
     1
102
RTVSPost2010Prop31
280
     0
102
RTVSPost2010PropOp31
 70
     1
102
RTVSPost2010Prop32
280
     0
102
RTVSPost2010PropOp32
 70
     1
102
RTVSPost2010Prop33
280
     0
102
RTVSPost2010PropOp33
 70
     1
102
RTVSPost2010Prop34
280
     0
102
RTVSPost2010PropOp34
 70
     1
102
RTVSPost2010Prop35
280
     0
102
RTVSPost2010PropOp35
 70
     1
102
RTVSPost2010Prop36
280
     0
102
RTVSPost2010PropOp36
 70
     1
102
RTVSPost2010Prop37
 90
       50
102
RTVSPost2010PropOp37
 70
     1
102
RTVSPost2010Prop38
140
0.0
102
RTVSPost2010PropOp38
 70
     1
102
RTVSPost2010Prop39
140
1.0
102
RTVSPost2010PropOp39
 70
     1
102
RTVSPost2010Prop40
 90
        0
102
RTVSPost2010PropOp40
 70
     1
102
RTVSPost2010Prop41ColorIndex
 90
       18
102
RTVSPost2010Prop41ColorRGB
 90
        0
102
RTVSPost2010PropOp41
 70
     1
102
RTVSPost2010Prop42
 90
       50
102
RTVSPost2010PropOp42
 70
     1
102
RTVSPost2010Prop43
 90
        3
102
RTVSPost2010PropOp43
 70
     1
102
RTVSPost2010Prop44ColorIndex
 90
        5
102
RTVSPost2010Prop44ColorRGB
 90
      255
102
RTVSPost2010PropOp44
 70
     1
102
RTVSPost2010Prop45
280
     0
102
RTVSPost2010PropOp45
 70
     1
102
RTVSPost2010Prop46
 90
       50
102
RTVSPost2010PropOp46
 70
     1
102
RTVSPost2010Prop47
 90
       50
102
RTVSPost2010PropOp47
 70
     1
102
RTVSPost2010Prop48
 90
       50
102
RTVSPost2010PropOp48
 70
     1
102
RTVSPost2010Prop49
280
     0
102
RTVSPost2010PropOp49
 70
     1
102
RTVSPost2010Prop50
 90
       50
102
RTVSPost2010PropOp50
 70
     1
102
RTVSPost2010Prop51ColorIndex
 90
      256
102
RTVSPost2010Prop51ColorRGB
 90
-16777216
102
RTVSPost2010PropOp51
 70
     0
102
RTVSPost2010Prop52
140
1.0
102
RTVSPost2010PropOp52
 70
     0
102
RTVSPost2010Prop53
 90
        2
102
RTVSPost2010PropOp53
 70
     1
102
RTVSPost2010Prop54
  1
strokes_ogs.tif
102
RTVSPost2010PropOp54
 70
     1
102
RTVSPost2010Prop55
280
     0
102
RTVSPost2010PropOp55
 70
     1
102
RTVSPost2010Prop56
140
1.0
102
RTVSPost2010PropOp56
 70
     1
102
RTVSPost2010Prop57
140
1.0
102
RTVSPost2010PropOp57
 70
     1
102
RTVSPropertyOp0
 70
     1
102
RTVSPropertyOp1
 70
     1
102
RTVSPropertyOp2
 70
     1
102
RTVSPropertyOp3
 70
     1
102
RTVSPropertyOp4
 70
     1
102
RTVSPropertyOp5
 70
     1
102
RTVSPropertyOp6
 70
     1
102
RTVSPropertyOp7
 70
     1
102
RTVSPropertyOp8
 70
     1
102
RTVSPropertyOp9
 70
     1
102
RTVSPropertyOp10
 70
     1
102
RTVSPropertyOp11
 70
     1
102
RTVSPropertyOp12
 70
     1
102
RTVSPropertyOp13
 70
     1
102
RTVSPropertyOp14
 70
     1
102
RTVSPropertyOp15
 70
     1
102
RTVSPropertyOp16
 70
     1
102
RTVSPropertyOp17
 70
     1
102
RTVSPropertyOp18
 70
     1
102
RTVSPropertyOp19
 70
     1
102
RTVSPropertyOp20
 70
     1
102
RTVSPropertyOp21
 70
     1
102
RTVSPropertyOp22
 70
     1
102
RTVSPropertyOp23
 70
     1
102
RTVSPropertyOp24
 70
     1
102
RTVSPropertyOp25
 70
     1
102
RTVSPropertyOp26
 70
     1
102
RTVSPropertyOp27
 70
     1
102
RTVSPropertyOp28
 70
     1
102
RTVSPropertyOp29
 70
     1
102
RTVSPropertyOp30
 70
     1
102
RTVSPropertyOp31
 70
     1
102
RTVSPropertyOp32
 70
     1
102
RTVSPropertyOp33
 70
     1
102
RTVSPropertyOp34
 70
     1
102
RTVSPropertyOp35
 70
     1
102
RTVSPropertyOp36
 70
     1
102
RTVSPropertyOp37
 70
     1
102
RTVSPropertyOp38
 70
     1
102
RTVSPropertyOp39
 70
     1
102
RTVSPropertyOp40
 70
     1
102
RTVSPropertyOp41
 70
     1
102
RTVSPropertyOp42
 70
     1
102
RTVSPropertyOp43
 70
     1
102
RTVSPropertyOp44
 70
     1
102
RTVSPropertyOp45
 70
     1
102
RTVSPropertyOp46
 70
     1
102
RTVSPropertyOp47
 70
     1
102
RTVSPropertyOp48
 70
     1
102
RTVSPropertyOp49
 70
     1
102
RTVSPropertyOp50
 70
     1
102
RTVSPropertyOp51
 70
     0
102
RTVSPropertyOp52
 70
     0
102
RTVSPropertyOp53
 70
     1
102
RTVSPropertyOp54
 70
     1
102
RTVSPropertyOp55
 70
     1
102
RTVSPropertyOp56
 70
     1
102
RTVSPropertyOp57
 70
     1
102
RTVSPropertyOp58
 70
     1
102
RTVSPropertyOp59
 70
     1
102
RTVSPropertyOp60
 70
     1
102
RTVSPropertyOp61
 70
     1
102
RTVSPropertyOp62
 70
     1
  0
XRECORD
  5
82B
102
{ACAD_REACTORS
330
82A
102
}
330
82A
100
AcDbXrecord
280
     1
102
RTVSPost2010Prop28
280
     0
102
RTVSPost2010PropOp28
 70
     1
102
RTVSPost2010Prop29
280
     1
102
RTVSPost2010PropOp29
 70
     1
102
RTVSPost2010Prop30
280
     1
102
RTVSPost2010PropOp30
 70
     1
102
RTVSPost2010Prop31
280
     0
102
RTVSPost2010PropOp31
 70
     1
102
RTVSPost2010Prop32
280
     0
102
RTVSPost2010PropOp32
 70
     1
102
RTVSPost2010Prop33
280
     0
102
RTVSPost2010PropOp33
 70
     1
102
RTVSPost2010Prop34
280
     0
102
RTVSPost2010PropOp34
 70
     1
102
RTVSPost2010Prop35
280
     0
102
RTVSPost2010PropOp35
 70
     1
102
RTVSPost2010Prop36
280
     0
102
RTVSPost2010PropOp36
 70
     1
102
RTVSPost2010Prop37
 90
       50
102
RTVSPost2010PropOp37
 70
     1
102
RTVSPost2010Prop38
140
0.0
102
RTVSPost2010PropOp38
 70
     1
102
RTVSPost2010Prop39
140
1.0
102
RTVSPost2010PropOp39
 70
     1
102
RTVSPost2010Prop40
 90
        0
102
RTVSPost2010PropOp40
 70
     1
102
RTVSPost2010Prop41ColorIndex
 90
       18
102
RTVSPost2010Prop41ColorRGB
 90
        0
102
RTVSPost2010PropOp41
 70
     1
102
RTVSPost2010Prop42
 90
       50
102
RTVSPost2010PropOp42
 70
     1
102
RTVSPost2010Prop43
 90
        3
102
RTVSPost2010PropOp43
 70
     1
102
RTVSPost2010Prop44ColorIndex
 90
        5
102
RTVSPost2010Prop44ColorRGB
 90
      255
102
RTVSPost2010PropOp44
 70
     1
102
RTVSPost2010Prop45
280
     0
102
RTVSPost2010PropOp45
 70
     1
102
RTVSPost2010Prop46
 90
       50
102
RTVSPost2010PropOp46
 70
     1
102
RTVSPost2010Prop47
 90
       50
102
RTVSPost2010PropOp47
 70
     1
102
RTVSPost2010Prop48
 90
       50
102
RTVSPost2010PropOp48
 70
     1
102
RTVSPost2010Prop49
280
     0
102
RTVSPost2010PropOp49
 70
     1
102
RTVSPost2010Prop50
 90
       50
102
RTVSPost2010PropOp50
 70
     1
102
RTVSPost2010Prop51ColorIndex
 90
      256
102
RTVSPost2010Prop51ColorRGB
 90
-16777216
102
RTVSPost2010PropOp51
 70
     0
102
RTVSPost2010Prop52
140
1.0
102
RTVSPost2010PropOp52
 70
     0
102
RTVSPost2010Prop53
 90
        2
102
RTVSPost2010PropOp53
 70
     1
102
RTVSPost2010Prop54
  1
strokes_ogs.tif
102
RTVSPost2010PropOp54
 70
     1
102
RTVSPost2010Prop55
280
     0
102
RTVSPost2010PropOp55
 70
     1
102
RTVSPost2010Prop56
140
1.0
102
RTVSPost2010PropOp56
 70
     1
102
RTVSPost2010Prop57
140
1.0
102
RTVSPost2010PropOp57
 70
     1
102
RTVSPropertyOp0
 70
     1
102
RTVSPropertyOp1
 70
     1
102
RTVSPropertyOp2
 70
     1
102
RTVSPropertyOp3
 70
     1
102
RTVSPropertyOp4
 70
     1
102
RTVSPropertyOp5
 70
     1
102
RTVSPropertyOp6
 70
     1
102
RTVSPropertyOp7
 70
     1
102
RTVSPropertyOp8
 70
     1
102
RTVSPropertyOp9
 70
     1
102
RTVSPropertyOp10
 70
     1
102
RTVSPropertyOp11
 70
     1
102
RTVSPropertyOp12
 70
     1
102
RTVSPropertyOp13
 70
     1
102
RTVSPropertyOp14
 70
     1
102
RTVSPropertyOp15
 70
     1
102
RTVSPropertyOp16
 70
     1
102
RTVSPropertyOp17
 70
     1
102
RTVSPropertyOp18
 70
     1
102
RTVSPropertyOp19
 70
     1
102
RTVSPropertyOp20
 70
     1
102
RTVSPropertyOp21
 70
     1
102
RTVSPropertyOp22
 70
     1
102
RTVSPropertyOp23
 70
     1
102
RTVSPropertyOp24
 70
     1
102
RTVSPropertyOp25
 70
     1
102
RTVSPropertyOp26
 70
     1
102
RTVSPropertyOp27
 70
     1
102
RTVSPropertyOp28
 70
     1
102
RTVSPropertyOp29
 70
     1
102
RTVSPropertyOp30
 70
     1
102
RTVSPropertyOp31
 70
     1
102
RTVSPropertyOp32
 70
     1
102
RTVSPropertyOp33
 70
     1
102
RTVSPropertyOp34
 70
     1
102
RTVSPropertyOp35
 70
     1
102
RTVSPropertyOp36
 70
     1
102
RTVSPropertyOp37
 70
     1
102
RTVSPropertyOp38
 70
     1
102
RTVSPropertyOp39
 70
     1
102
RTVSPropertyOp40
 70
     1
102
RTVSPropertyOp41
 70
     1
102
RTVSPropertyOp42
 70
     1
102
RTVSPropertyOp43
 70
     1
102
RTVSPropertyOp44
 70
     1
102
RTVSPropertyOp45
 70
     1
102
RTVSPropertyOp46
 70
     1
102
RTVSPropertyOp47
 70
     1
102
RTVSPropertyOp48
 70
     1
102
RTVSPropertyOp49
 70
     1
102
RTVSPropertyOp50
 70
     1
102
RTVSPropertyOp51
 70
     0
102
RTVSPropertyOp52
 70
     0
102
RTVSPropertyOp53
 70
     1
102
RTVSPropertyOp54
 70
     1
102
RTVSPropertyOp55
 70
     1
102
RTVSPropertyOp56
 70
     1
102
RTVSPropertyOp57
 70
     1
102
RTVSPropertyOp58
 70
     1
102
RTVSPropertyOp59
 70
     1
102
RTVSPropertyOp60
 70
     1
102
RTVSPropertyOp61
 70
     1
102
RTVSPropertyOp62
 70
     1
  0
XRECORD
  5
82D
102
{ACAD_REACTORS
330
82C
102
}
330
82C
100
AcDbXrecord
280
     1
102
RTVSPost2010Prop28
280
     0
102
RTVSPost2010PropOp28
 70
     1
102
RTVSPost2010Prop29
280
     1
102
RTVSPost2010PropOp29
 70
     1
102
RTVSPost2010Prop30
280
     1
102
RTVSPost2010PropOp30
 70
     1
102
RTVSPost2010Prop31
280
     0
102
RTVSPost2010PropOp31
 70
     1
102
RTVSPost2010Prop32
280
     0
102
RTVSPost2010PropOp32
 70
     1
102
RTVSPost2010Prop33
280
     0
102
RTVSPost2010PropOp33
 70
     1
102
RTVSPost2010Prop34
280
     0
102
RTVSPost2010PropOp34
 70
     1
102
RTVSPost2010Prop35
280
     0
102
RTVSPost2010PropOp35
 70
     1
102
RTVSPost2010Prop36
280
     0
102
RTVSPost2010PropOp36
 70
     1
102
RTVSPost2010Prop37
 90
       50
102
RTVSPost2010PropOp37
 70
     1
102
RTVSPost2010Prop38
140
0.0
102
RTVSPost2010PropOp38
 70
     1
102
RTVSPost2010Prop39
140
1.0
102
RTVSPost2010PropOp39
 70
     1
102
RTVSPost2010Prop40
 90
        0
102
RTVSPost2010PropOp40
 70
     1
102
RTVSPost2010Prop41ColorIndex
 90
       18
102
RTVSPost2010Prop41ColorRGB
 90
        0
102
RTVSPost2010PropOp41
 70
     1
102
RTVSPost2010Prop42
 90
       50
102
RTVSPost2010PropOp42
 70
     1
102
RTVSPost2010Prop43
 90
        3
102
RTVSPost2010PropOp43
 70
     1
102
RTVSPost2010Prop44ColorIndex
 90
        5
102
RTVSPost2010Prop44ColorRGB
 90
      255
102
RTVSPost2010PropOp44
 70
     1
102
RTVSPost2010Prop45
280
     0
102
RTVSPost2010PropOp45
 70
     1
102
RTVSPost2010Prop46
 90
       50
102
RTVSPost2010PropOp46
 70
     1
102
RTVSPost2010Prop47
 90
       50
102
RTVSPost2010PropOp47
 70
     1
102
RTVSPost2010Prop48
 90
       50
102
RTVSPost2010PropOp48
 70
     1
102
RTVSPost2010Prop49
280
     0
102
RTVSPost2010PropOp49
 70
     1
102
RTVSPost2010Prop50
 90
       50
102
RTVSPost2010PropOp50
 70
     1
102
RTVSPost2010Prop51ColorIndex
 90
      256
102
RTVSPost2010Prop51ColorRGB
 90
-16777216
102
RTVSPost2010PropOp51
 70
     0
102
RTVSPost2010Prop52
140
1.0
102
RTVSPost2010PropOp52
 70
     0
102
RTVSPost2010Prop53
 90
        2
102
RTVSPost2010PropOp53
 70
     1
102
RTVSPost2010Prop54
  1
strokes_ogs.tif
102
RTVSPost2010PropOp54
 70
     1
102
RTVSPost2010Prop55
280
     0
102
RTVSPost2010PropOp55
 70
     1
102
RTVSPost2010Prop56
140
1.0
102
RTVSPost2010PropOp56
 70
     1
102
RTVSPost2010Prop57
140
1.0
102
RTVSPost2010PropOp57
 70
     1
102
RTVSPropertyOp0
 70
     1
102
RTVSPropertyOp1
 70
     1
102
RTVSPropertyOp2
 70
     1
102
RTVSPropertyOp3
 70
     1
102
RTVSPropertyOp4
 70
     1
102
RTVSPropertyOp5
 70
     1
102
RTVSPropertyOp6
 70
     1
102
RTVSPropertyOp7
 70
     1
102
RTVSPropertyOp8
 70
     1
102
RTVSPropertyOp9
 70
     1
102
RTVSPropertyOp10
 70
     1
102
RTVSPropertyOp11
 70
     1
102
RTVSPropertyOp12
 70
     1
102
RTVSPropertyOp13
 70
     1
102
RTVSPropertyOp14
 70
     1
102
RTVSPropertyOp15
 70
     1
102
RTVSPropertyOp16
 70
     1
102
RTVSPropertyOp17
 70
     1
102
RTVSPropertyOp18
 70
     1
102
RTVSPropertyOp19
 70
     1
102
RTVSPropertyOp20
 70
     1
102
RTVSPropertyOp21
 70
     1
102
RTVSPropertyOp22
 70
     1
102
RTVSPropertyOp23
 70
     1
102
RTVSPropertyOp24
 70
     1
102
RTVSPropertyOp25
 70
     1
102
RTVSPropertyOp26
 70
     1
102
RTVSPropertyOp27
 70
     1
102
RTVSPropertyOp28
 70
     1
102
RTVSPropertyOp29
 70
     1
102
RTVSPropertyOp30
 70
     1
102
RTVSPropertyOp31
 70
     1
102
RTVSPropertyOp32
 70
     1
102
RTVSPropertyOp33
 70
     1
102
RTVSPropertyOp34
 70
     1
102
RTVSPropertyOp35
 70
     1
102
RTVSPropertyOp36
 70
     1
102
RTVSPropertyOp37
 70
     1
102
RTVSPropertyOp38
 70
     1
102
RTVSPropertyOp39
 70
     1
102
RTVSPropertyOp40
 70
     1
102
RTVSPropertyOp41
 70
     1
102
RTVSPropertyOp42
 70
     1
102
RTVSPropertyOp43
 70
     1
102
RTVSPropertyOp44
 70
     1
102
RTVSPropertyOp45
 70
     1
102
RTVSPropertyOp46
 70
     1
102
RTVSPropertyOp47
 70
     1
102
RTVSPropertyOp48
 70
     1
102
RTVSPropertyOp49
 70
     1
102
RTVSPropertyOp50
 70
     1
102
RTVSPropertyOp51
 70
     0
102
RTVSPropertyOp52
 70
     0
102
RTVSPropertyOp53
 70
     1
102
RTVSPropertyOp54
 70
     1
102
RTVSPropertyOp55
 70
     1
102
RTVSPropertyOp56
 70
     1
102
RTVSPropertyOp57
 70
     1
102
RTVSPropertyOp58
 70
     1
102
RTVSPropertyOp59
 70
     1
102
RTVSPropertyOp60
 70
     1
102
RTVSPropertyOp61
 70
     1
102
RTVSPropertyOp62
 70
     1
  0
XRECORD
  5
81D
102
{ACAD_REACTORS
330
81C
102
}
330
81C
100
AcDbXrecord
280
     1
102
RTVSPost2010Prop28
280
     0
102
RTVSPost2010PropOp28
 70
     1
102
RTVSPost2010Prop29
280
     1
102
RTVSPost2010PropOp29
 70
     1
102
RTVSPost2010Prop30
280
     1
102
RTVSPost2010PropOp30
 70
     1
102
RTVSPost2010Prop31
280
     0
102
RTVSPost2010PropOp31
 70
     1
102
RTVSPost2010Prop32
280
     0
102
RTVSPost2010PropOp32
 70
     1
102
RTVSPost2010Prop33
280
     0
102
RTVSPost2010PropOp33
 70
     1
102
RTVSPost2010Prop34
280
     0
102
RTVSPost2010PropOp34
 70
     1
102
RTVSPost2010Prop35
280
     0
102
RTVSPost2010PropOp35
 70
     1
102
RTVSPost2010Prop36
280
     0
102
RTVSPost2010PropOp36
 70
     1
102
RTVSPost2010Prop37
 90
       50
102
RTVSPost2010PropOp37
 70
     1
102
RTVSPost2010Prop38
140
0.0
102
RTVSPost2010PropOp38
 70
     1
102
RTVSPost2010Prop39
140
1.0
102
RTVSPost2010PropOp39
 70
     1
102
RTVSPost2010Prop40
 90
        0
102
RTVSPost2010PropOp40
 70
     1
102
RTVSPost2010Prop41ColorIndex
 90
       18
102
RTVSPost2010Prop41ColorRGB
 90
        0
102
RTVSPost2010PropOp41
 70
     1
102
RTVSPost2010Prop42
 90
       50
102
RTVSPost2010PropOp42
 70
     1
102
RTVSPost2010Prop43
 90
        3
102
RTVSPost2010PropOp43
 70
     1
102
RTVSPost2010Prop44ColorIndex
 90
        5
102
RTVSPost2010Prop44ColorRGB
 90
      255
102
RTVSPost2010PropOp44
 70
     1
102
RTVSPost2010Prop45
280
     0
102
RTVSPost2010PropOp45
 70
     1
102
RTVSPost2010Prop46
 90
       50
102
RTVSPost2010PropOp46
 70
     1
102
RTVSPost2010Prop47
 90
       50
102
RTVSPost2010PropOp47
 70
     1
102
RTVSPost2010Prop48
 90
       50
102
RTVSPost2010PropOp48
 70
     1
102
RTVSPost2010Prop49
280
     0
102
RTVSPost2010PropOp49
 70
     1
102
RTVSPost2010Prop50
 90
       50
102
RTVSPost2010PropOp50
 70
     1
102
RTVSPost2010Prop51ColorIndex
 90
      256
102
RTVSPost2010Prop51ColorRGB
 90
-16777216
102
RTVSPost2010PropOp51
 70
     0
102
RTVSPost2010Prop52
140
1.0
102
RTVSPost2010PropOp52
 70
     0
102
RTVSPost2010Prop53
 90
        2
102
RTVSPost2010PropOp53
 70
     1
102
RTVSPost2010Prop54
  1
strokes_ogs.tif
102
RTVSPost2010PropOp54
 70
     1
102
RTVSPost2010Prop55
280
     0
102
RTVSPost2010PropOp55
 70
     1
102
RTVSPost2010Prop56
140
1.0
102
RTVSPost2010PropOp56
 70
     1
102
RTVSPost2010Prop57
140
1.0
102
RTVSPost2010PropOp57
 70
     1
102
RTVSPropertyOp0
 70
     1
102
RTVSPropertyOp1
 70
     1
102
RTVSPropertyOp2
 70
     1
102
RTVSPropertyOp3
 70
     1
102
RTVSPropertyOp4
 70
     1
102
RTVSPropertyOp5
 70
     1
102
RTVSPropertyOp6
 70
     1
102
RTVSPropertyOp7
 70
     1
102
RTVSPropertyOp8
 70
     1
102
RTVSPropertyOp9
 70
     1
102
RTVSPropertyOp10
 70
     1
102
RTVSPropertyOp11
 70
     1
102
RTVSPropertyOp12
 70
     1
102
RTVSPropertyOp13
 70
     1
102
RTVSPropertyOp14
 70
     1
102
RTVSPropertyOp15
 70
     1
102
RTVSPropertyOp16
 70
     1
102
RTVSPropertyOp17
 70
     1
102
RTVSPropertyOp18
 70
     1
102
RTVSPropertyOp19
 70
     1
102
RTVSPropertyOp20
 70
     1
102
RTVSPropertyOp21
 70
     1
102
RTVSPropertyOp22
 70
     1
102
RTVSPropertyOp23
 70
     1
102
RTVSPropertyOp24
 70
     1
102
RTVSPropertyOp25
 70
     1
102
RTVSPropertyOp26
 70
     1
102
RTVSPropertyOp27
 70
     1
102
RTVSPropertyOp28
 70
     1
102
RTVSPropertyOp29
 70
     1
102
RTVSPropertyOp30
 70
     1
102
RTVSPropertyOp31
 70
     1
102
RTVSPropertyOp32
 70
     1
102
RTVSPropertyOp33
 70
     1
102
RTVSPropertyOp34
 70
     1
102
RTVSPropertyOp35
 70
     1
102
RTVSPropertyOp36
 70
     1
102
RTVSPropertyOp37
 70
     1
102
RTVSPropertyOp38
 70
     1
102
RTVSPropertyOp39
 70
     1
102
RTVSPropertyOp40
 70
     1
102
RTVSPropertyOp41
 70
     1
102
RTVSPropertyOp42
 70
     1
102
RTVSPropertyOp43
 70
     1
102
RTVSPropertyOp44
 70
     1
102
RTVSPropertyOp45
 70
     1
102
RTVSPropertyOp46
 70
     1
102
RTVSPropertyOp47
 70
     1
102
RTVSPropertyOp48
 70
     1
102
RTVSPropertyOp49
 70
     1
102
RTVSPropertyOp50
 70
     1
102
RTVSPropertyOp51
 70
     0
102
RTVSPropertyOp52
 70
     0
102
RTVSPropertyOp53
 70
     1
102
RTVSPropertyOp54
 70
     1
102
RTVSPropertyOp55
 70
     1
102
RTVSPropertyOp56
 70
     1
102
RTVSPropertyOp57
 70
     1
102
RTVSPropertyOp58
 70
     1
102
RTVSPropertyOp59
 70
     1
102
RTVSPropertyOp60
 70
     1
102
RTVSPropertyOp61
 70
     1
102
RTVSPropertyOp62
 70
     1
  0
XRECORD
  5
80F
102
{ACAD_REACTORS
330
80E
102
}
330
80E
100
AcDbXrecord
280
     1
102
RTVSPost2010Prop28
280
     0
102
RTVSPost2010PropOp28
 70
     1
102
RTVSPost2010Prop29
280
     1
102
RTVSPost2010PropOp29
 70
     1
102
RTVSPost2010Prop30
280
     1
102
RTVSPost2010PropOp30
 70
     1
102
RTVSPost2010Prop31
280
     0
102
RTVSPost2010PropOp31
 70
     1
102
RTVSPost2010Prop32
280
     0
102
RTVSPost2010PropOp32
 70
     1
102
RTVSPost2010Prop33
280
     0
102
RTVSPost2010PropOp33
 70
     1
102
RTVSPost2010Prop34
280
     0
102
RTVSPost2010PropOp34
 70
     1
102
RTVSPost2010Prop35
280
     0
102
RTVSPost2010PropOp35
 70
     1
102
RTVSPost2010Prop36
280
     0
102
RTVSPost2010PropOp36
 70
     1
102
RTVSPost2010Prop37
 90
       50
102
RTVSPost2010PropOp37
 70
     1
102
RTVSPost2010Prop38
140
0.0
102
RTVSPost2010PropOp38
 70
     1
102
RTVSPost2010Prop39
140
1.0
102
RTVSPost2010PropOp39
 70
     1
102
RTVSPost2010Prop40
 90
        0
102
RTVSPost2010PropOp40
 70
     1
102
RTVSPost2010Prop41ColorIndex
 90
       18
102
RTVSPost2010Prop41ColorRGB
 90
        0
102
RTVSPost2010PropOp41
 70
     1
102
RTVSPost2010Prop42
 90
       50
102
RTVSPost2010PropOp42
 70
     1
102
RTVSPost2010Prop43
 90
        3
102
RTVSPost2010PropOp43
 70
     1
102
RTVSPost2010Prop44ColorIndex
 90
        5
102
RTVSPost2010Prop44ColorRGB
 90
      255
102
RTVSPost2010PropOp44
 70
     1
102
RTVSPost2010Prop45
280
     0
102
RTVSPost2010PropOp45
 70
     1
102
RTVSPost2010Prop46
 90
       50
102
RTVSPost2010PropOp46
 70
     1
102
RTVSPost2010Prop47
 90
       50
102
RTVSPost2010PropOp47
 70
     1
102
RTVSPost2010Prop48
 90
       50
102
RTVSPost2010PropOp48
 70
     1
102
RTVSPost2010Prop49
280
     0
102
RTVSPost2010PropOp49
 70
     1
102
RTVSPost2010Prop50
 90
       50
102
RTVSPost2010PropOp50
 70
     1
102
RTVSPost2010Prop51ColorIndex
 90
      256
102
RTVSPost2010Prop51ColorRGB
 90
-16777216
102
RTVSPost2010PropOp51
 70
     0
102
RTVSPost2010Prop52
140
1.0
102
RTVSPost2010PropOp52
 70
     0
102
RTVSPost2010Prop53
 90
        2
102
RTVSPost2010PropOp53
 70
     1
102
RTVSPost2010Prop54
  1
strokes_ogs.tif
102
RTVSPost2010PropOp54
 70
     1
102
RTVSPost2010Prop55
280
     0
102
RTVSPost2010PropOp55
 70
     1
102
RTVSPost2010Prop56
140
1.0
102
RTVSPost2010PropOp56
 70
     1
102
RTVSPost2010Prop57
140
1.0
102
RTVSPost2010PropOp57
 70
     1
102
RTVSPropertyOp0
 70
     1
102
RTVSPropertyOp1
 70
     1
102
RTVSPropertyOp2
 70
     1
102
RTVSPropertyOp3
 70
     1
102
RTVSPropertyOp4
 70
     1
102
RTVSPropertyOp5
 70
     1
102
RTVSPropertyOp6
 70
     1
102
RTVSPropertyOp7
 70
     1
102
RTVSPropertyOp8
 70
     1
102
RTVSPropertyOp9
 70
     1
102
RTVSPropertyOp10
 70
     1
102
RTVSPropertyOp11
 70
     1
102
RTVSPropertyOp12
 70
     1
102
RTVSPropertyOp13
 70
     1
102
RTVSPropertyOp14
 70
     1
102
RTVSPropertyOp15
 70
     1
102
RTVSPropertyOp16
 70
     1
102
RTVSPropertyOp17
 70
     1
102
RTVSPropertyOp18
 70
     1
102
RTVSPropertyOp19
 70
     1
102
RTVSPropertyOp20
 70
     1
102
RTVSPropertyOp21
 70
     1
102
RTVSPropertyOp22
 70
     1
102
RTVSPropertyOp23
 70
     1
102
RTVSPropertyOp24
 70
     1
102
RTVSPropertyOp25
 70
     1
102
RTVSPropertyOp26
 70
     1
102
RTVSPropertyOp27
 70
     1
102
RTVSPropertyOp28
 70
     1
102
RTVSPropertyOp29
 70
     1
102
RTVSPropertyOp30
 70
     1
102
RTVSPropertyOp31
 70
     1
102
RTVSPropertyOp32
 70
     1
102
RTVSPropertyOp33
 70
     1
102
RTVSPropertyOp34
 70
     1
102
RTVSPropertyOp35
 70
     1
102
RTVSPropertyOp36
 70
     1
102
RTVSPropertyOp37
 70
     1
102
RTVSPropertyOp38
 70
     1
102
RTVSPropertyOp39
 70
     1
102
RTVSPropertyOp40
 70
     1
102
RTVSPropertyOp41
 70
     1
102
RTVSPropertyOp42
 70
     1
102
RTVSPropertyOp43
 70
     1
102
RTVSPropertyOp44
 70
     1
102
RTVSPropertyOp45
 70
     1
102
RTVSPropertyOp46
 70
     1
102
RTVSPropertyOp47
 70
     1
102
RTVSPropertyOp48
 70
     1
102
RTVSPropertyOp49
 70
     1
102
RTVSPropertyOp50
 70
     1
102
RTVSPropertyOp51
 70
     0
102
RTVSPropertyOp52
 70
     0
102
RTVSPropertyOp53
 70
     1
102
RTVSPropertyOp54
 70
     1
102
RTVSPropertyOp55
 70
     1
102
RTVSPropertyOp56
 70
     1
102
RTVSPropertyOp57
 70
     1
102
RTVSPropertyOp58
 70
     1
102
RTVSPropertyOp59
 70
     1
102
RTVSPropertyOp60
 70
     1
102
RTVSPropertyOp61
 70
     1
102
RTVSPropertyOp62
 70
     1
  0
XRECORD
  5
82F
102
{ACAD_REACTORS
330
82E
102
}
330
82E
100
AcDbXrecord
280
     1
102
RTVSPost2010Prop28
280
     0
102
RTVSPost2010PropOp28
 70
     1
102
RTVSPost2010Prop29
280
     1
102
RTVSPost2010PropOp29
 70
     1
102
RTVSPost2010Prop30
280
     1
102
RTVSPost2010PropOp30
 70
     1
102
RTVSPost2010Prop31
280
     0
102
RTVSPost2010PropOp31
 70
     1
102
RTVSPost2010Prop32
280
     0
102
RTVSPost2010PropOp32
 70
     1
102
RTVSPost2010Prop33
280
     0
102
RTVSPost2010PropOp33
 70
     1
102
RTVSPost2010Prop34
280
     0
102
RTVSPost2010PropOp34
 70
     1
102
RTVSPost2010Prop35
280
     0
102
RTVSPost2010PropOp35
 70
     1
102
RTVSPost2010Prop36
280
     0
102
RTVSPost2010PropOp36
 70
     1
102
RTVSPost2010Prop37
 90
       50
102
RTVSPost2010PropOp37
 70
     1
102
RTVSPost2010Prop38
140
0.0
102
RTVSPost2010PropOp38
 70
     1
102
RTVSPost2010Prop39
140
1.0
102
RTVSPost2010PropOp39
 70
     1
102
RTVSPost2010Prop40
 90
        0
102
RTVSPost2010PropOp40
 70
     1
102
RTVSPost2010Prop41ColorIndex
 90
       18
102
RTVSPost2010Prop41ColorRGB
 90
        0
102
RTVSPost2010PropOp41
 70
     1
102
RTVSPost2010Prop42
 90
       50
102
RTVSPost2010PropOp42
 70
     1
102
RTVSPost2010Prop43
 90
        3
102
RTVSPost2010PropOp43
 70
     1
102
RTVSPost2010Prop44ColorIndex
 90
        5
102
RTVSPost2010Prop44ColorRGB
 90
      255
102
RTVSPost2010PropOp44
 70
     1
102
RTVSPost2010Prop45
280
     0
102
RTVSPost2010PropOp45
 70
     1
102
RTVSPost2010Prop46
 90
       50
102
RTVSPost2010PropOp46
 70
     1
102
RTVSPost2010Prop47
 90
       50
102
RTVSPost2010PropOp47
 70
     1
102
RTVSPost2010Prop48
 90
       50
102
RTVSPost2010PropOp48
 70
     1
102
RTVSPost2010Prop49
280
     0
102
RTVSPost2010PropOp49
 70
     1
102
RTVSPost2010Prop50
 90
       50
102
RTVSPost2010PropOp50
 70
     1
102
RTVSPost2010Prop51ColorIndex
 90
      256
102
RTVSPost2010Prop51ColorRGB
 90
-16777216
102
RTVSPost2010PropOp51
 70
     0
102
RTVSPost2010Prop52
140
1.0
102
RTVSPost2010PropOp52
 70
     0
102
RTVSPost2010Prop53
 90
        2
102
RTVSPost2010PropOp53
 70
     1
102
RTVSPost2010Prop54
  1
strokes_ogs.tif
102
RTVSPost2010PropOp54
 70
     1
102
RTVSPost2010Prop55
280
     0
102
RTVSPost2010PropOp55
 70
     1
102
RTVSPost2010Prop56
140
1.0
102
RTVSPost2010PropOp56
 70
     1
102
RTVSPost2010Prop57
140
1.0
102
RTVSPost2010PropOp57
 70
     1
102
RTVSPropertyOp0
 70
     1
102
RTVSPropertyOp1
 70
     1
102
RTVSPropertyOp2
 70
     1
102
RTVSPropertyOp3
 70
     1
102
RTVSPropertyOp4
 70
     1
102
RTVSPropertyOp5
 70
     1
102
RTVSPropertyOp6
 70
     1
102
RTVSPropertyOp7
 70
     1
102
RTVSPropertyOp8
 70
     1
102
RTVSPropertyOp9
 70
     1
102
RTVSPropertyOp10
 70
     1
102
RTVSPropertyOp11
 70
     1
102
RTVSPropertyOp12
 70
     1
102
RTVSPropertyOp13
 70
     1
102
RTVSPropertyOp14
 70
     1
102
RTVSPropertyOp15
 70
     1
102
RTVSPropertyOp16
 70
     1
102
RTVSPropertyOp17
 70
     1
102
RTVSPropertyOp18
 70
     1
102
RTVSPropertyOp19
 70
     1
102
RTVSPropertyOp20
 70
     1
102
RTVSPropertyOp21
 70
     1
102
RTVSPropertyOp22
 70
     1
102
RTVSPropertyOp23
 70
     1
102
RTVSPropertyOp24
 70
     1
102
RTVSPropertyOp25
 70
     1
102
RTVSPropertyOp26
 70
     1
102
RTVSPropertyOp27
 70
     1
102
RTVSPropertyOp28
 70
     1
102
RTVSPropertyOp29
 70
     1
102
RTVSPropertyOp30
 70
     1
102
RTVSPropertyOp31
 70
     1
102
RTVSPropertyOp32
 70
     1
102
RTVSPropertyOp33
 70
     1
102
RTVSPropertyOp34
 70
     1
102
RTVSPropertyOp35
 70
     1
102
RTVSPropertyOp36
 70
     1
102
RTVSPropertyOp37
 70
     1
102
RTVSPropertyOp38
 70
     1
102
RTVSPropertyOp39
 70
     1
102
RTVSPropertyOp40
 70
     1
102
RTVSPropertyOp41
 70
     1
102
RTVSPropertyOp42
 70
     1
102
RTVSPropertyOp43
 70
     1
102
RTVSPropertyOp44
 70
     1
102
RTVSPropertyOp45
 70
     1
102
RTVSPropertyOp46
 70
     1
102
RTVSPropertyOp47
 70
     1
102
RTVSPropertyOp48
 70
     1
102
RTVSPropertyOp49
 70
     1
102
RTVSPropertyOp50
 70
     1
102
RTVSPropertyOp51
 70
     0
102
RTVSPropertyOp52
 70
     0
102
RTVSPropertyOp53
 70
     1
102
RTVSPropertyOp54
 70
     1
102
RTVSPropertyOp55
 70
     1
102
RTVSPropertyOp56
 70
     1
102
RTVSPropertyOp57
 70
     1
102
RTVSPropertyOp58
 70
     1
102
RTVSPropertyOp59
 70
     1
102
RTVSPropertyOp60
 70
     1
102
RTVSPropertyOp61
 70
     1
102
RTVSPropertyOp62
 70
     1
  0
ENDSEC
  0
EOF
