  0
SECTION
  2
HEADER
  9
$ACADVER
  1
AC1015
  9
$ACADMAINTVER
 70
    20
  9
$DWGCODEPAGE
  3
ANSI_932
  9
$INSBASE
 10
0.0
 20
0.0
 30
0.0
  9
$EXTMIN
 10
9.987890978044447
 20
7.066360674282009
 30
0.0
  9
$EXTMAX
 10
1869.226379719053
 20
1316.414960087861
 30
0.0
  9
$LIMMIN
 10
-375.1192340850834
 20
-404.9589939117431
  9
$LIMMAX
 10
1192.357818603515
 20
730.8789367675781
  9
$ORTHOMODE
 70
     0
  9
$REGENMODE
 70
     1
  9
$FILLMODE
 70
     1
  9
$QTEXTMODE
 70
     0
  9
$MIRRTEXT
 70
     1
  9
$LTSCALE
 40
0.1804589939868358
  9
$ATTMODE
 70
     1
  9
$TEXTSIZE
 40
2.5
  9
$TRACEWID
 40
1.0
  9
$TEXTSTYLE
  7
Standard
  9
$CLAYER
  8
0
  9
$CELTYPE
  6
ByLayer
  9
$CECOLOR
 62
   256
  9
$CELTSCALE
 40
1.0
  9
$DISPSILH
 70
     0
  9
$DIMSCALE
 40
1.0
  9
$DIMASZ
 40
2.5
  9
$DIMEXO
 40
0.625
  9
$DIMDLI
 40
3.75
  9
$DIMRND
 40
0.0
  9
$DIMDLE
 40
0.0
  9
$DIMEXE
 40
1.25
  9
$DIMTP
 40
0.0
  9
$DIMTM
 40
0.0
  9
$DIMTXT
 40
2.5
  9
$DIMCEN
 40
2.5
  9
$DIMTSZ
 40
0.0
  9
$DIMTOL
 70
     0
  9
$DIMLIM
 70
     0
  9
$DIMTIH
 70
     0
  9
$DIMTOH
 70
     0
  9
$DIMSE1
 70
     0
  9
$DIMSE2
 70
     0
  9
$DIMTAD
 70
     1
  9
$DIMZIN
 70
     0
  9
$DIMBLK
  1

  9
$DIMASO
 70
     1
  9
$DIMSHO
 70
     1
  9
$DIMPOST
  1

  9
$DIMAPOST
  1

  9
$DIMALT
 70
     0
  9
$DIMALTD
 70
     3
  9
$DIMALTF
 40
0.03937007874016
  9
$DIMLFAC
 40
1.0
  9
$DIMTOFL
 70
     1
  9
$DIMTVP
 40
0.0
  9
$DIMTIX
 70
     0
  9
$DIMSOXD
 70
     0
  9
$DIMSAH
 70
     0
  9
$DIMBLK1
  1

  9
$DIMBLK2
  1

  9
$DIMSTYLE
  2
Standard
  9
$DIMCLRD
 70
     0
  9
$DIMCLRE
 70
     0
  9
$DIMCLRT
 70
     0
  9
$DIMTFAC
 40
0.75
  9
$DIMGAP
 40
0.625
  9
$DIMJUST
 70
     0
  9
$DIMSD1
 70
     0
  9
$DIMSD2
 70
     0
  9
$DIMTOLJ
 70
     0
  9
$DIMTZIN
 70
     8
  9
$DIMALTZ
 70
     0
  9
$DIMALTTZ
 70
     0
  9
$DIMUPT
 70
     0
  9
$DIMDEC
 70
     2
  9
$DIMTDEC
 70
     2
  9
$DIMALTU
 70
     2
  9
$DIMALTTD
 70
     3
  9
$DIMTXSTY
  7
Standard
  9
$DIMAUNIT
 70
     0
  9
$DIMADEC
 70
     0
  9
$DIMALTRND
 40
0.0
  9
$DIMAZIN
 70
     0
  9
$DIMDSEP
 70
    46
  9
$DIMATFIT
 70
     3
  9
$DIMFRAC
 70
     0
  9
$DIMLDRBLK
  1

  9
$DIMLUNIT
 70
     2
  9
$DIMLWD
 70
    -2
  9
$DIMLWE
 70
    -2
  9
$DIMTMOVE
 70
     0
  9
$LUNITS
 70
     2
  9
$LUPREC
 70
     4
  9
$SKETCHINC
 40
1.0
  9
$FILLETRAD
 40
0.0
  9
$AUNITS
 70
     0
  9
$AUPREC
 70
     0
  9
$MENU
  1
.
  9
$ELEVATION
 40
0.0
  9
$PELEVATION
 40
0.0
  9
$THICKNESS
 40
0.0
  9
$LIMCHECK
 70
     0
  9
$CHAMFERA
 40
10.0
  9
$CHAMFERB
 40
10.0
  9
$CHAMFERC
 40
20.0
  9
$CHAMFERD
 40
0.0
  9
$SKPOLY
 70
     0
  9
$TDCREATE
 40
2455188.750000000
  9
$TDUCREATE
 40
2455188.375000000
  9
$TDUPDATE
 40
2459747.406661991
  9
$TDUUPDATE
 40
2459747.031661991
  9
$TDINDWG
 40
0.0100869560
  9
$TDUSRTIMER
 40
0.0100868056
  9
$USRTIMER
 70
     1
  9
$ANGBASE
 50
0.0
  9
$ANGDIR
 70
     0
  9
$PDMODE
 70
     0
  9
$PDSIZE
 40
0.0
  9
$PLINEWID
 40
0.0
  9
$SPLFRAME
 70
     0
  9
$SPLINETYPE
 70
     6
  9
$SPLINESEGS
 70
     8
  9
$HANDSEED
  5
6E5
  9
$SURFTAB1
 70
     6
  9
$SURFTAB2
 70
     6
  9
$SURFTYPE
 70
     6
  9
$SURFU
 70
     6
  9
$SURFV
 70
     6
  9
$UCSBASE
  2

  9
$UCSNAME
  2

  9
$UCSORG
 10
0.0
 20
0.0
 30
0.0
  9
$UCSXDIR
 10
1.0
 20
0.0
 30
0.0
  9
$UCSYDIR
 10
0.0
 20
1.0
 30
0.0
  9
$UCSORTHOREF
  2

  9
$UCSORTHOVIEW
 70
     0
  9
$UCSORGTOP
 10
0.0
 20
0.0
 30
0.0
  9
$UCSORGBOTTOM
 10
0.0
 20
0.0
 30
0.0
  9
$UCSORGLEFT
 10
0.0
 20
0.0
 30
0.0
  9
$UCSORGRIGHT
 10
0.0
 20
0.0
 30
0.0
  9
$UCSORGFRONT
 10
0.0
 20
0.0
 30
0.0
  9
$UCSORGBACK
 10
0.0
 20
0.0
 30
0.0
  9
$PUCSBASE
  2

  9
$PUCSNAME
  2

  9
$PUCSORG
 10
0.0
 20
0.0
 30
0.0
  9
$PUCSXDIR
 10
1.0
 20
0.0
 30
0.0
  9
$PUCSYDIR
 10
0.0
 20
1.0
 30
0.0
  9
$PUCSORTHOREF
  2

  9
$PUCSORTHOVIEW
 70
     0
  9
$PUCSORGTOP
 10
0.0
 20
0.0
 30
0.0
  9
$PUCSORGBOTTOM
 10
0.0
 20
0.0
 30
0.0
  9
$PUCSORGLEFT
 10
0.0
 20
0.0
 30
0.0
  9
$PUCSORGRIGHT
 10
0.0
 20
0.0
 30
0.0
  9
$PUCSORGFRONT
 10
0.0
 20
0.0
 30
0.0
  9
$PUCSORGBACK
 10
0.0
 20
0.0
 30
0.0
  9
$USERI1
 70
     0
  9
$USERI2
 70
     0
  9
$USERI3
 70
     0
  9
$USERI4
 70
     0
  9
$USERI5
 70
     0
  9
$USERR1
 40
0.0
  9
$USERR2
 40
0.0
  9
$USERR3
 40
0.0
  9
$USERR4
 40
0.0
  9
$USERR5
 40
0.0
  9
$WORLDVIEW
 70
     1
  9
$SHADEDGE
 70
     3
  9
$SHADEDIF
 70
    70
  9
$TILEMODE
 70
     1
  9
$MAXACTVP
 70
    64
  9
$PINSBASE
 10
0.0
 20
0.0
 30
0.0
  9
$PLIMCHECK
 70
     0
  9
$PEXTMIN
 10
1.000000000000000E+20
 20
1.000000000000000E+20
 30
1.000000000000000E+20
  9
$PEXTMAX
 10
-1.000000000000000E+20
 20
-1.000000000000000E+20
 30
-1.000000000000000E+20
  9
$PLIMMIN
 10
0.0
 20
0.0
  9
$PLIMMAX
 10
420.0
 20
297.0
  9
$UNITMODE
 70
     0
  9
$VISRETAIN
 70
     1
  9
$PLINEGEN
 70
     0
  9
$PSLTSCALE
 70
     1
  9
$TREEDEPTH
 70
  3020
  9
$CMLSTYLE
  2
Standard
  9
$CMLJUST
 70
     0
  9
$CMLSCALE
 40
20.0
  9
$PROXYGRAPHICS
 70
     1
  9
$MEASUREMENT
 70
     1
  9
$CELWEIGHT
370
    -1
  9
$ENDCAPS
280
     0
  9
$JOINSTYLE
280
     0
  9
$LWDISPLAY
290
     0
  9
$INSUNITS
 70
     4
  9
$HYPERLINKBASE
  1

  9
$STYLESHEET
  1

  9
$XEDIT
290
     1
  9
$CEPSNTYPE
380
     0
  9
$PSTYLEMODE
290
     1
  9
$FINGERPRINTGUID
  2
{5339858F-F978-4516-A3DE-09D6475C11DE}
  9
$VERSIONGUID
  2
{49169222-215C-4AEF-8FA7-50DD1E3E535E}
  9
$EXTNAMES
290
     1
  9
$PSVPSCALE
 40
0.0
  9
$OLESTARTUP
290
     0
  0
ENDSEC
  0
SECTION
  2
CLASSES
  0
CLASS
  1
ACDBDICTIONARYWDFLT
  2
AcDbDictionaryWithDefault
  3
ObjectDBX Classes
 90
        0
280
     0
281
     0
  0
CLASS
  1
VISUALSTYLE
  2
AcDbVisualStyle
  3
ObjectDBX Classes
 90
     4095
280
     0
281
     0
  0
CLASS
  1
MATERIAL
  2
AcDbMaterial
  3
ObjectDBX Classes
 90
     1153
280
     0
281
     0
  0
CLASS
  1
SCALE
  2
AcDbScale
  3
ObjectDBX Classes
 90
     1153
280
     0
281
     0
  0
CLASS
  1
TABLESTYLE
  2
AcDbTableStyle
  3
ObjectDBX Classes
 90
     4095
280
     0
281
     0
  0
CLASS
  1
MLEADERSTYLE
  2
AcDbMLeaderStyle
  3
ACDB_MLEADERSTYLE_CLASS
 90
     4095
280
     0
281
     0
  0
CLASS
  1
SUN
  2
AcDbSun
  3
SCENEOE
 90
    33921
280
     0
281
     0
  0
CLASS
  1
DICTIONARYVAR
  2
AcDbDictionaryVar
  3
ObjectDBX Classes
 90
        0
280
     0
281
     0
  0
CLASS
  1
ACDBSECTIONVIEWSTYLE
  2
AcDbSectionViewStyle
  3
ObjectDBX Classes
 90
     1025
280
     0
281
     0
  0
CLASS
  1
ACDBDETAILVIEWSTYLE
  2
AcDbDetailViewStyle
  3
ObjectDBX Classes
 90
     1025
280
     0
281
     0
  0
CLASS
  1
SORTENTSTABLE
  2
AcDbSortentsTable
  3
ObjectDBX Classes
 90
        0
280
     0
281
     0
  0
CLASS
  1
CELLSTYLEMAP
  2
AcDbCellStyleMap
  3
ObjectDBX Classes
 90
     1152
280
     0
281
     0
  0
CLASS
  1
ACDBPLACEHOLDER
  2
AcDbPlaceHolder
  3
ObjectDBX Classes
 90
        0
280
     0
281
     0
  0
CLASS
  1
LAYOUT
  2
AcDbLayout
  3
ObjectDBX Classes
 90
        0
280
     0
281
     0
  0
ENDSEC
  0
SECTION
  2
TABLES
  0
TABLE
  2
VPORT
  5
8
330
0
100
AcDbSymbolTable
 70
     1
  0
VPORT
  5
29
330
8
100
AcDbSymbolTableRecord
100
AcDbViewportTableRecord
  2
*Active
 70
     0
 10
0.0
 20
0.0
 11
1.0
 21
1.0
 12
814.8676295876375
 22
337.420872231598
 13
0.0
 23
0.0
 14
10.0
 24
10.0
 15
10.0
 25
10.0
 16
0.0
 26
0.0
 36
1.0
 17
0.0
 27
0.0
 37
0.0
 40
935.5928880990576
 41
2.204301075268817
 42
50.0
 43
0.0
 44
0.0
 50
0.0
 51
0.0
 71
     0
 72
 20000
 73
     1
 74
     3
 75
     0
 76
     0
 77
     0
 78
     0
281
     0
 65
     1
110
0.0
120
0.0
130
0.0
111
1.0
121
0.0
131
0.0
112
0.0
122
1.0
132
0.0
 79
     0
146
0.0
1001
ACAD_NAV_VCDISPLAY
1070
     3
  0
ENDTAB
  0
TABLE
  2
LTYPE
  5
5
330
0
100
AcDbSymbolTable
 70
     2
  0
LTYPE
  5
14
330
5
100
AcDbSymbolTableRecord
100
AcDbLinetypeTableRecord
  2
ByBlock
 70
     0
  3

 72
    65
 73
     0
 40
0.0
  0
LTYPE
  5
15
330
5
100
AcDbSymbolTableRecord
100
AcDbLinetypeTableRecord
  2
ByLayer
 70
     0
  3

 72
    65
 73
     0
 40
0.0
  0
LTYPE
  5
16
330
5
100
AcDbSymbolTableRecord
100
AcDbLinetypeTableRecord
  2
Continuous
 70
     0
  3
Solid line
 72
    65
 73
     0
 40
0.0
  0
LTYPE
  5
226
330
5
100
AcDbSymbolTableRecord
100
AcDbLinetypeTableRecord
  2
CENTER2
 70
     0
  3
Center (.5x) ___ _ ___ _ ___ _ ___ _ ___ _ ___
 72
    65
 73
     4
 40
28.575
 49
19.05
 74
     0
 49
-3.174999999999998
 74
     0
 49
3.174999999999998
 74
     0
 49
-3.174999999999998
 74
     0
  0
ENDTAB
  0
TABLE
  2
LAYER
  5
2
102
{ACAD_XDICTIONARY
360
22C
102
}
330
0
100
AcDbSymbolTable
 70
     4
  0
LAYER
  5
10
102
{ACAD_XDICTIONARY
360
651
102
}
330
2
100
AcDbSymbolTableRecord
100
AcDbLayerTableRecord
  2
0
 70
     0
 62
     7
  6
Continuous
370
    -3
390
F
  0
LAYER
  5
66
330
2
100
AcDbSymbolTableRecord
100
AcDbLayerTableRecord
  2
Defpoints
 70
     0
 62
     7
  6
Continuous
290
     0
370
    -3
390
F
  0
LAYER
  5
227
102
{ACAD_XDICTIONARY
360
228
102
}
330
2
100
AcDbSymbolTableRecord
100
AcDbLayerTableRecord
  2
中心線
 70
     0
 62
     3
  6
CENTER2
370
    -3
390
F
  0
LAYER
  5
229
102
{ACAD_XDICTIONARY
360
22A
102
}
330
2
100
AcDbSymbolTableRecord
100
AcDbLayerTableRecord
  2
実線
 70
     0
 62
     7
  6
Continuous
370
    -3
390
F
  0
ENDTAB
  0
TABLE
  2
STYLE
  5
3
330
0
100
AcDbSymbolTable
 70
     1
  0
STYLE
  5
11
330
3
100
AcDbSymbolTableRecord
100
AcDbTextStyleTableRecord
  2
Standard
 70
     0
 40
0.0
 41
1.0
 50
0.0
 71
     0
 42
2.5
  3
txt
  4
extfont2
  0
ENDTAB
  0
TABLE
  2
VIEW
  5
6
330
0
100
AcDbSymbolTable
 70
     0
  0
ENDTAB
  0
TABLE
  2
UCS
  5
7
330
0
100
AcDbSymbolTable
 70
     0
  0
ENDTAB
  0
TABLE
  2
APPID
  5
9
330
0
100
AcDbSymbolTable
 70
     4
  0
APPID
  5
12
330
9
100
AcDbSymbolTableRecord
100
AcDbRegAppTableRecord
  2
ACAD
 70
     0
  0
APPID
  5
216
330
9
100
AcDbSymbolTableRecord
100
AcDbRegAppTableRecord
  2
ACAD_MLEADERVER
 70
     0
  0
APPID
  5
22B
330
9
100
AcDbSymbolTableRecord
100
AcDbRegAppTableRecord
  2
ACAD_NAV_VCDISPLAY
 70
     0
  0
APPID
  5
641
330
9
100
AcDbSymbolTableRecord
100
AcDbRegAppTableRecord
  2
ACAD_EXEMPT_FROM_CAD_STANDARDS
 70
     0
  0
ENDTAB
  0
TABLE
  2
DIMSTYLE
  5
A
330
0
100
AcDbSymbolTable
 70
     1
100
AcDbDimStyleTable
 71
     1
340
27
  0
DIMSTYLE
105
27
330
A
100
AcDbSymbolTableRecord
100
AcDbDimStyleTableRecord
  2
Standard
 70
     0
 41
2.5
 42
0.625
 43
3.75
 44
1.25
 73
     0
 74
     0
 77
     1
140
2.5
141
2.5
143
0.03937007874016
146
0.75
147
0.625
171
     3
172
     1
271
     2
272
     2
274
     3
283
     0
284
     8
340
11
  0
ENDTAB
  0
TABLE
  2
BLOCK_RECORD
  5
1
330
0
100
AcDbSymbolTable
 70
     1
  0
BLOCK_RECORD
  5
1F
102
{ACAD_XDICTIONARY
360
515
102
}
330
1
100
AcDbSymbolTableRecord
100
AcDbBlockTableRecord
  2
*Model_Space
340
22
  0
BLOCK_RECORD
  5
1B
330
1
100
AcDbSymbolTableRecord
100
AcDbBlockTableRecord
  2
*Paper_Space
340
1E
  0
BLOCK_RECORD
  5
23
330
1
100
AcDbSymbolTableRecord
100
AcDbBlockTableRecord
  2
*Paper_Space0
340
220
  0
ENDTAB
  0
ENDSEC
  0
SECTION
  2
BLOCKS
  0
BLOCK
  5
20
330
1F
100
AcDbEntity
  8
0
100
AcDbBlockBegin
  2
*Model_Space
 70
     0
 10
0.0
 20
0.0
 30
0.0
  3
*Model_Space
  1

  0
ENDBLK
  5
21
330
1F
100
AcDbEntity
  8
0
100
AcDbBlockEnd
  0
BLOCK
  5
1C
330
1B
100
AcDbEntity
 67
     1
  8
0
100
AcDbBlockBegin
  2
*Paper_Space
 70
     0
 10
0.0
 20
0.0
 30
0.0
  3
*Paper_Space
  1

  0
ENDBLK
  5
1D
330
1B
100
AcDbEntity
 67
     1
  8
0
100
AcDbBlockEnd
  0
BLOCK
  5
24
330
23
100
AcDbEntity
 67
     1
  8
0
100
AcDbBlockBegin
  2
*Paper_Space0
 70
     0
 10
0.0
 20
0.0
 30
0.0
  3
*Paper_Space0
  1

  0
ENDBLK
  5
25
330
23
100
AcDbEntity
 67
     1
  8
0
100
AcDbBlockEnd
  0
ENDSEC
  0
SECTION
  2
ENTITIES
  0
LINE
  5
4E2
102
{ACAD_REACTORS
330
64F
102
}
330
1F
100
AcDbEntity
  8
中心線
100
AcDbLine
 10
64.98789097804536
 20
170.066360674281
 30
0.0
 11
64.9878909780453
 21
601.5335917564473
 31
0.0
  0
LINE
  5
4E3
102
{ACAD_REACTORS
330
650
102
}
330
1F
100
AcDbEntity
  8
中心線
100
AcDbLine
 10
232.9878909780463
 20
722.0663606742818
 30
0.0
 11
376.9878909780463
 21
722.0663606742818
 31
0.0
  0
LINE
  5
4E4
102
{ACAD_REACTORS
330
650
102
}
330
1F
100
AcDbEntity
  8
中心線
100
AcDbLine
 10
304.9878909780463
 20
667.066360674282
 30
0.0
 11
304.9878909780463
 21
777.0663606742819
 31
0.0
  0
LINE
  5
4E5
102
{ACAD_REACTORS
330
64B
102
}
330
1F
100
AcDbEntity
  8
中心線
100
AcDbLine
 10
232.9878909780453
 20
62.06636067428195
 30
0.0
 11
376.9878909780453
 21
62.06636067428201
 31
0.0
  0
LINE
  5
4E6
102
{ACAD_REACTORS
330
64B
102
}
330
1F
100
AcDbEntity
  8
中心線
100
AcDbLine
 10
304.9878909780454
 20
7.066360674282009
 30
0.0
 11
304.9878909780454
 21
117.066360674282
 31
0.0
  0
LINE
  5
4E7
102
{ACAD_REACTORS
330
64F
102
}
330
1F
100
AcDbEntity
  8
中心線
100
AcDbLine
 10
9.987890978044447
 20
242.0663606742819
 30
0.0
 11
119.9878909780444
 21
242.0663606742819
 31
0.0
  0
LINE
  5
4E8
102
{ACAD_REACTORS
330
64E
102
}
330
1F
100
AcDbEntity
  8
中心線
100
AcDbLine
 10
232.9878909780445
 20
242.0663606742819
 30
0.0
 11
376.9878909780445
 21
242.0663606742819
 31
0.0
  0
LINE
  5
4E9
102
{ACAD_REACTORS
330
64D
102
}
330
1F
100
AcDbEntity
  8
中心線
100
AcDbLine
 10
489.9878909780438
 20
242.066360674282
 30
0.0
 11
599.9878909780439
 21
242.066360674282
 31
0.0
  0
LINE
  5
4EA
102
{ACAD_REACTORS
330
64C
102
}
330
1F
100
AcDbEntity
  8
中心線
100
AcDbLine
 10
712.9878909780436
 20
242.0663606742821
 30
0.0
 11
856.9878909780436
 21
242.0663606742821
 31
0.0
  0
CIRCLE
  5
4EE
102
{ACAD_REACTORS
330
64B
102
}
330
1F
100
AcDbEntity
  8
実線
100
AcDbCircle
 10
304.9878909780454
 20
62.06636067428189
 30
0.0
 40
25.25
  0
LINE
  5
4EF
102
{ACAD_REACTORS
330
64B
102
}
330
1F
100
AcDbEntity
  8
実線
100
AcDbLine
 10
240.0878909780453
 20
43.01636067428193
 30
0.0
 11
269.8154941305173
 21
43.01636067428193
 31
0.0
  0
LINE
  5
4F0
102
{ACAD_REACTORS
330
64B
102
}
330
1F
100
AcDbEntity
  8
実線
100
AcDbLine
 10
269.8154941305173
 20
81.11636067428202
 30
0.0
 11
240.0878909780453
 21
81.11636067428202
 31
0.0
  0
LINE
  5
4F1
102
{ACAD_REACTORS
330
64B
102
}
330
1F
100
AcDbEntity
  8
実線
100
AcDbLine
 10
240.0878909780453
 20
43.01636067428193
 30
0.0
 11
240.0878909780453
 21
81.11636067428202
 31
0.0
  0
LINE
  5
4F2
102
{ACAD_REACTORS
330
64B
102
}
330
1F
100
AcDbEntity
  8
実線
100
AcDbLine
 10
240.0878909780453
 20
81.11636067428202
 30
0.0
 11
237.7378909780453
 21
87.31636067428201
 31
0.0
  0
LINE
  5
4F3
102
{ACAD_REACTORS
330
64B
102
}
330
1F
100
AcDbEntity
  8
実線
100
AcDbLine
 10
237.7378909780453
 20
36.8163606742819
 30
0.0
 11
240.0878909780453
 21
43.01636067428193
 31
0.0
  0
LINE
  5
4F4
102
{ACAD_REACTORS
330
64B
102
}
330
1F
100
AcDbEntity
  8
実線
100
AcDbLine
 10
234.9878909780453
 20
36.8163606742819
 30
0.0
 11
234.9878909780453
 21
87.31636067428201
 31
0.0
  0
LINE
  5
4F5
102
{ACAD_REACTORS
330
64B
102
}
330
1F
100
AcDbEntity
  8
実線
100
AcDbLine
 10
237.7378909780453
 20
36.8163606742819
 30
0.0
 11
237.7378909780453
 21
87.31636067428201
 31
0.0
  0
LINE
  5
4F6
102
{ACAD_REACTORS
330
64B
102
}
330
1F
100
AcDbEntity
  8
実線
100
AcDbLine
 10
234.9878909780453
 20
36.8163606742819
 30
0.0
 11
237.7378909780453
 21
36.8163606742819
 31
0.0
  0
LINE
  5
4F7
102
{ACAD_REACTORS
330
64B
102
}
330
1F
100
AcDbEntity
  8
実線
100
AcDbLine
 10
237.7378909780453
 20
87.31636067428201
 30
0.0
 11
234.9878909780453
 21
87.31636067428201
 31
0.0
  0
ARC
  5
4F8
102
{ACAD_REACTORS
330
64B
102
}
330
1F
100
AcDbEntity
  8
実線
100
AcDbCircle
 10
304.9878909780462
 20
62.06636067428281
 30
0.0
 40
50.0
100
AcDbArc
 50
57.2199489371374
 51
122.7800510628626
  0
ARC
  5
4F9
102
{ACAD_REACTORS
330
64B
102
}
330
1F
100
AcDbEntity
  8
実線
100
AcDbCircle
 10
304.9878909780462
 20
62.06636067428281
 30
0.0
 40
50.0
100
AcDbArc
 50
147.2199489371374
 51
157.6043612805137
  0
ARC
  5
4FA
102
{ACAD_REACTORS
330
64B
102
}
330
1F
100
AcDbEntity
  8
実線
100
AcDbCircle
 10
304.9878909780462
 20
62.06636067428281
 30
0.0
 40
50.0
100
AcDbArc
 50
202.3956387194893
 51
212.7800510628626
  0
ARC
  5
4FB
102
{ACAD_REACTORS
330
64B
102
}
330
1F
100
AcDbEntity
  8
実線
100
AcDbCircle
 10
304.9878909780462
 20
62.06636067428281
 30
0.0
 40
50.0
100
AcDbArc
 50
237.2199489371374
 51
302.7800510628626
  0
ARC
  5
4FC
102
{ACAD_REACTORS
330
64B
102
}
330
1F
100
AcDbEntity
  8
実線
100
AcDbCircle
 10
304.9878909780462
 20
62.06636067428281
 30
0.0
 40
50.0
100
AcDbArc
 50
327.2199489371374
 51
32.78005106286261
  0
LINE
  5
4FD
102
{ACAD_REACTORS
330
64B
102
}
330
1F
100
AcDbEntity
  8
実線
100
AcDbLine
 10
349.2878909780461
 20
50.81636067428269
 30
0.0
 11
343.3732723100061
 21
50.81636067428269
 31
0.0
  0
LINE
  5
4FE
102
{ACAD_REACTORS
330
64B
102
}
330
1F
100
AcDbEntity
  8
実線
100
AcDbLine
 10
349.2878909780461
 20
73.31636067428281
 30
0.0
 11
343.3732723100061
 21
73.31636067428281
 31
0.0
  0
LINE
  5
4FF
102
{ACAD_REACTORS
330
64B
102
}
330
1F
100
AcDbEntity
  8
実線
100
AcDbLine
 10
349.2878909780461
 20
50.81636067428269
 30
0.0
 11
349.2878909780461
 21
73.31636067428281
 31
0.0
  0
LINE
  5
500
102
{ACAD_REACTORS
330
64B
102
}
330
1F
100
AcDbEntity
  8
実線
100
AcDbLine
 10
268.5663404873265
 20
81.11636067428202
 30
0.0
 11
259.4575048548496
 21
94.12512612654564
 31
0.0
  0
ARC
  5
501
102
{ACAD_REACTORS
330
64B
102
}
330
1F
100
AcDbEntity
  8
実線
100
AcDbCircle
 10
266.0107212091614
 20
98.71373761735402
 30
0.0
 40
7.999999999999996
100
AcDbArc
 50
136.7645737428866
 51
214.9999999999974
  0
LINE
  5
502
102
{ACAD_REACTORS
330
64B
102
}
330
1F
100
AcDbEntity
  8
実線
100
AcDbLine
 10
272.9291255257817
 20
107.5967467974777
 30
0.0
 11
286.9589941676213
 21
97.77292701436966
 31
0.0
  0
ARC
  5
503
102
{ACAD_REACTORS
330
64B
102
}
330
1F
100
AcDbEntity
  8
実線
100
AcDbCircle
 10
268.3405140349734
 20
101.0435304431657
 30
0.0
 40
8.000000000000021
100
AcDbArc
 50
55.00000000000264
 51
133.2354262571156
  0
ARC
  5
504
102
{ACAD_REACTORS
330
64B
102
}
330
1F
100
AcDbEntity
  8
実線
100
AcDbCircle
 10
304.9878909780456
 20
62.06636067428201
 30
0.0
 40
61.50000000000008
100
AcDbArc
 50
133.2354262571156
 51
136.7645737428866
  0
LINE
  5
505
102
{ACAD_REACTORS
330
64B
102
}
330
1F
100
AcDbEntity
  8
実線
100
AcDbLine
 10
350.5182771012412
 20
94.12512612654564
 30
0.0
 11
340.6944573181331
 21
80.09525748470606
 31
0.0
  0
ARC
  5
506
102
{ACAD_REACTORS
330
64B
102
}
330
1F
100
AcDbEntity
  8
実線
100
AcDbCircle
 10
343.965060746929
 20
98.71373761735402
 30
0.0
 40
8.000000000000023
100
AcDbArc
 50
325.0000000000026
 51
43.23542625711335
  0
ARC
  5
507
102
{ACAD_REACTORS
330
64B
102
}
330
1F
100
AcDbEntity
  8
実線
100
AcDbCircle
 10
304.9878909780462
 20
62.06636067428281
 30
0.0
 40
61.49999999999885
100
AcDbArc
 50
43.23542625711335
 51
46.76457374288901
  0
ARC
  5
508
102
{ACAD_REACTORS
330
64B
102
}
330
1F
100
AcDbEntity
  8
実線
100
AcDbCircle
 10
341.6352679211172
 20
101.0435304431658
 30
0.0
 40
7.999999999999986
100
AcDbArc
 50
46.76457374288901
 51
124.9999999999974
  0
LINE
  5
509
102
{ACAD_REACTORS
330
64B
102
}
330
1F
100
AcDbEntity
  8
実線
100
AcDbLine
 10
323.0167877884694
 20
97.77292701436966
 30
0.0
 11
337.0466564303089
 21
107.5967467974777
 31
0.0
  0
LINE
  5
50A
102
{ACAD_REACTORS
330
64B
102
}
330
1F
100
AcDbEntity
  8
実線
100
AcDbLine
 10
337.0466564303089
 20
16.5359745510861
 30
0.0
 11
323.0167877884694
 21
26.35979433419431
 31
0.0
  0
ARC
  5
50B
102
{ACAD_REACTORS
330
64B
102
}
330
1F
100
AcDbEntity
  8
実線
100
AcDbCircle
 10
341.6352679211172
 20
23.08919090539808
 30
0.0
 40
8.000000000000008
100
AcDbArc
 50
235.0000000000026
 51
313.235426257111
  0
ARC
  5
50C
102
{ACAD_REACTORS
330
64B
102
}
330
1F
100
AcDbEntity
  8
実線
100
AcDbCircle
 10
304.9878909780454
 20
62.06636067428212
 30
0.0
 40
61.50000000000009
100
AcDbArc
 50
313.235426257111
 51
316.7645737428866
  0
ARC
  5
50D
102
{ACAD_REACTORS
330
64B
102
}
330
1F
100
AcDbEntity
  8
実線
100
AcDbCircle
 10
343.9650607469292
 20
25.41898373120989
 30
0.0
 40
7.999999999999995
100
AcDbArc
 50
316.7645737428866
 51
35.00000000000003
  0
LINE
  5
50E
102
{ACAD_REACTORS
330
64B
102
}
330
1F
100
AcDbEntity
  8
実線
100
AcDbLine
 10
340.6944573181331
 20
44.03746386385797
 30
0.0
 11
350.5182771012412
 21
30.00759522201827
 31
0.0
  0
LINE
  5
50F
102
{ACAD_REACTORS
330
64B
102
}
330
1F
100
AcDbEntity
  8
実線
100
AcDbLine
 10
259.4575048548496
 20
30.00759522201827
 30
0.0
 11
268.5663404873265
 21
43.01636067428193
 31
0.0
  0
ARC
  5
510
102
{ACAD_REACTORS
330
64B
102
}
330
1F
100
AcDbEntity
  8
実線
100
AcDbCircle
 10
266.0107212091614
 20
25.41898373121
 30
0.0
 40
8.000000000000008
100
AcDbArc
 50
145.0000000000026
 51
223.2354262571134
  0
ARC
  5
511
102
{ACAD_REACTORS
330
64B
102
}
330
1F
100
AcDbEntity
  8
実線
100
AcDbCircle
 10
304.9878909780462
 20
62.06636067428269
 30
0.0
 40
61.50000000000114
100
AcDbArc
 50
223.2354262571134
 51
226.7645737428844
  0
ARC
  5
512
102
{ACAD_REACTORS
330
64B
102
}
330
1F
100
AcDbEntity
  8
実線
100
AcDbCircle
 10
268.3405140349734
 20
23.08919090539808
 30
0.0
 40
8.000000000000008
100
AcDbArc
 50
226.764573742889
 51
304.9999999999974
  0
LINE
  5
513
102
{ACAD_REACTORS
330
64B
102
}
330
1F
100
AcDbEntity
  8
実線
100
AcDbLine
 10
286.9589941676213
 20
26.35979433419431
 30
0.0
 11
272.9291255257817
 21
16.5359745510861
 31
0.0
  0
ARC
  5
514
102
{ACAD_REACTORS
330
64B
102
}
330
1F
100
AcDbEntity
  8
実線
100
AcDbCircle
 10
304.9878909780454
 20
62.06636067428189
 30
0.0
 40
40.0
100
AcDbArc
 50
204.1042497819163
 51
155.8957502180837
  0
CIRCLE
  5
517
102
{ACAD_REACTORS
330
650
102
}
330
1F
100
AcDbEntity
  8
実線
100
AcDbCircle
 10
304.9878909780462
 20
722.0663606742818
 30
0.0
 40
16.5
  0
CIRCLE
  5
518
102
{ACAD_REACTORS
330
650
102
}
330
1F
100
AcDbEntity
  8
実線
100
AcDbCircle
 10
304.9878909780462
 20
722.0663606742818
 30
0.0
 40
44.0
  0
LINE
  5
519
102
{ACAD_REACTORS
330
650
102
}
330
1F
100
AcDbEntity
  8
実線
100
AcDbLine
 10
240.0878909780453
 20
703.0163606742819
 30
0.0
 11
258.7591391021839
 21
703.0163606742819
 31
0.0
  0
LINE
  5
51A
102
{ACAD_REACTORS
330
650
102
}
330
1F
100
AcDbEntity
  8
実線
100
AcDbLine
 10
258.7591391021847
 20
741.116360674283
 30
0.0
 11
240.0878909780453
 21
741.116360674283
 31
0.0
  0
LINE
  5
51B
102
{ACAD_REACTORS
330
650
102
}
330
1F
100
AcDbEntity
  8
実線
100
AcDbLine
 10
234.9878909780453
 20
696.8163606742828
 30
0.0
 11
237.7378909780453
 21
696.8163606742828
 31
0.0
  0
LINE
  5
51C
102
{ACAD_REACTORS
330
650
102
}
330
1F
100
AcDbEntity
  8
実線
100
AcDbLine
 10
237.7378909780453
 20
747.3163606742827
 30
0.0
 11
234.9878909780453
 21
747.3163606742827
 31
0.0
  0
LINE
  5
51D
102
{ACAD_REACTORS
330
650
102
}
330
1F
100
AcDbEntity
  8
実線
100
AcDbLine
 10
234.9878909780453
 20
747.3163606742827
 30
0.0
 11
234.9878909780453
 21
696.8163606742828
 31
0.0
  0
LINE
  5
51E
102
{ACAD_REACTORS
330
650
102
}
330
1F
100
AcDbEntity
  8
実線
100
AcDbLine
 10
240.0878909780453
 20
741.116360674283
 30
0.0
 11
237.7378909780453
 21
747.3163606742827
 31
0.0
  0
LINE
  5
51F
102
{ACAD_REACTORS
330
650
102
}
330
1F
100
AcDbEntity
  8
実線
100
AcDbLine
 10
237.7378909780453
 20
696.8163606742828
 30
0.0
 11
240.0878909780453
 21
703.0163606742819
 31
0.0
  0
LINE
  5
520
102
{ACAD_REACTORS
330
650
102
}
330
1F
100
AcDbEntity
  8
実線
100
AcDbLine
 10
237.7378909780453
 20
747.3163606742827
 30
0.0
 11
237.7378909780453
 21
696.8163606742828
 31
0.0
  0
LINE
  5
521
102
{ACAD_REACTORS
330
650
102
}
330
1F
100
AcDbEntity
  8
実線
100
AcDbLine
 10
240.0878909780453
 20
741.116360674283
 30
0.0
 11
240.0878909780453
 21
703.0163606742819
 31
0.0
  0
CIRCLE
  5
522
102
{ACAD_REACTORS
330
650
102
}
330
1F
100
AcDbEntity
  8
実線
100
AcDbCircle
 10
304.9878909780462
 20
722.0663606742818
 30
0.0
 40
43.3
  0
CIRCLE
  5
523
102
{ACAD_REACTORS
330
650
102
}
330
1F
100
AcDbEntity
  8
実線
100
AcDbCircle
 10
304.9878909780462
 20
722.0663606742818
 30
0.0
 40
42.5
  0
ARC
  5
524
102
{ACAD_REACTORS
330
650
102
}
330
1F
100
AcDbEntity
  8
実線
100
AcDbCircle
 10
343.9650607469301
 20
758.7137376173538
 30
0.0
 40
7.999999999999995
100
AcDbArc
 50
325.0000000000026
 51
43.23542625711559
  0
ARC
  5
525
102
{ACAD_REACTORS
330
650
102
}
330
1F
100
AcDbEntity
  8
実線
100
AcDbCircle
 10
266.0107212091622
 20
685.4189837312098
 30
0.0
 40
7.999999999999996
100
AcDbArc
 50
145.0000000000026
 51
223.2354262571156
  0
ARC
  5
526
102
{ACAD_REACTORS
330
650
102
}
330
1F
100
AcDbEntity
  8
実線
100
AcDbCircle
 10
304.9878909780463
 20
722.0663606742818
 30
0.0
 40
61.50000000000008
100
AcDbArc
 50
223.2354262571156
 51
226.7645737428844
  0
ARC
  5
527
102
{ACAD_REACTORS
330
650
102
}
330
1F
100
AcDbEntity
  8
実線
100
AcDbCircle
 10
268.3405140349742
 20
683.089190905398
 30
0.0
 40
8.000000000000021
100
AcDbArc
 50
226.7645737428844
 51
304.9999999999974
  0
LINE
  5
528
102
{ACAD_REACTORS
330
650
102
}
330
1F
100
AcDbEntity
  8
実線
100
AcDbLine
 10
272.9291255257825
 20
676.5359745510859
 30
0.0
 11
277.9171153038674
 21
680.0286025942138
 31
0.0
  0
LINE
  5
529
102
{ACAD_REACTORS
330
650
102
}
330
1F
100
AcDbEntity
  8
実線
100
AcDbLine
 10
332.0586666522248
 20
680.0286025942138
 30
0.0
 11
337.0466564303097
 21
676.5359745510859
 31
0.0
  0
ARC
  5
52A
102
{ACAD_REACTORS
330
650
102
}
330
1F
100
AcDbEntity
  8
実線
100
AcDbCircle
 10
341.635267921118
 20
683.089190905398
 30
0.0
 40
7.999999999999986
100
AcDbArc
 50
235.0000000000026
 51
313.235426257111
  0
ARC
  5
52B
102
{ACAD_REACTORS
330
650
102
}
330
1F
100
AcDbEntity
  8
実線
100
AcDbCircle
 10
304.987890978047
 20
722.0663606742809
 30
0.0
 40
61.49999999999885
100
AcDbArc
 50
313.235426257111
 51
316.7645737428844
  0
ARC
  5
52C
102
{ACAD_REACTORS
330
650
102
}
330
1F
100
AcDbEntity
  8
実線
100
AcDbCircle
 10
343.9650607469301
 20
685.4189837312098
 30
0.0
 40
8.000000000000023
100
AcDbArc
 50
316.7645737428844
 51
34.99999999999737
  0
LINE
  5
52D
102
{ACAD_REACTORS
330
650
102
}
330
1F
100
AcDbEntity
  8
実線
100
AcDbLine
 10
350.5182771012421
 20
690.0075952220179
 30
0.0
 11
347.0256490581139
 21
694.9955850001028
 31
0.0
  0
LINE
  5
52E
102
{ACAD_REACTORS
330
650
102
}
330
1F
100
AcDbEntity
  8
実線
100
AcDbLine
 10
347.0256490581139
 20
749.1371363484599
 30
0.0
 11
350.5182771012421
 21
754.1251261265458
 31
0.0
  0
ARC
  5
52F
102
{ACAD_REACTORS
330
650
102
}
330
1F
100
AcDbEntity
  8
実線
100
AcDbCircle
 10
304.9878909780462
 20
722.0663606742818
 30
0.0
 40
61.50000000000009
100
AcDbArc
 50
43.23542625711559
 51
46.76457374288901
  0
ARC
  5
530
102
{ACAD_REACTORS
330
650
102
}
330
1F
100
AcDbEntity
  8
実線
100
AcDbCircle
 10
341.635267921118
 20
761.043530443166
 30
0.0
 40
8.000000000000008
100
AcDbArc
 50
46.76457374288901
 51
124.9999999999974
  0
LINE
  5
531
102
{ACAD_REACTORS
330
650
102
}
330
1F
100
AcDbEntity
  8
実線
100
AcDbLine
 10
337.0466564303097
 20
767.5967467974778
 30
0.0
 11
332.0586666522248
 21
764.1041187543499
 31
0.0
  0
LINE
  5
532
102
{ACAD_REACTORS
330
650
102
}
330
1F
100
AcDbEntity
  8
実線
100
AcDbLine
 10
277.9171153038674
 20
764.1041187543499
 30
0.0
 11
272.9291255257825
 21
767.5967467974778
 31
0.0
  0
ARC
  5
533
102
{ACAD_REACTORS
330
650
102
}
330
1F
100
AcDbEntity
  8
実線
100
AcDbCircle
 10
268.3405140349742
 20
761.043530443166
 30
0.0
 40
8.000000000000008
100
AcDbArc
 50
55.00000000000264
 51
133.235426257111
  0
ARC
  5
534
102
{ACAD_REACTORS
330
650
102
}
330
1F
100
AcDbEntity
  8
実線
100
AcDbCircle
 10
304.9878909780471
 20
722.0663606742809
 30
0.0
 40
61.50000000000114
100
AcDbArc
 50
133.235426257111
 51
136.7645737428844
  0
ARC
  5
535
102
{ACAD_REACTORS
330
650
102
}
330
1F
100
AcDbEntity
  8
実線
100
AcDbCircle
 10
266.0107212091622
 20
758.7137376173538
 30
0.0
 40
8.000000000000008
100
AcDbArc
 50
136.7645737428844
 51
214.9999999999974
  0
LINE
  5
536
102
{ACAD_REACTORS
330
650
102
}
330
1F
100
AcDbEntity
  8
実線
100
AcDbLine
 10
259.4575048548503
 20
754.125126126545
 30
0.0
 11
262.9501328979783
 21
749.1371363484599
 31
0.0
  0
LINE
  5
537
102
{ACAD_REACTORS
330
650
102
}
330
1F
100
AcDbEntity
  8
実線
100
AcDbLine
 10
262.9501328979783
 20
694.9955850001028
 30
0.0
 11
259.4575048548503
 21
690.0075952220179
 31
0.0
  0
CIRCLE
  5
538
102
{ACAD_REACTORS
330
650
102
}
330
1F
100
AcDbEntity
  8
実線
100
AcDbCircle
 10
304.9878909780462
 20
722.0663606742818
 30
0.0
 40
50.0
  0
LINE
  5
539
102
{ACAD_REACTORS
330
64C
102
}
330
1F
100
AcDbEntity
  8
実線
100
AcDbLine
 10
768.4878909780447
 20
584.866360674282
 30
0.0
 11
801.4878909780438
 21
584.866360674282
 31
0.0
  0
LINE
  5
53A
102
{ACAD_REACTORS
330
64C
102
}
330
1F
100
AcDbEntity
  8
実線
100
AcDbLine
 10
768.4878909780447
 20
584.866360674282
 30
0.0
 11
742.4878909780447
 21
575.666360674282
 31
0.0
  0
LINE
  5
53B
102
{ACAD_REACTORS
330
64C
102
}
330
1F
100
AcDbEntity
  8
実線
100
AcDbLine
 10
827.4878909780447
 20
575.666360674282
 30
0.0
 11
801.4878909780438
 21
584.866360674282
 31
0.0
  0
LINE
  5
53C
102
{ACAD_REACTORS
330
64C
102
}
330
1F
100
AcDbEntity
  8
実線
100
AcDbLine
 10
742.4878909780447
 20
575.666360674282
 30
0.0
 11
827.4878909780447
 21
575.666360674282
 31
0.0
  0
LINE
  5
53D
102
{ACAD_REACTORS
330
64C
102
}
330
1F
100
AcDbEntity
  8
実線
100
AcDbLine
 10
741.6878909780448
 20
462.666360674282
 30
0.0
 11
740.9878909780448
 21
458.966360674282
 31
0.0
  0
LINE
  5
53E
102
{ACAD_REACTORS
330
64C
102
}
330
1F
100
AcDbEntity
  8
実線
100
AcDbLine
 10
828.9878909780448
 20
458.966360674282
 30
0.0
 11
828.2878909780446
 21
462.666360674282
 31
0.0
  0
LINE
  5
53F
102
{ACAD_REACTORS
330
64C
102
}
330
1F
100
AcDbEntity
  8
実線
100
AcDbLine
 10
740.9878909780448
 20
458.966360674282
 30
0.0
 11
828.9878909780448
 21
458.966360674282
 31
0.0
  0
LINE
  5
540
102
{ACAD_REACTORS
330
64C
102
}
330
1F
100
AcDbEntity
  8
実線
100
AcDbLine
 10
804.0378909780455
 20
177.1663606742821
 30
0.0
 11
804.0378909780455
 21
219.2663606742822
 31
0.0
  0
LINE
  5
541
102
{ACAD_REACTORS
330
64C
102
}
330
1F
100
AcDbEntity
  8
実線
100
AcDbLine
 10
765.9378909780448
 20
219.2663606742822
 30
0.0
 11
765.9378909780448
 21
177.1663606742821
 31
0.0
  0
LINE
  5
542
102
{ACAD_REACTORS
330
64C
102
}
330
1F
100
AcDbEntity
  8
実線
100
AcDbLine
 10
765.9378909780448
 20
177.1663606742821
 30
0.0
 11
804.0378909780455
 21
177.1663606742821
 31
0.0
  0
LINE
  5
543
102
{ACAD_REACTORS
330
64C
102
}
330
1F
100
AcDbEntity
  8
実線
100
AcDbLine
 10
765.9378909780448
 20
177.1663606742821
 30
0.0
 11
759.7378909780448
 21
174.8163606742821
 31
0.0
  0
LINE
  5
544
102
{ACAD_REACTORS
330
64C
102
}
330
1F
100
AcDbEntity
  8
実線
100
AcDbLine
 10
810.2378909780448
 20
174.8163606742821
 30
0.0
 11
804.0378909780455
 21
177.1663606742821
 31
0.0
  0
LINE
  5
545
102
{ACAD_REACTORS
330
64C
102
}
330
1F
100
AcDbEntity
  8
実線
100
AcDbLine
 10
759.7378909780448
 20
172.0663606742821
 30
0.0
 11
810.2378909780448
 21
172.0663606742821
 31
0.0
  0
LINE
  5
546
102
{ACAD_REACTORS
330
64C
102
}
330
1F
100
AcDbEntity
  8
実線
100
AcDbLine
 10
759.7378909780448
 20
174.8163606742821
 30
0.0
 11
810.2378909780448
 21
174.8163606742821
 31
0.0
  0
LINE
  5
547
102
{ACAD_REACTORS
330
64C
102
}
330
1F
100
AcDbEntity
  8
実線
100
AcDbLine
 10
810.2378909780448
 20
172.0663606742821
 30
0.0
 11
810.2378909780448
 21
174.8163606742821
 31
0.0
  0
LINE
  5
548
102
{ACAD_REACTORS
330
64C
102
}
330
1F
100
AcDbEntity
  8
実線
100
AcDbLine
 10
759.7378909780448
 20
174.8163606742821
 30
0.0
 11
759.7378909780448
 21
172.0663606742821
 31
0.0
  0
LINE
  5
549
102
{ACAD_REACTORS
330
64C
102
}
330
1F
100
AcDbEntity
  8
実線
100
AcDbLine
 10
849.8878909780449
 20
261.116360674282
 30
0.0
 11
831.9650607469286
 21
261.116360674282
 31
0.0
  0
LINE
  5
54A
102
{ACAD_REACTORS
330
64C
102
}
330
1F
100
AcDbEntity
  8
実線
100
AcDbLine
 10
821.1223039312676
 20
223.0163606742822
 30
0.0
 11
849.8878909780449
 21
223.0163606742822
 31
0.0
  0
LINE
  5
54B
102
{ACAD_REACTORS
330
64C
102
}
330
1F
100
AcDbEntity
  8
実線
100
AcDbLine
 10
849.8878909780449
 20
223.0163606742822
 30
0.0
 11
849.8878909780449
 21
261.116360674282
 31
0.0
  0
LINE
  5
54C
102
{ACAD_REACTORS
330
64C
102
}
330
1F
100
AcDbEntity
  8
実線
100
AcDbLine
 10
849.8878909780449
 20
223.0163606742822
 30
0.0
 11
852.2378909780456
 21
216.8163606742821
 31
0.0
  0
LINE
  5
54D
102
{ACAD_REACTORS
330
64C
102
}
330
1F
100
AcDbEntity
  8
実線
100
AcDbLine
 10
852.2378909780456
 20
267.316360674282
 30
0.0
 11
849.8878909780449
 21
261.116360674282
 31
0.0
  0
LINE
  5
54E
102
{ACAD_REACTORS
330
64C
102
}
330
1F
100
AcDbEntity
  8
実線
100
AcDbLine
 10
854.9878909780456
 20
216.8163606742821
 30
0.0
 11
854.9878909780456
 21
267.316360674282
 31
0.0
  0
LINE
  5
54F
102
{ACAD_REACTORS
330
64C
102
}
330
1F
100
AcDbEntity
  8
実線
100
AcDbLine
 10
852.2378909780456
 20
216.8163606742821
 30
0.0
 11
852.2378909780456
 21
267.316360674282
 31
0.0
  0
LINE
  5
550
102
{ACAD_REACTORS
330
64C
102
}
330
1F
100
AcDbEntity
  8
実線
100
AcDbLine
 10
854.9878909780456
 20
267.316360674282
 30
0.0
 11
852.2378909780456
 21
267.316360674282
 31
0.0
  0
LINE
  5
551
102
{ACAD_REACTORS
330
64C
102
}
330
1F
100
AcDbEntity
  8
実線
100
AcDbLine
 10
852.2378909780456
 20
216.8163606742821
 30
0.0
 11
854.9878909780456
 21
216.8163606742821
 31
0.0
  0
LINE
  5
552
102
{ACAD_REACTORS
330
64C
102
}
330
1F
100
AcDbEntity
  8
実線
100
AcDbLine
 10
790.9878909780448
 20
283.466360674282
 30
0.0
 11
790.9878909780448
 21
310.466360674282
 31
0.0
  0
LINE
  5
553
102
{ACAD_REACTORS
330
64C
102
}
330
1F
100
AcDbEntity
  8
実線
100
AcDbLine
 10
778.9878909780448
 20
310.466360674282
 30
0.0
 11
778.9878909780448
 21
283.466360674282
 31
0.0
  0
LINE
  5
554
102
{ACAD_REACTORS
330
64C
102
}
330
1F
100
AcDbEntity
  8
実線
100
AcDbLine
 10
734.9878909780447
 20
429.966360674282
 30
0.0
 11
834.9878909780448
 21
429.966360674282
 31
0.0
  0
LINE
  5
555
102
{ACAD_REACTORS
330
64C
102
}
330
1F
100
AcDbEntity
  8
実線
100
AcDbLine
 10
834.9878909780448
 20
353.966360674282
 30
0.0
 11
834.9878909780448
 21
429.966360674282
 31
0.0
  0
LINE
  5
556
102
{ACAD_REACTORS
330
64C
102
}
330
1F
100
AcDbEntity
  8
実線
100
AcDbLine
 10
734.9878909780447
 20
429.966360674282
 30
0.0
 11
734.9878909780447
 21
353.966360674282
 31
0.0
  0
LINE
  5
557
102
{ACAD_REACTORS
330
64C
102
}
330
1F
100
AcDbEntity
  8
実線
100
AcDbLine
 10
734.9878909780447
 20
353.966360674282
 30
0.0
 11
834.9878909780448
 21
353.966360674282
 31
0.0
  0
LINE
  5
558
102
{ACAD_REACTORS
330
64C
102
}
330
1F
100
AcDbEntity
  8
実線
100
AcDbLine
 10
749.9878909780448
 20
445.966360674282
 30
0.0
 11
819.9878909780448
 21
445.966360674282
 31
0.0
  0
LINE
  5
559
102
{ACAD_REACTORS
330
64C
102
}
330
1F
100
AcDbEntity
  8
実線
100
AcDbLine
 10
819.9878909780448
 20
434.466360674282
 30
0.0
 11
819.9878909780448
 21
445.966360674282
 31
0.0
  0
LINE
  5
55A
102
{ACAD_REACTORS
330
64C
102
}
330
1F
100
AcDbEntity
  8
実線
100
AcDbLine
 10
749.9878909780448
 20
445.966360674282
 30
0.0
 11
749.9878909780448
 21
434.466360674282
 31
0.0
  0
LINE
  5
55B
102
{ACAD_REACTORS
330
64C
102
}
330
1F
100
AcDbEntity
  8
実線
100
AcDbLine
 10
797.9878909780438
 20
445.966360674282
 30
0.0
 11
797.9878909780438
 21
458.966360674282
 31
0.0
  0
LINE
  5
55C
102
{ACAD_REACTORS
330
64C
102
}
330
1F
100
AcDbEntity
  8
実線
100
AcDbLine
 10
771.9878909780447
 20
458.966360674282
 30
0.0
 11
771.9878909780447
 21
445.966360674282
 31
0.0
  0
LINE
  5
55D
102
{ACAD_REACTORS
330
64C
102
}
330
1F
100
AcDbEntity
  8
実線
100
AcDbLine
 10
741.6878909780448
 20
498.6663606742821
 30
0.0
 11
828.2878909780446
 21
498.6663606742821
 31
0.0
  0
LINE
  5
55E
102
{ACAD_REACTORS
330
64C
102
}
330
1F
100
AcDbEntity
  8
実線
100
AcDbLine
 10
828.2878909780446
 20
462.666360674282
 30
0.0
 11
828.2878909780446
 21
498.6663606742821
 31
0.0
  0
LINE
  5
55F
102
{ACAD_REACTORS
330
64C
102
}
330
1F
100
AcDbEntity
  8
実線
100
AcDbLine
 10
741.6878909780448
 20
498.6663606742821
 30
0.0
 11
741.6878909780448
 21
462.666360674282
 31
0.0
  0
LINE
  5
560
102
{ACAD_REACTORS
330
64C
102
}
330
1F
100
AcDbEntity
  8
実線
100
AcDbLine
 10
741.6878909780448
 20
462.666360674282
 30
0.0
 11
828.2878909780446
 21
462.666360674282
 31
0.0
  0
LINE
  5
561
102
{ACAD_REACTORS
330
64C
102
}
330
1F
100
AcDbEntity
  8
実線
100
AcDbLine
 10
827.4878909780447
 20
498.6663606742821
 30
0.0
 11
827.4878909780447
 21
575.6663606742821
 31
0.0
  0
LINE
  5
562
102
{ACAD_REACTORS
330
64C
102
}
330
1F
100
AcDbEntity
  8
実線
100
AcDbLine
 10
742.4878909780447
 20
575.6663606742821
 30
0.0
 11
742.4878909780447
 21
498.6663606742821
 31
0.0
  0
LINE
  5
563
102
{ACAD_REACTORS
330
64C
102
}
330
1F
100
AcDbEntity
  8
実線
100
AcDbLine
 10
738.0107212091608
 20
283.466360674282
 30
0.0
 11
831.9650607469277
 21
283.466360674282
 31
0.0
  0
LINE
  5
564
102
{ACAD_REACTORS
330
64C
102
}
330
1F
100
AcDbEntity
  8
実線
100
AcDbLine
 10
831.9650607469277
 20
269.966360674282
 30
0.0
 11
831.9650607469277
 21
283.466360674282
 31
0.0
  0
LINE
  5
565
102
{ACAD_REACTORS
330
64C
102
}
330
1F
100
AcDbEntity
  8
実線
100
AcDbLine
 10
738.0107212091608
 20
283.466360674282
 30
0.0
 11
738.0107212091608
 21
269.966360674282
 31
0.0
  0
LINE
  5
566
102
{ACAD_REACTORS
330
64C
102
}
330
1F
100
AcDbEntity
  8
実線
100
AcDbLine
 10
766.9589941676208
 20
283.466360674282
 30
0.0
 11
766.9589941676208
 21
269.966360674282
 31
0.0
  0
LINE
  5
567
102
{ACAD_REACTORS
330
64C
102
}
330
1F
100
AcDbEntity
  8
実線
100
AcDbLine
 10
803.0167877884688
 20
283.466360674282
 30
0.0
 11
803.0167877884688
 21
269.966360674282
 31
0.0
  0
ARC
  5
568
102
{ACAD_REACTORS
330
64C
102
}
330
1F
100
AcDbEntity
  8
実線
100
AcDbCircle
 10
761.2878909780447
 20
324.466360674282
 30
0.0
 40
57.99999999999997
100
AcDbArc
 50
315.0170320400987
 51
346.0320373253493
  0
ARC
  5
569
102
{ACAD_REACTORS
330
64C
102
}
330
1F
100
AcDbEntity
  8
実線
100
AcDbCircle
 10
759.2878909780438
 20
324.466360674282
 30
0.0
 40
70.00000000000003
100
AcDbArc
 50
324.1465329365346
 51
0.0
  0
LINE
  5
56A
102
{ACAD_REACTORS
330
64C
102
}
330
1F
100
AcDbEntity
  8
実線
100
AcDbLine
 10
829.2878909780448
 20
353.966360674282
 30
0.0
 11
829.2878909780448
 21
324.466360674282
 31
0.0
  0
LINE
  5
56B
102
{ACAD_REACTORS
330
64C
102
}
330
1F
100
AcDbEntity
  8
実線
100
AcDbLine
 10
740.6878909780448
 20
353.966360674282
 30
0.0
 11
740.6878909780448
 21
324.466360674282
 31
0.0
  0
ARC
  5
56C
102
{ACAD_REACTORS
330
64C
102
}
330
1F
100
AcDbEntity
  8
実線
100
AcDbCircle
 10
810.6878909780448
 20
324.466360674282
 30
0.0
 40
70.00000000000003
100
AcDbArc
 50
180.0
 51
215.8534670634654
  0
ARC
  5
56D
102
{ACAD_REACTORS
330
64C
102
}
330
1F
100
AcDbEntity
  8
実線
100
AcDbCircle
 10
808.6878909780448
 20
324.466360674282
 30
0.0
 40
57.99999999999997
100
AcDbArc
 50
193.9679626746507
 51
224.9829679599013
  0
LINE
  5
56E
102
{ACAD_REACTORS
330
64C
102
}
330
1F
100
AcDbEntity
  8
実線
100
AcDbLine
 10
746.6025096460848
 20
310.466360674282
 30
0.0
 11
823.3732723100049
 21
310.466360674282
 31
0.0
  0
LINE
  5
56F
102
{ACAD_REACTORS
330
64C
102
}
330
1F
100
AcDbEntity
  8
実線
100
AcDbLine
 10
823.3732723100049
 20
353.966360674282
 30
0.0
 11
823.3732723100049
 21
310.466360674282
 31
0.0
  0
LINE
  5
570
102
{ACAD_REACTORS
330
64C
102
}
330
1F
100
AcDbEntity
  8
実線
100
AcDbLine
 10
746.6025096460848
 20
353.966360674282
 30
0.0
 11
746.6025096460848
 21
310.466360674282
 31
0.0
  0
LINE
  5
571
102
{ACAD_REACTORS
330
64C
102
}
330
1F
100
AcDbEntity
  8
実線
100
AcDbLine
 10
737.9878909780448
 20
434.466360674282
 30
0.0
 11
831.9878909780447
 21
434.466360674282
 31
0.0
  0
ARC
  5
572
102
{ACAD_REACTORS
330
64C
102
}
330
1F
100
AcDbEntity
  8
実線
100
AcDbCircle
 10
831.9878909780447
 20
431.4663606742819
 30
0.0
 40
3.0
100
AcDbArc
 50
0.0
 51
90.0
  0
ARC
  5
573
102
{ACAD_REACTORS
330
64C
102
}
330
1F
100
AcDbEntity
  8
実線
100
AcDbCircle
 10
737.9878909780448
 20
431.4663606742819
 30
0.0
 40
3.0
100
AcDbArc
 50
90.0
 51
180.0
  0
LINE
  5
574
102
{ACAD_REACTORS
330
64C
102
}
330
1F
100
AcDbEntity
  8
実線
100
AcDbLine
 10
834.9878909780448
 20
429.966360674282
 30
0.0
 11
834.9878909780448
 21
431.4663606742819
 31
0.0
  0
LINE
  5
575
102
{ACAD_REACTORS
330
64C
102
}
330
1F
100
AcDbEntity
  8
実線
100
AcDbLine
 10
734.9878909780447
 20
431.4663606742819
 30
0.0
 11
734.9878909780447
 21
429.966360674282
 31
0.0
  0
LINE
  5
576
102
{ACAD_REACTORS
330
64C
102
}
330
1F
100
AcDbEntity
  8
実線
100
AcDbLine
 10
811.9878909780448
 20
219.2663606742822
 30
0.0
 11
757.9878909794497
 21
219.2663606742822
 31
0.0
  0
ARC
  5
577
102
{ACAD_REACTORS
330
64C
102
}
330
1F
100
AcDbEntity
  8
実線
100
AcDbCircle
 10
757.9878909780448
 20
232.2663606742822
 30
0.0
 40
13.0
100
AcDbArc
 50
180.0
 51
270.0
  0
ARC
  5
578
102
{ACAD_REACTORS
330
64C
102
}
330
1F
100
AcDbEntity
  8
実線
100
AcDbCircle
 10
811.9878909780448
 20
232.2663606742822
 30
0.0
 40
13.0
100
AcDbArc
 50
270.0
 51
314.6397729586045
  0
LINE
  5
579
102
{ACAD_REACTORS
330
64C
102
}
330
1F
100
AcDbEntity
  8
実線
100
AcDbLine
 10
738.0107212091618
 20
269.966360674282
 30
0.0
 11
831.9650607469286
 21
269.966360674282
 31
0.0
  0
LINE
  5
57A
102
{ACAD_REACTORS
330
64C
102
}
330
1F
100
AcDbEntity
  8
実線
100
AcDbLine
 10
744.9878909780448
 20
259.9663606742821
 30
0.0
 11
744.9878909780448
 21
232.2663606742822
 31
0.0
  0
LINE
  5
57B
102
{ACAD_REACTORS
330
64C
102
}
330
1F
100
AcDbEntity
  8
実線
100
AcDbLine
 10
831.9650607469286
 20
259.9663606742821
 30
0.0
 11
803.0167877884698
 21
259.9663606742821
 31
0.0
  0
LINE
  5
57C
102
{ACAD_REACTORS
330
64C
102
}
330
1F
100
AcDbEntity
  8
実線
100
AcDbLine
 10
831.9650607469286
 20
259.9663606742821
 30
0.0
 11
831.9650607469286
 21
269.966360674282
 31
0.0
  0
LINE
  5
57D
102
{ACAD_REACTORS
330
64C
102
}
330
1F
100
AcDbEntity
  8
実線
100
AcDbLine
 10
738.0107212091618
 20
269.966360674282
 30
0.0
 11
738.0107212091618
 21
259.9663606742821
 31
0.0
  0
LINE
  5
57E
102
{ACAD_REACTORS
330
64C
102
}
330
1F
100
AcDbEntity
  8
実線
100
AcDbLine
 10
738.0107212091618
 20
259.9663606742821
 30
0.0
 11
766.9589941676208
 21
259.9663606742821
 31
0.0
  0
LINE
  5
57F
102
{ACAD_REACTORS
330
64C
102
}
330
1F
100
AcDbEntity
  8
実線
100
AcDbLine
 10
766.9589941676208
 20
269.966360674282
 30
0.0
 11
766.9589941676208
 21
259.9663606742821
 31
0.0
  0
LINE
  5
580
102
{ACAD_REACTORS
330
64C
102
}
330
1F
100
AcDbEntity
  8
実線
100
AcDbLine
 10
803.0167877884698
 20
269.966360674282
 30
0.0
 11
803.0167877884698
 21
259.9663606742821
 31
0.0
  0
LINE
  5
581
102
{ACAD_REACTORS
330
64D
102
}
330
1F
100
AcDbEntity
  8
実線
100
AcDbLine
 10
502.4878909780444
 20
575.6663606742819
 30
0.0
 11
587.4878909780444
 21
575.6663606742819
 31
0.0
  0
LINE
  5
582
102
{ACAD_REACTORS
330
64D
102
}
330
1F
100
AcDbEntity
  8
実線
100
AcDbLine
 10
561.4878909780444
 20
584.8663606742819
 30
0.0
 11
528.4878909780444
 21
584.8663606742819
 31
0.0
  0
LINE
  5
583
102
{ACAD_REACTORS
330
64D
102
}
330
1F
100
AcDbEntity
  8
実線
100
AcDbLine
 10
528.4878909780444
 20
584.8663606742819
 30
0.0
 11
502.4878909780444
 21
575.6663606742819
 31
0.0
  0
LINE
  5
584
102
{ACAD_REACTORS
330
64D
102
}
330
1F
100
AcDbEntity
  8
実線
100
AcDbLine
 10
587.4878909780444
 20
575.6663606742819
 30
0.0
 11
561.4878909780444
 21
584.8663606742819
 31
0.0
  0
LINE
  5
585
102
{ACAD_REACTORS
330
64D
102
}
330
1F
100
AcDbEntity
  8
実線
100
AcDbLine
 10
500.9878909780444
 20
458.9663606742818
 30
0.0
 11
588.9878909780444
 21
458.9663606742818
 31
0.0
  0
LINE
  5
586
102
{ACAD_REACTORS
330
64D
102
}
330
1F
100
AcDbEntity
  8
実線
100
AcDbLine
 10
501.6878909780443
 20
462.6663606742819
 30
0.0
 11
500.9878909780444
 21
458.9663606742818
 31
0.0
  0
LINE
  5
587
102
{ACAD_REACTORS
330
64D
102
}
330
1F
100
AcDbEntity
  8
実線
100
AcDbLine
 10
588.9878909780444
 20
458.9663606742818
 30
0.0
 11
588.2878909780443
 21
462.6663606742819
 31
0.0
  0
LINE
  5
588
102
{ACAD_REACTORS
330
64D
102
}
330
1F
100
AcDbEntity
  8
実線
100
AcDbLine
 10
564.0378909780455
 20
177.166360674282
 30
0.0
 11
564.0378909780455
 21
219.266360674282
 31
0.0
  0
LINE
  5
589
102
{ACAD_REACTORS
330
64D
102
}
330
1F
100
AcDbEntity
  8
実線
100
AcDbLine
 10
525.9378909780454
 20
219.266360674282
 30
0.0
 11
525.9378909780454
 21
177.166360674282
 31
0.0
  0
LINE
  5
58A
102
{ACAD_REACTORS
330
64D
102
}
330
1F
100
AcDbEntity
  8
実線
100
AcDbLine
 10
564.0378909780455
 20
177.166360674282
 30
0.0
 11
525.9378909780454
 21
177.166360674282
 31
0.0
  0
LINE
  5
58B
102
{ACAD_REACTORS
330
64D
102
}
330
1F
100
AcDbEntity
  8
実線
100
AcDbLine
 10
525.9378909780454
 20
177.166360674282
 30
0.0
 11
519.7378909780453
 21
174.816360674282
 31
0.0
  0
LINE
  5
58C
102
{ACAD_REACTORS
330
64D
102
}
330
1F
100
AcDbEntity
  8
実線
100
AcDbLine
 10
570.2378909780454
 20
174.816360674282
 30
0.0
 11
564.0378909780455
 21
177.166360674282
 31
0.0
  0
LINE
  5
58D
102
{ACAD_REACTORS
330
64D
102
}
330
1F
100
AcDbEntity
  8
実線
100
AcDbLine
 10
570.2378909780454
 20
172.066360674282
 30
0.0
 11
519.7378909780453
 21
172.066360674282
 31
0.0
  0
LINE
  5
58E
102
{ACAD_REACTORS
330
64D
102
}
330
1F
100
AcDbEntity
  8
実線
100
AcDbLine
 10
570.2378909780454
 20
174.816360674282
 30
0.0
 11
519.7378909780453
 21
174.816360674282
 31
0.0
  0
LINE
  5
58F
102
{ACAD_REACTORS
330
64D
102
}
330
1F
100
AcDbEntity
  8
実線
100
AcDbLine
 10
570.2378909780454
 20
172.066360674282
 30
0.0
 11
570.2378909780454
 21
174.816360674282
 31
0.0
  0
LINE
  5
590
102
{ACAD_REACTORS
330
64D
102
}
330
1F
100
AcDbEntity
  8
実線
100
AcDbLine
 10
519.7378909780453
 20
174.816360674282
 30
0.0
 11
519.7378909780453
 21
172.066360674282
 31
0.0
  0
LINE
  5
591
102
{ACAD_REACTORS
330
64D
102
}
330
1F
100
AcDbEntity
  8
実線
100
AcDbLine
 10
494.9878909780444
 20
353.9663606742819
 30
0.0
 11
594.9878909780444
 21
353.9663606742819
 31
0.0
  0
LINE
  5
592
102
{ACAD_REACTORS
330
64D
102
}
330
1F
100
AcDbEntity
  8
実線
100
AcDbLine
 10
594.9878909780444
 20
429.9663606742818
 30
0.0
 11
494.9878909780444
 21
429.9663606742818
 31
0.0
  0
LINE
  5
593
102
{ACAD_REACTORS
330
64D
102
}
330
1F
100
AcDbEntity
  8
実線
100
AcDbLine
 10
594.9878909780444
 20
353.9663606742819
 30
0.0
 11
594.9878909780444
 21
429.9663606742818
 31
0.0
  0
LINE
  5
594
102
{ACAD_REACTORS
330
64D
102
}
330
1F
100
AcDbEntity
  8
実線
100
AcDbLine
 10
494.9878909780444
 20
429.9663606742818
 30
0.0
 11
494.9878909780444
 21
353.9663606742819
 31
0.0
  0
LINE
  5
595
102
{ACAD_REACTORS
330
64D
102
}
330
1F
100
AcDbEntity
  8
実線
100
AcDbLine
 10
579.9878909780444
 20
445.9663606742818
 30
0.0
 11
509.9878909780444
 21
445.9663606742818
 31
0.0
  0
LINE
  5
596
102
{ACAD_REACTORS
330
64D
102
}
330
1F
100
AcDbEntity
  8
実線
100
AcDbLine
 10
579.9878909780444
 20
434.4663606742819
 30
0.0
 11
579.9878909780444
 21
445.9663606742818
 31
0.0
  0
LINE
  5
597
102
{ACAD_REACTORS
330
64D
102
}
330
1F
100
AcDbEntity
  8
実線
100
AcDbLine
 10
509.9878909780444
 20
445.9663606742818
 30
0.0
 11
509.9878909780444
 21
434.4663606742819
 31
0.0
  0
LINE
  5
598
102
{ACAD_REACTORS
330
64D
102
}
330
1F
100
AcDbEntity
  8
実線
100
AcDbLine
 10
557.9878909780444
 20
445.9663606742818
 30
0.0
 11
557.9878909780444
 21
458.9663606742818
 31
0.0
  0
LINE
  5
599
102
{ACAD_REACTORS
330
64D
102
}
330
1F
100
AcDbEntity
  8
実線
100
AcDbLine
 10
531.9878909780444
 20
458.9663606742818
 30
0.0
 11
531.9878909780444
 21
445.9663606742818
 31
0.0
  0
LINE
  5
59A
102
{ACAD_REACTORS
330
64D
102
}
330
1F
100
AcDbEntity
  8
実線
100
AcDbLine
 10
588.2878909780443
 20
498.666360674282
 30
0.0
 11
501.6878909780443
 21
498.666360674282
 31
0.0
  0
LINE
  5
59B
102
{ACAD_REACTORS
330
64D
102
}
330
1F
100
AcDbEntity
  8
実線
100
AcDbLine
 10
501.6878909780443
 20
462.6663606742819
 30
0.0
 11
588.2878909780443
 21
462.6663606742819
 31
0.0
  0
LINE
  5
59C
102
{ACAD_REACTORS
330
64D
102
}
330
1F
100
AcDbEntity
  8
実線
100
AcDbLine
 10
588.2878909780443
 20
462.6663606742819
 30
0.0
 11
588.2878909780443
 21
498.666360674282
 31
0.0
  0
LINE
  5
59D
102
{ACAD_REACTORS
330
64D
102
}
330
1F
100
AcDbEntity
  8
実線
100
AcDbLine
 10
501.6878909780443
 20
498.666360674282
 30
0.0
 11
501.6878909780443
 21
462.6663606742819
 31
0.0
  0
LINE
  5
59E
102
{ACAD_REACTORS
330
64D
102
}
330
1F
100
AcDbEntity
  8
実線
100
AcDbLine
 10
587.4878909780444
 20
498.666360674282
 30
0.0
 11
587.4878909780444
 21
575.666360674282
 31
0.0
  0
LINE
  5
59F
102
{ACAD_REACTORS
330
64D
102
}
330
1F
100
AcDbEntity
  8
実線
100
AcDbLine
 10
502.4878909780444
 20
575.666360674282
 30
0.0
 11
502.4878909780444
 21
498.666360674282
 31
0.0
  0
LINE
  5
5A0
102
{ACAD_REACTORS
330
64D
102
}
330
1F
100
AcDbEntity
  8
実線
100
AcDbLine
 10
591.9650607469283
 20
283.4663606742818
 30
0.0
 11
498.0107212091614
 21
283.4663606742818
 31
0.0
  0
LINE
  5
5A1
102
{ACAD_REACTORS
330
64D
102
}
330
1F
100
AcDbEntity
  8
実線
100
AcDbLine
 10
591.9650607469283
 20
269.9663606742819
 30
0.0
 11
498.0107212091614
 21
269.9663606742819
 31
0.0
  0
LINE
  5
5A2
102
{ACAD_REACTORS
330
64D
102
}
330
1F
100
AcDbEntity
  8
実線
100
AcDbLine
 10
498.0107212091614
 20
283.4663606742818
 30
0.0
 11
498.0107212091614
 21
269.9663606742819
 31
0.0
  0
LINE
  5
5A3
102
{ACAD_REACTORS
330
64D
102
}
330
1F
100
AcDbEntity
  8
実線
100
AcDbLine
 10
591.9650607469283
 20
269.9663606742819
 30
0.0
 11
591.9650607469283
 21
283.4663606742818
 31
0.0
  0
LINE
  5
5A4
102
{ACAD_REACTORS
330
64D
102
}
330
1F
100
AcDbEntity
  8
実線
100
AcDbLine
 10
526.9589941676202
 20
283.4663606742818
 30
0.0
 11
526.9589941676202
 21
269.9663606742819
 31
0.0
  0
LINE
  5
5A5
102
{ACAD_REACTORS
330
64D
102
}
330
1F
100
AcDbEntity
  8
実線
100
AcDbLine
 10
563.0167877884684
 20
283.4663606742818
 30
0.0
 11
563.0167877884684
 21
269.9663606742819
 31
0.0
  0
LINE
  5
5A6
102
{ACAD_REACTORS
330
64D
102
}
330
1F
100
AcDbEntity
  8
実線
100
AcDbLine
 10
556.2378909780444
 20
310.4663606742819
 30
0.0
 11
584.9878909780444
 21
310.4663606742819
 31
0.0
  0
LINE
  5
5A7
102
{ACAD_REACTORS
330
64D
102
}
330
1F
100
AcDbEntity
  8
実線
100
AcDbLine
 10
584.9878909780444
 20
310.4663606742819
 30
0.0
 11
584.9878909780444
 21
353.9663606742819
 31
0.0
  0
LINE
  5
5A8
102
{ACAD_REACTORS
330
64D
102
}
330
1F
100
AcDbEntity
  8
実線
100
AcDbLine
 10
504.9878909780444
 20
353.9663606742819
 30
0.0
 11
504.9878909780444
 21
310.4663606742819
 31
0.0
  0
LINE
  5
5A9
102
{ACAD_REACTORS
330
64D
102
}
330
1F
100
AcDbEntity
  8
実線
100
AcDbLine
 10
504.9878909780444
 20
310.4663606742819
 30
0.0
 11
533.7378909780444
 21
310.4663606742819
 31
0.0
  0
LINE
  5
5AA
102
{ACAD_REACTORS
330
64D
102
}
330
1F
100
AcDbEntity
  8
実線
100
AcDbLine
 10
533.7378909780444
 20
353.9663606742819
 30
0.0
 11
533.7378909780444
 21
283.4663606742818
 31
0.0
  0
LINE
  5
5AB
102
{ACAD_REACTORS
330
64D
102
}
330
1F
100
AcDbEntity
  8
実線
100
AcDbLine
 10
556.2378909780444
 20
353.9663606742819
 30
0.0
 11
556.2378909780444
 21
283.4663606742818
 31
0.0
  0
LINE
  5
5AC
102
{ACAD_REACTORS
330
64D
102
}
330
1F
100
AcDbEntity
  8
実線
100
AcDbLine
 10
591.9878909780444
 20
434.4663606742819
 30
0.0
 11
497.9878909780445
 21
434.4663606742819
 31
0.0
  0
ARC
  5
5AD
102
{ACAD_REACTORS
330
64D
102
}
330
1F
100
AcDbEntity
  8
実線
100
AcDbCircle
 10
591.9878909780444
 20
431.4663606742819
 30
0.0
 40
3.0
100
AcDbArc
 50
0.0
 51
90.0
  0
ARC
  5
5AE
102
{ACAD_REACTORS
330
64D
102
}
330
1F
100
AcDbEntity
  8
実線
100
AcDbCircle
 10
497.9878909780445
 20
431.4663606742819
 30
0.0
 40
3.0
100
AcDbArc
 50
90.0
 51
180.0
  0
LINE
  5
5AF
102
{ACAD_REACTORS
330
64D
102
}
330
1F
100
AcDbEntity
  8
実線
100
AcDbLine
 10
594.9878909780444
 20
429.9663606742818
 30
0.0
 11
594.9878909780444
 21
431.4663606742819
 31
0.0
  0
LINE
  5
5B0
102
{ACAD_REACTORS
330
64D
102
}
330
1F
100
AcDbEntity
  8
実線
100
AcDbLine
 10
494.9878909780444
 20
431.4663606742819
 30
0.0
 11
494.9878909780444
 21
429.9663606742818
 31
0.0
  0
LINE
  5
5B1
102
{ACAD_REACTORS
330
64D
102
}
330
1F
100
AcDbEntity
  8
実線
100
AcDbLine
 10
571.9878909780454
 20
219.266360674282
 30
0.0
 11
517.9878909780454
 21
219.266360674282
 31
0.0
  0
ARC
  5
5B2
102
{ACAD_REACTORS
330
64D
102
}
330
1F
100
AcDbEntity
  8
実線
100
AcDbCircle
 10
517.9878909780454
 20
232.2663606742821
 30
0.0
 40
13.0
100
AcDbArc
 50
180.0
 51
270.0
  0
ARC
  5
5B3
102
{ACAD_REACTORS
330
64D
102
}
330
1F
100
AcDbEntity
  8
実線
100
AcDbCircle
 10
571.9878909780454
 20
232.2663606742821
 30
0.0
 40
13.0
100
AcDbArc
 50
270.0
 51
0.0
  0
LINE
  5
5B4
102
{ACAD_REACTORS
330
64D
102
}
330
1F
100
AcDbEntity
  8
実線
100
AcDbLine
 10
584.9878909780453
 20
232.2663606742821
 30
0.0
 11
584.9878909780453
 21
259.966360674282
 31
0.0
  0
LINE
  5
5B5
102
{ACAD_REACTORS
330
64D
102
}
330
1F
100
AcDbEntity
  8
実線
100
AcDbLine
 10
504.9878909780453
 20
259.966360674282
 30
0.0
 11
504.9878909780453
 21
232.2663606742821
 31
0.0
  0
LINE
  5
5B6
102
{ACAD_REACTORS
330
64D
102
}
330
1F
100
AcDbEntity
  8
実線
100
AcDbLine
 10
498.0107212091614
 20
269.9663606742819
 30
0.0
 11
498.0107212091614
 21
259.966360674282
 31
0.0
  0
LINE
  5
5B7
102
{ACAD_REACTORS
330
64D
102
}
330
1F
100
AcDbEntity
  8
実線
100
AcDbLine
 10
498.0107212091614
 20
259.966360674282
 30
0.0
 11
526.9589941676214
 21
259.966360674282
 31
0.0
  0
LINE
  5
5B8
102
{ACAD_REACTORS
330
64D
102
}
330
1F
100
AcDbEntity
  8
実線
100
AcDbLine
 10
591.9650607469294
 20
259.966360674282
 30
0.0
 11
563.0167877884693
 21
259.966360674282
 31
0.0
  0
LINE
  5
5B9
102
{ACAD_REACTORS
330
64D
102
}
330
1F
100
AcDbEntity
  8
実線
100
AcDbLine
 10
591.9650607469294
 20
259.966360674282
 30
0.0
 11
591.9650607469294
 21
269.9663606742819
 31
0.0
  0
LINE
  5
5BA
102
{ACAD_REACTORS
330
64D
102
}
330
1F
100
AcDbEntity
  8
実線
100
AcDbLine
 10
526.9589941676214
 20
269.9663606742819
 30
0.0
 11
526.9589941676214
 21
259.966360674282
 31
0.0
  0
LINE
  5
5BB
102
{ACAD_REACTORS
330
64D
102
}
330
1F
100
AcDbEntity
  8
実線
100
AcDbLine
 10
563.0167877884693
 20
269.9663606742819
 30
0.0
 11
563.0167877884693
 21
259.966360674282
 31
0.0
  0
LINE
  5
5BC
102
{ACAD_REACTORS
330
64F
102
}
330
1F
100
AcDbEntity
  8
実線
100
AcDbLine
 10
48.48789097804598
 20
584.8663606742818
 30
0.0
 11
22.48789097804593
 21
575.6663606742818
 31
0.0
  0
LINE
  5
5BD
102
{ACAD_REACTORS
330
64F
102
}
330
1F
100
AcDbEntity
  8
実線
100
AcDbLine
 10
107.4878909780461
 20
575.6663606742818
 30
0.0
 11
81.48789097804598
 21
584.8663606742818
 31
0.0
  0
LINE
  5
5BE
102
{ACAD_REACTORS
330
64F
102
}
330
1F
100
AcDbEntity
  8
実線
100
AcDbLine
 10
22.48789097804593
 20
575.6663606742818
 30
0.0
 11
107.4878909780459
 21
575.6663606742818
 31
0.0
  0
LINE
  5
5BF
102
{ACAD_REACTORS
330
64F
102
}
330
1F
100
AcDbEntity
  8
実線
100
AcDbLine
 10
81.48789097804598
 20
584.8663606742818
 30
0.0
 11
48.48789097804598
 21
584.8663606742818
 31
0.0
  0
LINE
  5
5C0
102
{ACAD_REACTORS
330
64F
102
}
330
1F
100
AcDbEntity
  8
実線
100
AcDbLine
 10
21.68789097804597
 20
462.6663606742818
 30
0.0
 11
20.98789097804598
 21
458.9663606742817
 31
0.0
  0
LINE
  5
5C1
102
{ACAD_REACTORS
330
64F
102
}
330
1F
100
AcDbEntity
  8
実線
100
AcDbLine
 10
108.9878909780459
 20
458.9663606742817
 30
0.0
 11
108.287890978046
 21
462.6663606742818
 31
0.0
  0
LINE
  5
5C2
102
{ACAD_REACTORS
330
64F
102
}
330
1F
100
AcDbEntity
  8
実線
100
AcDbLine
 10
20.98789097804598
 20
458.9663606742817
 30
0.0
 11
108.9878909780459
 21
458.9663606742817
 31
0.0
  0
LINE
  5
5C3
102
{ACAD_REACTORS
330
64F
102
}
330
1F
100
AcDbEntity
  8
実線
100
AcDbLine
 10
84.03789097804519
 20
177.1663606742819
 30
0.0
 11
84.03789097804519
 21
219.266360674282
 31
0.0
  0
LINE
  5
5C4
102
{ACAD_REACTORS
330
64F
102
}
330
1F
100
AcDbEntity
  8
実線
100
AcDbLine
 10
45.93789097804523
 20
219.266360674282
 30
0.0
 11
45.93789097804523
 21
177.1663606742819
 31
0.0
  0
LINE
  5
5C5
102
{ACAD_REACTORS
330
64F
102
}
330
1F
100
AcDbEntity
  8
実線
100
AcDbLine
 10
45.93789097804523
 20
177.1663606742819
 30
0.0
 11
39.73789097804525
 21
174.8163606742819
 31
0.0
  0
LINE
  5
5C6
102
{ACAD_REACTORS
330
64F
102
}
330
1F
100
AcDbEntity
  8
実線
100
AcDbLine
 10
90.23789097804518
 20
174.8163606742819
 30
0.0
 11
84.03789097804519
 21
177.1663606742819
 31
0.0
  0
LINE
  5
5C7
102
{ACAD_REACTORS
330
64F
102
}
330
1F
100
AcDbEntity
  8
実線
100
AcDbLine
 10
45.93789097804523
 20
177.1663606742819
 30
0.0
 11
84.03789097804519
 21
177.1663606742819
 31
0.0
  0
LINE
  5
5C8
102
{ACAD_REACTORS
330
64F
102
}
330
1F
100
AcDbEntity
  8
実線
100
AcDbLine
 10
90.23789097804518
 20
172.0663606742819
 30
0.0
 11
90.23789097804518
 21
174.8163606742819
 31
0.0
  0
LINE
  5
5C9
102
{ACAD_REACTORS
330
64F
102
}
330
1F
100
AcDbEntity
  8
実線
100
AcDbLine
 10
39.73789097804525
 20
174.8163606742819
 30
0.0
 11
39.73789097804525
 21
172.0663606742819
 31
0.0
  0
LINE
  5
5CA
102
{ACAD_REACTORS
330
64F
102
}
330
1F
100
AcDbEntity
  8
実線
100
AcDbLine
 10
39.73789097804525
 20
172.0663606742819
 30
0.0
 11
90.23789097804518
 21
172.0663606742819
 31
0.0
  0
LINE
  5
5CB
102
{ACAD_REACTORS
330
64F
102
}
330
1F
100
AcDbEntity
  8
実線
100
AcDbLine
 10
39.73789097804525
 20
174.8163606742819
 30
0.0
 11
90.23789097804518
 21
174.8163606742819
 31
0.0
  0
CIRCLE
  5
5CC
102
{ACAD_REACTORS
330
64F
102
}
330
1F
100
AcDbEntity
  8
実線
100
AcDbCircle
 10
64.98789097804524
 20
242.0663606742819
 30
0.0
 40
25.25
  0
LINE
  5
5CD
102
{ACAD_REACTORS
330
64F
102
}
330
1F
100
AcDbEntity
  8
実線
100
AcDbLine
 10
114.9878909780459
 20
353.9663606742818
 30
0.0
 11
114.9878909780459
 21
429.9663606742817
 31
0.0
  0
LINE
  5
5CE
102
{ACAD_REACTORS
330
64F
102
}
330
1F
100
AcDbEntity
  8
実線
100
AcDbLine
 10
14.98789097804604
 20
429.9663606742817
 30
0.0
 11
14.98789097804604
 21
353.9663606742818
 31
0.0
  0
LINE
  5
5CF
102
{ACAD_REACTORS
330
64F
102
}
330
1F
100
AcDbEntity
  8
実線
100
AcDbLine
 10
114.9878909780459
 20
429.9663606742817
 30
0.0
 11
14.98789097804604
 21
429.9663606742817
 31
0.0
  0
LINE
  5
5D0
102
{ACAD_REACTORS
330
64F
102
}
330
1F
100
AcDbEntity
  8
実線
100
AcDbLine
 10
14.98789097804604
 20
353.9663606742818
 30
0.0
 11
114.9878909780459
 21
353.9663606742818
 31
0.0
  0
LINE
  5
5D1
102
{ACAD_REACTORS
330
64F
102
}
330
1F
100
AcDbEntity
  8
実線
100
AcDbLine
 10
99.98789097804593
 20
434.4663606742817
 30
0.0
 11
99.98789097804593
 21
445.9663606742817
 31
0.0
  0
LINE
  5
5D2
102
{ACAD_REACTORS
330
64F
102
}
330
1F
100
AcDbEntity
  8
実線
100
AcDbLine
 10
29.98789097804598
 20
445.9663606742817
 30
0.0
 11
29.98789097804598
 21
434.4663606742817
 31
0.0
  0
LINE
  5
5D3
102
{ACAD_REACTORS
330
64F
102
}
330
1F
100
AcDbEntity
  8
実線
100
AcDbLine
 10
99.98789097804593
 20
445.9663606742817
 30
0.0
 11
29.98789097804598
 21
445.9663606742817
 31
0.0
  0
LINE
  5
5D4
102
{ACAD_REACTORS
330
64F
102
}
330
1F
100
AcDbEntity
  8
実線
100
AcDbLine
 10
77.98789097804598
 20
445.9663606742817
 30
0.0
 11
77.98789097804598
 21
458.9663606742817
 31
0.0
  0
LINE
  5
5D5
102
{ACAD_REACTORS
330
64F
102
}
330
1F
100
AcDbEntity
  8
実線
100
AcDbLine
 10
51.98789097804598
 20
458.9663606742817
 30
0.0
 11
51.98789097804598
 21
445.9663606742817
 31
0.0
  0
LINE
  5
5D6
102
{ACAD_REACTORS
330
64F
102
}
330
1F
100
AcDbEntity
  8
実線
100
AcDbLine
 10
108.287890978046
 20
462.6663606742818
 30
0.0
 11
108.287890978046
 21
498.6663606742819
 31
0.0
  0
LINE
  5
5D7
102
{ACAD_REACTORS
330
64F
102
}
330
1F
100
AcDbEntity
  8
実線
100
AcDbLine
 10
21.68789097804597
 20
498.6663606742819
 30
0.0
 11
21.68789097804597
 21
462.6663606742818
 31
0.0
  0
LINE
  5
5D8
102
{ACAD_REACTORS
330
64F
102
}
330
1F
100
AcDbEntity
  8
実線
100
AcDbLine
 10
108.287890978046
 20
498.6663606742819
 30
0.0
 11
21.68789097804614
 21
498.6663606742819
 31
0.0
  0
LINE
  5
5D9
102
{ACAD_REACTORS
330
64F
102
}
330
1F
100
AcDbEntity
  8
実線
100
AcDbLine
 10
21.68789097804597
 20
462.6663606742818
 30
0.0
 11
108.287890978046
 21
462.6663606742818
 31
0.0
  0
LINE
  5
5DA
102
{ACAD_REACTORS
330
64F
102
}
330
1F
100
AcDbEntity
  8
実線
100
AcDbLine
 10
107.4878909780459
 20
498.6663606742819
 30
0.0
 11
107.4878909780459
 21
575.6663606742819
 31
0.0
  0
LINE
  5
5DB
102
{ACAD_REACTORS
330
64F
102
}
330
1F
100
AcDbEntity
  8
実線
100
AcDbLine
 10
22.48789097804598
 20
575.6663606742819
 30
0.0
 11
22.48789097804598
 21
498.6663606742819
 31
0.0
  0
LINE
  5
5DC
102
{ACAD_REACTORS
330
64F
102
}
330
1F
100
AcDbEntity
  8
実線
100
AcDbLine
 10
111.96506074693
 20
283.4663606742818
 30
0.0
 11
18.01072120916217
 21
283.4663606742818
 31
0.0
  0
LINE
  5
5DD
102
{ACAD_REACTORS
330
64F
102
}
330
1F
100
AcDbEntity
  8
実線
100
AcDbLine
 10
18.01072120916217
 20
283.4663606742818
 30
0.0
 11
18.01072120916217
 21
269.9663606742817
 31
0.0
  0
LINE
  5
5DE
102
{ACAD_REACTORS
330
64F
102
}
330
1F
100
AcDbEntity
  8
実線
100
AcDbLine
 10
111.96506074693
 20
269.9663606742817
 30
0.0
 11
111.96506074693
 21
283.4663606742818
 31
0.0
  0
LINE
  5
5DF
102
{ACAD_REACTORS
330
64F
102
}
330
1F
100
AcDbEntity
  8
実線
100
AcDbLine
 10
46.95899416762199
 20
283.4663606742818
 30
0.0
 11
46.95899416762199
 21
269.9663606742817
 31
0.0
  0
LINE
  5
5E0
102
{ACAD_REACTORS
330
64F
102
}
330
1F
100
AcDbEntity
  8
実線
100
AcDbLine
 10
83.01678778847008
 20
283.4663606742818
 30
0.0
 11
83.01678778847008
 21
269.9663606742817
 31
0.0
  0
LINE
  5
5E1
102
{ACAD_REACTORS
330
64F
102
}
330
1F
100
AcDbEntity
  8
実線
100
AcDbLine
 10
24.98789097804599
 20
353.9663606742818
 30
0.0
 11
24.98789097804599
 21
310.4663606742818
 31
0.0
  0
LINE
  5
5E2
102
{ACAD_REACTORS
330
64F
102
}
330
1F
100
AcDbEntity
  8
実線
100
AcDbLine
 10
24.98789097804599
 20
310.4663606742818
 30
0.0
 11
53.73789097804598
 21
310.4663606742818
 31
0.0
  0
LINE
  5
5E3
102
{ACAD_REACTORS
330
64F
102
}
330
1F
100
AcDbEntity
  8
実線
100
AcDbLine
 10
76.23789097804598
 20
310.4663606742818
 30
0.0
 11
104.9878909780459
 21
310.4663606742818
 31
0.0
  0
LINE
  5
5E4
102
{ACAD_REACTORS
330
64F
102
}
330
1F
100
AcDbEntity
  8
実線
100
AcDbLine
 10
104.9878909780459
 20
310.4663606742818
 30
0.0
 11
104.9878909780459
 21
353.9663606742818
 31
0.0
  0
LINE
  5
5E5
102
{ACAD_REACTORS
330
64F
102
}
330
1F
100
AcDbEntity
  8
実線
100
AcDbLine
 10
76.23789097804598
 20
353.9663606742818
 30
0.0
 11
76.23789097804598
 21
283.4663606742818
 31
0.0
  0
LINE
  5
5E6
102
{ACAD_REACTORS
330
64F
102
}
330
1F
100
AcDbEntity
  8
実線
100
AcDbLine
 10
53.73789097804598
 20
353.9663606742818
 30
0.0
 11
53.73789097804598
 21
283.4663606742818
 31
0.0
  0
LINE
  5
5E7
102
{ACAD_REACTORS
330
64F
102
}
330
1F
100
AcDbEntity
  8
実線
100
AcDbLine
 10
17.98789097804604
 20
434.4663606742817
 30
0.0
 11
111.9878909780459
 21
434.4663606742817
 31
0.0
  0
ARC
  5
5E8
102
{ACAD_REACTORS
330
64F
102
}
330
1F
100
AcDbEntity
  8
実線
100
AcDbCircle
 10
111.9878909780459
 20
431.4663606742818
 30
0.0
 40
3.0
100
AcDbArc
 50
0.0
 51
90.0
  0
ARC
  5
5E9
102
{ACAD_REACTORS
330
64F
102
}
330
1F
100
AcDbEntity
  8
実線
100
AcDbCircle
 10
17.98789097804604
 20
431.4663606742818
 30
0.0
 40
3.0
100
AcDbArc
 50
90.0
 51
180.0
  0
LINE
  5
5EA
102
{ACAD_REACTORS
330
64F
102
}
330
1F
100
AcDbEntity
  8
実線
100
AcDbLine
 10
114.9878909780459
 20
429.9663606742817
 30
0.0
 11
114.9878909780459
 21
431.4663606742818
 31
0.0
  0
LINE
  5
5EB
102
{ACAD_REACTORS
330
64F
102
}
330
1F
100
AcDbEntity
  8
実線
100
AcDbLine
 10
14.98789097804604
 20
431.4663606742818
 30
0.0
 11
14.98789097804604
 21
429.9663606742817
 31
0.0
  0
LINE
  5
5EC
102
{ACAD_REACTORS
330
64F
102
}
330
1F
100
AcDbEntity
  8
実線
100
AcDbLine
 10
54.13789097804528
 20
219.266360674282
 30
0.0
 11
37.98789097804525
 21
219.266360674282
 31
0.0
  0
LINE
  5
5ED
102
{ACAD_REACTORS
330
64F
102
}
330
1F
100
AcDbEntity
  8
実線
100
AcDbLine
 10
91.98789097804519
 20
219.266360674282
 30
0.0
 11
75.83789097804526
 21
219.266360674282
 31
0.0
  0
ARC
  5
5EE
102
{ACAD_REACTORS
330
64F
102
}
330
1F
100
AcDbEntity
  8
実線
100
AcDbCircle
 10
37.98789097804525
 20
232.2663606742819
 30
0.0
 40
13.0
100
AcDbArc
 50
180.0
 51
270.0
  0
ARC
  5
5EF
102
{ACAD_REACTORS
330
64F
102
}
330
1F
100
AcDbEntity
  8
実線
100
AcDbCircle
 10
91.98789097804519
 20
232.2663606742819
 30
0.0
 40
13.0
100
AcDbArc
 50
270.0
 51
0.0
  0
LINE
  5
5F0
102
{ACAD_REACTORS
330
64F
102
}
330
1F
100
AcDbEntity
  8
実線
100
AcDbLine
 10
111.9650607469291
 20
269.9663606742817
 30
0.0
 11
18.01072120916131
 21
269.9663606742817
 31
0.0
  0
LINE
  5
5F1
102
{ACAD_REACTORS
330
64F
102
}
330
1F
100
AcDbEntity
  8
実線
100
AcDbLine
 10
104.9878909780452
 20
232.2663606742819
 30
0.0
 11
104.9878909780452
 21
259.9663606742819
 31
0.0
  0
LINE
  5
5F2
102
{ACAD_REACTORS
330
64F
102
}
330
1F
100
AcDbEntity
  8
実線
100
AcDbLine
 10
24.98789097804524
 20
259.9663606742819
 30
0.0
 11
24.98789097804524
 21
232.2663606742819
 31
0.0
  0
LINE
  5
5F3
102
{ACAD_REACTORS
330
64F
102
}
330
1F
100
AcDbEntity
  8
実線
100
AcDbLine
 10
18.01072120916131
 20
269.9663606742817
 30
0.0
 11
18.01072120916131
 21
259.9663606742819
 31
0.0
  0
LINE
  5
5F4
102
{ACAD_REACTORS
330
64F
102
}
330
1F
100
AcDbEntity
  8
実線
100
AcDbLine
 10
18.01072120916131
 20
259.9663606742819
 30
0.0
 11
46.95899416762125
 21
259.9663606742819
 31
0.0
  0
LINE
  5
5F5
102
{ACAD_REACTORS
330
64F
102
}
330
1F
100
AcDbEntity
  8
実線
100
AcDbLine
 10
111.9650607469291
 20
259.9663606742819
 30
0.0
 11
83.01678778846923
 21
259.9663606742819
 31
0.0
  0
LINE
  5
5F6
102
{ACAD_REACTORS
330
64F
102
}
330
1F
100
AcDbEntity
  8
実線
100
AcDbLine
 10
111.9650607469291
 20
259.9663606742819
 30
0.0
 11
111.9650607469291
 21
269.9663606742817
 31
0.0
  0
LINE
  5
5F7
102
{ACAD_REACTORS
330
64F
102
}
330
1F
100
AcDbEntity
  8
実線
100
AcDbLine
 10
46.95899416762125
 20
269.9663606742817
 30
0.0
 11
46.95899416762125
 21
259.9663606742819
 31
0.0
  0
LINE
  5
5F8
102
{ACAD_REACTORS
330
64F
102
}
330
1F
100
AcDbEntity
  8
実線
100
AcDbLine
 10
83.01678778846923
 20
269.9663606742817
 30
0.0
 11
83.01678778846923
 21
259.9663606742819
 31
0.0
  0
LINE
  5
5F9
102
{ACAD_REACTORS
330
64E
102
}
330
1F
100
AcDbEntity
  8
実線
100
AcDbLine
 10
347.4878909780461
 20
575.6663606742818
 30
0.0
 11
262.4878909780461
 21
575.6663606742818
 31
0.0
  0
LINE
  5
5FA
102
{ACAD_REACTORS
330
64E
102
}
330
1F
100
AcDbEntity
  8
実線
100
AcDbLine
 10
288.4878909780462
 20
584.8663606742818
 30
0.0
 11
262.4878909780461
 21
575.6663606742818
 31
0.0
  0
LINE
  5
5FB
102
{ACAD_REACTORS
330
64E
102
}
330
1F
100
AcDbEntity
  8
実線
100
AcDbLine
 10
347.4878909780461
 20
575.6663606742818
 30
0.0
 11
321.4878909780462
 21
584.8663606742818
 31
0.0
  0
LINE
  5
5FC
102
{ACAD_REACTORS
330
64E
102
}
330
1F
100
AcDbEntity
  8
実線
100
AcDbLine
 10
321.4878909780462
 20
584.8663606742818
 30
0.0
 11
288.4878909780462
 21
584.8663606742818
 31
0.0
  0
LINE
  5
5FD
102
{ACAD_REACTORS
330
64E
102
}
330
1F
100
AcDbEntity
  8
実線
100
AcDbLine
 10
348.9878909780462
 20
458.9663606742817
 30
0.0
 11
260.987890978046
 21
458.9663606742817
 31
0.0
  0
LINE
  5
5FE
102
{ACAD_REACTORS
330
64E
102
}
330
1F
100
AcDbEntity
  8
実線
100
AcDbLine
 10
261.6878909780461
 20
462.6663606742818
 30
0.0
 11
260.987890978046
 21
458.9663606742817
 31
0.0
  0
LINE
  5
5FF
102
{ACAD_REACTORS
330
64E
102
}
330
1F
100
AcDbEntity
  8
実線
100
AcDbLine
 10
348.9878909780462
 20
458.9663606742817
 30
0.0
 11
348.2878909780461
 21
462.6663606742818
 31
0.0
  0
LINE
  5
600
102
{ACAD_REACTORS
330
64E
102
}
330
1F
100
AcDbEntity
  8
実線
100
AcDbLine
 10
348.2878909780461
 20
462.6663606742818
 30
0.0
 11
261.6878909780461
 21
462.6663606742818
 31
0.0
  0
LINE
  5
601
102
{ACAD_REACTORS
330
64E
102
}
330
1F
100
AcDbEntity
  8
実線
100
AcDbLine
 10
324.0378909780452
 20
177.1663606742819
 30
0.0
 11
324.0378909780452
 21
219.266360674282
 31
0.0
  0
LINE
  5
602
102
{ACAD_REACTORS
330
64E
102
}
330
1F
100
AcDbEntity
  8
実線
100
AcDbLine
 10
285.9378909780454
 20
219.266360674282
 30
0.0
 11
285.9378909780454
 21
177.1663606742819
 31
0.0
  0
LINE
  5
603
102
{ACAD_REACTORS
330
64E
102
}
330
1F
100
AcDbEntity
  8
実線
100
AcDbLine
 10
285.9378909780454
 20
177.1663606742819
 30
0.0
 11
279.7378909780454
 21
174.8163606742819
 31
0.0
  0
LINE
  5
604
102
{ACAD_REACTORS
330
64E
102
}
330
1F
100
AcDbEntity
  8
実線
100
AcDbLine
 10
330.2378909780454
 20
174.8163606742819
 30
0.0
 11
324.0378909780452
 21
177.1663606742819
 31
0.0
  0
LINE
  5
605
102
{ACAD_REACTORS
330
64E
102
}
330
1F
100
AcDbEntity
  8
実線
100
AcDbLine
 10
285.9378909780454
 20
177.1663606742819
 30
0.0
 11
324.0378909780452
 21
177.1663606742819
 31
0.0
  0
LINE
  5
606
102
{ACAD_REACTORS
330
64E
102
}
330
1F
100
AcDbEntity
  8
実線
100
AcDbLine
 10
330.2378909780454
 20
172.0663606742819
 30
0.0
 11
330.2378909780454
 21
174.8163606742819
 31
0.0
  0
LINE
  5
607
102
{ACAD_REACTORS
330
64E
102
}
330
1F
100
AcDbEntity
  8
実線
100
AcDbLine
 10
279.7378909780454
 20
174.8163606742819
 30
0.0
 11
279.7378909780454
 21
172.0663606742819
 31
0.0
  0
LINE
  5
608
102
{ACAD_REACTORS
330
64E
102
}
330
1F
100
AcDbEntity
  8
実線
100
AcDbLine
 10
330.2378909780454
 20
172.0663606742819
 30
0.0
 11
279.7378909780454
 21
172.0663606742819
 31
0.0
  0
LINE
  5
609
102
{ACAD_REACTORS
330
64E
102
}
330
1F
100
AcDbEntity
  8
実線
100
AcDbLine
 10
330.2378909780454
 20
174.8163606742819
 30
0.0
 11
279.7378909780454
 21
174.8163606742819
 31
0.0
  0
LINE
  5
60A
102
{ACAD_REACTORS
330
64E
102
}
330
1F
100
AcDbEntity
  8
実線
100
AcDbLine
 10
240.0878909780453
 20
223.016360674282
 30
0.0
 11
268.8534780248227
 21
223.016360674282
 31
0.0
  0
LINE
  5
60B
102
{ACAD_REACTORS
330
64E
102
}
330
1F
100
AcDbEntity
  8
実線
100
AcDbLine
 10
258.0107212091614
 20
261.1163606742817
 30
0.0
 11
240.0878909780453
 21
261.1163606742817
 31
0.0
  0
LINE
  5
60C
102
{ACAD_REACTORS
330
64E
102
}
330
1F
100
AcDbEntity
  8
実線
100
AcDbLine
 10
240.0878909780453
 20
261.1163606742817
 30
0.0
 11
237.7378909780453
 21
267.3163606742818
 31
0.0
  0
LINE
  5
60D
102
{ACAD_REACTORS
330
64E
102
}
330
1F
100
AcDbEntity
  8
実線
100
AcDbLine
 10
237.7378909780453
 20
216.8163606742819
 30
0.0
 11
240.0878909780453
 21
223.016360674282
 31
0.0
  0
LINE
  5
60E
102
{ACAD_REACTORS
330
64E
102
}
330
1F
100
AcDbEntity
  8
実線
100
AcDbLine
 10
240.0878909780453
 20
261.1163606742817
 30
0.0
 11
240.0878909780453
 21
223.016360674282
 31
0.0
  0
LINE
  5
60F
102
{ACAD_REACTORS
330
64E
102
}
330
1F
100
AcDbEntity
  8
実線
100
AcDbLine
 10
234.9878909780453
 20
216.8163606742819
 30
0.0
 11
237.7378909780453
 21
216.8163606742819
 31
0.0
  0
LINE
  5
610
102
{ACAD_REACTORS
330
64E
102
}
330
1F
100
AcDbEntity
  8
実線
100
AcDbLine
 10
237.7378909780453
 20
267.3163606742818
 30
0.0
 11
234.9878909780453
 21
267.3163606742818
 31
0.0
  0
LINE
  5
611
102
{ACAD_REACTORS
330
64E
102
}
330
1F
100
AcDbEntity
  8
実線
100
AcDbLine
 10
234.9878909780453
 20
216.8163606742819
 30
0.0
 11
234.9878909780453
 21
267.3163606742818
 31
0.0
  0
LINE
  5
612
102
{ACAD_REACTORS
330
64E
102
}
330
1F
100
AcDbEntity
  8
実線
100
AcDbLine
 10
237.7378909780453
 20
216.8163606742819
 30
0.0
 11
237.7378909780453
 21
267.3163606742818
 31
0.0
  0
LINE
  5
613
102
{ACAD_REACTORS
330
64E
102
}
330
1F
100
AcDbEntity
  8
実線
100
AcDbLine
 10
310.9878909780462
 20
283.4663606742818
 30
0.0
 11
310.9878909780462
 21
310.4663606742818
 31
0.0
  0
LINE
  5
614
102
{ACAD_REACTORS
330
64E
102
}
330
1F
100
AcDbEntity
  8
実線
100
AcDbLine
 10
298.9878909780462
 20
310.4663606742818
 30
0.0
 11
298.9878909780462
 21
283.4663606742818
 31
0.0
  0
LINE
  5
615
102
{ACAD_REACTORS
330
64E
102
}
330
1F
100
AcDbEntity
  8
実線
100
AcDbLine
 10
354.9878909780462
 20
353.9663606742818
 30
0.0
 11
254.987890978046
 21
353.9663606742818
 31
0.0
  0
LINE
  5
616
102
{ACAD_REACTORS
330
64E
102
}
330
1F
100
AcDbEntity
  8
実線
100
AcDbLine
 10
354.9878909780462
 20
353.9663606742818
 30
0.0
 11
354.9878909780462
 21
429.9663606742817
 31
0.0
  0
LINE
  5
617
102
{ACAD_REACTORS
330
64E
102
}
330
1F
100
AcDbEntity
  8
実線
100
AcDbLine
 10
254.987890978046
 20
429.9663606742817
 30
0.0
 11
254.987890978046
 21
353.9663606742818
 31
0.0
  0
LINE
  5
618
102
{ACAD_REACTORS
330
64E
102
}
330
1F
100
AcDbEntity
  8
実線
100
AcDbLine
 10
354.9878909780462
 20
429.9663606742817
 30
0.0
 11
254.987890978046
 21
429.9663606742817
 31
0.0
  0
LINE
  5
619
102
{ACAD_REACTORS
330
64E
102
}
330
1F
100
AcDbEntity
  8
実線
100
AcDbLine
 10
339.9878909780462
 20
434.4663606742817
 30
0.0
 11
339.9878909780462
 21
445.9663606742817
 31
0.0
  0
LINE
  5
61A
102
{ACAD_REACTORS
330
64E
102
}
330
1F
100
AcDbEntity
  8
実線
100
AcDbLine
 10
269.987890978046
 20
445.9663606742817
 30
0.0
 11
269.987890978046
 21
434.4663606742817
 31
0.0
  0
LINE
  5
61B
102
{ACAD_REACTORS
330
64E
102
}
330
1F
100
AcDbEntity
  8
実線
100
AcDbLine
 10
339.9878909780462
 20
445.9663606742817
 30
0.0
 11
269.987890978046
 21
445.9663606742817
 31
0.0
  0
LINE
  5
61C
102
{ACAD_REACTORS
330
64E
102
}
330
1F
100
AcDbEntity
  8
実線
100
AcDbLine
 10
317.9878909780462
 20
445.9663606742817
 30
0.0
 11
317.9878909780462
 21
458.9663606742817
 31
0.0
  0
LINE
  5
61D
102
{ACAD_REACTORS
330
64E
102
}
330
1F
100
AcDbEntity
  8
実線
100
AcDbLine
 10
291.9878909780461
 20
458.9663606742817
 30
0.0
 11
291.9878909780461
 21
445.9663606742817
 31
0.0
  0
LINE
  5
61E
102
{ACAD_REACTORS
330
64E
102
}
330
1F
100
AcDbEntity
  8
実線
100
AcDbLine
 10
348.2878909780461
 20
462.6663606742818
 30
0.0
 11
348.2878909780461
 21
498.6663606742819
 31
0.0
  0
LINE
  5
61F
102
{ACAD_REACTORS
330
64E
102
}
330
1F
100
AcDbEntity
  8
実線
100
AcDbLine
 10
261.6878909780461
 20
498.6663606742819
 30
0.0
 11
261.6878909780461
 21
462.6663606742818
 31
0.0
  0
LINE
  5
620
102
{ACAD_REACTORS
330
64E
102
}
330
1F
100
AcDbEntity
  8
実線
100
AcDbLine
 10
348.2878909780461
 20
498.6663606742819
 30
0.0
 11
261.6878909780461
 21
498.6663606742819
 31
0.0
  0
LINE
  5
621
102
{ACAD_REACTORS
330
64E
102
}
330
1F
100
AcDbEntity
  8
実線
100
AcDbLine
 10
347.4878909780461
 20
498.6663606742819
 30
0.0
 11
347.4878909780461
 21
575.6663606742819
 31
0.0
  0
LINE
  5
622
102
{ACAD_REACTORS
330
64E
102
}
330
1F
100
AcDbEntity
  8
実線
100
AcDbLine
 10
262.4878909780461
 20
575.6663606742819
 30
0.0
 11
262.4878909780461
 21
498.6663606742819
 31
0.0
  0
LINE
  5
623
102
{ACAD_REACTORS
330
64E
102
}
330
1F
100
AcDbEntity
  8
実線
100
AcDbLine
 10
351.9650607469301
 20
283.4663606742818
 30
0.0
 11
258.0107212091622
 21
283.4663606742818
 31
0.0
  0
LINE
  5
624
102
{ACAD_REACTORS
330
64E
102
}
330
1F
100
AcDbEntity
  8
実線
100
AcDbLine
 10
258.0107212091622
 20
283.4663606742818
 30
0.0
 11
258.0107212091622
 21
269.9663606742817
 31
0.0
  0
LINE
  5
625
102
{ACAD_REACTORS
330
64E
102
}
330
1F
100
AcDbEntity
  8
実線
100
AcDbLine
 10
351.9650607469301
 20
269.9663606742817
 30
0.0
 11
351.9650607469301
 21
283.4663606742818
 31
0.0
  0
LINE
  5
626
102
{ACAD_REACTORS
330
64E
102
}
330
1F
100
AcDbEntity
  8
実線
100
AcDbLine
 10
323.0167877884701
 20
283.4663606742818
 30
0.0
 11
323.0167877884701
 21
269.9663606742817
 31
0.0
  0
LINE
  5
627
102
{ACAD_REACTORS
330
64E
102
}
330
1F
100
AcDbEntity
  8
実線
100
AcDbLine
 10
286.9589941676221
 20
283.4663606742818
 30
0.0
 11
286.9589941676221
 21
269.9663606742817
 31
0.0
  0
ARC
  5
628
102
{ACAD_REACTORS
330
64E
102
}
330
1F
100
AcDbEntity
  8
実線
100
AcDbCircle
 10
328.6878909780462
 20
324.4663606742818
 30
0.0
 40
57.99999999999997
100
AcDbArc
 50
193.9679626746507
 51
224.9829679599013
  0
ARC
  5
629
102
{ACAD_REACTORS
330
64E
102
}
330
1F
100
AcDbEntity
  8
実線
100
AcDbCircle
 10
330.6878909780462
 20
324.4663606742818
 30
0.0
 40
70.00000000000003
100
AcDbArc
 50
180.0
 51
215.8534670634654
  0
LINE
  5
62A
102
{ACAD_REACTORS
330
64E
102
}
330
1F
100
AcDbEntity
  8
実線
100
AcDbLine
 10
260.6878909780462
 20
353.9663606742818
 30
0.0
 11
260.6878909780462
 21
324.4663606742818
 31
0.0
  0
LINE
  5
62B
102
{ACAD_REACTORS
330
64E
102
}
330
1F
100
AcDbEntity
  8
実線
100
AcDbLine
 10
349.2878909780461
 20
353.9663606742818
 30
0.0
 11
349.2878909780461
 21
324.4663606742818
 31
0.0
  0
ARC
  5
62C
102
{ACAD_REACTORS
330
64E
102
}
330
1F
100
AcDbEntity
  8
実線
100
AcDbCircle
 10
281.2878909780461
 20
324.4663606742818
 30
0.0
 40
57.99999999999997
100
AcDbArc
 50
315.0170320400987
 51
346.0320373253493
  0
ARC
  5
62D
102
{ACAD_REACTORS
330
64E
102
}
330
1F
100
AcDbEntity
  8
実線
100
AcDbCircle
 10
279.2878909780461
 20
324.4663606742818
 30
0.0
 40
70.00000000000003
100
AcDbArc
 50
324.1465329365346
 51
0.0
  0
LINE
  5
62E
102
{ACAD_REACTORS
330
64E
102
}
330
1F
100
AcDbEntity
  8
実線
100
AcDbLine
 10
266.6025096460859
 20
353.9663606742818
 30
0.0
 11
266.6025096460859
 21
310.4663606742818
 31
0.0
  0
LINE
  5
62F
102
{ACAD_REACTORS
330
64E
102
}
330
1F
100
AcDbEntity
  8
実線
100
AcDbLine
 10
266.6025096460859
 20
310.4663606742818
 30
0.0
 11
343.3732723100061
 21
310.4663606742818
 31
0.0
  0
LINE
  5
630
102
{ACAD_REACTORS
330
64E
102
}
330
1F
100
AcDbEntity
  8
実線
100
AcDbLine
 10
343.3732723100061
 20
353.9663606742818
 30
0.0
 11
343.3732723100061
 21
310.4663606742818
 31
0.0
  0
LINE
  5
631
102
{ACAD_REACTORS
330
64E
102
}
330
1F
100
AcDbEntity
  8
実線
100
AcDbLine
 10
257.9878909788357
 20
434.4663606742817
 30
0.0
 11
351.9878909780461
 21
434.4663606742817
 31
0.0
  0
ARC
  5
632
102
{ACAD_REACTORS
330
64E
102
}
330
1F
100
AcDbEntity
  8
実線
100
AcDbCircle
 10
351.9878909780461
 20
431.4663606742818
 30
0.0
 40
3.0
100
AcDbArc
 50
0.0
 51
90.0
  0
ARC
  5
633
102
{ACAD_REACTORS
330
64E
102
}
330
1F
100
AcDbEntity
  8
実線
100
AcDbCircle
 10
257.9878909780461
 20
431.4663606742818
 30
0.0
 40
3.0
100
AcDbArc
 50
90.0
 51
180.0
  0
LINE
  5
634
102
{ACAD_REACTORS
330
64E
102
}
330
1F
100
AcDbEntity
  8
実線
100
AcDbLine
 10
354.9878909780462
 20
429.9663606742817
 30
0.0
 11
354.9878909780462
 21
431.4663606742818
 31
0.0
  0
LINE
  5
635
102
{ACAD_REACTORS
330
64E
102
}
330
1F
100
AcDbEntity
  8
実線
100
AcDbLine
 10
254.987890978046
 20
431.4663606742818
 30
0.0
 11
254.987890978046
 21
429.9663606742817
 31
0.0
  0
LINE
  5
636
102
{ACAD_REACTORS
330
64E
102
}
330
1F
100
AcDbEntity
  8
実線
100
AcDbLine
 10
351.9650607469292
 20
269.9663606742817
 30
0.0
 11
258.0107212091614
 21
269.9663606742817
 31
0.0
  0
LINE
  5
637
102
{ACAD_REACTORS
330
64E
102
}
330
1F
100
AcDbEntity
  8
実線
100
AcDbLine
 10
344.9878909780454
 20
232.2663606742819
 30
0.0
 11
344.9878909780454
 21
259.9663606742819
 31
0.0
  0
LINE
  5
638
102
{ACAD_REACTORS
330
64E
102
}
330
1F
100
AcDbEntity
  8
実線
100
AcDbLine
 10
277.9878909780454
 20
219.266360674282
 30
0.0
 11
331.9878909780454
 21
219.266360674282
 31
0.0
  0
ARC
  5
639
102
{ACAD_REACTORS
330
64E
102
}
330
1F
100
AcDbEntity
  8
実線
100
AcDbCircle
 10
277.9878909780454
 20
232.2663606742819
 30
0.0
 40
13.0
100
AcDbArc
 50
225.3602270413955
 51
270.0
  0
ARC
  5
63A
102
{ACAD_REACTORS
330
64E
102
}
330
1F
100
AcDbEntity
  8
実線
100
AcDbCircle
 10
331.9878909780454
 20
232.2663606742819
 30
0.0
 40
13.0
100
AcDbArc
 50
270.0
 51
0.0
  0
LINE
  5
63B
102
{ACAD_REACTORS
330
64E
102
}
330
1F
100
AcDbEntity
  8
実線
100
AcDbLine
 10
258.0107212091614
 20
269.9663606742817
 30
0.0
 11
258.0107212091614
 21
259.9663606742819
 31
0.0
  0
LINE
  5
63C
102
{ACAD_REACTORS
330
64E
102
}
330
1F
100
AcDbEntity
  8
実線
100
AcDbLine
 10
258.0107212091614
 20
259.9663606742819
 30
0.0
 11
286.9589941676213
 21
259.9663606742819
 31
0.0
  0
LINE
  5
63D
102
{ACAD_REACTORS
330
64E
102
}
330
1F
100
AcDbEntity
  8
実線
100
AcDbLine
 10
351.9650607469292
 20
259.9663606742819
 30
0.0
 11
323.0167877884694
 21
259.9663606742819
 31
0.0
  0
LINE
  5
63E
102
{ACAD_REACTORS
330
64E
102
}
330
1F
100
AcDbEntity
  8
実線
100
AcDbLine
 10
351.9650607469292
 20
259.9663606742819
 30
0.0
 11
351.9650607469292
 21
269.9663606742817
 31
0.0
  0
LINE
  5
63F
102
{ACAD_REACTORS
330
64E
102
}
330
1F
100
AcDbEntity
  8
実線
100
AcDbLine
 10
323.0167877884694
 20
269.9663606742817
 30
0.0
 11
323.0167877884694
 21
259.9663606742819
 31
0.0
  0
LINE
  5
640
102
{ACAD_REACTORS
330
64E
102
}
330
1F
100
AcDbEntity
  8
実線
100
AcDbLine
 10
286.9589941676213
 20
269.9663606742817
 30
0.0
 11
286.9589941676213
 21
259.9663606742819
 31
0.0
  0
LINE
  5
648
102
{ACAD_REACTORS
330
64E
102
}
330
1F
100
AcDbEntity
  8
中心線
100
AcDbLine
 10
304.9878909780454
 20
170.066360674281
 30
0.0
 11
304.9878909780454
 21
601.5335917564473
 31
0.0
  0
LINE
  5
649
102
{ACAD_REACTORS
330
64D
102
}
330
1F
100
AcDbEntity
  8
中心線
100
AcDbLine
 10
544.9878909780453
 20
170.0663606742811
 30
0.0
 11
544.9878909780453
 21
601.5335917564474
 31
0.0
  0
LINE
  5
64A
102
{ACAD_REACTORS
330
64C
102
}
330
1F
100
AcDbEntity
  8
中心線
100
AcDbLine
 10
784.987890978045
 20
170.0663606742812
 30
0.0
 11
784.9878909780447
 21
601.5335917564475
 31
0.0
  0
ENDSEC
  0
SECTION
  2
OBJECTS
  0
DICTIONARY
  5
C
330
0
100
AcDbDictionary
281
     1
  3
ACAD_CIP_PREVIOUS_PRODUCT_INFO
350
225
  3
ACAD_COLOR
350
21B
  3
ACAD_DETAILVIEWSTYLE
350
21E
  3
ACAD_GROUP
350
D
  3
ACAD_LAYOUT
350
1A
  3
ACAD_MATERIAL
350
43
  3
ACAD_MLEADERSTYLE
350
5B
  3
ACAD_MLINESTYLE
350
17
  3
ACAD_PLOTSETTINGS
350
19
  3
ACAD_PLOTSTYLENAME
350
E
  3
ACAD_SCALELIST
350
47
  3
ACAD_SECTIONVIEWSTYLE
350
21C
  3
ACAD_TABLESTYLE
350
59
  3
ACAD_VISUALSTYLE
350
2A
  3
ACDB_RECOMPOSE_DATA
350
6A8
  3
AcDbVariableDictionary
350
1D0
  3
DWGPROPS
350
6A9
  0
DICTIONARY
  5
22C
330
2
100
AcDbDictionary
280
     1
281
     1
  3
ACAD_LAYERSTATES
360
22D
  0
DICTIONARY
  5
651
330
10
100
AcDbDictionary
280
     1
281
     1
  3
ADSK_XREC_LAYER_RECONCILED
360
652
  0
DICTIONARY
  5
228
330
227
100
AcDbDictionary
280
     1
281
     1
  3
ADSK_XREC_LAYER_RECONCILED
360
653
  0
DICTIONARY
  5
22A
330
229
100
AcDbDictionary
280
     1
281
     1
  3
ADSK_XREC_LAYER_RECONCILED
360
654
  0
DICTIONARY
  5
515
330
1F
100
AcDbDictionary
280
     1
281
     1
  3
ACAD_SORTENTS
360
516
  0
XRECORD
  5
225
102
{ACAD_REACTORS
330
C
102
}
330
C
100
AcDbXrecord
280
     1
300
ACDLT
300
2016
300
ACDLT_F_S
  0
DICTIONARY
  5
21B
102
{ACAD_REACTORS
330
C
102
}
330
C
100
AcDbDictionary
281
     1
  0
DICTIONARY
  5
21E
102
{ACAD_REACTORS
330
C
102
}
330
C
100
AcDbDictionary
281
     1
  3
Metric50
350
21F
  0
DICTIONARY
  5
D
102
{ACAD_REACTORS
330
C
102
}
330
C
100
AcDbDictionary
281
     1
  3
*A1
350
64B
  3
*A2
350
64C
  3
*A3
350
64D
  3
*A4
350
64E
  3
*A5
350
64F
  3
*A6
350
650
  0
DICTIONARY
  5
1A
102
{ACAD_REACTORS
330
C
102
}
330
C
100
AcDbDictionary
281
     1
  3
Layout1
350
1E
  3
Model
350
22
  3
レイアウト1
350
220
  0
DICTIONARY
  5
43
102
{ACAD_REACTORS
330
C
102
}
330
C
100
AcDbDictionary
281
     1
  3
ByBlock
350
45
  3
ByLayer
350
44
  3
Global
350
46
  0
DICTIONARY
  5
5B
102
{ACAD_REACTORS
330
C
102
}
330
C
100
AcDbDictionary
281
     1
  3
Standard
350
5C
  0
DICTIONARY
  5
17
102
{ACAD_REACTORS
330
C
102
}
330
C
100
AcDbDictionary
281
     1
  3
Standard
350
18
  0
DICTIONARY
  5
19
102
{ACAD_REACTORS
330
C
102
}
330
C
100
AcDbDictionary
281
     1
  0
ACDBDICTIONARYWDFLT
  5
E
102
{ACAD_REACTORS
330
C
102
}
330
C
100
AcDbDictionary
281
     1
  3
Normal
350
F
100
AcDbDictionaryWithDefault
340
F
  0
DICTIONARY
  5
47
102
{ACAD_REACTORS
330
C
102
}
330
C
100
AcDbDictionary
281
     1
  3
A0
350
48
  3
A1
350
49
  3
A2
350
4A
  3
A3
350
4B
  3
A4
350
4C
  3
A5
350
4D
  3
A6
350
4E
  3
A7
350
4F
  3
A8
350
50
  3
A9
350
51
  3
B0
350
52
  3
B1
350
53
  3
B2
350
54
  3
B3
350
55
  3
B4
350
56
  3
B5
350
57
  3
B6
350
58
  0
DICTIONARY
  5
21C
102
{ACAD_REACTORS
330
C
102
}
330
C
100
AcDbDictionary
281
     1
  3
Metric50
350
21D
  0
DICTIONARY
  5
59
102
{ACAD_REACTORS
330
C
102
}
330
C
100
AcDbDictionary
281
     1
  3
Standard
350
5A
  0
DICTIONARY
  5
2A
102
{ACAD_REACTORS
330
C
102
}
330
C
100
AcDbDictionary
281
     1
  3
2dWireframe
350
2F
  3
Basic
350
32
  3
Brighten
350
36
  3
ColorChange
350
3A
  3
Conceptual
350
34
  3
Dim
350
35
  3
EdgeColorOff
350
3D
  3
Facepattern
350
39
  3
Flat
350
2B
  3
FlatWithEdges
350
2C
  3
Gouraud
350
2D
  3
GouraudWithEdges
350
2E
  3
Hidden
350
31
  3
JitterOff
350
3B
  3
Linepattern
350
38
  3
OverhangOff
350
3C
  3
Realistic
350
33
  3
Shaded
350
42
  3
Shaded with edges
350
41
  3
Shades of Gray
350
3E
  3
Sketchy
350
3F
  3
Thicken
350
37
  3
Wireframe
350
30
  3
X-Ray
350
40
  0
XRECORD
  5
6A8
102
{ACAD_REACTORS
330
C
102
}
330
C
100
AcDbXrecord
280
     1
 90
        1
330
5A
  0
DICTIONARY
  5
1D0
102
{ACAD_REACTORS
330
C
102
}
330
C
100
AcDbDictionary
281
     1
  3
CANNOSCALE
350
1DE
  3
CENTEREXE
350
1D7
  3
CENTERLTYPEFILE
350
1D8
  3
CMLEADERSTYLE
350
1D2
  3
CTABLESTYLE
350
1D1
  3
CVIEWDETAILSTYLE
350
655
  3
CVIEWSECTIONSTYLE
350
656
  3
DIMASSOC
350
1D9
  3
HIDETEXT
350
1DA
  3
INDEXCTL
350
6A0
  3
LAYEREVAL
350
658
  3
LAYERNOTIFY
350
659
  3
LIGHTINGUNITS
350
657
  3
LOFTANG1
350
6A3
  3
LOFTANG2
350
6A4
  3
LONGITUDE
350
6A5
  3
MSLTSCALE
350
1DF
  3
PSOLHEIGHT
350
6A2
  3
PSOLWIDTH
350
6A1
  3
SORTENTS
350
69F
  3
XCLIPFRAME
350
6A6
  0
XRECORD
  5
6A9
102
{ACAD_REACTORS
330
C
102
}
330
C
100
AcDbXrecord
280
     1
  1
DWGPROPS COOKIE
  2

  3

  4

  6
File was created by TR2_DExp
  7

  8
fujino
  9

300
=
301
=
302
=
303
=
304
=
305
=
306
=
307
=
308
=
309
=
 40
0.0100859837962963
 41
2455188.75
 42
2459747.406661991
  1

 90
        0
  0
DICTIONARY
  5
22D
102
{ACAD_REACTORS
330
22C
102
}
330
22C
100
AcDbDictionary
281
     1
  0
XRECORD
  5
652
102
{ACAD_REACTORS
330
651
102
}
330
651
100
AcDbXrecord
280
     1
290
     1
  0
XRECORD
  5
653
102
{ACAD_REACTORS
330
228
102
}
330
228
100
AcDbXrecord
280
     1
290
     1
  0
XRECORD
  5
654
102
{ACAD_REACTORS
330
22A
102
}
330
22A
100
AcDbXrecord
280
     1
290
     1
  0
SORTENTSTABLE
  5
516
102
{ACAD_REACTORS
330
515
102
}
330
515
100
AcDbSortentsTable
330
1F
331
63F
  5
3D7
331
5FC
  5
394
331
63B
  5
3D3
331
5F8
  5
415
331
637
  5
3CF
331
55F
  5
477
331
58E
  5
423
331
5CD
  5
3EA
331
5C9
  5
3E6
331
5F4
  5
411
331
51C
  5
49E
331
55B
  5
473
331
58A
  5
41F
331
633
  5
3CB
331
586
  5
41B
331
5C5
  5
3E2
331
518
  5
49A
331
557
  5
46F
331
5F0
  5
40D
331
553
  5
46B
331
582
  5
417
331
5C1
  5
3DE
331
4E9
  5
63C
331
50C
  5
4D9
331
508
  5
4D5
331
4E5
  5
638
331
62F
  5
3C7
331
5EC
  5
409
331
62B
  5
3C3
331
5E8
  5
405
331
627
  5
3BF
331
54F
  5
467
331
57E
  5
496
331
5BD
  5
3DA
331
5B9
  5
44E
331
5E4
  5
401
331
504
  5
4D1
331
54B
  5
463
331
57A
  5
492
331
623
  5
3BB
331
576
  5
48E
331
5B5
  5
44A
331
500
  5
4CD
331
547
  5
45F
331
5E0
  5
3FD
331
543
  5
45B
331
572
  5
48A
331
5B1
  5
446
331
649
  5
649
331
4FC
  5
4C9
331
4F8
  5
4C5
331
61F
  5
3B7
331
5DC
  5
3F9
331
61B
  5
3B3
331
5D8
  5
3F5
331
617
  5
3AF
331
53F
  5
457
331
56E
  5
486
331
5AD
  5
442
331
5A9
  5
43E
331
53B
  5
453
331
56A
  5
482
331
613
  5
3AB
331
5A5
  5
43A
331
537
  5
4B9
331
5A1
  5
436
331
511
  5
4DE
331
533
  5
4B5
331
60F
  5
3A7
331
60B
  5
3A3
331
607
  5
39F
331
52F
  5
4B1
331
59D
  5
432
331
599
  5
42E
331
52B
  5
4AD
331
603
  5
39B
331
595
  5
42A
331
5D4
  5
3F1
331
527
  5
4A9
331
566
  5
47E
331
562
  5
47A
331
591
  5
426
331
5D0
  5
3ED
331
523
  5
4A5
331
4F4
  5
4C1
331
4F0
  5
4BD
331
5FF
  5
397
331
63E
  5
3D6
331
5FB
  5
393
331
63A
  5
3D2
331
5CC
  5
3E9
331
5F7
  5
414
331
51F
  5
4A1
331
55E
  5
476
331
58D
  5
422
331
636
  5
3CE
331
632
  5
3CA
331
5C8
  5
3E5
331
5F3
  5
410
331
51B
  5
49D
331
55A
  5
472
331
589
  5
41E
331
585
  5
41A
331
5C4
  5
3E1
331
50F
  5
4DC
331
556
  5
46E
331
552
  5
46A
331
581
  5
416
331
5C0
  5
3DD
331
4E8
  5
63B
331
50B
  5
4D8
331
4E4
  5
637
331
62E
  5
3C6
331
5EF
  5
40C
331
5EB
  5
408
331
62A
  5
3C2
331
5E7
  5
404
331
626
  5
3BE
331
507
  5
4D4
331
54E
  5
466
331
57D
  5
495
331
5BC
  5
3D9
331
5B8
  5
44D
331
5E3
  5
400
331
503
  5
4D0
331
54A
  5
462
331
579
  5
491
331
622
  5
3BA
331
575
  5
48D
331
5B4
  5
449
331
4FF
  5
4CC
331
546
  5
45E
331
542
  5
45A
331
571
  5
489
331
5B0
  5
445
331
648
  5
648
331
4FB
  5
4C8
331
61E
  5
3B6
331
5DF
  5
3FC
331
5DB
  5
3F8
331
61A
  5
3B2
331
616
  5
3AE
331
53E
  5
456
331
56D
  5
485
331
5AC
  5
441
331
5A8
  5
43D
331
53A
  5
452
331
569
  5
481
331
612
  5
3AA
331
5A4
  5
439
331
514
  5
4E1
331
536
  5
4B8
331
532
  5
4B4
331
510
  5
4DD
331
5A0
  5
435
331
60E
  5
3A6
331
60A
  5
3A2
331
606
  5
39E
331
52E
  5
4B0
331
59C
  5
431
331
598
  5
42D
331
5D7
  5
3F4
331
52A
  5
4AC
331
602
  5
39A
331
565
  5
47D
331
594
  5
429
331
5D3
  5
3F0
331
526
  5
4A8
331
561
  5
479
331
590
  5
425
331
4F7
  5
4C4
331
522
  5
4A4
331
4F3
  5
4C0
331
5FE
  5
396
331
63D
  5
3D5
331
5FA
  5
392
331
639
  5
3D1
331
5CF
  5
3EC
331
5CB
  5
3E8
331
5F6
  5
413
331
51E
  5
4A0
331
55D
  5
475
331
58C
  5
421
331
635
  5
3CD
331
631
  5
3C9
331
588
  5
41D
331
5C7
  5
3E4
331
51A
  5
49C
331
559
  5
471
331
5F2
  5
40F
331
4EF
  5
4BC
331
584
  5
419
331
5C3
  5
3E0
331
50E
  5
4DB
331
555
  5
46D
331
551
  5
469
331
580
  5
498
331
640
  5
3D8
331
4E7
  5
63A
331
50A
  5
4D7
331
4E3
  5
636
331
5EE
  5
40B
331
62D
  5
3C5
331
5EA
  5
407
331
629
  5
3C1
331
5BF
  5
3DC
331
5BB
  5
450
331
5E6
  5
403
331
506
  5
4D3
331
54D
  5
465
331
57C
  5
494
331
625
  5
3BD
331
621
  5
3B9
331
5B7
  5
44C
331
5E2
  5
3FF
331
502
  5
4CF
331
549
  5
461
331
578
  5
490
331
574
  5
48C
331
5B3
  5
448
331
4FE
  5
4CB
331
545
  5
45D
331
541
  5
459
331
570
  5
488
331
4FA
  5
4C7
331
61D
  5
3B5
331
5DE
  5
3FB
331
5DA
  5
3F7
331
619
  5
3B1
331
5AF
  5
444
331
615
  5
3AD
331
53D
  5
455
331
56C
  5
484
331
5AB
  5
440
331
5A7
  5
43C
331
539
  5
451
331
517
  5
499
331
568
  5
480
331
611
  5
3A9
331
5A3
  5
438
331
513
  5
4E0
331
535
  5
4B7
331
531
  5
4B3
331
60D
  5
3A5
331
609
  5
3A1
331
59F
  5
434
331
605
  5
39D
331
52D
  5
4AF
331
59B
  5
430
331
597
  5
42C
331
5D6
  5
3F3
331
529
  5
4AB
331
601
  5
399
331
564
  5
47C
331
593
  5
428
331
5D2
  5
3EF
331
525
  5
4A7
331
521
  5
4A3
331
560
  5
478
331
4F6
  5
4C3
331
4F2
  5
4BF
331
5FD
  5
395
331
63C
  5
3D4
331
5F9
  5
391
331
638
  5
3D0
331
58F
  5
424
331
5CE
  5
3EB
331
5CA
  5
3E7
331
5F5
  5
412
331
51D
  5
49F
331
55C
  5
474
331
58B
  5
420
331
634
  5
3CC
331
630
  5
3C8
331
587
  5
41C
331
5C6
  5
3E3
331
4EE
  5
4BB
331
519
  5
49B
331
558
  5
470
331
5F1
  5
40E
331
554
  5
46C
331
583
  5
418
331
5C2
  5
3DF
331
4EA
  5
63D
331
50D
  5
4DA
331
550
  5
468
331
4E6
  5
639
331
509
  5
4D6
331
4E2
  5
635
331
5ED
  5
40A
331
62C
  5
3C4
331
5E9
  5
406
331
628
  5
3C0
331
57F
  5
497
331
5BE
  5
3DB
331
5BA
  5
44F
331
5E5
  5
402
331
505
  5
4D2
331
54C
  5
464
331
57B
  5
493
331
624
  5
3BC
331
620
  5
3B8
331
577
  5
48F
331
5B6
  5
44B
331
501
  5
4CE
331
548
  5
460
331
5E1
  5
3FE
331
573
  5
48B
331
5B2
  5
447
331
64A
  5
64A
331
4FD
  5
4CA
331
544
  5
45C
331
540
  5
458
331
4F9
  5
4C6
331
5DD
  5
3FA
331
61C
  5
3B4
331
5D9
  5
3F6
331
618
  5
3B0
331
56F
  5
487
331
5AE
  5
443
331
5AA
  5
43F
331
53C
  5
454
331
56B
  5
483
331
614
  5
3AC
331
610
  5
3A8
331
5A6
  5
43B
331
538
  5
4BA
331
5A2
  5
437
331
512
  5
4DF
331
534
  5
4B6
331
530
  5
4B2
331
60C
  5
3A4
331
608
  5
3A0
331
59E
  5
433
331
604
  5
39C
331
52C
  5
4AE
331
59A
  5
42F
331
596
  5
42B
331
5D5
  5
3F2
331
528
  5
4AA
331
567
  5
47F
331
600
  5
398
331
563
  5
47B
331
592
  5
427
331
5D1
  5
3EE
331
524
  5
4A6
331
520
  5
4A2
331
4F5
  5
4C2
331
4F1
  5
4BE
  0
ACDBDETAILVIEWSTYLE
  5
21F
102
{ACAD_XDICTIONARY
360
6E1
102
}
102
{ACAD_REACTORS
330
21E
102
}
330
21E
100
AcDbModelDocViewStyle
 70
     0
  3
Metric50
290
     0
100
AcDbDetailViewStyle
 70
     0
 71
     0
 90
        3
 71
     1
340
11
 40
5.0
340
0
 40
5.0
300

 40
0.0
280
     1
 71
     2
340
16
 90
       25
 71
     3
340
11
 40
5.0
 90
        0
 40
15.0
 90
        1
300
%<\AcVar ViewDetailId>% (%<\AcVar ViewScale \f "%sn">%)
 71
     4
340
16
 90
       25
340
16
 90
       25
280
     0
  0
GROUP
  5
64B
102
{ACAD_REACTORS
330
D
102
}
330
D
100
AcDbGroup
300

 70
     1
 71
     1
340
4E6
340
4E5
340
514
340
513
340
512
340
511
340
510
340
50F
340
50E
340
50D
340
50C
340
50B
340
50A
340
509
340
508
340
507
340
506
340
505
340
504
340
503
340
502
340
501
340
500
340
4FF
340
4FE
340
4FD
340
4FC
340
4FB
340
4FA
340
4F9
340
4F8
340
4F7
340
4F6
340
4F5
340
4F4
340
4F3
340
4F2
340
4F1
340
4F0
340
4EF
340
4EE
  0
GROUP
  5
64C
102
{ACAD_REACTORS
330
D
102
}
330
D
100
AcDbGroup
300

 70
     1
 71
     1
340
64A
340
4EA
340
580
340
57F
340
57E
340
57D
340
57C
340
57B
340
57A
340
579
340
578
340
577
340
576
340
575
340
574
340
573
340
572
340
571
340
570
340
56F
340
56E
340
56D
340
56C
340
56B
340
56A
340
569
340
568
340
567
340
566
340
565
340
564
340
563
340
562
340
561
340
560
340
55F
340
55E
340
55D
340
55C
340
55B
340
55A
340
559
340
558
340
557
340
556
340
555
340
554
340
553
340
552
340
551
340
550
340
54F
340
54E
340
54D
340
54C
340
54B
340
54A
340
549
340
548
340
547
340
546
340
545
340
544
340
543
340
542
340
541
340
540
340
53F
340
53E
340
53D
340
53C
340
53B
340
53A
340
539
  0
GROUP
  5
64D
102
{ACAD_REACTORS
330
D
102
}
330
D
100
AcDbGroup
300

 70
     1
 71
     1
340
649
340
4E9
340
5BB
340
5BA
340
5B9
340
5B8
340
5B7
340
5B6
340
5B5
340
5B4
340
5B3
340
5B2
340
5B1
340
5B0
340
5AF
340
5AE
340
5AD
340
5AC
340
5AB
340
5AA
340
5A9
340
5A8
340
5A7
340
5A6
340
5A5
340
5A4
340
5A3
340
5A2
340
5A1
340
5A0
340
59F
340
59E
340
59D
340
59C
340
59B
340
59A
340
599
340
598
340
597
340
596
340
595
340
594
340
593
340
592
340
591
340
590
340
58F
340
58E
340
58D
340
58C
340
58B
340
58A
340
589
340
588
340
587
340
586
340
585
340
584
340
583
340
582
340
581
  0
GROUP
  5
64E
102
{ACAD_REACTORS
330
D
102
}
330
D
100
AcDbGroup
300

 70
     1
 71
     1
340
648
340
4E8
340
640
340
63F
340
63E
340
63D
340
63C
340
63B
340
63A
340
639
340
638
340
637
340
636
340
635
340
634
340
633
340
632
340
631
340
630
340
62F
340
62E
340
62D
340
62C
340
62B
340
62A
340
629
340
628
340
627
340
626
340
625
340
624
340
623
340
622
340
621
340
620
340
61F
340
61E
340
61D
340
61C
340
61B
340
61A
340
619
340
618
340
617
340
616
340
615
340
614
340
613
340
612
340
611
340
610
340
60F
340
60E
340
60D
340
60C
340
60B
340
60A
340
609
340
608
340
607
340
606
340
605
340
604
340
603
340
602
340
601
340
600
340
5FF
340
5FE
340
5FD
340
5FC
340
5FB
340
5FA
340
5F9
  0
GROUP
  5
64F
102
{ACAD_REACTORS
330
D
102
}
330
D
100
AcDbGroup
300

 70
     1
 71
     1
340
4E7
340
4E2
340
5F8
340
5F7
340
5F6
340
5F5
340
5F4
340
5F3
340
5F2
340
5F1
340
5F0
340
5EF
340
5EE
340
5ED
340
5EC
340
5EB
340
5EA
340
5E9
340
5E8
340
5E7
340
5E6
340
5E5
340
5E4
340
5E3
340
5E2
340
5E1
340
5E0
340
5DF
340
5DE
340
5DD
340
5DC
340
5DB
340
5DA
340
5D9
340
5D8
340
5D7
340
5D6
340
5D5
340
5D4
340
5D3
340
5D2
340
5D1
340
5D0
340
5CF
340
5CE
340
5CD
340
5CC
340
5CB
340
5CA
340
5C9
340
5C8
340
5C7
340
5C6
340
5C5
340
5C4
340
5C3
340
5C2
340
5C1
340
5C0
340
5BF
340
5BE
340
5BD
340
5BC
  0
GROUP
  5
650
102
{ACAD_REACTORS
330
D
102
}
330
D
100
AcDbGroup
300

 70
     1
 71
     1
340
4E4
340
4E3
340
538
340
537
340
536
340
535
340
534
340
533
340
532
340
531
340
530
340
52F
340
52E
340
52D
340
52C
340
52B
340
52A
340
529
340
528
340
527
340
526
340
525
340
524
340
523
340
522
340
521
340
520
340
51F
340
51E
340
51D
340
51C
340
51B
340
51A
340
519
340
518
340
517
  0
LAYOUT
  5
1E
102
{ACAD_XDICTIONARY
360
6AA
102
}
102
{ACAD_REACTORS
330
1A
102
}
330
1A
100
AcDbPlotSettings
  1

  2
none_device
  4

  6

 40
0.0
 41
0.0
 42
0.0
 43
0.0
 44
0.0
 45
0.0
 46
0.0
 47
0.0
 48
0.0
 49
0.0
140
0.0
141
0.0
142
1.0
143
1.0
 70
   688
 72
     1
 73
     0
 74
     5
  7

 75
    16
147
1.0
148
0.0
149
0.0
100
AcDbLayout
  1
Layout1
 70
     1
 71
     1
 10
0.0
 20
0.0
 11
420.0
 21
297.0
 12
0.0
 22
0.0
 32
0.0
 14
1.000000000000000E+20
 24
1.000000000000000E+20
 34
1.000000000000000E+20
 15
-1.000000000000000E+20
 25
-1.000000000000000E+20
 35
-1.000000000000000E+20
146
0.0
 13
0.0
 23
0.0
 33
0.0
 16
1.0
 26
0.0
 36
0.0
 17
0.0
 27
1.0
 37
0.0
 76
     0
330
1B
  0
LAYOUT
  5
22
102
{ACAD_XDICTIONARY
360
6AC
102
}
102
{ACAD_REACTORS
330
1A
102
}
330
1A
100
AcDbPlotSettings
  1

  2
none_device
  4
Letter_(8.50_x_11.00_Inches)
  6

 40
6.349999999999998
 41
6.349999999999998
 42
6.350005079999998
 43
6.350005079999998
 44
215.9
 45
279.4
 46
0.0
 47
0.0
 48
0.0
 49
0.0
140
0.0
141
0.0
142
1.0
143
1.0
 70
  1712
 72
     1
 73
     0
 74
     0
  7

 75
     0
147
1.0
148
0.0
149
0.0
100
AcDbLayout
  1
Model
 70
     1
 71
     0
 10
-375.1192340850834
 20
-404.9589939117431
 11
1192.357818603515
 21
730.8789367675781
 12
0.0
 22
0.0
 32
0.0
 14
-375.1192340850834
 24
-404.9589939117431
 34
0.0
 15
1192.357818603515
 25
730.8789367675781
 35
0.0
146
0.0
 13
0.0
 23
0.0
 33
0.0
 16
1.0
 26
0.0
 36
0.0
 17
0.0
 27
1.0
 37
0.0
 76
     0
330
1F
331
29
  0
LAYOUT
  5
220
102
{ACAD_XDICTIONARY
360
6E3
102
}
102
{ACAD_REACTORS
330
1A
102
}
330
1A
100
AcDbPlotSettings
  1

  2
青梅 FX DocuCentre-V C2275 T2
  4

  6

 40
0.0
 41
0.0
 42
0.0
 43
0.0
 44
0.0
 45
0.0
 46
0.0
 47
0.0
 48
0.0
 49
0.0
140
0.0
141
0.0
142
1.0
143
1.0
 70
   688
 72
     0
 73
     0
 74
     5
  7
AutoCAD_PEN.ctb
 75
    16
147
1.0
148
0.0
149
0.0
100
AcDbLayout
  1
レイアウト1
 70
     1
 71
     2
 10
0.0
 20
0.0
 11
12.0
 21
9.0
 12
0.0
 22
0.0
 32
0.0
 14
0.0
 24
0.0
 34
0.0
 15
0.0
 25
0.0
 35
0.0
146
0.0
 13
0.0
 23
0.0
 33
0.0
 16
1.0
 26
0.0
 36
0.0
 17
0.0
 27
1.0
 37
0.0
 76
     0
330
23
  0
MATERIAL
  5
45
102
{ACAD_XDICTIONARY
360
212
102
}
102
{ACAD_REACTORS
330
43
102
}
330
43
100
AcDbMaterial
  1
ByBlock
  0
MATERIAL
  5
44
102
{ACAD_XDICTIONARY
360
210
102
}
102
{ACAD_REACTORS
330
43
102
}
330
43
100
AcDbMaterial
  1
ByLayer
  0
MATERIAL
  5
46
102
{ACAD_XDICTIONARY
360
214
102
}
102
{ACAD_REACTORS
330
43
102
}
330
43
100
AcDbMaterial
  1
Global
  0
MLEADERSTYLE
  5
5C
102
{ACAD_REACTORS
330
5B
102
}
330
5B
100
AcDbMLeaderStyle
170
     2
171
     1
172
     0
 90
        2
 40
0.0
 41
0.0
173
     1
 91
-1056964608
340
14
 92
       -2
290
     1
 42
2.0
291
     1
 43
8.0
  3
Standard
 44
4.0
300

342
11
174
     1
178
     6
175
     1
176
     0
 93
-1056964608
 45
4.0
292
     0
297
     0
 46
4.0
 94
-1056964608
 47
1.0
 49
1.0
140
1.0
293
     1
141
0.0
294
     1
177
     0
142
1.0
295
     0
296
     0
143
3.75
1001
ACAD_MLEADERVER
1070
     2
  0
MLINESTYLE
  5
18
102
{ACAD_REACTORS
330
17
102
}
330
17
100
AcDbMlineStyle
  2
STANDARD
 70
     0
  3

 62
   256
 51
90.0
 52
90.0
 71
     2
 49
0.5
 62
   256
  6
BYLAYER
 49
-0.5
 62
   256
  6
BYLAYER
  0
ACDBPLACEHOLDER
  5
F
102
{ACAD_REACTORS
330
E
102
}
330
E
  0
SCALE
  5
48
102
{ACAD_REACTORS
330
47
102
}
330
47
100
AcDbScale
 70
     0
300
1:1
140
1.0
141
1.0
290
     1
  0
SCALE
  5
49
102
{ACAD_REACTORS
330
47
102
}
330
47
100
AcDbScale
 70
     0
300
1:2
140
1.0
141
2.0
290
     0
  0
SCALE
  5
4A
102
{ACAD_REACTORS
330
47
102
}
330
47
100
AcDbScale
 70
     0
300
1:4
140
1.0
141
4.0
290
     0
  0
SCALE
  5
4B
102
{ACAD_REACTORS
330
47
102
}
330
47
100
AcDbScale
 70
     0
300
1:5
140
1.0
141
5.0
290
     0
  0
SCALE
  5
4C
102
{ACAD_REACTORS
330
47
102
}
330
47
100
AcDbScale
 70
     0
300
1:8
140
1.0
141
8.0
290
     0
  0
SCALE
  5
4D
102
{ACAD_REACTORS
330
47
102
}
330
47
100
AcDbScale
 70
     0
300
1:10
140
1.0
141
10.0
290
     0
  0
SCALE
  5
4E
102
{ACAD_REACTORS
330
47
102
}
330
47
100
AcDbScale
 70
     0
300
1:16
140
1.0
141
16.0
290
     0
  0
SCALE
  5
4F
102
{ACAD_REACTORS
330
47
102
}
330
47
100
AcDbScale
 70
     0
300
1:20
140
1.0
141
20.0
290
     0
  0
SCALE
  5
50
102
{ACAD_REACTORS
330
47
102
}
330
47
100
AcDbScale
 70
     0
300
1:30
140
1.0
141
30.0
290
     0
  0
SCALE
  5
51
102
{ACAD_REACTORS
330
47
102
}
330
47
100
AcDbScale
 70
     0
300
1:40
140
1.0
141
40.0
290
     0
  0
SCALE
  5
52
102
{ACAD_REACTORS
330
47
102
}
330
47
100
AcDbScale
 70
     0
300
1:50
140
1.0
141
50.0
290
     0
  0
SCALE
  5
53
102
{ACAD_REACTORS
330
47
102
}
330
47
100
AcDbScale
 70
     0
300
1:100
140
1.0
141
100.0
290
     0
  0
SCALE
  5
54
102
{ACAD_REACTORS
330
47
102
}
330
47
100
AcDbScale
 70
     0
300
2:1
140
2.0
141
1.0
290
     0
  0
SCALE
  5
55
102
{ACAD_REACTORS
330
47
102
}
330
47
100
AcDbScale
 70
     0
300
4:1
140
4.0
141
1.0
290
     0
  0
SCALE
  5
56
102
{ACAD_REACTORS
330
47
102
}
330
47
100
AcDbScale
 70
     0
300
8:1
140
8.0
141
1.0
290
     0
  0
SCALE
  5
57
102
{ACAD_REACTORS
330
47
102
}
330
47
100
AcDbScale
 70
     0
300
10:1
140
10.0
141
1.0
290
     0
  0
SCALE
  5
58
102
{ACAD_REACTORS
330
47
102
}
330
47
100
AcDbScale
 70
     0
300
100:1
140
100.0
141
1.0
290
     0
  0
ACDBSECTIONVIEWSTYLE
  5
21D
102
{ACAD_XDICTIONARY
360
6DF
102
}
102
{ACAD_REACTORS
330
21C
102
}
330
21C
100
AcDbModelDocViewStyle
 70
     0
  3
Metric50
290
     0
100
AcDbSectionViewStyle
 70
     0
 71
     0
 90
      102
 71
     1
340
11
 40
5.0
340
0
340
0
 40
5.0
300
I, O, Q, S, X, Z
 40
10.0
 90
        0
 40
2.5
 90
        0
 71
     2
340
16
 90
       25
340
16
 90
       50
 40
5.0
 40
2.5
 40
5.0
 71
     3
340
11
 40
5.0
 90
        0
 40
15.0
 90
        1
300
%<\AcVar ViewSectionStartId>%-%<\AcVar ViewSectionEndId>% (%<\AcVar ViewScale \f "%sn">%)
 71
     4
300
ANSI31
 40
1.0
 90
        0
290
     0
290
     0
 90
        6
 40
0.0
 40
1.570796326794896
 40
0.2617993877991494
 40
1.308996938995747
 40
-0.2617993877991494
 40
1.832595714594045
  0
TABLESTYLE
  5
5A
102
{ACAD_XDICTIONARY
360
65A
102
}
102
{ACAD_REACTORS
330
59
102
}
330
59
100
AcDbTableStyle
  3
Standard
 70
     0
 71
     0
 40
1.5
 41
1.5
280
     0
281
     0
  7
Standard
140
4.5
170
     2
 62
     0
 63
     7
283
     0
274
    -2
284
     1
 64
     0
275
    -2
285
     1
 65
     0
276
    -2
286
     1
 66
     0
277
    -2
287
     1
 67
     0
278
    -2
288
     1
 68
     0
279
    -2
289
     1
 69
     0
  7
Standard
140
6.0
170
     5
 62
     0
 63
     7
283
     0
274
    -2
284
     1
 64
     0
275
    -2
285
     1
 65
     0
276
    -2
286
     1
 66
     0
277
    -2
287
     1
 67
     0
278
    -2
288
     1
 68
     0
279
    -2
289
     1
 69
     0
  7
Standard
140
4.5
170
     5
 62
     0
 63
     7
283
     0
274
    -2
284
     1
 64
     0
275
    -2
285
     1
 65
     0
276
    -2
286
     1
 66
     0
277
    -2
287
     1
 67
     0
278
    -2
288
     1
 68
     0
279
    -2
289
     1
 69
     0
  0
VISUALSTYLE
  5
2F
102
{ACAD_XDICTIONARY
360
6B6
102
}
102
{ACAD_REACTORS
330
2A
102
}
330
2A
100
AcDbVisualStyle
  2

 70
     4
 71
     0
 72
     2
 73
     0
 90
        0
 40
-0.6
 41
-30.0
 62
     5
 63
     7
 74
     1
 91
        4
 64
     7
 65
   257
 75
     1
175
     1
 42
1.0
 92
        0
 66
   257
 43
1.0
 76
     1
 77
     6
 78
     2
 67
     7
 79
     5
170
     0
171
     0
290
     0
174
     0
 93
        1
 44
0.0
173
     0
291
     0
 45
0.0
1001
ACAD
1000
AcDbSavedByObjectVersion
1070
     0
  0
VISUALSTYLE
  5
32
102
{ACAD_XDICTIONARY
360
6BC
102
}
102
{ACAD_REACTORS
330
2A
102
}
330
2A
100
AcDbVisualStyle
  2

 70
     7
 71
     1
 72
     0
 73
     1
 90
        0
 40
-0.6
 41
-30.0
 62
     5
 63
     7
 74
     0
 91
        4
 64
     7
 65
   257
 75
     1
175
     1
 42
1.0
 92
        8
 66
     7
 43
1.0
 76
     1
 77
     6
 78
     2
 67
     7
 79
     5
170
     0
171
     0
290
     0
174
     0
 93
        1
 44
0.0
173
     0
291
     1
 45
0.0
1001
ACAD
1000
AcDbSavedByObjectVersion
1070
     0
  0
VISUALSTYLE
  5
36
102
{ACAD_XDICTIONARY
360
6C4
102
}
102
{ACAD_REACTORS
330
2A
102
}
330
2A
100
AcDbVisualStyle
  2

 70
    12
 71
     2
 72
     2
 73
     0
 90
        0
 40
-0.6
 41
-30.0
 62
     5
 63
     7
 74
     1
 91
        4
 64
     7
 65
   257
 75
     1
175
     1
 42
1.0
 92
        8
 66
     7
 43
1.0
 76
     1
 77
     6
 78
     2
 67
     7
 79
     5
170
     0
171
     0
290
     0
174
     0
 93
        1
 44
50.0
173
     0
291
     1
 45
0.0
1001
ACAD
1000
AcDbSavedByObjectVersion
1070
     0
  0
VISUALSTYLE
  5
3A
102
{ACAD_XDICTIONARY
360
6CC
102
}
102
{ACAD_REACTORS
330
2A
102
}
330
2A
100
AcDbVisualStyle
  2

 70
    16
 71
     2
 72
     2
 73
     3
 90
        0
 40
-0.6
 41
-30.0
 62
     5
 63
     8
 74
     1
 91
        4
 64
     7
 65
   257
 75
     1
175
     1
 42
1.0
 92
        8
 66
     8
 43
1.0
 76
     1
 77
     6
 78
     2
 67
     7
 79
     5
170
     0
171
     0
290
     0
174
     0
 93
        1
 44
0.0
173
     0
291
     1
 45
0.0
1001
ACAD
1000
AcDbSavedByObjectVersion
1070
     0
  0
VISUALSTYLE
  5
34
102
{ACAD_XDICTIONARY
360
6C0
102
}
102
{ACAD_REACTORS
330
2A
102
}
330
2A
100
AcDbVisualStyle
  2

 70
     9
 71
     3
 72
     2
 73
     0
 90
        0
 40
-0.6
 41
-30.0
 62
     5
 63
     7
 74
     2
 91
        2
 64
     7
 65
   257
 75
     1
175
     1
 42
179.0
 92
        8
 66
     7
 43
1.0
 76
     1
 77
     6
 78
     2
 67
     7
 79
     3
170
     0
171
     0
290
     0
174
     0
 93
        1
 44
0.0
173
     0
291
     0
 45
0.0
1001
ACAD
1000
AcDbSavedByObjectVersion
1070
     0
  0
VISUALSTYLE
  5
35
102
{ACAD_XDICTIONARY
360
6C2
102
}
102
{ACAD_REACTORS
330
2A
102
}
330
2A
100
AcDbVisualStyle
  2

 70
    11
 71
     2
 72
     2
 73
     0
 90
        0
 40
-0.6
 41
-30.0
 62
     5
 63
     7
 74
     1
 91
        4
 64
     7
 65
   257
 75
     1
175
     1
 42
1.0
 92
        8
 66
     7
 43
1.0
 76
     1
 77
     6
 78
     2
 67
     7
 79
     5
170
     0
171
     0
290
     0
174
     0
 93
        1
 44
-50.0
173
     0
291
     1
 45
0.0
1001
ACAD
1000
AcDbSavedByObjectVersion
1070
     0
  0
VISUALSTYLE
  5
3D
102
{ACAD_XDICTIONARY
360
6D2
102
}
102
{ACAD_REACTORS
330
2A
102
}
330
2A
100
AcDbVisualStyle
  2

 70
    22
 71
     2
 72
     2
 73
     0
 90
        0
 40
-0.6
 41
-30.0
 62
     5
 63
     7
 74
     1
 91
        4
 64
     7
 65
   257
 75
     1
175
     1
 42
1.0
 92
        8
 66
     7
 43
1.0
 76
     1
 77
     6
 78
     2
 67
     7
 79
     5
170
     0
171
     0
290
     0
174
     0
 93
        1
 44
0.0
173
     0
291
     1
 45
0.0
1001
ACAD
1000
AcDbSavedByObjectVersion
1070
     0
  0
VISUALSTYLE
  5
39
102
{ACAD_XDICTIONARY
360
6CA
102
}
102
{ACAD_REACTORS
330
2A
102
}
330
2A
100
AcDbVisualStyle
  2

 70
    15
 71
     2
 72
     2
 73
     0
 90
        0
 40
-0.6
 41
-30.0
 62
     5
 63
     7
 74
     1
 91
        4
 64
     7
 65
   257
 75
     1
175
     1
 42
1.0
 92
        8
 66
     7
 43
1.0
 76
     1
 77
     6
 78
     2
 67
     7
 79
     5
170
     0
171
     0
290
     0
174
     0
 93
        1
 44
0.0
173
     0
291
     1
 45
0.0
1001
ACAD
1000
AcDbSavedByObjectVersion
1070
     0
  0
VISUALSTYLE
  5
2B
102
{ACAD_XDICTIONARY
360
6AE
102
}
102
{ACAD_REACTORS
330
2A
102
}
330
2A
100
AcDbVisualStyle
  2

 70
     0
 71
     2
 72
     1
 73
     1
 90
        2
 40
-0.6
 41
30.0
 62
     5
 63
     7
 74
     0
 91
        0
 64
     7
 65
   257
 75
     1
175
     1
 42
1.0
 92
        8
 66
     7
 43
1.0
 76
     1
 77
     6
 78
     2
 67
     7
 79
     5
170
     0
171
     0
290
     0
174
     0
 93
       13
 44
0.0
173
     0
291
     1
 45
0.0
1001
ACAD
1000
AcDbSavedByObjectVersion
1070
     0
  0
VISUALSTYLE
  5
2C
102
{ACAD_XDICTIONARY
360
6B0
102
}
102
{ACAD_REACTORS
330
2A
102
}
330
2A
100
AcDbVisualStyle
  2

 70
     1
 71
     2
 72
     1
 73
     1
 90
        2
 40
-0.6
 41
30.0
 62
     5
 63
     7
 74
     1
 91
        0
 64
     7
 65
   257
 75
     1
175
     1
 42
1.0
 92
        0
 66
   257
 43
1.0
 76
     1
 77
     6
 78
     2
 67
     7
 79
     5
170
     0
171
     0
290
     0
174
     0
 93
       13
 44
0.0
173
     0
291
     1
 45
0.0
1001
ACAD
1000
AcDbSavedByObjectVersion
1070
     0
  0
VISUALSTYLE
  5
2D
102
{ACAD_XDICTIONARY
360
6B2
102
}
102
{ACAD_REACTORS
330
2A
102
}
330
2A
100
AcDbVisualStyle
  2

 70
     2
 71
     2
 72
     2
 73
     1
 90
        2
 40
-0.6
 41
30.0
 62
     5
 63
     7
 74
     0
 91
        0
 64
     7
 65
   257
 75
     1
175
     1
 42
1.0
 92
        0
 66
     7
 43
1.0
 76
     1
 77
     6
 78
     2
 67
     7
 79
     5
170
     0
171
     0
290
     0
174
     0
 93
       13
 44
0.0
173
     0
291
     1
 45
0.0
1001
ACAD
1000
AcDbSavedByObjectVersion
1070
     0
  0
VISUALSTYLE
  5
2E
102
{ACAD_XDICTIONARY
360
6B4
102
}
102
{ACAD_REACTORS
330
2A
102
}
330
2A
100
AcDbVisualStyle
  2

 70
     3
 71
     2
 72
     2
 73
     1
 90
        2
 40
-0.6
 41
30.0
 62
     5
 63
     7
 74
     1
 91
        0
 64
     7
 65
   257
 75
     1
175
     1
 42
1.0
 92
        0
 66
   257
 43
1.0
 76
     1
 77
     6
 78
     2
 67
     7
 79
     5
170
     0
171
     0
290
     0
174
     0
 93
       13
 44
0.0
173
     0
291
     1
 45
0.0
1001
ACAD
1000
AcDbSavedByObjectVersion
1070
     0
  0
VISUALSTYLE
  5
31
102
{ACAD_XDICTIONARY
360
6BA
102
}
102
{ACAD_REACTORS
330
2A
102
}
330
2A
100
AcDbVisualStyle
  2

 70
     6
 71
     1
 72
     2
 73
     2
 90
        0
 40
-0.6
 41
-30.0
 62
     5
 63
     7
 74
     2
 91
        2
 64
     7
 65
   257
 75
     2
175
     1
 42
40.0
 92
        0
 66
   257
 43
1.0
 76
     1
 77
     6
 78
     2
 67
     7
 79
     3
170
     0
171
     0
290
     0
174
     0
 93
        1
 44
0.0
173
     0
291
     0
 45
0.0
1001
ACAD
1000
AcDbSavedByObjectVersion
1070
     0
  0
VISUALSTYLE
  5
3B
102
{ACAD_XDICTIONARY
360
6CE
102
}
102
{ACAD_REACTORS
330
2A
102
}
330
2A
100
AcDbVisualStyle
  2

 70
    20
 71
     2
 72
     2
 73
     0
 90
        0
 40
-0.6
 41
-30.0
 62
     5
 63
     7
 74
     1
 91
        4
 64
     7
 65
   257
 75
     1
175
     1
 42
1.0
 92
       10
 66
     7
 43
1.0
 76
     1
 77
     6
 78
     2
 67
     7
 79
     5
170
     0
171
     0
290
     0
174
     0
 93
        1
 44
0.0
173
     0
291
     1
 45
0.0
1001
ACAD
1000
AcDbSavedByObjectVersion
1070
     0
  0
VISUALSTYLE
  5
38
102
{ACAD_XDICTIONARY
360
6C8
102
}
102
{ACAD_REACTORS
330
2A
102
}
330
2A
100
AcDbVisualStyle
  2

 70
    14
 71
     2
 72
     2
 73
     0
 90
        0
 40
-0.6
 41
-30.0
 62
     5
 63
     7
 74
     1
 91
        4
 64
     7
 65
   257
 75
     7
175
     7
 42
1.0
 92
        8
 66
     7
 43
1.0
 76
     1
 77
     6
 78
     2
 67
     7
 79
     5
170
     0
171
     0
290
     0
174
     0
 93
        1
 44
0.0
173
     0
291
     1
 45
0.0
1001
ACAD
1000
AcDbSavedByObjectVersion
1070
     0
  0
VISUALSTYLE
  5
3C
102
{ACAD_XDICTIONARY
360
6D0
102
}
102
{ACAD_REACTORS
330
2A
102
}
330
2A
100
AcDbVisualStyle
  2

 70
    21
 71
     2
 72
     2
 73
     0
 90
        0
 40
-0.6
 41
-30.0
 62
     5
 63
     7
 74
     1
 91
        4
 64
     7
 65
   257
 75
     1
175
     1
 42
1.0
 92
        9
 66
     7
 43
1.0
 76
     1
 77
     6
 78
     2
 67
     7
 79
     5
170
     0
171
     0
290
     0
174
     0
 93
        1
 44
0.0
173
     0
291
     1
 45
0.0
1001
ACAD
1000
AcDbSavedByObjectVersion
1070
     0
  0
VISUALSTYLE
  5
33
102
{ACAD_XDICTIONARY
360
6BE
102
}
102
{ACAD_REACTORS
330
2A
102
}
330
2A
100
AcDbVisualStyle
  2

 70
     8
 71
     2
 72
     3
 73
     0
 90
        2
 40
-0.6
 41
30.0
 62
     5
 63
     7
 74
     0
 91
        0
 64
     7
 65
   257
 75
     1
175
     1
 42
1.0
 92
        8
 66
   257
 43
1.0
 76
     1
 77
     6
 78
     2
 67
     7
 79
     3
170
     0
171
     0
290
     0
174
     0
 93
       13
 44
0.0
173
     0
291
     0
 45
0.0
1001
ACAD
1000
AcDbSavedByObjectVersion
1070
     0
  0
VISUALSTYLE
  5
42
102
{ACAD_XDICTIONARY
360
6DC
102
}
102
{ACAD_REACTORS
330
2A
102
}
330
2A
100
AcDbVisualStyle
  2

 70
    27
 71
     2
 72
     2
 73
     1
 90
        2
 40
-0.6
 41
30.0
 62
     5
 63
     7
 74
     0
 91
        4
 64
     7
 65
   257
 75
     1
175
     1
 42
1.0
 92
        8
 66
   257
 43
1.0
 76
     1
 77
     6
 78
     2
 67
     8
 79
     3
170
     0
171
     0
290
     0
174
     0
 93
        5
 44
0.0
173
     0
291
     0
 45
0.0
1001
ACAD
1000
AcDbSavedByObjectVersion
1070
     0
  0
VISUALSTYLE
  5
41
102
{ACAD_XDICTIONARY
360
6DA
102
}
102
{ACAD_REACTORS
330
2A
102
}
330
2A
100
AcDbVisualStyle
  2

 70
    26
 71
     2
 72
     2
 73
     1
 90
        2
 40
-0.6
 41
30.0
 62
     5
 63
     7
 74
     1
 91
       10
 64
     7
 65
   257
 75
     2
175
     1
 42
1.0
 92
        8
 66
   257
 43
1.0
 76
     1
 77
     6
 78
     2
 67
     7
 79
     3
170
     0
171
     0
290
     0
174
     0
 93
        5
 44
0.0
173
     0
291
     0
 45
0.0
1001
ACAD
1000
AcDbSavedByObjectVersion
1070
     0
  0
VISUALSTYLE
  5
3E
102
{ACAD_XDICTIONARY
360
6D4
102
}
102
{ACAD_REACTORS
330
2A
102
}
330
2A
100
AcDbVisualStyle
  2

 70
    23
 71
     2
 72
     2
 73
     3
 90
        0
 40
-0.6
 41
-30.0
 62
     5
 63
     7
 74
     2
 91
        2
 64
     7
 65
     7
 75
     1
175
     1
 42
40.0
 92
        8
 66
     7
 43
1.0
 76
     1
 77
     6
 78
     2
 67
     7
 79
     3
170
     0
171
     0
290
     0
174
     0
 93
        1
 44
0.0
173
     0
291
     0
 45
0.0
1001
ACAD
1000
AcDbSavedByObjectVersion
1070
     0
  0
VISUALSTYLE
  5
3F
102
{ACAD_XDICTIONARY
360
6D6
102
}
102
{ACAD_REACTORS
330
2A
102
}
330
2A
100
AcDbVisualStyle
  2

 70
    24
 71
     1
 72
     2
 73
     2
 90
        0
 40
-0.6
 41
-30.0
 62
     5
 63
     7
 74
     2
 91
        2
 64
     7
 65
     7
 75
     1
175
     1
 42
40.0
 92
       11
 66
     7
 43
1.0
 76
     1
 77
     6
 78
     2
 67
     7
 79
     6
170
     0
171
     0
290
     0
174
     0
 93
        1
 44
0.0
173
     0
291
     0
 45
0.0
1001
ACAD
1000
AcDbSavedByObjectVersion
1070
     0
  0
VISUALSTYLE
  5
37
102
{ACAD_XDICTIONARY
360
6C6
102
}
102
{ACAD_REACTORS
330
2A
102
}
330
2A
100
AcDbVisualStyle
  2

 70
    13
 71
     2
 72
     2
 73
     0
 90
        0
 40
-0.6
 41
-30.0
 62
     5
 63
     7
 74
     1
 91
        4
 64
     7
 65
   257
 75
     1
175
     1
 42
1.0
 92
       12
 66
     7
 43
1.0
 76
     1
 77
     6
 78
     2
 67
     7
 79
     5
170
     0
171
     0
290
     0
174
     0
 93
        1
 44
0.0
173
     0
291
     1
 45
0.0
1001
ACAD
1000
AcDbSavedByObjectVersion
1070
     0
  0
VISUALSTYLE
  5
30
102
{ACAD_XDICTIONARY
360
6B8
102
}
102
{ACAD_REACTORS
330
2A
102
}
330
2A
100
AcDbVisualStyle
  2

 70
     5
 71
     0
 72
     2
 73
     0
 90
        0
 40
-0.6
 41
-30.0
 62
     5
 63
     7
 74
     1
 91
        4
 64
     7
 65
   257
 75
     1
175
     1
 42
1.0
 92
        0
 66
   257
 43
1.0
 76
     1
 77
     6
 78
     2
 67
     7
 79
     3
170
     0
171
     0
290
     0
174
     0
 93
        1
 44
0.0
173
     0
291
     0
 45
0.0
1001
ACAD
1000
AcDbSavedByObjectVersion
1070
     0
  0
VISUALSTYLE
  5
40
102
{ACAD_XDICTIONARY
360
6D8
102
}
102
{ACAD_REACTORS
330
2A
102
}
330
2A
100
AcDbVisualStyle
  2

 70
    25
 71
     2
 72
     2
 73
     1
 90
        1
 40
0.5
 41
-30.0
 62
     5
 63
     7
 74
     1
 91
        0
 64
     7
 65
   257
 75
     1
175
     1
 42
1.0
 92
        8
 66
     7
 43
1.0
 76
     1
 77
     6
 78
     2
 67
     7
 79
     3
170
     0
171
     0
290
     0
174
     0
 93
       13
 44
0.0
173
     0
291
     0
 45
0.0
1001
ACAD
1000
AcDbSavedByObjectVersion
1070
     0
  0
DICTIONARYVAR
  5
1DE
102
{ACAD_REACTORS
330
1D0
102
}
330
1D0
100
DictionaryVariables
280
     0
  1
1:1
  0
DICTIONARYVAR
  5
1D7
102
{ACAD_REACTORS
330
1D0
102
}
330
1D0
100
DictionaryVariables
280
     0
  1
3.500000
  0
DICTIONARYVAR
  5
1D8
102
{ACAD_REACTORS
330
1D0
102
}
330
1D0
100
DictionaryVariables
280
     0
  1
acadiso.lin
  0
DICTIONARYVAR
  5
1D2
102
{ACAD_REACTORS
330
1D0
102
}
330
1D0
100
DictionaryVariables
280
     0
  1
STANDARD
  0
DICTIONARYVAR
  5
1D1
102
{ACAD_REACTORS
330
1D0
102
}
330
1D0
100
DictionaryVariables
280
     0
  1
STANDARD
  0
DICTIONARYVAR
  5
655
102
{ACAD_REACTORS
330
1D0
102
}
330
1D0
100
DictionaryVariables
280
     0
  1
Metric50
  0
DICTIONARYVAR
  5
656
102
{ACAD_REACTORS
330
1D0
102
}
330
1D0
100
DictionaryVariables
280
     0
  1
Metric50
  0
DICTIONARYVAR
  5
1D9
102
{ACAD_REACTORS
330
1D0
102
}
330
1D0
100
DictionaryVariables
280
     0
  1
2
  0
DICTIONARYVAR
  5
1DA
102
{ACAD_REACTORS
330
1D0
102
}
330
1D0
100
DictionaryVariables
280
     0
  1
1
  0
DICTIONARYVAR
  5
6A0
102
{ACAD_REACTORS
330
1D0
102
}
330
1D0
100
DictionaryVariables
280
     0
  1
0
  0
DICTIONARYVAR
  5
658
102
{ACAD_REACTORS
330
1D0
102
}
330
1D0
100
DictionaryVariables
280
     0
  1
1
  0
DICTIONARYVAR
  5
659
102
{ACAD_REACTORS
330
1D0
102
}
330
1D0
100
DictionaryVariables
280
     0
  1
15
  0
DICTIONARYVAR
  5
657
102
{ACAD_REACTORS
330
1D0
102
}
330
1D0
100
DictionaryVariables
280
     0
  1
0
  0
DICTIONARYVAR
  5
6A3
102
{ACAD_REACTORS
330
1D0
102
}
330
1D0
100
DictionaryVariables
280
     0
  1
1.570796
  0
DICTIONARYVAR
  5
6A4
102
{ACAD_REACTORS
330
1D0
102
}
330
1D0
100
DictionaryVariables
280
     0
  1
1.570796
  0
DICTIONARYVAR
  5
6A5
102
{ACAD_REACTORS
330
1D0
102
}
330
1D0
100
DictionaryVariables
280
     0
  1
-122.394000
  0
DICTIONARYVAR
  5
1DF
102
{ACAD_REACTORS
330
1D0
102
}
330
1D0
100
DictionaryVariables
280
     0
  1
1
  0
DICTIONARYVAR
  5
6A2
102
{ACAD_REACTORS
330
1D0
102
}
330
1D0
100
DictionaryVariables
280
     0
  1
80.000000
  0
DICTIONARYVAR
  5
6A1
102
{ACAD_REACTORS
330
1D0
102
}
330
1D0
100
DictionaryVariables
280
     0
  1
5.000000
  0
DICTIONARYVAR
  5
69F
102
{ACAD_REACTORS
330
1D0
102
}
330
1D0
100
DictionaryVariables
280
     0
  1
127
  0
DICTIONARYVAR
  5
6A6
102
{ACAD_REACTORS
330
1D0
102
}
330
1D0
100
DictionaryVariables
280
     0
  1
2
  0
DICTIONARY
  5
6E1
330
21F
100
AcDbDictionary
280
     1
281
     1
  3
ACAD_XREC_ROUNDTRIP
360
6E2
  0
DICTIONARY
  5
6AA
330
1E
100
AcDbDictionary
280
     1
281
     1
  3
ACAD_XREC_ROUNDTRIP
360
6AB
  0
DICTIONARY
  5
6AC
330
22
100
AcDbDictionary
280
     1
281
     1
  3
ACAD_XREC_ROUNDTRIP
360
6AD
  0
DICTIONARY
  5
6E3
330
220
100
AcDbDictionary
280
     1
281
     1
  3
ACAD_XREC_ROUNDTRIP
360
6E4
  0
DICTIONARY
  5
212
330
45
100
AcDbDictionary
280
     1
281
     1
  3
ACAD_XREC_ROUNDTRIP
360
213
  0
DICTIONARY
  5
210
330
44
100
AcDbDictionary
280
     1
281
     1
  3
ACAD_XREC_ROUNDTRIP
360
211
  0
DICTIONARY
  5
214
330
46
100
AcDbDictionary
280
     1
281
     1
  3
ACAD_XREC_ROUNDTRIP
360
215
  0
DICTIONARY
  5
6DF
330
21D
100
AcDbDictionary
280
     1
281
     1
  3
ACAD_XREC_ROUNDTRIP
360
6E0
  0
DICTIONARY
  5
65A
330
5A
100
AcDbDictionary
280
     1
281
     1
  3
ACAD_ROUNDTRIP_2008_TABLESTYLE_CELLSTYLEMAP
360
6A7
  3
ACAD_XREC_ROUNDTRIP
360
6DE
  0
DICTIONARY
  5
6B6
330
2F
100
AcDbDictionary
280
     1
281
     1
  3
ACAD_XREC_ROUNDTRIP
360
6B7
  0
DICTIONARY
  5
6BC
330
32
100
AcDbDictionary
280
     1
281
     1
  3
ACAD_XREC_ROUNDTRIP
360
6BD
  0
DICTIONARY
  5
6C4
330
36
100
AcDbDictionary
280
     1
281
     1
  3
ACAD_XREC_ROUNDTRIP
360
6C5
  0
DICTIONARY
  5
6CC
330
3A
100
AcDbDictionary
280
     1
281
     1
  3
ACAD_XREC_ROUNDTRIP
360
6CD
  0
DICTIONARY
  5
6C0
330
34
100
AcDbDictionary
280
     1
281
     1
  3
ACAD_XREC_ROUNDTRIP
360
6C1
  0
DICTIONARY
  5
6C2
330
35
100
AcDbDictionary
280
     1
281
     1
  3
ACAD_XREC_ROUNDTRIP
360
6C3
  0
DICTIONARY
  5
6D2
330
3D
100
AcDbDictionary
280
     1
281
     1
  3
ACAD_XREC_ROUNDTRIP
360
6D3
  0
DICTIONARY
  5
6CA
330
39
100
AcDbDictionary
280
     1
281
     1
  3
ACAD_XREC_ROUNDTRIP
360
6CB
  0
DICTIONARY
  5
6AE
330
2B
100
AcDbDictionary
280
     1
281
     1
  3
ACAD_XREC_ROUNDTRIP
360
6AF
  0
DICTIONARY
  5
6B0
330
2C
100
AcDbDictionary
280
     1
281
     1
  3
ACAD_XREC_ROUNDTRIP
360
6B1
  0
DICTIONARY
  5
6B2
330
2D
100
AcDbDictionary
280
     1
281
     1
  3
ACAD_XREC_ROUNDTRIP
360
6B3
  0
DICTIONARY
  5
6B4
330
2E
100
AcDbDictionary
280
     1
281
     1
  3
ACAD_XREC_ROUNDTRIP
360
6B5
  0
DICTIONARY
  5
6BA
330
31
100
AcDbDictionary
280
     1
281
     1
  3
ACAD_XREC_ROUNDTRIP
360
6BB
  0
DICTIONARY
  5
6CE
330
3B
100
AcDbDictionary
280
     1
281
     1
  3
ACAD_XREC_ROUNDTRIP
360
6CF
  0
DICTIONARY
  5
6C8
330
38
100
AcDbDictionary
280
     1
281
     1
  3
ACAD_XREC_ROUNDTRIP
360
6C9
  0
DICTIONARY
  5
6D0
330
3C
100
AcDbDictionary
280
     1
281
     1
  3
ACAD_XREC_ROUNDTRIP
360
6D1
  0
DICTIONARY
  5
6BE
330
33
100
AcDbDictionary
280
     1
281
     1
  3
ACAD_XREC_ROUNDTRIP
360
6BF
  0
DICTIONARY
  5
6DC
330
42
100
AcDbDictionary
280
     1
281
     1
  3
ACAD_XREC_ROUNDTRIP
360
6DD
  0
DICTIONARY
  5
6DA
330
41
100
AcDbDictionary
280
     1
281
     1
  3
ACAD_XREC_ROUNDTRIP
360
6DB
  0
DICTIONARY
  5
6D4
330
3E
100
AcDbDictionary
280
     1
281
     1
  3
ACAD_XREC_ROUNDTRIP
360
6D5
  0
DICTIONARY
  5
6D6
330
3F
100
AcDbDictionary
280
     1
281
     1
  3
ACAD_XREC_ROUNDTRIP
360
6D7
  0
DICTIONARY
  5
6C6
330
37
100
AcDbDictionary
280
     1
281
     1
  3
ACAD_XREC_ROUNDTRIP
360
6C7
  0
DICTIONARY
  5
6B8
330
30
100
AcDbDictionary
280
     1
281
     1
  3
ACAD_XREC_ROUNDTRIP
360
6B9
  0
DICTIONARY
  5
6D8
330
40
100
AcDbDictionary
280
     1
281
     1
  3
ACAD_XREC_ROUNDTRIP
360
6D9
  0
XRECORD
  5
6E2
102
{ACAD_REACTORS
330
6E1
102
}
330
6E1
100
AcDbXrecord
280
     1
102
DISPLAYNAME
  1
Metric50
102
FLAGS
 90
        0
  0
XRECORD
  5
6AB
102
{ACAD_REACTORS
330
6AA
102
}
330
6AA
100
AcDbXrecord
280
     1
102
SHADEPLOT
 70
     0
102
SHADEPLOTRESLEVEL
 70
     2
102
SHADEPLOTCUSTOMDPI
 70
   300
  0
XRECORD
  5
6AD
102
{ACAD_REACTORS
330
6AC
102
}
330
6AC
100
AcDbXrecord
280
     1
102
SHADEPLOT
 70
     0
102
SHADEPLOTRESLEVEL
 70
     2
102
SHADEPLOTCUSTOMDPI
 70
   300
  0
XRECORD
  5
6E4
102
{ACAD_REACTORS
330
6E3
102
}
330
6E3
100
AcDbXrecord
280
     1
102
SHADEPLOT
 70
     0
102
SHADEPLOTRESLEVEL
 70
     2
102
SHADEPLOTCUSTOMDPI
 70
   300
  0
XRECORD
  5
213
102
{ACAD_REACTORS
330
212
102
}
330
212
100
AcDbXrecord
280
     1
102
MATERIAL
148
0.0
149
0.0
149
0.0
 93
        0
 94
      127
282
     0
 72
     1
 77
     1
171
     1
175
     1
179
     1
273
     0
  0
XRECORD
  5
211
102
{ACAD_REACTORS
330
210
102
}
330
210
100
AcDbXrecord
280
     1
102
MATERIAL
148
0.0
149
0.0
149
0.0
 93
        0
 94
      127
282
     0
 72
     1
 77
     1
171
     1
175
     1
179
     1
273
     0
  0
XRECORD
  5
215
102
{ACAD_REACTORS
330
214
102
}
330
214
100
AcDbXrecord
280
     1
102
MATERIAL
148
0.0
149
0.0
149
0.0
 93
        0
 94
      127
282
     0
 72
     1
 77
     1
171
     1
175
     1
179
     1
273
     0
  0
XRECORD
  5
6E0
102
{ACAD_REACTORS
330
6DF
102
}
330
6DF
100
AcDbXrecord
280
     1
102
DISPLAYNAME
  1
Metric50
102
FLAGS
 90
        0
  0
CELLSTYLEMAP
  5
6A7
102
{ACAD_REACTORS
330
65A
102
}
330
65A
100
AcDbCellStyleMap
 90
        3
300
CELLSTYLE
  1
TABLEFORMAT_BEGIN
 90
        5
170
     1
 91
        0
 92
    32768
 62
   257
 93
        1
300
CONTENTFORMAT
  1
CONTENTFORMAT_BEGIN
 90
        0
 91
        0
 92
        4
 93
        0
300

 40
0.0
140
1.0
 94
        5
 62
     0
340
11
144
6.0
309
CONTENTFORMAT_END
171
     1
301
MARGIN
  1
CELLMARGIN_BEGIN
 40
1.5
 40
1.5
 40
1.5
 40
1.5
 40
0.18
 40
0.18
309
CELLMARGIN_END
 94
        6
 95
        1
302
GRIDFORMAT
  1
GRIDFORMAT_BEGIN
 90
        0
 91
        1
 62
     0
 92
       -2
340
0
 93
        0
 40
0.045
309
GRIDFORMAT_END
 95
        2
302
GRIDFORMAT
  1
GRIDFORMAT_BEGIN
 90
        0
 91
        1
 62
     0
 92
       -2
340
0
 93
        0
 40
0.045
309
GRIDFORMAT_END
 95
        4
302
GRIDFORMAT
  1
GRIDFORMAT_BEGIN
 90
        0
 91
        1
 62
     0
 92
       -2
340
0
 93
        0
 40
0.045
309
GRIDFORMAT_END
 95
        8
302
GRIDFORMAT
  1
GRIDFORMAT_BEGIN
 90
        0
 91
        1
 62
     0
 92
       -2
340
0
 93
        0
 40
0.045
309
GRIDFORMAT_END
 95
       16
302
GRIDFORMAT
  1
GRIDFORMAT_BEGIN
 90
        0
 91
        1
 62
     0
 92
       -2
340
0
 93
        0
 40
0.045
309
GRIDFORMAT_END
 95
       32
302
GRIDFORMAT
  1
GRIDFORMAT_BEGIN
 90
        0
 91
        1
 62
     0
 92
       -2
340
0
 93
        0
 40
0.045
309
GRIDFORMAT_END
309
TABLEFORMAT_END
  1
CELLSTYLE_BEGIN
 90
        1
 91
        1
300
_TITLE
309
CELLSTYLE_END
300
CELLSTYLE
  1
TABLEFORMAT_BEGIN
 90
        5
170
     1
 91
        0
 92
        0
 62
   257
 93
        1
300
CONTENTFORMAT
  1
CONTENTFORMAT_BEGIN
 90
        0
 91
        0
 92
        4
 93
        0
300

 40
0.0
140
1.0
 94
        5
 62
     0
340
11
144
4.5
309
CONTENTFORMAT_END
171
     1
301
MARGIN
  1
CELLMARGIN_BEGIN
 40
1.5
 40
1.5
 40
1.5
 40
1.5
 40
0.18
 40
0.18
309
CELLMARGIN_END
 94
        6
 95
        1
302
GRIDFORMAT
  1
GRIDFORMAT_BEGIN
 90
        0
 91
        1
 62
     0
 92
       -2
340
0
 93
        0
 40
0.045
309
GRIDFORMAT_END
 95
        2
302
GRIDFORMAT
  1
GRIDFORMAT_BEGIN
 90
        0
 91
        1
 62
     0
 92
       -2
340
0
 93
        0
 40
0.045
309
GRIDFORMAT_END
 95
        4
302
GRIDFORMAT
  1
GRIDFORMAT_BEGIN
 90
        0
 91
        1
 62
     0
 92
       -2
340
0
 93
        0
 40
0.045
309
GRIDFORMAT_END
 95
        8
302
GRIDFORMAT
  1
GRIDFORMAT_BEGIN
 90
        0
 91
        1
 62
     0
 92
       -2
340
0
 93
        0
 40
0.045
309
GRIDFORMAT_END
 95
       16
302
GRIDFORMAT
  1
GRIDFORMAT_BEGIN
 90
        0
 91
        1
 62
     0
 92
       -2
340
0
 93
        0
 40
0.045
309
GRIDFORMAT_END
 95
       32
302
GRIDFORMAT
  1
GRIDFORMAT_BEGIN
 90
        0
 91
        1
 62
     0
 92
       -2
340
0
 93
        0
 40
0.045
309
GRIDFORMAT_END
309
TABLEFORMAT_END
  1
CELLSTYLE_BEGIN
 90
        2
 91
        1
300
_HEADER
309
CELLSTYLE_END
300
CELLSTYLE
  1
TABLEFORMAT_BEGIN
 90
        5
170
     1
 91
        0
 92
        0
 62
   257
 93
        1
300
CONTENTFORMAT
  1
CONTENTFORMAT_BEGIN
 90
        0
 91
        0
 92
        4
 93
        0
300

 40
0.0
140
1.0
 94
        2
 62
     0
340
11
144
4.5
309
CONTENTFORMAT_END
171
     1
301
MARGIN
  1
CELLMARGIN_BEGIN
 40
1.5
 40
1.5
 40
1.5
 40
1.5
 40
0.18
 40
0.18
309
CELLMARGIN_END
 94
        6
 95
        1
302
GRIDFORMAT
  1
GRIDFORMAT_BEGIN
 90
        0
 91
        1
 62
     0
 92
       -2
340
0
 93
        0
 40
0.045
309
GRIDFORMAT_END
 95
        2
302
GRIDFORMAT
  1
GRIDFORMAT_BEGIN
 90
        0
 91
        1
 62
     0
 92
       -2
340
0
 93
        0
 40
0.045
309
GRIDFORMAT_END
 95
        4
302
GRIDFORMAT
  1
GRIDFORMAT_BEGIN
 90
        0
 91
        1
 62
     0
 92
       -2
340
0
 93
        0
 40
0.045
309
GRIDFORMAT_END
 95
        8
302
GRIDFORMAT
  1
GRIDFORMAT_BEGIN
 90
        0
 91
        1
 62
     0
 92
       -2
340
0
 93
        0
 40
0.045
309
GRIDFORMAT_END
 95
       16
302
GRIDFORMAT
  1
GRIDFORMAT_BEGIN
 90
        0
 91
        1
 62
     0
 92
       -2
340
0
 93
        0
 40
0.045
309
GRIDFORMAT_END
 95
       32
302
GRIDFORMAT
  1
GRIDFORMAT_BEGIN
 90
        0
 91
        1
 62
     0
 92
       -2
340
0
 93
        0
 40
0.045
309
GRIDFORMAT_END
309
TABLEFORMAT_END
  1
CELLSTYLE_BEGIN
 90
        3
 91
        2
300
_DATA
309
CELLSTYLE_END
  0
XRECORD
  5
6DE
102
{ACAD_REACTORS
330
65A
102
}
330
65A
100
AcDbXrecord
280
     1
102
ACAD_ROUNDTRIP_PRE2007_TABLESTYLE
 90
        4
 91
        0
  1

 92
        4
 93
        0
  2

 94
        4
 95
        0
  3

  0
XRECORD
  5
6B7
102
{ACAD_REACTORS
330
6B6
102
}
330
6B6
100
AcDbXrecord
280
     1
102
RTVSPost2010Prop28
280
     1
102
RTVSPost2010PropOp28
 70
     1
102
RTVSPost2010Prop29
280
     1
102
RTVSPost2010PropOp29
 70
     1
102
RTVSPost2010Prop30
280
     0
102
RTVSPost2010PropOp30
 70
     1
102
RTVSPost2010Prop31
280
     0
102
RTVSPost2010PropOp31
 70
     1
102
RTVSPost2010Prop32
280
     0
102
RTVSPost2010PropOp32
 70
     1
102
RTVSPost2010Prop33
280
     0
102
RTVSPost2010PropOp33
 70
     1
102
RTVSPost2010Prop34
280
     0
102
RTVSPost2010PropOp34
 70
     1
102
RTVSPost2010Prop35
280
     0
102
RTVSPost2010PropOp35
 70
     1
102
RTVSPost2010Prop36
280
     0
102
RTVSPost2010PropOp36
 70
     1
102
RTVSPost2010Prop37
 90
       50
102
RTVSPost2010PropOp37
 70
     1
102
RTVSPost2010Prop38
140
0.0
102
RTVSPost2010PropOp38
 70
     1
102
RTVSPost2010Prop39
140
1.0
102
RTVSPost2010PropOp39
 70
     1
102
RTVSPost2010Prop40
 90
        0
102
RTVSPost2010PropOp40
 70
     1
102
RTVSPost2010Prop41ColorIndex
 90
       18
102
RTVSPost2010Prop41ColorRGB
 90
        0
102
RTVSPost2010PropOp41
 70
     1
102
RTVSPost2010Prop42
 90
       50
102
RTVSPost2010PropOp42
 70
     1
102
RTVSPost2010Prop43
 90
        3
102
RTVSPost2010PropOp43
 70
     1
102
RTVSPost2010Prop44ColorIndex
 90
        5
102
RTVSPost2010Prop44ColorRGB
 90
      255
102
RTVSPost2010PropOp44
 70
     1
102
RTVSPost2010Prop45
280
     0
102
RTVSPost2010PropOp45
 70
     1
102
RTVSPost2010Prop46
 90
       50
102
RTVSPost2010PropOp46
 70
     1
102
RTVSPost2010Prop47
 90
       50
102
RTVSPost2010PropOp47
 70
     1
102
RTVSPost2010Prop48
 90
       50
102
RTVSPost2010PropOp48
 70
     1
102
RTVSPost2010Prop49
280
     0
102
RTVSPost2010PropOp49
 70
     1
102
RTVSPost2010Prop50
 90
       50
102
RTVSPost2010PropOp50
 70
     1
102
RTVSPost2010Prop51ColorIndex
 90
      256
102
RTVSPost2010Prop51ColorRGB
 90
-16777216
102
RTVSPost2010PropOp51
 70
     0
102
RTVSPost2010Prop52
140
1.0
102
RTVSPost2010PropOp52
 70
     0
102
RTVSPost2010Prop53
 90
        2
102
RTVSPost2010PropOp53
 70
     1
102
RTVSPost2010Prop54
  1
strokes_ogs.tif
102
RTVSPost2010PropOp54
 70
     1
102
RTVSPost2010Prop55
280
     0
102
RTVSPost2010PropOp55
 70
     1
102
RTVSPost2010Prop56
140
1.0
102
RTVSPost2010PropOp56
 70
     1
102
RTVSPost2010Prop57
140
1.0
102
RTVSPost2010PropOp57
 70
     1
102
RTVSPropertyOp0
 70
     1
102
RTVSPropertyOp1
 70
     1
102
RTVSPropertyOp2
 70
     1
102
RTVSPropertyOp3
 70
     1
102
RTVSPropertyOp4
 70
     1
102
RTVSPropertyOp5
 70
     1
102
RTVSPropertyOp6
 70
     1
102
RTVSPropertyOp7
 70
     1
102
RTVSPropertyOp8
 70
     1
102
RTVSPropertyOp9
 70
     1
102
RTVSPropertyOp10
 70
     1
102
RTVSPropertyOp11
 70
     1
102
RTVSPropertyOp12
 70
     1
102
RTVSPropertyOp13
 70
     1
102
RTVSPropertyOp14
 70
     1
102
RTVSPropertyOp15
 70
     1
102
RTVSPropertyOp16
 70
     1
102
RTVSPropertyOp17
 70
     1
102
RTVSPropertyOp18
 70
     1
102
RTVSPropertyOp19
 70
     1
102
RTVSPropertyOp20
 70
     1
102
RTVSPropertyOp21
 70
     1
102
RTVSPropertyOp22
 70
     1
102
RTVSPropertyOp23
 70
     1
102
RTVSPropertyOp24
 70
     1
102
RTVSPropertyOp25
 70
     1
102
RTVSPropertyOp26
 70
     1
102
RTVSPropertyOp27
 70
     1
102
RTVSPropertyOp28
 70
     1
102
RTVSPropertyOp29
 70
     1
102
RTVSPropertyOp30
 70
     1
102
RTVSPropertyOp31
 70
     1
102
RTVSPropertyOp32
 70
     1
102
RTVSPropertyOp33
 70
     1
102
RTVSPropertyOp34
 70
     1
102
RTVSPropertyOp35
 70
     1
102
RTVSPropertyOp36
 70
     1
102
RTVSPropertyOp37
 70
     1
102
RTVSPropertyOp38
 70
     1
102
RTVSPropertyOp39
 70
     1
102
RTVSPropertyOp40
 70
     1
102
RTVSPropertyOp41
 70
     1
102
RTVSPropertyOp42
 70
     1
102
RTVSPropertyOp43
 70
     1
102
RTVSPropertyOp44
 70
     1
102
RTVSPropertyOp45
 70
     1
102
RTVSPropertyOp46
 70
     1
102
RTVSPropertyOp47
 70
     1
102
RTVSPropertyOp48
 70
     1
102
RTVSPropertyOp49
 70
     1
102
RTVSPropertyOp50
 70
     1
102
RTVSPropertyOp51
 70
     0
102
RTVSPropertyOp52
 70
     0
102
RTVSPropertyOp53
 70
     1
102
RTVSPropertyOp54
 70
     1
102
RTVSPropertyOp55
 70
     1
102
RTVSPropertyOp56
 70
     1
102
RTVSPropertyOp57
 70
     1
102
RTVSPropertyOp58
 70
     1
102
RTVSPropertyOp59
 70
     1
102
RTVSPropertyOp60
 70
     1
102
RTVSPropertyOp61
 70
     1
102
RTVSPropertyOp62
 70
     1
  0
XRECORD
  5
6BD
102
{ACAD_REACTORS
330
6BC
102
}
330
6BC
100
AcDbXrecord
280
     1
102
RTVSPost2010Prop28
280
     0
102
RTVSPost2010PropOp28
 70
     1
102
RTVSPost2010Prop29
280
     1
102
RTVSPost2010PropOp29
 70
     1
102
RTVSPost2010Prop30
280
     1
102
RTVSPost2010PropOp30
 70
     1
102
RTVSPost2010Prop31
280
     0
102
RTVSPost2010PropOp31
 70
     1
102
RTVSPost2010Prop32
280
     0
102
RTVSPost2010PropOp32
 70
     1
102
RTVSPost2010Prop33
280
     0
102
RTVSPost2010PropOp33
 70
     1
102
RTVSPost2010Prop34
280
     0
102
RTVSPost2010PropOp34
 70
     1
102
RTVSPost2010Prop35
280
     0
102
RTVSPost2010PropOp35
 70
     1
102
RTVSPost2010Prop36
280
     0
102
RTVSPost2010PropOp36
 70
     1
102
RTVSPost2010Prop37
 90
       50
102
RTVSPost2010PropOp37
 70
     1
102
RTVSPost2010Prop38
140
0.0
102
RTVSPost2010PropOp38
 70
     1
102
RTVSPost2010Prop39
140
1.0
102
RTVSPost2010PropOp39
 70
     1
102
RTVSPost2010Prop40
 90
        0
102
RTVSPost2010PropOp40
 70
     1
102
RTVSPost2010Prop41ColorIndex
 90
       18
102
RTVSPost2010Prop41ColorRGB
 90
        0
102
RTVSPost2010PropOp41
 70
     1
102
RTVSPost2010Prop42
 90
       50
102
RTVSPost2010PropOp42
 70
     1
102
RTVSPost2010Prop43
 90
        3
102
RTVSPost2010PropOp43
 70
     1
102
RTVSPost2010Prop44ColorIndex
 90
        5
102
RTVSPost2010Prop44ColorRGB
 90
      255
102
RTVSPost2010PropOp44
 70
     1
102
RTVSPost2010Prop45
280
     0
102
RTVSPost2010PropOp45
 70
     1
102
RTVSPost2010Prop46
 90
       50
102
RTVSPost2010PropOp46
 70
     1
102
RTVSPost2010Prop47
 90
       50
102
RTVSPost2010PropOp47
 70
     1
102
RTVSPost2010Prop48
 90
       50
102
RTVSPost2010PropOp48
 70
     1
102
RTVSPost2010Prop49
280
     0
102
RTVSPost2010PropOp49
 70
     1
102
RTVSPost2010Prop50
 90
       50
102
RTVSPost2010PropOp50
 70
     1
102
RTVSPost2010Prop51ColorIndex
 90
      256
102
RTVSPost2010Prop51ColorRGB
 90
-16777216
102
RTVSPost2010PropOp51
 70
     0
102
RTVSPost2010Prop52
140
1.0
102
RTVSPost2010PropOp52
 70
     0
102
RTVSPost2010Prop53
 90
        2
102
RTVSPost2010PropOp53
 70
     1
102
RTVSPost2010Prop54
  1
strokes_ogs.tif
102
RTVSPost2010PropOp54
 70
     1
102
RTVSPost2010Prop55
280
     0
102
RTVSPost2010PropOp55
 70
     1
102
RTVSPost2010Prop56
140
1.0
102
RTVSPost2010PropOp56
 70
     1
102
RTVSPost2010Prop57
140
1.0
102
RTVSPost2010PropOp57
 70
     1
102
RTVSPropertyOp0
 70
     1
102
RTVSPropertyOp1
 70
     1
102
RTVSPropertyOp2
 70
     1
102
RTVSPropertyOp3
 70
     1
102
RTVSPropertyOp4
 70
     1
102
RTVSPropertyOp5
 70
     1
102
RTVSPropertyOp6
 70
     1
102
RTVSPropertyOp7
 70
     1
102
RTVSPropertyOp8
 70
     1
102
RTVSPropertyOp9
 70
     1
102
RTVSPropertyOp10
 70
     1
102
RTVSPropertyOp11
 70
     1
102
RTVSPropertyOp12
 70
     1
102
RTVSPropertyOp13
 70
     1
102
RTVSPropertyOp14
 70
     1
102
RTVSPropertyOp15
 70
     1
102
RTVSPropertyOp16
 70
     1
102
RTVSPropertyOp17
 70
     1
102
RTVSPropertyOp18
 70
     1
102
RTVSPropertyOp19
 70
     1
102
RTVSPropertyOp20
 70
     1
102
RTVSPropertyOp21
 70
     1
102
RTVSPropertyOp22
 70
     1
102
RTVSPropertyOp23
 70
     1
102
RTVSPropertyOp24
 70
     1
102
RTVSPropertyOp25
 70
     1
102
RTVSPropertyOp26
 70
     1
102
RTVSPropertyOp27
 70
     1
102
RTVSPropertyOp28
 70
     1
102
RTVSPropertyOp29
 70
     1
102
RTVSPropertyOp30
 70
     1
102
RTVSPropertyOp31
 70
     1
102
RTVSPropertyOp32
 70
     1
102
RTVSPropertyOp33
 70
     1
102
RTVSPropertyOp34
 70
     1
102
RTVSPropertyOp35
 70
     1
102
RTVSPropertyOp36
 70
     1
102
RTVSPropertyOp37
 70
     1
102
RTVSPropertyOp38
 70
     1
102
RTVSPropertyOp39
 70
     1
102
RTVSPropertyOp40
 70
     1
102
RTVSPropertyOp41
 70
     1
102
RTVSPropertyOp42
 70
     1
102
RTVSPropertyOp43
 70
     1
102
RTVSPropertyOp44
 70
     1
102
RTVSPropertyOp45
 70
     1
102
RTVSPropertyOp46
 70
     1
102
RTVSPropertyOp47
 70
     1
102
RTVSPropertyOp48
 70
     1
102
RTVSPropertyOp49
 70
     1
102
RTVSPropertyOp50
 70
     1
102
RTVSPropertyOp51
 70
     0
102
RTVSPropertyOp52
 70
     0
102
RTVSPropertyOp53
 70
     1
102
RTVSPropertyOp54
 70
     1
102
RTVSPropertyOp55
 70
     1
102
RTVSPropertyOp56
 70
     1
102
RTVSPropertyOp57
 70
     1
102
RTVSPropertyOp58
 70
     1
102
RTVSPropertyOp59
 70
     1
102
RTVSPropertyOp60
 70
     1
102
RTVSPropertyOp61
 70
     1
102
RTVSPropertyOp62
 70
     1
  0
XRECORD
  5
6C5
102
{ACAD_REACTORS
330
6C4
102
}
330
6C4
100
AcDbXrecord
280
     1
102
RTVSPost2010Prop28
280
     0
102
RTVSPost2010PropOp28
 70
     1
102
RTVSPost2010Prop29
280
     1
102
RTVSPost2010PropOp29
 70
     1
102
RTVSPost2010Prop30
280
     1
102
RTVSPost2010PropOp30
 70
     1
102
RTVSPost2010Prop31
280
     0
102
RTVSPost2010PropOp31
 70
     1
102
RTVSPost2010Prop32
280
     0
102
RTVSPost2010PropOp32
 70
     1
102
RTVSPost2010Prop33
280
     0
102
RTVSPost2010PropOp33
 70
     1
102
RTVSPost2010Prop34
280
     0
102
RTVSPost2010PropOp34
 70
     1
102
RTVSPost2010Prop35
280
     0
102
RTVSPost2010PropOp35
 70
     1
102
RTVSPost2010Prop36
280
     0
102
RTVSPost2010PropOp36
 70
     1
102
RTVSPost2010Prop37
 90
       50
102
RTVSPost2010PropOp37
 70
     1
102
RTVSPost2010Prop38
140
0.0
102
RTVSPost2010PropOp38
 70
     1
102
RTVSPost2010Prop39
140
1.0
102
RTVSPost2010PropOp39
 70
     1
102
RTVSPost2010Prop40
 90
        0
102
RTVSPost2010PropOp40
 70
     1
102
RTVSPost2010Prop41ColorIndex
 90
       18
102
RTVSPost2010Prop41ColorRGB
 90
        0
102
RTVSPost2010PropOp41
 70
     1
102
RTVSPost2010Prop42
 90
       50
102
RTVSPost2010PropOp42
 70
     1
102
RTVSPost2010Prop43
 90
        3
102
RTVSPost2010PropOp43
 70
     1
102
RTVSPost2010Prop44ColorIndex
 90
        5
102
RTVSPost2010Prop44ColorRGB
 90
      255
102
RTVSPost2010PropOp44
 70
     1
102
RTVSPost2010Prop45
280
     0
102
RTVSPost2010PropOp45
 70
     1
102
RTVSPost2010Prop46
 90
       50
102
RTVSPost2010PropOp46
 70
     1
102
RTVSPost2010Prop47
 90
       50
102
RTVSPost2010PropOp47
 70
     1
102
RTVSPost2010Prop48
 90
       50
102
RTVSPost2010PropOp48
 70
     1
102
RTVSPost2010Prop49
280
     0
102
RTVSPost2010PropOp49
 70
     1
102
RTVSPost2010Prop50
 90
       50
102
RTVSPost2010PropOp50
 70
     1
102
RTVSPost2010Prop51ColorIndex
 90
      256
102
RTVSPost2010Prop51ColorRGB
 90
-16777216
102
RTVSPost2010PropOp51
 70
     0
102
RTVSPost2010Prop52
140
1.0
102
RTVSPost2010PropOp52
 70
     0
102
RTVSPost2010Prop53
 90
        2
102
RTVSPost2010PropOp53
 70
     1
102
RTVSPost2010Prop54
  1
strokes_ogs.tif
102
RTVSPost2010PropOp54
 70
     1
102
RTVSPost2010Prop55
280
     0
102
RTVSPost2010PropOp55
 70
     1
102
RTVSPost2010Prop56
140
1.0
102
RTVSPost2010PropOp56
 70
     1
102
RTVSPost2010Prop57
140
1.0
102
RTVSPost2010PropOp57
 70
     1
102
RTVSPropertyOp0
 70
     1
102
RTVSPropertyOp1
 70
     1
102
RTVSPropertyOp2
 70
     1
102
RTVSPropertyOp3
 70
     1
102
RTVSPropertyOp4
 70
     1
102
RTVSPropertyOp5
 70
     1
102
RTVSPropertyOp6
 70
     1
102
RTVSPropertyOp7
 70
     1
102
RTVSPropertyOp8
 70
     1
102
RTVSPropertyOp9
 70
     1
102
RTVSPropertyOp10
 70
     1
102
RTVSPropertyOp11
 70
     1
102
RTVSPropertyOp12
 70
     1
102
RTVSPropertyOp13
 70
     1
102
RTVSPropertyOp14
 70
     1
102
RTVSPropertyOp15
 70
     1
102
RTVSPropertyOp16
 70
     1
102
RTVSPropertyOp17
 70
     1
102
RTVSPropertyOp18
 70
     1
102
RTVSPropertyOp19
 70
     1
102
RTVSPropertyOp20
 70
     1
102
RTVSPropertyOp21
 70
     1
102
RTVSPropertyOp22
 70
     1
102
RTVSPropertyOp23
 70
     1
102
RTVSPropertyOp24
 70
     1
102
RTVSPropertyOp25
 70
     1
102
RTVSPropertyOp26
 70
     1
102
RTVSPropertyOp27
 70
     1
102
RTVSPropertyOp28
 70
     1
102
RTVSPropertyOp29
 70
     1
102
RTVSPropertyOp30
 70
     1
102
RTVSPropertyOp31
 70
     1
102
RTVSPropertyOp32
 70
     1
102
RTVSPropertyOp33
 70
     1
102
RTVSPropertyOp34
 70
     1
102
RTVSPropertyOp35
 70
     1
102
RTVSPropertyOp36
 70
     1
102
RTVSPropertyOp37
 70
     1
102
RTVSPropertyOp38
 70
     1
102
RTVSPropertyOp39
 70
     1
102
RTVSPropertyOp40
 70
     1
102
RTVSPropertyOp41
 70
     1
102
RTVSPropertyOp42
 70
     1
102
RTVSPropertyOp43
 70
     1
102
RTVSPropertyOp44
 70
     1
102
RTVSPropertyOp45
 70
     1
102
RTVSPropertyOp46
 70
     1
102
RTVSPropertyOp47
 70
     1
102
RTVSPropertyOp48
 70
     1
102
RTVSPropertyOp49
 70
     1
102
RTVSPropertyOp50
 70
     1
102
RTVSPropertyOp51
 70
     0
102
RTVSPropertyOp52
 70
     0
102
RTVSPropertyOp53
 70
     1
102
RTVSPropertyOp54
 70
     1
102
RTVSPropertyOp55
 70
     1
102
RTVSPropertyOp56
 70
     1
102
RTVSPropertyOp57
 70
     1
102
RTVSPropertyOp58
 70
     1
102
RTVSPropertyOp59
 70
     1
102
RTVSPropertyOp60
 70
     1
102
RTVSPropertyOp61
 70
     1
102
RTVSPropertyOp62
 70
     1
  0
XRECORD
  5
6CD
102
{ACAD_REACTORS
330
6CC
102
}
330
6CC
100
AcDbXrecord
280
     1
102
RTVSPost2010Prop28
280
     0
102
RTVSPost2010PropOp28
 70
     1
102
RTVSPost2010Prop29
280
     1
102
RTVSPost2010PropOp29
 70
     1
102
RTVSPost2010Prop30
280
     1
102
RTVSPost2010PropOp30
 70
     1
102
RTVSPost2010Prop31
280
     0
102
RTVSPost2010PropOp31
 70
     1
102
RTVSPost2010Prop32
280
     0
102
RTVSPost2010PropOp32
 70
     1
102
RTVSPost2010Prop33
280
     0
102
RTVSPost2010PropOp33
 70
     1
102
RTVSPost2010Prop34
280
     0
102
RTVSPost2010PropOp34
 70
     1
102
RTVSPost2010Prop35
280
     0
102
RTVSPost2010PropOp35
 70
     1
102
RTVSPost2010Prop36
280
     0
102
RTVSPost2010PropOp36
 70
     1
102
RTVSPost2010Prop37
 90
       50
102
RTVSPost2010PropOp37
 70
     1
102
RTVSPost2010Prop38
140
0.0
102
RTVSPost2010PropOp38
 70
     1
102
RTVSPost2010Prop39
140
1.0
102
RTVSPost2010PropOp39
 70
     1
102
RTVSPost2010Prop40
 90
        0
102
RTVSPost2010PropOp40
 70
     1
102
RTVSPost2010Prop41ColorIndex
 90
       18
102
RTVSPost2010Prop41ColorRGB
 90
        0
102
RTVSPost2010PropOp41
 70
     1
102
RTVSPost2010Prop42
 90
       50
102
RTVSPost2010PropOp42
 70
     1
102
RTVSPost2010Prop43
 90
        3
102
RTVSPost2010PropOp43
 70
     1
102
RTVSPost2010Prop44ColorIndex
 90
        5
102
RTVSPost2010Prop44ColorRGB
 90
      255
102
RTVSPost2010PropOp44
 70
     1
102
RTVSPost2010Prop45
280
     0
102
RTVSPost2010PropOp45
 70
     1
102
RTVSPost2010Prop46
 90
       50
102
RTVSPost2010PropOp46
 70
     1
102
RTVSPost2010Prop47
 90
       50
102
RTVSPost2010PropOp47
 70
     1
102
RTVSPost2010Prop48
 90
       50
102
RTVSPost2010PropOp48
 70
     1
102
RTVSPost2010Prop49
280
     0
102
RTVSPost2010PropOp49
 70
     1
102
RTVSPost2010Prop50
 90
       50
102
RTVSPost2010PropOp50
 70
     1
102
RTVSPost2010Prop51ColorIndex
 90
      256
102
RTVSPost2010Prop51ColorRGB
 90
-16777216
102
RTVSPost2010PropOp51
 70
     0
102
RTVSPost2010Prop52
140
1.0
102
RTVSPost2010PropOp52
 70
     0
102
RTVSPost2010Prop53
 90
        2
102
RTVSPost2010PropOp53
 70
     1
102
RTVSPost2010Prop54
  1
strokes_ogs.tif
102
RTVSPost2010PropOp54
 70
     1
102
RTVSPost2010Prop55
280
     0
102
RTVSPost2010PropOp55
 70
     1
102
RTVSPost2010Prop56
140
1.0
102
RTVSPost2010PropOp56
 70
     1
102
RTVSPost2010Prop57
140
1.0
102
RTVSPost2010PropOp57
 70
     1
102
RTVSPropertyOp0
 70
     1
102
RTVSPropertyOp1
 70
     1
102
RTVSPropertyOp2
 70
     1
102
RTVSPropertyOp3
 70
     1
102
RTVSPropertyOp4
 70
     1
102
RTVSPropertyOp5
 70
     1
102
RTVSPropertyOp6
 70
     1
102
RTVSPropertyOp7
 70
     1
102
RTVSPropertyOp8
 70
     1
102
RTVSPropertyOp9
 70
     1
102
RTVSPropertyOp10
 70
     1
102
RTVSPropertyOp11
 70
     1
102
RTVSPropertyOp12
 70
     1
102
RTVSPropertyOp13
 70
     1
102
RTVSPropertyOp14
 70
     1
102
RTVSPropertyOp15
 70
     1
102
RTVSPropertyOp16
 70
     1
102
RTVSPropertyOp17
 70
     1
102
RTVSPropertyOp18
 70
     1
102
RTVSPropertyOp19
 70
     1
102
RTVSPropertyOp20
 70
     1
102
RTVSPropertyOp21
 70
     1
102
RTVSPropertyOp22
 70
     1
102
RTVSPropertyOp23
 70
     1
102
RTVSPropertyOp24
 70
     1
102
RTVSPropertyOp25
 70
     1
102
RTVSPropertyOp26
 70
     1
102
RTVSPropertyOp27
 70
     1
102
RTVSPropertyOp28
 70
     1
102
RTVSPropertyOp29
 70
     1
102
RTVSPropertyOp30
 70
     1
102
RTVSPropertyOp31
 70
     1
102
RTVSPropertyOp32
 70
     1
102
RTVSPropertyOp33
 70
     1
102
RTVSPropertyOp34
 70
     1
102
RTVSPropertyOp35
 70
     1
102
RTVSPropertyOp36
 70
     1
102
RTVSPropertyOp37
 70
     1
102
RTVSPropertyOp38
 70
     1
102
RTVSPropertyOp39
 70
     1
102
RTVSPropertyOp40
 70
     1
102
RTVSPropertyOp41
 70
     1
102
RTVSPropertyOp42
 70
     1
102
RTVSPropertyOp43
 70
     1
102
RTVSPropertyOp44
 70
     1
102
RTVSPropertyOp45
 70
     1
102
RTVSPropertyOp46
 70
     1
102
RTVSPropertyOp47
 70
     1
102
RTVSPropertyOp48
 70
     1
102
RTVSPropertyOp49
 70
     1
102
RTVSPropertyOp50
 70
     1
102
RTVSPropertyOp51
 70
     0
102
RTVSPropertyOp52
 70
     0
102
RTVSPropertyOp53
 70
     1
102
RTVSPropertyOp54
 70
     1
102
RTVSPropertyOp55
 70
     1
102
RTVSPropertyOp56
 70
     1
102
RTVSPropertyOp57
 70
     1
102
RTVSPropertyOp58
 70
     1
102
RTVSPropertyOp59
 70
     1
102
RTVSPropertyOp60
 70
     1
102
RTVSPropertyOp61
 70
     1
102
RTVSPropertyOp62
 70
     1
  0
XRECORD
  5
6C1
102
{ACAD_REACTORS
330
6C0
102
}
330
6C0
100
AcDbXrecord
280
     1
102
RTVSPost2010Prop28
280
     0
102
RTVSPost2010PropOp28
 70
     1
102
RTVSPost2010Prop29
280
     1
102
RTVSPost2010PropOp29
 70
     1
102
RTVSPost2010Prop30
280
     1
102
RTVSPost2010PropOp30
 70
     1
102
RTVSPost2010Prop31
280
     0
102
RTVSPost2010PropOp31
 70
     1
102
RTVSPost2010Prop32
280
     0
102
RTVSPost2010PropOp32
 70
     1
102
RTVSPost2010Prop33
280
     0
102
RTVSPost2010PropOp33
 70
     1
102
RTVSPost2010Prop34
280
     0
102
RTVSPost2010PropOp34
 70
     1
102
RTVSPost2010Prop35
280
     0
102
RTVSPost2010PropOp35
 70
     1
102
RTVSPost2010Prop36
280
     0
102
RTVSPost2010PropOp36
 70
     1
102
RTVSPost2010Prop37
 90
       50
102
RTVSPost2010PropOp37
 70
     1
102
RTVSPost2010Prop38
140
0.0
102
RTVSPost2010PropOp38
 70
     1
102
RTVSPost2010Prop39
140
1.0
102
RTVSPost2010PropOp39
 70
     1
102
RTVSPost2010Prop40
 90
        0
102
RTVSPost2010PropOp40
 70
     1
102
RTVSPost2010Prop41ColorIndex
 90
       18
102
RTVSPost2010Prop41ColorRGB
 90
        0
102
RTVSPost2010PropOp41
 70
     1
102
RTVSPost2010Prop42
 90
       50
102
RTVSPost2010PropOp42
 70
     1
102
RTVSPost2010Prop43
 90
        3
102
RTVSPost2010PropOp43
 70
     1
102
RTVSPost2010Prop44ColorIndex
 90
        5
102
RTVSPost2010Prop44ColorRGB
 90
      255
102
RTVSPost2010PropOp44
 70
     1
102
RTVSPost2010Prop45
280
     0
102
RTVSPost2010PropOp45
 70
     1
102
RTVSPost2010Prop46
 90
       50
102
RTVSPost2010PropOp46
 70
     1
102
RTVSPost2010Prop47
 90
       50
102
RTVSPost2010PropOp47
 70
     1
102
RTVSPost2010Prop48
 90
       50
102
RTVSPost2010PropOp48
 70
     1
102
RTVSPost2010Prop49
280
     0
102
RTVSPost2010PropOp49
 70
     1
102
RTVSPost2010Prop50
 90
       50
102
RTVSPost2010PropOp50
 70
     1
102
RTVSPost2010Prop51ColorIndex
 90
      256
102
RTVSPost2010Prop51ColorRGB
 90
-16777216
102
RTVSPost2010PropOp51
 70
     0
102
RTVSPost2010Prop52
140
1.0
102
RTVSPost2010PropOp52
 70
     0
102
RTVSPost2010Prop53
 90
        2
102
RTVSPost2010PropOp53
 70
     1
102
RTVSPost2010Prop54
  1
strokes_ogs.tif
102
RTVSPost2010PropOp54
 70
     1
102
RTVSPost2010Prop55
280
     0
102
RTVSPost2010PropOp55
 70
     1
102
RTVSPost2010Prop56
140
1.0
102
RTVSPost2010PropOp56
 70
     1
102
RTVSPost2010Prop57
140
1.0
102
RTVSPost2010PropOp57
 70
     1
102
RTVSPropertyOp0
 70
     1
102
RTVSPropertyOp1
 70
     1
102
RTVSPropertyOp2
 70
     1
102
RTVSPropertyOp3
 70
     1
102
RTVSPropertyOp4
 70
     1
102
RTVSPropertyOp5
 70
     1
102
RTVSPropertyOp6
 70
     1
102
RTVSPropertyOp7
 70
     1
102
RTVSPropertyOp8
 70
     1
102
RTVSPropertyOp9
 70
     1
102
RTVSPropertyOp10
 70
     1
102
RTVSPropertyOp11
 70
     1
102
RTVSPropertyOp12
 70
     1
102
RTVSPropertyOp13
 70
     1
102
RTVSPropertyOp14
 70
     1
102
RTVSPropertyOp15
 70
     1
102
RTVSPropertyOp16
 70
     1
102
RTVSPropertyOp17
 70
     1
102
RTVSPropertyOp18
 70
     1
102
RTVSPropertyOp19
 70
     1
102
RTVSPropertyOp20
 70
     1
102
RTVSPropertyOp21
 70
     1
102
RTVSPropertyOp22
 70
     1
102
RTVSPropertyOp23
 70
     1
102
RTVSPropertyOp24
 70
     1
102
RTVSPropertyOp25
 70
     1
102
RTVSPropertyOp26
 70
     1
102
RTVSPropertyOp27
 70
     1
102
RTVSPropertyOp28
 70
     1
102
RTVSPropertyOp29
 70
     1
102
RTVSPropertyOp30
 70
     1
102
RTVSPropertyOp31
 70
     1
102
RTVSPropertyOp32
 70
     1
102
RTVSPropertyOp33
 70
     1
102
RTVSPropertyOp34
 70
     1
102
RTVSPropertyOp35
 70
     1
102
RTVSPropertyOp36
 70
     1
102
RTVSPropertyOp37
 70
     1
102
RTVSPropertyOp38
 70
     1
102
RTVSPropertyOp39
 70
     1
102
RTVSPropertyOp40
 70
     1
102
RTVSPropertyOp41
 70
     1
102
RTVSPropertyOp42
 70
     1
102
RTVSPropertyOp43
 70
     1
102
RTVSPropertyOp44
 70
     1
102
RTVSPropertyOp45
 70
     1
102
RTVSPropertyOp46
 70
     1
102
RTVSPropertyOp47
 70
     1
102
RTVSPropertyOp48
 70
     1
102
RTVSPropertyOp49
 70
     1
102
RTVSPropertyOp50
 70
     1
102
RTVSPropertyOp51
 70
     0
102
RTVSPropertyOp52
 70
     0
102
RTVSPropertyOp53
 70
     1
102
RTVSPropertyOp54
 70
     1
102
RTVSPropertyOp55
 70
     1
102
RTVSPropertyOp56
 70
     1
102
RTVSPropertyOp57
 70
     1
102
RTVSPropertyOp58
 70
     1
102
RTVSPropertyOp59
 70
     1
102
RTVSPropertyOp60
 70
     1
102
RTVSPropertyOp61
 70
     1
102
RTVSPropertyOp62
 70
     1
  0
XRECORD
  5
6C3
102
{ACAD_REACTORS
330
6C2
102
}
330
6C2
100
AcDbXrecord
280
     1
102
RTVSPost2010Prop28
280
     0
102
RTVSPost2010PropOp28
 70
     1
102
RTVSPost2010Prop29
280
     1
102
RTVSPost2010PropOp29
 70
     1
102
RTVSPost2010Prop30
280
     1
102
RTVSPost2010PropOp30
 70
     1
102
RTVSPost2010Prop31
280
     0
102
RTVSPost2010PropOp31
 70
     1
102
RTVSPost2010Prop32
280
     0
102
RTVSPost2010PropOp32
 70
     1
102
RTVSPost2010Prop33
280
     0
102
RTVSPost2010PropOp33
 70
     1
102
RTVSPost2010Prop34
280
     0
102
RTVSPost2010PropOp34
 70
     1
102
RTVSPost2010Prop35
280
     0
102
RTVSPost2010PropOp35
 70
     1
102
RTVSPost2010Prop36
280
     0
102
RTVSPost2010PropOp36
 70
     1
102
RTVSPost2010Prop37
 90
       50
102
RTVSPost2010PropOp37
 70
     1
102
RTVSPost2010Prop38
140
0.0
102
RTVSPost2010PropOp38
 70
     1
102
RTVSPost2010Prop39
140
1.0
102
RTVSPost2010PropOp39
 70
     1
102
RTVSPost2010Prop40
 90
        0
102
RTVSPost2010PropOp40
 70
     1
102
RTVSPost2010Prop41ColorIndex
 90
       18
102
RTVSPost2010Prop41ColorRGB
 90
        0
102
RTVSPost2010PropOp41
 70
     1
102
RTVSPost2010Prop42
 90
       50
102
RTVSPost2010PropOp42
 70
     1
102
RTVSPost2010Prop43
 90
        3
102
RTVSPost2010PropOp43
 70
     1
102
RTVSPost2010Prop44ColorIndex
 90
        5
102
RTVSPost2010Prop44ColorRGB
 90
      255
102
RTVSPost2010PropOp44
 70
     1
102
RTVSPost2010Prop45
280
     0
102
RTVSPost2010PropOp45
 70
     1
102
RTVSPost2010Prop46
 90
       50
102
RTVSPost2010PropOp46
 70
     1
102
RTVSPost2010Prop47
 90
       50
102
RTVSPost2010PropOp47
 70
     1
102
RTVSPost2010Prop48
 90
       50
102
RTVSPost2010PropOp48
 70
     1
102
RTVSPost2010Prop49
280
     0
102
RTVSPost2010PropOp49
 70
     1
102
RTVSPost2010Prop50
 90
       50
102
RTVSPost2010PropOp50
 70
     1
102
RTVSPost2010Prop51ColorIndex
 90
      256
102
RTVSPost2010Prop51ColorRGB
 90
-16777216
102
RTVSPost2010PropOp51
 70
     0
102
RTVSPost2010Prop52
140
1.0
102
RTVSPost2010PropOp52
 70
     0
102
RTVSPost2010Prop53
 90
        2
102
RTVSPost2010PropOp53
 70
     1
102
RTVSPost2010Prop54
  1
strokes_ogs.tif
102
RTVSPost2010PropOp54
 70
     1
102
RTVSPost2010Prop55
280
     0
102
RTVSPost2010PropOp55
 70
     1
102
RTVSPost2010Prop56
140
1.0
102
RTVSPost2010PropOp56
 70
     1
102
RTVSPost2010Prop57
140
1.0
102
RTVSPost2010PropOp57
 70
     1
102
RTVSPropertyOp0
 70
     1
102
RTVSPropertyOp1
 70
     1
102
RTVSPropertyOp2
 70
     1
102
RTVSPropertyOp3
 70
     1
102
RTVSPropertyOp4
 70
     1
102
RTVSPropertyOp5
 70
     1
102
RTVSPropertyOp6
 70
     1
102
RTVSPropertyOp7
 70
     1
102
RTVSPropertyOp8
 70
     1
102
RTVSPropertyOp9
 70
     1
102
RTVSPropertyOp10
 70
     1
102
RTVSPropertyOp11
 70
     1
102
RTVSPropertyOp12
 70
     1
102
RTVSPropertyOp13
 70
     1
102
RTVSPropertyOp14
 70
     1
102
RTVSPropertyOp15
 70
     1
102
RTVSPropertyOp16
 70
     1
102
RTVSPropertyOp17
 70
     1
102
RTVSPropertyOp18
 70
     1
102
RTVSPropertyOp19
 70
     1
102
RTVSPropertyOp20
 70
     1
102
RTVSPropertyOp21
 70
     1
102
RTVSPropertyOp22
 70
     1
102
RTVSPropertyOp23
 70
     1
102
RTVSPropertyOp24
 70
     1
102
RTVSPropertyOp25
 70
     1
102
RTVSPropertyOp26
 70
     1
102
RTVSPropertyOp27
 70
     1
102
RTVSPropertyOp28
 70
     1
102
RTVSPropertyOp29
 70
     1
102
RTVSPropertyOp30
 70
     1
102
RTVSPropertyOp31
 70
     1
102
RTVSPropertyOp32
 70
     1
102
RTVSPropertyOp33
 70
     1
102
RTVSPropertyOp34
 70
     1
102
RTVSPropertyOp35
 70
     1
102
RTVSPropertyOp36
 70
     1
102
RTVSPropertyOp37
 70
     1
102
RTVSPropertyOp38
 70
     1
102
RTVSPropertyOp39
 70
     1
102
RTVSPropertyOp40
 70
     1
102
RTVSPropertyOp41
 70
     1
102
RTVSPropertyOp42
 70
     1
102
RTVSPropertyOp43
 70
     1
102
RTVSPropertyOp44
 70
     1
102
RTVSPropertyOp45
 70
     1
102
RTVSPropertyOp46
 70
     1
102
RTVSPropertyOp47
 70
     1
102
RTVSPropertyOp48
 70
     1
102
RTVSPropertyOp49
 70
     1
102
RTVSPropertyOp50
 70
     1
102
RTVSPropertyOp51
 70
     0
102
RTVSPropertyOp52
 70
     0
102
RTVSPropertyOp53
 70
     1
102
RTVSPropertyOp54
 70
     1
102
RTVSPropertyOp55
 70
     1
102
RTVSPropertyOp56
 70
     1
102
RTVSPropertyOp57
 70
     1
102
RTVSPropertyOp58
 70
     1
102
RTVSPropertyOp59
 70
     1
102
RTVSPropertyOp60
 70
     1
102
RTVSPropertyOp61
 70
     1
102
RTVSPropertyOp62
 70
     1
  0
XRECORD
  5
6D3
102
{ACAD_REACTORS
330
6D2
102
}
330
6D2
100
AcDbXrecord
280
     1
102
RTVSPost2010Prop28
280
     0
102
RTVSPost2010PropOp28
 70
     0
102
RTVSPost2010Prop29
280
     1
102
RTVSPost2010PropOp29
 70
     0
102
RTVSPost2010Prop30
280
     1
102
RTVSPost2010PropOp30
 70
     0
102
RTVSPost2010Prop31
280
     0
102
RTVSPost2010PropOp31
 70
     0
102
RTVSPost2010Prop32
280
     0
102
RTVSPost2010PropOp32
 70
     0
102
RTVSPost2010Prop33
280
     0
102
RTVSPost2010PropOp33
 70
     0
102
RTVSPost2010Prop34
280
     0
102
RTVSPost2010PropOp34
 70
     0
102
RTVSPost2010Prop35
280
     0
102
RTVSPost2010PropOp35
 70
     0
102
RTVSPost2010Prop36
280
     0
102
RTVSPost2010PropOp36
 70
     0
102
RTVSPost2010Prop37
 90
       50
102
RTVSPost2010PropOp37
 70
     0
102
RTVSPost2010Prop38
140
0.0
102
RTVSPost2010PropOp38
 70
     0
102
RTVSPost2010Prop39
140
1.0
102
RTVSPost2010PropOp39
 70
     0
102
RTVSPost2010Prop40
 90
        0
102
RTVSPost2010PropOp40
 70
     0
102
RTVSPost2010Prop41ColorIndex
 90
       18
102
RTVSPost2010Prop41ColorRGB
 90
        0
102
RTVSPost2010PropOp41
 70
     0
102
RTVSPost2010Prop42
 90
       50
102
RTVSPost2010PropOp42
 70
     0
102
RTVSPost2010Prop43
 90
        3
102
RTVSPost2010PropOp43
 70
     0
102
RTVSPost2010Prop44ColorIndex
 90
        5
102
RTVSPost2010Prop44ColorRGB
 90
      255
102
RTVSPost2010PropOp44
 70
     0
102
RTVSPost2010Prop45
280
     0
102
RTVSPost2010PropOp45
 70
     0
102
RTVSPost2010Prop46
 90
       50
102
RTVSPost2010PropOp46
 70
     0
102
RTVSPost2010Prop47
 90
       50
102
RTVSPost2010PropOp47
 70
     0
102
RTVSPost2010Prop48
 90
       50
102
RTVSPost2010PropOp48
 70
     0
102
RTVSPost2010Prop49
280
     0
102
RTVSPost2010PropOp49
 70
     0
102
RTVSPost2010Prop50
 90
       50
102
RTVSPost2010PropOp50
 70
     0
102
RTVSPost2010Prop51ColorIndex
 90
      256
102
RTVSPost2010Prop51ColorRGB
 90
-16777216
102
RTVSPost2010PropOp51
 70
     0
102
RTVSPost2010Prop52
140
1.0
102
RTVSPost2010PropOp52
 70
     0
102
RTVSPost2010Prop53
 90
        2
102
RTVSPost2010PropOp53
 70
     0
102
RTVSPost2010Prop54
  1
strokes_ogs.tif
102
RTVSPost2010PropOp54
 70
     0
102
RTVSPost2010Prop55
280
     0
102
RTVSPost2010PropOp55
 70
     0
102
RTVSPost2010Prop56
140
1.0
102
RTVSPost2010PropOp56
 70
     0
102
RTVSPost2010Prop57
140
1.0
102
RTVSPost2010PropOp57
 70
     0
102
RTVSPropertyOp0
 70
     0
102
RTVSPropertyOp1
 70
     0
102
RTVSPropertyOp2
 70
     0
102
RTVSPropertyOp3
 70
     0
102
RTVSPropertyOp4
 70
     0
102
RTVSPropertyOp5
 70
     0
102
RTVSPropertyOp6
 70
     0
102
RTVSPropertyOp7
 70
     0
102
RTVSPropertyOp8
 70
     0
102
RTVSPropertyOp9
 70
     0
102
RTVSPropertyOp10
 70
     0
102
RTVSPropertyOp11
 70
     0
102
RTVSPropertyOp12
 70
     0
102
RTVSPropertyOp13
 70
     0
102
RTVSPropertyOp14
 70
     2
102
RTVSPropertyOp15
 70
     0
102
RTVSPropertyOp16
 70
     0
102
RTVSPropertyOp17
 70
     0
102
RTVSPropertyOp18
 70
     0
102
RTVSPropertyOp19
 70
     0
102
RTVSPropertyOp20
 70
     0
102
RTVSPropertyOp21
 70
     0
102
RTVSPropertyOp22
 70
     0
102
RTVSPropertyOp23
 70
     0
102
RTVSPropertyOp24
 70
     0
102
RTVSPropertyOp25
 70
     0
102
RTVSPropertyOp26
 70
     0
102
RTVSPropertyOp27
 70
     0
102
RTVSPropertyOp28
 70
     0
102
RTVSPropertyOp29
 70
     0
102
RTVSPropertyOp30
 70
     0
102
RTVSPropertyOp31
 70
     0
102
RTVSPropertyOp32
 70
     0
102
RTVSPropertyOp33
 70
     0
102
RTVSPropertyOp34
 70
     0
102
RTVSPropertyOp35
 70
     0
102
RTVSPropertyOp36
 70
     0
102
RTVSPropertyOp37
 70
     0
102
RTVSPropertyOp38
 70
     0
102
RTVSPropertyOp39
 70
     0
102
RTVSPropertyOp40
 70
     0
102
RTVSPropertyOp41
 70
     0
102
RTVSPropertyOp42
 70
     0
102
RTVSPropertyOp43
 70
     0
102
RTVSPropertyOp44
 70
     0
102
RTVSPropertyOp45
 70
     0
102
RTVSPropertyOp46
 70
     0
102
RTVSPropertyOp47
 70
     0
102
RTVSPropertyOp48
 70
     0
102
RTVSPropertyOp49
 70
     0
102
RTVSPropertyOp50
 70
     0
102
RTVSPropertyOp51
 70
     0
102
RTVSPropertyOp52
 70
     0
102
RTVSPropertyOp53
 70
     0
102
RTVSPropertyOp54
 70
     0
102
RTVSPropertyOp55
 70
     0
102
RTVSPropertyOp56
 70
     0
102
RTVSPropertyOp57
 70
     0
102
RTVSPropertyOp58
 70
     1
102
RTVSPropertyOp59
 70
     1
102
RTVSPropertyOp60
 70
     1
102
RTVSPropertyOp61
 70
     1
102
RTVSPropertyOp62
 70
     1
  0
XRECORD
  5
6CB
102
{ACAD_REACTORS
330
6CA
102
}
330
6CA
100
AcDbXrecord
280
     1
102
RTVSPost2010Prop28
280
     0
102
RTVSPost2010PropOp28
 70
     1
102
RTVSPost2010Prop29
280
     1
102
RTVSPost2010PropOp29
 70
     1
102
RTVSPost2010Prop30
280
     1
102
RTVSPost2010PropOp30
 70
     1
102
RTVSPost2010Prop31
280
     0
102
RTVSPost2010PropOp31
 70
     1
102
RTVSPost2010Prop32
280
     0
102
RTVSPost2010PropOp32
 70
     1
102
RTVSPost2010Prop33
280
     0
102
RTVSPost2010PropOp33
 70
     1
102
RTVSPost2010Prop34
280
     0
102
RTVSPost2010PropOp34
 70
     1
102
RTVSPost2010Prop35
280
     0
102
RTVSPost2010PropOp35
 70
     1
102
RTVSPost2010Prop36
280
     0
102
RTVSPost2010PropOp36
 70
     1
102
RTVSPost2010Prop37
 90
       50
102
RTVSPost2010PropOp37
 70
     1
102
RTVSPost2010Prop38
140
0.0
102
RTVSPost2010PropOp38
 70
     1
102
RTVSPost2010Prop39
140
1.0
102
RTVSPost2010PropOp39
 70
     1
102
RTVSPost2010Prop40
 90
        0
102
RTVSPost2010PropOp40
 70
     1
102
RTVSPost2010Prop41ColorIndex
 90
       18
102
RTVSPost2010Prop41ColorRGB
 90
        0
102
RTVSPost2010PropOp41
 70
     1
102
RTVSPost2010Prop42
 90
       50
102
RTVSPost2010PropOp42
 70
     1
102
RTVSPost2010Prop43
 90
        3
102
RTVSPost2010PropOp43
 70
     1
102
RTVSPost2010Prop44ColorIndex
 90
        5
102
RTVSPost2010Prop44ColorRGB
 90
      255
102
RTVSPost2010PropOp44
 70
     1
102
RTVSPost2010Prop45
280
     0
102
RTVSPost2010PropOp45
 70
     1
102
RTVSPost2010Prop46
 90
       50
102
RTVSPost2010PropOp46
 70
     1
102
RTVSPost2010Prop47
 90
       50
102
RTVSPost2010PropOp47
 70
     1
102
RTVSPost2010Prop48
 90
       50
102
RTVSPost2010PropOp48
 70
     1
102
RTVSPost2010Prop49
280
     0
102
RTVSPost2010PropOp49
 70
     1
102
RTVSPost2010Prop50
 90
       50
102
RTVSPost2010PropOp50
 70
     1
102
RTVSPost2010Prop51ColorIndex
 90
      256
102
RTVSPost2010Prop51ColorRGB
 90
-16777216
102
RTVSPost2010PropOp51
 70
     0
102
RTVSPost2010Prop52
140
1.0
102
RTVSPost2010PropOp52
 70
     0
102
RTVSPost2010Prop53
 90
        2
102
RTVSPost2010PropOp53
 70
     1
102
RTVSPost2010Prop54
  1
strokes_ogs.tif
102
RTVSPost2010PropOp54
 70
     1
102
RTVSPost2010Prop55
280
     0
102
RTVSPost2010PropOp55
 70
     1
102
RTVSPost2010Prop56
140
1.0
102
RTVSPost2010PropOp56
 70
     1
102
RTVSPost2010Prop57
140
1.0
102
RTVSPost2010PropOp57
 70
     1
102
RTVSPropertyOp0
 70
     1
102
RTVSPropertyOp1
 70
     1
102
RTVSPropertyOp2
 70
     1
102
RTVSPropertyOp3
 70
     1
102
RTVSPropertyOp4
 70
     1
102
RTVSPropertyOp5
 70
     1
102
RTVSPropertyOp6
 70
     1
102
RTVSPropertyOp7
 70
     1
102
RTVSPropertyOp8
 70
     1
102
RTVSPropertyOp9
 70
     1
102
RTVSPropertyOp10
 70
     1
102
RTVSPropertyOp11
 70
     1
102
RTVSPropertyOp12
 70
     1
102
RTVSPropertyOp13
 70
     1
102
RTVSPropertyOp14
 70
     1
102
RTVSPropertyOp15
 70
     1
102
RTVSPropertyOp16
 70
     1
102
RTVSPropertyOp17
 70
     1
102
RTVSPropertyOp18
 70
     1
102
RTVSPropertyOp19
 70
     1
102
RTVSPropertyOp20
 70
     1
102
RTVSPropertyOp21
 70
     1
102
RTVSPropertyOp22
 70
     1
102
RTVSPropertyOp23
 70
     1
102
RTVSPropertyOp24
 70
     1
102
RTVSPropertyOp25
 70
     1
102
RTVSPropertyOp26
 70
     1
102
RTVSPropertyOp27
 70
     1
102
RTVSPropertyOp28
 70
     1
102
RTVSPropertyOp29
 70
     1
102
RTVSPropertyOp30
 70
     1
102
RTVSPropertyOp31
 70
     1
102
RTVSPropertyOp32
 70
     1
102
RTVSPropertyOp33
 70
     1
102
RTVSPropertyOp34
 70
     1
102
RTVSPropertyOp35
 70
     1
102
RTVSPropertyOp36
 70
     1
102
RTVSPropertyOp37
 70
     1
102
RTVSPropertyOp38
 70
     1
102
RTVSPropertyOp39
 70
     1
102
RTVSPropertyOp40
 70
     1
102
RTVSPropertyOp41
 70
     1
102
RTVSPropertyOp42
 70
     1
102
RTVSPropertyOp43
 70
     1
102
RTVSPropertyOp44
 70
     1
102
RTVSPropertyOp45
 70
     1
102
RTVSPropertyOp46
 70
     1
102
RTVSPropertyOp47
 70
     1
102
RTVSPropertyOp48
 70
     1
102
RTVSPropertyOp49
 70
     1
102
RTVSPropertyOp50
 70
     1
102
RTVSPropertyOp51
 70
     0
102
RTVSPropertyOp52
 70
     0
102
RTVSPropertyOp53
 70
     1
102
RTVSPropertyOp54
 70
     1
102
RTVSPropertyOp55
 70
     1
102
RTVSPropertyOp56
 70
     1
102
RTVSPropertyOp57
 70
     1
102
RTVSPropertyOp58
 70
     1
102
RTVSPropertyOp59
 70
     1
102
RTVSPropertyOp60
 70
     1
102
RTVSPropertyOp61
 70
     1
102
RTVSPropertyOp62
 70
     1
  0
XRECORD
  5
6AF
102
{ACAD_REACTORS
330
6AE
102
}
330
6AE
100
AcDbXrecord
280
     1
102
RTVSPost2010Prop28
280
     0
102
RTVSPost2010PropOp28
 70
     1
102
RTVSPost2010Prop29
280
     1
102
RTVSPost2010PropOp29
 70
     1
102
RTVSPost2010Prop30
280
     1
102
RTVSPost2010PropOp30
 70
     1
102
RTVSPost2010Prop31
280
     0
102
RTVSPost2010PropOp31
 70
     1
102
RTVSPost2010Prop32
280
     0
102
RTVSPost2010PropOp32
 70
     1
102
RTVSPost2010Prop33
280
     0
102
RTVSPost2010PropOp33
 70
     1
102
RTVSPost2010Prop34
280
     0
102
RTVSPost2010PropOp34
 70
     1
102
RTVSPost2010Prop35
280
     0
102
RTVSPost2010PropOp35
 70
     1
102
RTVSPost2010Prop36
280
     0
102
RTVSPost2010PropOp36
 70
     1
102
RTVSPost2010Prop37
 90
       50
102
RTVSPost2010PropOp37
 70
     1
102
RTVSPost2010Prop38
140
0.0
102
RTVSPost2010PropOp38
 70
     1
102
RTVSPost2010Prop39
140
1.0
102
RTVSPost2010PropOp39
 70
     1
102
RTVSPost2010Prop40
 90
        0
102
RTVSPost2010PropOp40
 70
     1
102
RTVSPost2010Prop41ColorIndex
 90
       18
102
RTVSPost2010Prop41ColorRGB
 90
        0
102
RTVSPost2010PropOp41
 70
     1
102
RTVSPost2010Prop42
 90
       50
102
RTVSPost2010PropOp42
 70
     1
102
RTVSPost2010Prop43
 90
        3
102
RTVSPost2010PropOp43
 70
     1
102
RTVSPost2010Prop44ColorIndex
 90
        5
102
RTVSPost2010Prop44ColorRGB
 90
      255
102
RTVSPost2010PropOp44
 70
     1
102
RTVSPost2010Prop45
280
     0
102
RTVSPost2010PropOp45
 70
     1
102
RTVSPost2010Prop46
 90
       50
102
RTVSPost2010PropOp46
 70
     1
102
RTVSPost2010Prop47
 90
       50
102
RTVSPost2010PropOp47
 70
     1
102
RTVSPost2010Prop48
 90
       50
102
RTVSPost2010PropOp48
 70
     1
102
RTVSPost2010Prop49
280
     0
102
RTVSPost2010PropOp49
 70
     1
102
RTVSPost2010Prop50
 90
       50
102
RTVSPost2010PropOp50
 70
     1
102
RTVSPost2010Prop51ColorIndex
 90
      256
102
RTVSPost2010Prop51ColorRGB
 90
-16777216
102
RTVSPost2010PropOp51
 70
     0
102
RTVSPost2010Prop52
140
1.0
102
RTVSPost2010PropOp52
 70
     0
102
RTVSPost2010Prop53
 90
        2
102
RTVSPost2010PropOp53
 70
     1
102
RTVSPost2010Prop54
  1
strokes_ogs.tif
102
RTVSPost2010PropOp54
 70
     1
102
RTVSPost2010Prop55
280
     0
102
RTVSPost2010PropOp55
 70
     1
102
RTVSPost2010Prop56
140
1.0
102
RTVSPost2010PropOp56
 70
     1
102
RTVSPost2010Prop57
140
1.0
102
RTVSPost2010PropOp57
 70
     1
102
RTVSPropertyOp0
 70
     1
102
RTVSPropertyOp1
 70
     1
102
RTVSPropertyOp2
 70
     1
102
RTVSPropertyOp3
 70
     1
102
RTVSPropertyOp4
 70
     1
102
RTVSPropertyOp5
 70
     1
102
RTVSPropertyOp6
 70
     1
102
RTVSPropertyOp7
 70
     1
102
RTVSPropertyOp8
 70
     1
102
RTVSPropertyOp9
 70
     1
102
RTVSPropertyOp10
 70
     1
102
RTVSPropertyOp11
 70
     1
102
RTVSPropertyOp12
 70
     1
102
RTVSPropertyOp13
 70
     1
102
RTVSPropertyOp14
 70
     1
102
RTVSPropertyOp15
 70
     1
102
RTVSPropertyOp16
 70
     1
102
RTVSPropertyOp17
 70
     1
102
RTVSPropertyOp18
 70
     1
102
RTVSPropertyOp19
 70
     1
102
RTVSPropertyOp20
 70
     1
102
RTVSPropertyOp21
 70
     1
102
RTVSPropertyOp22
 70
     1
102
RTVSPropertyOp23
 70
     1
102
RTVSPropertyOp24
 70
     1
102
RTVSPropertyOp25
 70
     1
102
RTVSPropertyOp26
 70
     1
102
RTVSPropertyOp27
 70
     1
102
RTVSPropertyOp28
 70
     1
102
RTVSPropertyOp29
 70
     1
102
RTVSPropertyOp30
 70
     1
102
RTVSPropertyOp31
 70
     1
102
RTVSPropertyOp32
 70
     1
102
RTVSPropertyOp33
 70
     1
102
RTVSPropertyOp34
 70
     1
102
RTVSPropertyOp35
 70
     1
102
RTVSPropertyOp36
 70
     1
102
RTVSPropertyOp37
 70
     1
102
RTVSPropertyOp38
 70
     1
102
RTVSPropertyOp39
 70
     1
102
RTVSPropertyOp40
 70
     1
102
RTVSPropertyOp41
 70
     1
102
RTVSPropertyOp42
 70
     1
102
RTVSPropertyOp43
 70
     1
102
RTVSPropertyOp44
 70
     1
102
RTVSPropertyOp45
 70
     1
102
RTVSPropertyOp46
 70
     1
102
RTVSPropertyOp47
 70
     1
102
RTVSPropertyOp48
 70
     1
102
RTVSPropertyOp49
 70
     1
102
RTVSPropertyOp50
 70
     1
102
RTVSPropertyOp51
 70
     0
102
RTVSPropertyOp52
 70
     0
102
RTVSPropertyOp53
 70
     1
102
RTVSPropertyOp54
 70
     1
102
RTVSPropertyOp55
 70
     1
102
RTVSPropertyOp56
 70
     1
102
RTVSPropertyOp57
 70
     1
102
RTVSPropertyOp58
 70
     1
102
RTVSPropertyOp59
 70
     1
102
RTVSPropertyOp60
 70
     1
102
RTVSPropertyOp61
 70
     1
102
RTVSPropertyOp62
 70
     1
  0
XRECORD
  5
6B1
102
{ACAD_REACTORS
330
6B0
102
}
330
6B0
100
AcDbXrecord
280
     1
102
RTVSPost2010Prop28
280
     0
102
RTVSPost2010PropOp28
 70
     1
102
RTVSPost2010Prop29
280
     1
102
RTVSPost2010PropOp29
 70
     1
102
RTVSPost2010Prop30
280
     1
102
RTVSPost2010PropOp30
 70
     1
102
RTVSPost2010Prop31
280
     0
102
RTVSPost2010PropOp31
 70
     1
102
RTVSPost2010Prop32
280
     0
102
RTVSPost2010PropOp32
 70
     1
102
RTVSPost2010Prop33
280
     0
102
RTVSPost2010PropOp33
 70
     1
102
RTVSPost2010Prop34
280
     0
102
RTVSPost2010PropOp34
 70
     1
102
RTVSPost2010Prop35
280
     0
102
RTVSPost2010PropOp35
 70
     1
102
RTVSPost2010Prop36
280
     0
102
RTVSPost2010PropOp36
 70
     1
102
RTVSPost2010Prop37
 90
       50
102
RTVSPost2010PropOp37
 70
     1
102
RTVSPost2010Prop38
140
0.0
102
RTVSPost2010PropOp38
 70
     1
102
RTVSPost2010Prop39
140
1.0
102
RTVSPost2010PropOp39
 70
     1
102
RTVSPost2010Prop40
 90
        0
102
RTVSPost2010PropOp40
 70
     1
102
RTVSPost2010Prop41ColorIndex
 90
       18
102
RTVSPost2010Prop41ColorRGB
 90
        0
102
RTVSPost2010PropOp41
 70
     1
102
RTVSPost2010Prop42
 90
       50
102
RTVSPost2010PropOp42
 70
     1
102
RTVSPost2010Prop43
 90
        3
102
RTVSPost2010PropOp43
 70
     1
102
RTVSPost2010Prop44ColorIndex
 90
        5
102
RTVSPost2010Prop44ColorRGB
 90
      255
102
RTVSPost2010PropOp44
 70
     1
102
RTVSPost2010Prop45
280
     0
102
RTVSPost2010PropOp45
 70
     1
102
RTVSPost2010Prop46
 90
       50
102
RTVSPost2010PropOp46
 70
     1
102
RTVSPost2010Prop47
 90
       50
102
RTVSPost2010PropOp47
 70
     1
102
RTVSPost2010Prop48
 90
       50
102
RTVSPost2010PropOp48
 70
     1
102
RTVSPost2010Prop49
280
     0
102
RTVSPost2010PropOp49
 70
     1
102
RTVSPost2010Prop50
 90
       50
102
RTVSPost2010PropOp50
 70
     1
102
RTVSPost2010Prop51ColorIndex
 90
      256
102
RTVSPost2010Prop51ColorRGB
 90
-16777216
102
RTVSPost2010PropOp51
 70
     0
102
RTVSPost2010Prop52
140
1.0
102
RTVSPost2010PropOp52
 70
     0
102
RTVSPost2010Prop53
 90
        2
102
RTVSPost2010PropOp53
 70
     1
102
RTVSPost2010Prop54
  1
strokes_ogs.tif
102
RTVSPost2010PropOp54
 70
     1
102
RTVSPost2010Prop55
280
     0
102
RTVSPost2010PropOp55
 70
     1
102
RTVSPost2010Prop56
140
1.0
102
RTVSPost2010PropOp56
 70
     1
102
RTVSPost2010Prop57
140
1.0
102
RTVSPost2010PropOp57
 70
     1
102
RTVSPropertyOp0
 70
     1
102
RTVSPropertyOp1
 70
     1
102
RTVSPropertyOp2
 70
     1
102
RTVSPropertyOp3
 70
     1
102
RTVSPropertyOp4
 70
     1
102
RTVSPropertyOp5
 70
     1
102
RTVSPropertyOp6
 70
     1
102
RTVSPropertyOp7
 70
     1
102
RTVSPropertyOp8
 70
     1
102
RTVSPropertyOp9
 70
     1
102
RTVSPropertyOp10
 70
     1
102
RTVSPropertyOp11
 70
     1
102
RTVSPropertyOp12
 70
     1
102
RTVSPropertyOp13
 70
     1
102
RTVSPropertyOp14
 70
     1
102
RTVSPropertyOp15
 70
     1
102
RTVSPropertyOp16
 70
     1
102
RTVSPropertyOp17
 70
     1
102
RTVSPropertyOp18
 70
     1
102
RTVSPropertyOp19
 70
     1
102
RTVSPropertyOp20
 70
     1
102
RTVSPropertyOp21
 70
     1
102
RTVSPropertyOp22
 70
     1
102
RTVSPropertyOp23
 70
     1
102
RTVSPropertyOp24
 70
     1
102
RTVSPropertyOp25
 70
     1
102
RTVSPropertyOp26
 70
     1
102
RTVSPropertyOp27
 70
     1
102
RTVSPropertyOp28
 70
     1
102
RTVSPropertyOp29
 70
     1
102
RTVSPropertyOp30
 70
     1
102
RTVSPropertyOp31
 70
     1
102
RTVSPropertyOp32
 70
     1
102
RTVSPropertyOp33
 70
     1
102
RTVSPropertyOp34
 70
     1
102
RTVSPropertyOp35
 70
     1
102
RTVSPropertyOp36
 70
     1
102
RTVSPropertyOp37
 70
     1
102
RTVSPropertyOp38
 70
     1
102
RTVSPropertyOp39
 70
     1
102
RTVSPropertyOp40
 70
     1
102
RTVSPropertyOp41
 70
     1
102
RTVSPropertyOp42
 70
     1
102
RTVSPropertyOp43
 70
     1
102
RTVSPropertyOp44
 70
     1
102
RTVSPropertyOp45
 70
     1
102
RTVSPropertyOp46
 70
     1
102
RTVSPropertyOp47
 70
     1
102
RTVSPropertyOp48
 70
     1
102
RTVSPropertyOp49
 70
     1
102
RTVSPropertyOp50
 70
     1
102
RTVSPropertyOp51
 70
     0
102
RTVSPropertyOp52
 70
     0
102
RTVSPropertyOp53
 70
     1
102
RTVSPropertyOp54
 70
     1
102
RTVSPropertyOp55
 70
     1
102
RTVSPropertyOp56
 70
     1
102
RTVSPropertyOp57
 70
     1
102
RTVSPropertyOp58
 70
     1
102
RTVSPropertyOp59
 70
     1
102
RTVSPropertyOp60
 70
     1
102
RTVSPropertyOp61
 70
     1
102
RTVSPropertyOp62
 70
     1
  0
XRECORD
  5
6B3
102
{ACAD_REACTORS
330
6B2
102
}
330
6B2
100
AcDbXrecord
280
     1
102
RTVSPost2010Prop28
280
     0
102
RTVSPost2010PropOp28
 70
     1
102
RTVSPost2010Prop29
280
     1
102
RTVSPost2010PropOp29
 70
     1
102
RTVSPost2010Prop30
280
     1
102
RTVSPost2010PropOp30
 70
     1
102
RTVSPost2010Prop31
280
     0
102
RTVSPost2010PropOp31
 70
     1
102
RTVSPost2010Prop32
280
     0
102
RTVSPost2010PropOp32
 70
     1
102
RTVSPost2010Prop33
280
     0
102
RTVSPost2010PropOp33
 70
     1
102
RTVSPost2010Prop34
280
     0
102
RTVSPost2010PropOp34
 70
     1
102
RTVSPost2010Prop35
280
     0
102
RTVSPost2010PropOp35
 70
     1
102
RTVSPost2010Prop36
280
     0
102
RTVSPost2010PropOp36
 70
     1
102
RTVSPost2010Prop37
 90
       50
102
RTVSPost2010PropOp37
 70
     1
102
RTVSPost2010Prop38
140
0.0
102
RTVSPost2010PropOp38
 70
     1
102
RTVSPost2010Prop39
140
1.0
102
RTVSPost2010PropOp39
 70
     1
102
RTVSPost2010Prop40
 90
        0
102
RTVSPost2010PropOp40
 70
     1
102
RTVSPost2010Prop41ColorIndex
 90
       18
102
RTVSPost2010Prop41ColorRGB
 90
        0
102
RTVSPost2010PropOp41
 70
     1
102
RTVSPost2010Prop42
 90
       50
102
RTVSPost2010PropOp42
 70
     1
102
RTVSPost2010Prop43
 90
        3
102
RTVSPost2010PropOp43
 70
     1
102
RTVSPost2010Prop44ColorIndex
 90
        5
102
RTVSPost2010Prop44ColorRGB
 90
      255
102
RTVSPost2010PropOp44
 70
     1
102
RTVSPost2010Prop45
280
     0
102
RTVSPost2010PropOp45
 70
     1
102
RTVSPost2010Prop46
 90
       50
102
RTVSPost2010PropOp46
 70
     1
102
RTVSPost2010Prop47
 90
       50
102
RTVSPost2010PropOp47
 70
     1
102
RTVSPost2010Prop48
 90
       50
102
RTVSPost2010PropOp48
 70
     1
102
RTVSPost2010Prop49
280
     0
102
RTVSPost2010PropOp49
 70
     1
102
RTVSPost2010Prop50
 90
       50
102
RTVSPost2010PropOp50
 70
     1
102
RTVSPost2010Prop51ColorIndex
 90
      256
102
RTVSPost2010Prop51ColorRGB
 90
-16777216
102
RTVSPost2010PropOp51
 70
     0
102
RTVSPost2010Prop52
140
1.0
102
RTVSPost2010PropOp52
 70
     0
102
RTVSPost2010Prop53
 90
        2
102
RTVSPost2010PropOp53
 70
     1
102
RTVSPost2010Prop54
  1
strokes_ogs.tif
102
RTVSPost2010PropOp54
 70
     1
102
RTVSPost2010Prop55
280
     0
102
RTVSPost2010PropOp55
 70
     1
102
RTVSPost2010Prop56
140
1.0
102
RTVSPost2010PropOp56
 70
     1
102
RTVSPost2010Prop57
140
1.0
102
RTVSPost2010PropOp57
 70
     1
102
RTVSPropertyOp0
 70
     1
102
RTVSPropertyOp1
 70
     1
102
RTVSPropertyOp2
 70
     1
102
RTVSPropertyOp3
 70
     1
102
RTVSPropertyOp4
 70
     1
102
RTVSPropertyOp5
 70
     1
102
RTVSPropertyOp6
 70
     1
102
RTVSPropertyOp7
 70
     1
102
RTVSPropertyOp8
 70
     1
102
RTVSPropertyOp9
 70
     1
102
RTVSPropertyOp10
 70
     1
102
RTVSPropertyOp11
 70
     1
102
RTVSPropertyOp12
 70
     1
102
RTVSPropertyOp13
 70
     1
102
RTVSPropertyOp14
 70
     1
102
RTVSPropertyOp15
 70
     1
102
RTVSPropertyOp16
 70
     1
102
RTVSPropertyOp17
 70
     1
102
RTVSPropertyOp18
 70
     1
102
RTVSPropertyOp19
 70
     1
102
RTVSPropertyOp20
 70
     1
102
RTVSPropertyOp21
 70
     1
102
RTVSPropertyOp22
 70
     1
102
RTVSPropertyOp23
 70
     1
102
RTVSPropertyOp24
 70
     1
102
RTVSPropertyOp25
 70
     1
102
RTVSPropertyOp26
 70
     1
102
RTVSPropertyOp27
 70
     1
102
RTVSPropertyOp28
 70
     1
102
RTVSPropertyOp29
 70
     1
102
RTVSPropertyOp30
 70
     1
102
RTVSPropertyOp31
 70
     1
102
RTVSPropertyOp32
 70
     1
102
RTVSPropertyOp33
 70
     1
102
RTVSPropertyOp34
 70
     1
102
RTVSPropertyOp35
 70
     1
102
RTVSPropertyOp36
 70
     1
102
RTVSPropertyOp37
 70
     1
102
RTVSPropertyOp38
 70
     1
102
RTVSPropertyOp39
 70
     1
102
RTVSPropertyOp40
 70
     1
102
RTVSPropertyOp41
 70
     1
102
RTVSPropertyOp42
 70
     1
102
RTVSPropertyOp43
 70
     1
102
RTVSPropertyOp44
 70
     1
102
RTVSPropertyOp45
 70
     1
102
RTVSPropertyOp46
 70
     1
102
RTVSPropertyOp47
 70
     1
102
RTVSPropertyOp48
 70
     1
102
RTVSPropertyOp49
 70
     1
102
RTVSPropertyOp50
 70
     1
102
RTVSPropertyOp51
 70
     0
102
RTVSPropertyOp52
 70
     0
102
RTVSPropertyOp53
 70
     1
102
RTVSPropertyOp54
 70
     1
102
RTVSPropertyOp55
 70
     1
102
RTVSPropertyOp56
 70
     1
102
RTVSPropertyOp57
 70
     1
102
RTVSPropertyOp58
 70
     1
102
RTVSPropertyOp59
 70
     1
102
RTVSPropertyOp60
 70
     1
102
RTVSPropertyOp61
 70
     1
102
RTVSPropertyOp62
 70
     1
  0
XRECORD
  5
6B5
102
{ACAD_REACTORS
330
6B4
102
}
330
6B4
100
AcDbXrecord
280
     1
102
RTVSPost2010Prop28
280
     0
102
RTVSPost2010PropOp28
 70
     1
102
RTVSPost2010Prop29
280
     1
102
RTVSPost2010PropOp29
 70
     1
102
RTVSPost2010Prop30
280
     1
102
RTVSPost2010PropOp30
 70
     1
102
RTVSPost2010Prop31
280
     0
102
RTVSPost2010PropOp31
 70
     1
102
RTVSPost2010Prop32
280
     0
102
RTVSPost2010PropOp32
 70
     1
102
RTVSPost2010Prop33
280
     0
102
RTVSPost2010PropOp33
 70
     1
102
RTVSPost2010Prop34
280
     0
102
RTVSPost2010PropOp34
 70
     1
102
RTVSPost2010Prop35
280
     0
102
RTVSPost2010PropOp35
 70
     1
102
RTVSPost2010Prop36
280
     0
102
RTVSPost2010PropOp36
 70
     1
102
RTVSPost2010Prop37
 90
       50
102
RTVSPost2010PropOp37
 70
     1
102
RTVSPost2010Prop38
140
0.0
102
RTVSPost2010PropOp38
 70
     1
102
RTVSPost2010Prop39
140
1.0
102
RTVSPost2010PropOp39
 70
     1
102
RTVSPost2010Prop40
 90
        0
102
RTVSPost2010PropOp40
 70
     1
102
RTVSPost2010Prop41ColorIndex
 90
       18
102
RTVSPost2010Prop41ColorRGB
 90
        0
102
RTVSPost2010PropOp41
 70
     1
102
RTVSPost2010Prop42
 90
       50
102
RTVSPost2010PropOp42
 70
     1
102
RTVSPost2010Prop43
 90
        3
102
RTVSPost2010PropOp43
 70
     1
102
RTVSPost2010Prop44ColorIndex
 90
        5
102
RTVSPost2010Prop44ColorRGB
 90
      255
102
RTVSPost2010PropOp44
 70
     1
102
RTVSPost2010Prop45
280
     0
102
RTVSPost2010PropOp45
 70
     1
102
RTVSPost2010Prop46
 90
       50
102
RTVSPost2010PropOp46
 70
     1
102
RTVSPost2010Prop47
 90
       50
102
RTVSPost2010PropOp47
 70
     1
102
RTVSPost2010Prop48
 90
       50
102
RTVSPost2010PropOp48
 70
     1
102
RTVSPost2010Prop49
280
     0
102
RTVSPost2010PropOp49
 70
     1
102
RTVSPost2010Prop50
 90
       50
102
RTVSPost2010PropOp50
 70
     1
102
RTVSPost2010Prop51ColorIndex
 90
      256
102
RTVSPost2010Prop51ColorRGB
 90
-16777216
102
RTVSPost2010PropOp51
 70
     0
102
RTVSPost2010Prop52
140
1.0
102
RTVSPost2010PropOp52
 70
     0
102
RTVSPost2010Prop53
 90
        2
102
RTVSPost2010PropOp53
 70
     1
102
RTVSPost2010Prop54
  1
strokes_ogs.tif
102
RTVSPost2010PropOp54
 70
     1
102
RTVSPost2010Prop55
280
     0
102
RTVSPost2010PropOp55
 70
     1
102
RTVSPost2010Prop56
140
1.0
102
RTVSPost2010PropOp56
 70
     1
102
RTVSPost2010Prop57
140
1.0
102
RTVSPost2010PropOp57
 70
     1
102
RTVSPropertyOp0
 70
     1
102
RTVSPropertyOp1
 70
     1
102
RTVSPropertyOp2
 70
     1
102
RTVSPropertyOp3
 70
     1
102
RTVSPropertyOp4
 70
     1
102
RTVSPropertyOp5
 70
     1
102
RTVSPropertyOp6
 70
     1
102
RTVSPropertyOp7
 70
     1
102
RTVSPropertyOp8
 70
     1
102
RTVSPropertyOp9
 70
     1
102
RTVSPropertyOp10
 70
     1
102
RTVSPropertyOp11
 70
     1
102
RTVSPropertyOp12
 70
     1
102
RTVSPropertyOp13
 70
     1
102
RTVSPropertyOp14
 70
     1
102
RTVSPropertyOp15
 70
     1
102
RTVSPropertyOp16
 70
     1
102
RTVSPropertyOp17
 70
     1
102
RTVSPropertyOp18
 70
     1
102
RTVSPropertyOp19
 70
     1
102
RTVSPropertyOp20
 70
     1
102
RTVSPropertyOp21
 70
     1
102
RTVSPropertyOp22
 70
     1
102
RTVSPropertyOp23
 70
     1
102
RTVSPropertyOp24
 70
     1
102
RTVSPropertyOp25
 70
     1
102
RTVSPropertyOp26
 70
     1
102
RTVSPropertyOp27
 70
     1
102
RTVSPropertyOp28
 70
     1
102
RTVSPropertyOp29
 70
     1
102
RTVSPropertyOp30
 70
     1
102
RTVSPropertyOp31
 70
     1
102
RTVSPropertyOp32
 70
     1
102
RTVSPropertyOp33
 70
     1
102
RTVSPropertyOp34
 70
     1
102
RTVSPropertyOp35
 70
     1
102
RTVSPropertyOp36
 70
     1
102
RTVSPropertyOp37
 70
     1
102
RTVSPropertyOp38
 70
     1
102
RTVSPropertyOp39
 70
     1
102
RTVSPropertyOp40
 70
     1
102
RTVSPropertyOp41
 70
     1
102
RTVSPropertyOp42
 70
     1
102
RTVSPropertyOp43
 70
     1
102
RTVSPropertyOp44
 70
     1
102
RTVSPropertyOp45
 70
     1
102
RTVSPropertyOp46
 70
     1
102
RTVSPropertyOp47
 70
     1
102
RTVSPropertyOp48
 70
     1
102
RTVSPropertyOp49
 70
     1
102
RTVSPropertyOp50
 70
     1
102
RTVSPropertyOp51
 70
     0
102
RTVSPropertyOp52
 70
     0
102
RTVSPropertyOp53
 70
     1
102
RTVSPropertyOp54
 70
     1
102
RTVSPropertyOp55
 70
     1
102
RTVSPropertyOp56
 70
     1
102
RTVSPropertyOp57
 70
     1
102
RTVSPropertyOp58
 70
     1
102
RTVSPropertyOp59
 70
     1
102
RTVSPropertyOp60
 70
     1
102
RTVSPropertyOp61
 70
     1
102
RTVSPropertyOp62
 70
     1
  0
XRECORD
  5
6BB
102
{ACAD_REACTORS
330
6BA
102
}
330
6BA
100
AcDbXrecord
280
     1
102
RTVSPost2010Prop28
280
     0
102
RTVSPost2010PropOp28
 70
     1
102
RTVSPost2010Prop29
280
     1
102
RTVSPost2010PropOp29
 70
     1
102
RTVSPost2010Prop30
280
     1
102
RTVSPost2010PropOp30
 70
     1
102
RTVSPost2010Prop31
280
     0
102
RTVSPost2010PropOp31
 70
     1
102
RTVSPost2010Prop32
280
     0
102
RTVSPost2010PropOp32
 70
     1
102
RTVSPost2010Prop33
280
     0
102
RTVSPost2010PropOp33
 70
     1
102
RTVSPost2010Prop34
280
     0
102
RTVSPost2010PropOp34
 70
     1
102
RTVSPost2010Prop35
280
     0
102
RTVSPost2010PropOp35
 70
     1
102
RTVSPost2010Prop36
280
     0
102
RTVSPost2010PropOp36
 70
     1
102
RTVSPost2010Prop37
 90
       50
102
RTVSPost2010PropOp37
 70
     1
102
RTVSPost2010Prop38
140
0.0
102
RTVSPost2010PropOp38
 70
     1
102
RTVSPost2010Prop39
140
1.0
102
RTVSPost2010PropOp39
 70
     1
102
RTVSPost2010Prop40
 90
        0
102
RTVSPost2010PropOp40
 70
     1
102
RTVSPost2010Prop41ColorIndex
 90
       18
102
RTVSPost2010Prop41ColorRGB
 90
        0
102
RTVSPost2010PropOp41
 70
     1
102
RTVSPost2010Prop42
 90
       50
102
RTVSPost2010PropOp42
 70
     1
102
RTVSPost2010Prop43
 90
        3
102
RTVSPost2010PropOp43
 70
     1
102
RTVSPost2010Prop44ColorIndex
 90
        5
102
RTVSPost2010Prop44ColorRGB
 90
      255
102
RTVSPost2010PropOp44
 70
     1
102
RTVSPost2010Prop45
280
     0
102
RTVSPost2010PropOp45
 70
     1
102
RTVSPost2010Prop46
 90
       50
102
RTVSPost2010PropOp46
 70
     1
102
RTVSPost2010Prop47
 90
       50
102
RTVSPost2010PropOp47
 70
     1
102
RTVSPost2010Prop48
 90
       50
102
RTVSPost2010PropOp48
 70
     1
102
RTVSPost2010Prop49
280
     0
102
RTVSPost2010PropOp49
 70
     1
102
RTVSPost2010Prop50
 90
       50
102
RTVSPost2010PropOp50
 70
     1
102
RTVSPost2010Prop51ColorIndex
 90
      256
102
RTVSPost2010Prop51ColorRGB
 90
-16777216
102
RTVSPost2010PropOp51
 70
     0
102
RTVSPost2010Prop52
140
1.0
102
RTVSPost2010PropOp52
 70
     0
102
RTVSPost2010Prop53
 90
        2
102
RTVSPost2010PropOp53
 70
     1
102
RTVSPost2010Prop54
  1
strokes_ogs.tif
102
RTVSPost2010PropOp54
 70
     1
102
RTVSPost2010Prop55
280
     0
102
RTVSPost2010PropOp55
 70
     1
102
RTVSPost2010Prop56
140
1.0
102
RTVSPost2010PropOp56
 70
     1
102
RTVSPost2010Prop57
140
1.0
102
RTVSPost2010PropOp57
 70
     1
102
RTVSPropertyOp0
 70
     1
102
RTVSPropertyOp1
 70
     1
102
RTVSPropertyOp2
 70
     1
102
RTVSPropertyOp3
 70
     1
102
RTVSPropertyOp4
 70
     1
102
RTVSPropertyOp5
 70
     1
102
RTVSPropertyOp6
 70
     1
102
RTVSPropertyOp7
 70
     1
102
RTVSPropertyOp8
 70
     1
102
RTVSPropertyOp9
 70
     1
102
RTVSPropertyOp10
 70
     1
102
RTVSPropertyOp11
 70
     1
102
RTVSPropertyOp12
 70
     1
102
RTVSPropertyOp13
 70
     1
102
RTVSPropertyOp14
 70
     1
102
RTVSPropertyOp15
 70
     1
102
RTVSPropertyOp16
 70
     1
102
RTVSPropertyOp17
 70
     1
102
RTVSPropertyOp18
 70
     1
102
RTVSPropertyOp19
 70
     1
102
RTVSPropertyOp20
 70
     1
102
RTVSPropertyOp21
 70
     1
102
RTVSPropertyOp22
 70
     1
102
RTVSPropertyOp23
 70
     1
102
RTVSPropertyOp24
 70
     1
102
RTVSPropertyOp25
 70
     1
102
RTVSPropertyOp26
 70
     1
102
RTVSPropertyOp27
 70
     1
102
RTVSPropertyOp28
 70
     1
102
RTVSPropertyOp29
 70
     1
102
RTVSPropertyOp30
 70
     1
102
RTVSPropertyOp31
 70
     1
102
RTVSPropertyOp32
 70
     1
102
RTVSPropertyOp33
 70
     1
102
RTVSPropertyOp34
 70
     1
102
RTVSPropertyOp35
 70
     1
102
RTVSPropertyOp36
 70
     1
102
RTVSPropertyOp37
 70
     1
102
RTVSPropertyOp38
 70
     1
102
RTVSPropertyOp39
 70
     1
102
RTVSPropertyOp40
 70
     1
102
RTVSPropertyOp41
 70
     1
102
RTVSPropertyOp42
 70
     1
102
RTVSPropertyOp43
 70
     1
102
RTVSPropertyOp44
 70
     1
102
RTVSPropertyOp45
 70
     1
102
RTVSPropertyOp46
 70
     1
102
RTVSPropertyOp47
 70
     1
102
RTVSPropertyOp48
 70
     1
102
RTVSPropertyOp49
 70
     1
102
RTVSPropertyOp50
 70
     1
102
RTVSPropertyOp51
 70
     0
102
RTVSPropertyOp52
 70
     0
102
RTVSPropertyOp53
 70
     1
102
RTVSPropertyOp54
 70
     1
102
RTVSPropertyOp55
 70
     1
102
RTVSPropertyOp56
 70
     1
102
RTVSPropertyOp57
 70
     1
102
RTVSPropertyOp58
 70
     1
102
RTVSPropertyOp59
 70
     1
102
RTVSPropertyOp60
 70
     1
102
RTVSPropertyOp61
 70
     1
102
RTVSPropertyOp62
 70
     1
  0
XRECORD
  5
6CF
102
{ACAD_REACTORS
330
6CE
102
}
330
6CE
100
AcDbXrecord
280
     1
102
RTVSPost2010Prop28
280
     0
102
RTVSPost2010PropOp28
 70
     0
102
RTVSPost2010Prop29
280
     1
102
RTVSPost2010PropOp29
 70
     0
102
RTVSPost2010Prop30
280
     1
102
RTVSPost2010PropOp30
 70
     0
102
RTVSPost2010Prop31
280
     0
102
RTVSPost2010PropOp31
 70
     0
102
RTVSPost2010Prop32
280
     0
102
RTVSPost2010PropOp32
 70
     0
102
RTVSPost2010Prop33
280
     0
102
RTVSPost2010PropOp33
 70
     0
102
RTVSPost2010Prop34
280
     0
102
RTVSPost2010PropOp34
 70
     0
102
RTVSPost2010Prop35
280
     0
102
RTVSPost2010PropOp35
 70
     0
102
RTVSPost2010Prop36
280
     0
102
RTVSPost2010PropOp36
 70
     0
102
RTVSPost2010Prop37
 90
       50
102
RTVSPost2010PropOp37
 70
     0
102
RTVSPost2010Prop38
140
0.0
102
RTVSPost2010PropOp38
 70
     0
102
RTVSPost2010Prop39
140
1.0
102
RTVSPost2010PropOp39
 70
     0
102
RTVSPost2010Prop40
 90
        0
102
RTVSPost2010PropOp40
 70
     0
102
RTVSPost2010Prop41ColorIndex
 90
       18
102
RTVSPost2010Prop41ColorRGB
 90
        0
102
RTVSPost2010PropOp41
 70
     0
102
RTVSPost2010Prop42
 90
       50
102
RTVSPost2010PropOp42
 70
     0
102
RTVSPost2010Prop43
 90
        3
102
RTVSPost2010PropOp43
 70
     0
102
RTVSPost2010Prop44ColorIndex
 90
        5
102
RTVSPost2010Prop44ColorRGB
 90
      255
102
RTVSPost2010PropOp44
 70
     0
102
RTVSPost2010Prop45
280
     0
102
RTVSPost2010PropOp45
 70
     0
102
RTVSPost2010Prop46
 90
       50
102
RTVSPost2010PropOp46
 70
     0
102
RTVSPost2010Prop47
 90
       50
102
RTVSPost2010PropOp47
 70
     0
102
RTVSPost2010Prop48
 90
       50
102
RTVSPost2010PropOp48
 70
     0
102
RTVSPost2010Prop49
280
     0
102
RTVSPost2010PropOp49
 70
     0
102
RTVSPost2010Prop50
 90
       50
102
RTVSPost2010PropOp50
 70
     0
102
RTVSPost2010Prop51ColorIndex
 90
      256
102
RTVSPost2010Prop51ColorRGB
 90
-16777216
102
RTVSPost2010PropOp51
 70
     0
102
RTVSPost2010Prop52
140
1.0
102
RTVSPost2010PropOp52
 70
     0
102
RTVSPost2010Prop53
 90
        2
102
RTVSPost2010PropOp53
 70
     0
102
RTVSPost2010Prop54
  1
strokes_ogs.tif
102
RTVSPost2010PropOp54
 70
     0
102
RTVSPost2010Prop55
280
     0
102
RTVSPost2010PropOp55
 70
     0
102
RTVSPost2010Prop56
140
1.0
102
RTVSPost2010PropOp56
 70
     0
102
RTVSPost2010Prop57
140
1.0
102
RTVSPost2010PropOp57
 70
     0
102
RTVSPropertyOp0
 70
     0
102
RTVSPropertyOp1
 70
     0
102
RTVSPropertyOp2
 70
     0
102
RTVSPropertyOp3
 70
     0
102
RTVSPropertyOp4
 70
     0
102
RTVSPropertyOp5
 70
     0
102
RTVSPropertyOp6
 70
     0
102
RTVSPropertyOp7
 70
     0
102
RTVSPropertyOp8
 70
     0
102
RTVSPropertyOp9
 70
     0
102
RTVSPropertyOp10
 70
     0
102
RTVSPropertyOp11
 70
     0
102
RTVSPropertyOp12
 70
     0
102
RTVSPropertyOp13
 70
     0
102
RTVSPropertyOp14
 70
     2
102
RTVSPropertyOp15
 70
     0
102
RTVSPropertyOp16
 70
     0
102
RTVSPropertyOp17
 70
     0
102
RTVSPropertyOp18
 70
     0
102
RTVSPropertyOp19
 70
     0
102
RTVSPropertyOp20
 70
     0
102
RTVSPropertyOp21
 70
     0
102
RTVSPropertyOp22
 70
     0
102
RTVSPropertyOp23
 70
     0
102
RTVSPropertyOp24
 70
     0
102
RTVSPropertyOp25
 70
     0
102
RTVSPropertyOp26
 70
     0
102
RTVSPropertyOp27
 70
     0
102
RTVSPropertyOp28
 70
     0
102
RTVSPropertyOp29
 70
     0
102
RTVSPropertyOp30
 70
     0
102
RTVSPropertyOp31
 70
     0
102
RTVSPropertyOp32
 70
     0
102
RTVSPropertyOp33
 70
     0
102
RTVSPropertyOp34
 70
     0
102
RTVSPropertyOp35
 70
     0
102
RTVSPropertyOp36
 70
     0
102
RTVSPropertyOp37
 70
     0
102
RTVSPropertyOp38
 70
     0
102
RTVSPropertyOp39
 70
     0
102
RTVSPropertyOp40
 70
     0
102
RTVSPropertyOp41
 70
     0
102
RTVSPropertyOp42
 70
     0
102
RTVSPropertyOp43
 70
     0
102
RTVSPropertyOp44
 70
     0
102
RTVSPropertyOp45
 70
     0
102
RTVSPropertyOp46
 70
     0
102
RTVSPropertyOp47
 70
     0
102
RTVSPropertyOp48
 70
     0
102
RTVSPropertyOp49
 70
     0
102
RTVSPropertyOp50
 70
     0
102
RTVSPropertyOp51
 70
     0
102
RTVSPropertyOp52
 70
     0
102
RTVSPropertyOp53
 70
     0
102
RTVSPropertyOp54
 70
     0
102
RTVSPropertyOp55
 70
     0
102
RTVSPropertyOp56
 70
     0
102
RTVSPropertyOp57
 70
     0
102
RTVSPropertyOp58
 70
     1
102
RTVSPropertyOp59
 70
     1
102
RTVSPropertyOp60
 70
     1
102
RTVSPropertyOp61
 70
     1
102
RTVSPropertyOp62
 70
     1
  0
XRECORD
  5
6C9
102
{ACAD_REACTORS
330
6C8
102
}
330
6C8
100
AcDbXrecord
280
     1
102
RTVSPost2010Prop28
280
     0
102
RTVSPost2010PropOp28
 70
     1
102
RTVSPost2010Prop29
280
     1
102
RTVSPost2010PropOp29
 70
     1
102
RTVSPost2010Prop30
280
     1
102
RTVSPost2010PropOp30
 70
     1
102
RTVSPost2010Prop31
280
     0
102
RTVSPost2010PropOp31
 70
     1
102
RTVSPost2010Prop32
280
     0
102
RTVSPost2010PropOp32
 70
     1
102
RTVSPost2010Prop33
280
     0
102
RTVSPost2010PropOp33
 70
     1
102
RTVSPost2010Prop34
280
     0
102
RTVSPost2010PropOp34
 70
     1
102
RTVSPost2010Prop35
280
     0
102
RTVSPost2010PropOp35
 70
     1
102
RTVSPost2010Prop36
280
     0
102
RTVSPost2010PropOp36
 70
     1
102
RTVSPost2010Prop37
 90
       50
102
RTVSPost2010PropOp37
 70
     1
102
RTVSPost2010Prop38
140
0.0
102
RTVSPost2010PropOp38
 70
     1
102
RTVSPost2010Prop39
140
1.0
102
RTVSPost2010PropOp39
 70
     1
102
RTVSPost2010Prop40
 90
        0
102
RTVSPost2010PropOp40
 70
     1
102
RTVSPost2010Prop41ColorIndex
 90
       18
102
RTVSPost2010Prop41ColorRGB
 90
        0
102
RTVSPost2010PropOp41
 70
     1
102
RTVSPost2010Prop42
 90
       50
102
RTVSPost2010PropOp42
 70
     1
102
RTVSPost2010Prop43
 90
        3
102
RTVSPost2010PropOp43
 70
     1
102
RTVSPost2010Prop44ColorIndex
 90
        5
102
RTVSPost2010Prop44ColorRGB
 90
      255
102
RTVSPost2010PropOp44
 70
     1
102
RTVSPost2010Prop45
280
     0
102
RTVSPost2010PropOp45
 70
     1
102
RTVSPost2010Prop46
 90
       50
102
RTVSPost2010PropOp46
 70
     1
102
RTVSPost2010Prop47
 90
       50
102
RTVSPost2010PropOp47
 70
     1
102
RTVSPost2010Prop48
 90
       50
102
RTVSPost2010PropOp48
 70
     1
102
RTVSPost2010Prop49
280
     0
102
RTVSPost2010PropOp49
 70
     1
102
RTVSPost2010Prop50
 90
       50
102
RTVSPost2010PropOp50
 70
     1
102
RTVSPost2010Prop51ColorIndex
 90
      256
102
RTVSPost2010Prop51ColorRGB
 90
-16777216
102
RTVSPost2010PropOp51
 70
     0
102
RTVSPost2010Prop52
140
1.0
102
RTVSPost2010PropOp52
 70
     0
102
RTVSPost2010Prop53
 90
        2
102
RTVSPost2010PropOp53
 70
     1
102
RTVSPost2010Prop54
  1
strokes_ogs.tif
102
RTVSPost2010PropOp54
 70
     1
102
RTVSPost2010Prop55
280
     0
102
RTVSPost2010PropOp55
 70
     1
102
RTVSPost2010Prop56
140
1.0
102
RTVSPost2010PropOp56
 70
     1
102
RTVSPost2010Prop57
140
1.0
102
RTVSPost2010PropOp57
 70
     1
102
RTVSPropertyOp0
 70
     1
102
RTVSPropertyOp1
 70
     1
102
RTVSPropertyOp2
 70
     1
102
RTVSPropertyOp3
 70
     1
102
RTVSPropertyOp4
 70
     1
102
RTVSPropertyOp5
 70
     1
102
RTVSPropertyOp6
 70
     1
102
RTVSPropertyOp7
 70
     1
102
RTVSPropertyOp8
 70
     1
102
RTVSPropertyOp9
 70
     1
102
RTVSPropertyOp10
 70
     1
102
RTVSPropertyOp11
 70
     1
102
RTVSPropertyOp12
 70
     1
102
RTVSPropertyOp13
 70
     1
102
RTVSPropertyOp14
 70
     1
102
RTVSPropertyOp15
 70
     1
102
RTVSPropertyOp16
 70
     1
102
RTVSPropertyOp17
 70
     1
102
RTVSPropertyOp18
 70
     1
102
RTVSPropertyOp19
 70
     1
102
RTVSPropertyOp20
 70
     1
102
RTVSPropertyOp21
 70
     1
102
RTVSPropertyOp22
 70
     1
102
RTVSPropertyOp23
 70
     1
102
RTVSPropertyOp24
 70
     1
102
RTVSPropertyOp25
 70
     1
102
RTVSPropertyOp26
 70
     1
102
RTVSPropertyOp27
 70
     1
102
RTVSPropertyOp28
 70
     1
102
RTVSPropertyOp29
 70
     1
102
RTVSPropertyOp30
 70
     1
102
RTVSPropertyOp31
 70
     1
102
RTVSPropertyOp32
 70
     1
102
RTVSPropertyOp33
 70
     1
102
RTVSPropertyOp34
 70
     1
102
RTVSPropertyOp35
 70
     1
102
RTVSPropertyOp36
 70
     1
102
RTVSPropertyOp37
 70
     1
102
RTVSPropertyOp38
 70
     1
102
RTVSPropertyOp39
 70
     1
102
RTVSPropertyOp40
 70
     1
102
RTVSPropertyOp41
 70
     1
102
RTVSPropertyOp42
 70
     1
102
RTVSPropertyOp43
 70
     1
102
RTVSPropertyOp44
 70
     1
102
RTVSPropertyOp45
 70
     1
102
RTVSPropertyOp46
 70
     1
102
RTVSPropertyOp47
 70
     1
102
RTVSPropertyOp48
 70
     1
102
RTVSPropertyOp49
 70
     1
102
RTVSPropertyOp50
 70
     1
102
RTVSPropertyOp51
 70
     0
102
RTVSPropertyOp52
 70
     0
102
RTVSPropertyOp53
 70
     1
102
RTVSPropertyOp54
 70
     1
102
RTVSPropertyOp55
 70
     1
102
RTVSPropertyOp56
 70
     1
102
RTVSPropertyOp57
 70
     1
102
RTVSPropertyOp58
 70
     1
102
RTVSPropertyOp59
 70
     1
102
RTVSPropertyOp60
 70
     1
102
RTVSPropertyOp61
 70
     1
102
RTVSPropertyOp62
 70
     1
  0
XRECORD
  5
6D1
102
{ACAD_REACTORS
330
6D0
102
}
330
6D0
100
AcDbXrecord
280
     1
102
RTVSPost2010Prop28
280
     0
102
RTVSPost2010PropOp28
 70
     0
102
RTVSPost2010Prop29
280
     1
102
RTVSPost2010PropOp29
 70
     0
102
RTVSPost2010Prop30
280
     1
102
RTVSPost2010PropOp30
 70
     0
102
RTVSPost2010Prop31
280
     0
102
RTVSPost2010PropOp31
 70
     0
102
RTVSPost2010Prop32
280
     0
102
RTVSPost2010PropOp32
 70
     0
102
RTVSPost2010Prop33
280
     0
102
RTVSPost2010PropOp33
 70
     0
102
RTVSPost2010Prop34
280
     0
102
RTVSPost2010PropOp34
 70
     0
102
RTVSPost2010Prop35
280
     0
102
RTVSPost2010PropOp35
 70
     0
102
RTVSPost2010Prop36
280
     0
102
RTVSPost2010PropOp36
 70
     0
102
RTVSPost2010Prop37
 90
       50
102
RTVSPost2010PropOp37
 70
     0
102
RTVSPost2010Prop38
140
0.0
102
RTVSPost2010PropOp38
 70
     0
102
RTVSPost2010Prop39
140
1.0
102
RTVSPost2010PropOp39
 70
     0
102
RTVSPost2010Prop40
 90
        0
102
RTVSPost2010PropOp40
 70
     0
102
RTVSPost2010Prop41ColorIndex
 90
       18
102
RTVSPost2010Prop41ColorRGB
 90
        0
102
RTVSPost2010PropOp41
 70
     0
102
RTVSPost2010Prop42
 90
       50
102
RTVSPost2010PropOp42
 70
     0
102
RTVSPost2010Prop43
 90
        3
102
RTVSPost2010PropOp43
 70
     0
102
RTVSPost2010Prop44ColorIndex
 90
        5
102
RTVSPost2010Prop44ColorRGB
 90
      255
102
RTVSPost2010PropOp44
 70
     0
102
RTVSPost2010Prop45
280
     0
102
RTVSPost2010PropOp45
 70
     0
102
RTVSPost2010Prop46
 90
       50
102
RTVSPost2010PropOp46
 70
     0
102
RTVSPost2010Prop47
 90
       50
102
RTVSPost2010PropOp47
 70
     0
102
RTVSPost2010Prop48
 90
       50
102
RTVSPost2010PropOp48
 70
     0
102
RTVSPost2010Prop49
280
     0
102
RTVSPost2010PropOp49
 70
     0
102
RTVSPost2010Prop50
 90
       50
102
RTVSPost2010PropOp50
 70
     0
102
RTVSPost2010Prop51ColorIndex
 90
      256
102
RTVSPost2010Prop51ColorRGB
 90
-16777216
102
RTVSPost2010PropOp51
 70
     0
102
RTVSPost2010Prop52
140
1.0
102
RTVSPost2010PropOp52
 70
     0
102
RTVSPost2010Prop53
 90
        2
102
RTVSPost2010PropOp53
 70
     0
102
RTVSPost2010Prop54
  1
strokes_ogs.tif
102
RTVSPost2010PropOp54
 70
     0
102
RTVSPost2010Prop55
280
     0
102
RTVSPost2010PropOp55
 70
     0
102
RTVSPost2010Prop56
140
1.0
102
RTVSPost2010PropOp56
 70
     0
102
RTVSPost2010Prop57
140
1.0
102
RTVSPost2010PropOp57
 70
     0
102
RTVSPropertyOp0
 70
     0
102
RTVSPropertyOp1
 70
     0
102
RTVSPropertyOp2
 70
     0
102
RTVSPropertyOp3
 70
     0
102
RTVSPropertyOp4
 70
     0
102
RTVSPropertyOp5
 70
     0
102
RTVSPropertyOp6
 70
     0
102
RTVSPropertyOp7
 70
     0
102
RTVSPropertyOp8
 70
     0
102
RTVSPropertyOp9
 70
     0
102
RTVSPropertyOp10
 70
     0
102
RTVSPropertyOp11
 70
     0
102
RTVSPropertyOp12
 70
     0
102
RTVSPropertyOp13
 70
     0
102
RTVSPropertyOp14
 70
     2
102
RTVSPropertyOp15
 70
     0
102
RTVSPropertyOp16
 70
     0
102
RTVSPropertyOp17
 70
     0
102
RTVSPropertyOp18
 70
     0
102
RTVSPropertyOp19
 70
     0
102
RTVSPropertyOp20
 70
     0
102
RTVSPropertyOp21
 70
     0
102
RTVSPropertyOp22
 70
     0
102
RTVSPropertyOp23
 70
     0
102
RTVSPropertyOp24
 70
     0
102
RTVSPropertyOp25
 70
     0
102
RTVSPropertyOp26
 70
     0
102
RTVSPropertyOp27
 70
     0
102
RTVSPropertyOp28
 70
     0
102
RTVSPropertyOp29
 70
     0
102
RTVSPropertyOp30
 70
     0
102
RTVSPropertyOp31
 70
     0
102
RTVSPropertyOp32
 70
     0
102
RTVSPropertyOp33
 70
     0
102
RTVSPropertyOp34
 70
     0
102
RTVSPropertyOp35
 70
     0
102
RTVSPropertyOp36
 70
     0
102
RTVSPropertyOp37
 70
     0
102
RTVSPropertyOp38
 70
     0
102
RTVSPropertyOp39
 70
     0
102
RTVSPropertyOp40
 70
     0
102
RTVSPropertyOp41
 70
     0
102
RTVSPropertyOp42
 70
     0
102
RTVSPropertyOp43
 70
     0
102
RTVSPropertyOp44
 70
     0
102
RTVSPropertyOp45
 70
     0
102
RTVSPropertyOp46
 70
     0
102
RTVSPropertyOp47
 70
     0
102
RTVSPropertyOp48
 70
     0
102
RTVSPropertyOp49
 70
     0
102
RTVSPropertyOp50
 70
     0
102
RTVSPropertyOp51
 70
     0
102
RTVSPropertyOp52
 70
     0
102
RTVSPropertyOp53
 70
     0
102
RTVSPropertyOp54
 70
     0
102
RTVSPropertyOp55
 70
     0
102
RTVSPropertyOp56
 70
     0
102
RTVSPropertyOp57
 70
     0
102
RTVSPropertyOp58
 70
     1
102
RTVSPropertyOp59
 70
     1
102
RTVSPropertyOp60
 70
     1
102
RTVSPropertyOp61
 70
     1
102
RTVSPropertyOp62
 70
     1
  0
XRECORD
  5
6BF
102
{ACAD_REACTORS
330
6BE
102
}
330
6BE
100
AcDbXrecord
280
     1
102
RTVSPost2010Prop28
280
     0
102
RTVSPost2010PropOp28
 70
     1
102
RTVSPost2010Prop29
280
     1
102
RTVSPost2010PropOp29
 70
     1
102
RTVSPost2010Prop30
280
     1
102
RTVSPost2010PropOp30
 70
     1
102
RTVSPost2010Prop31
280
     0
102
RTVSPost2010PropOp31
 70
     1
102
RTVSPost2010Prop32
280
     0
102
RTVSPost2010PropOp32
 70
     1
102
RTVSPost2010Prop33
280
     0
102
RTVSPost2010PropOp33
 70
     1
102
RTVSPost2010Prop34
280
     0
102
RTVSPost2010PropOp34
 70
     1
102
RTVSPost2010Prop35
280
     0
102
RTVSPost2010PropOp35
 70
     1
102
RTVSPost2010Prop36
280
     0
102
RTVSPost2010PropOp36
 70
     1
102
RTVSPost2010Prop37
 90
       50
102
RTVSPost2010PropOp37
 70
     1
102
RTVSPost2010Prop38
140
0.0
102
RTVSPost2010PropOp38
 70
     1
102
RTVSPost2010Prop39
140
1.0
102
RTVSPost2010PropOp39
 70
     1
102
RTVSPost2010Prop40
 90
        0
102
RTVSPost2010PropOp40
 70
     1
102
RTVSPost2010Prop41ColorIndex
 90
       18
102
RTVSPost2010Prop41ColorRGB
 90
        0
102
RTVSPost2010PropOp41
 70
     1
102
RTVSPost2010Prop42
 90
       50
102
RTVSPost2010PropOp42
 70
     1
102
RTVSPost2010Prop43
 90
        3
102
RTVSPost2010PropOp43
 70
     1
102
RTVSPost2010Prop44ColorIndex
 90
        5
102
RTVSPost2010Prop44ColorRGB
 90
      255
102
RTVSPost2010PropOp44
 70
     1
102
RTVSPost2010Prop45
280
     0
102
RTVSPost2010PropOp45
 70
     1
102
RTVSPost2010Prop46
 90
       50
102
RTVSPost2010PropOp46
 70
     1
102
RTVSPost2010Prop47
 90
       50
102
RTVSPost2010PropOp47
 70
     1
102
RTVSPost2010Prop48
 90
       50
102
RTVSPost2010PropOp48
 70
     1
102
RTVSPost2010Prop49
280
     0
102
RTVSPost2010PropOp49
 70
     1
102
RTVSPost2010Prop50
 90
       50
102
RTVSPost2010PropOp50
 70
     1
102
RTVSPost2010Prop51ColorIndex
 90
      256
102
RTVSPost2010Prop51ColorRGB
 90
-16777216
102
RTVSPost2010PropOp51
 70
     0
102
RTVSPost2010Prop52
140
1.0
102
RTVSPost2010PropOp52
 70
     0
102
RTVSPost2010Prop53
 90
        2
102
RTVSPost2010PropOp53
 70
     1
102
RTVSPost2010Prop54
  1
strokes_ogs.tif
102
RTVSPost2010PropOp54
 70
     1
102
RTVSPost2010Prop55
280
     0
102
RTVSPost2010PropOp55
 70
     1
102
RTVSPost2010Prop56
140
1.0
102
RTVSPost2010PropOp56
 70
     1
102
RTVSPost2010Prop57
140
1.0
102
RTVSPost2010PropOp57
 70
     1
102
RTVSPropertyOp0
 70
     1
102
RTVSPropertyOp1
 70
     1
102
RTVSPropertyOp2
 70
     1
102
RTVSPropertyOp3
 70
     1
102
RTVSPropertyOp4
 70
     1
102
RTVSPropertyOp5
 70
     1
102
RTVSPropertyOp6
 70
     1
102
RTVSPropertyOp7
 70
     1
102
RTVSPropertyOp8
 70
     1
102
RTVSPropertyOp9
 70
     1
102
RTVSPropertyOp10
 70
     1
102
RTVSPropertyOp11
 70
     1
102
RTVSPropertyOp12
 70
     1
102
RTVSPropertyOp13
 70
     1
102
RTVSPropertyOp14
 70
     1
102
RTVSPropertyOp15
 70
     1
102
RTVSPropertyOp16
 70
     1
102
RTVSPropertyOp17
 70
     1
102
RTVSPropertyOp18
 70
     1
102
RTVSPropertyOp19
 70
     1
102
RTVSPropertyOp20
 70
     1
102
RTVSPropertyOp21
 70
     1
102
RTVSPropertyOp22
 70
     1
102
RTVSPropertyOp23
 70
     1
102
RTVSPropertyOp24
 70
     1
102
RTVSPropertyOp25
 70
     1
102
RTVSPropertyOp26
 70
     1
102
RTVSPropertyOp27
 70
     1
102
RTVSPropertyOp28
 70
     1
102
RTVSPropertyOp29
 70
     1
102
RTVSPropertyOp30
 70
     1
102
RTVSPropertyOp31
 70
     1
102
RTVSPropertyOp32
 70
     1
102
RTVSPropertyOp33
 70
     1
102
RTVSPropertyOp34
 70
     1
102
RTVSPropertyOp35
 70
     1
102
RTVSPropertyOp36
 70
     1
102
RTVSPropertyOp37
 70
     1
102
RTVSPropertyOp38
 70
     1
102
RTVSPropertyOp39
 70
     1
102
RTVSPropertyOp40
 70
     1
102
RTVSPropertyOp41
 70
     1
102
RTVSPropertyOp42
 70
     1
102
RTVSPropertyOp43
 70
     1
102
RTVSPropertyOp44
 70
     1
102
RTVSPropertyOp45
 70
     1
102
RTVSPropertyOp46
 70
     1
102
RTVSPropertyOp47
 70
     1
102
RTVSPropertyOp48
 70
     1
102
RTVSPropertyOp49
 70
     1
102
RTVSPropertyOp50
 70
     1
102
RTVSPropertyOp51
 70
     0
102
RTVSPropertyOp52
 70
     0
102
RTVSPropertyOp53
 70
     1
102
RTVSPropertyOp54
 70
     1
102
RTVSPropertyOp55
 70
     1
102
RTVSPropertyOp56
 70
     1
102
RTVSPropertyOp57
 70
     1
102
RTVSPropertyOp58
 70
     1
102
RTVSPropertyOp59
 70
     1
102
RTVSPropertyOp60
 70
     1
102
RTVSPropertyOp61
 70
     1
102
RTVSPropertyOp62
 70
     1
  0
XRECORD
  5
6DD
102
{ACAD_REACTORS
330
6DC
102
}
330
6DC
100
AcDbXrecord
280
     1
102
RTVSPost2010Prop28
280
     0
102
RTVSPost2010PropOp28
 70
     1
102
RTVSPost2010Prop29
280
     1
102
RTVSPost2010PropOp29
 70
     1
102
RTVSPost2010Prop30
280
     1
102
RTVSPost2010PropOp30
 70
     1
102
RTVSPost2010Prop31
280
     0
102
RTVSPost2010PropOp31
 70
     1
102
RTVSPost2010Prop32
280
     0
102
RTVSPost2010PropOp32
 70
     1
102
RTVSPost2010Prop33
280
     0
102
RTVSPost2010PropOp33
 70
     1
102
RTVSPost2010Prop34
280
     0
102
RTVSPost2010PropOp34
 70
     1
102
RTVSPost2010Prop35
280
     0
102
RTVSPost2010PropOp35
 70
     1
102
RTVSPost2010Prop36
280
     0
102
RTVSPost2010PropOp36
 70
     1
102
RTVSPost2010Prop37
 90
       50
102
RTVSPost2010PropOp37
 70
     1
102
RTVSPost2010Prop38
140
0.0
102
RTVSPost2010PropOp38
 70
     1
102
RTVSPost2010Prop39
140
1.0
102
RTVSPost2010PropOp39
 70
     1
102
RTVSPost2010Prop40
 90
        0
102
RTVSPost2010PropOp40
 70
     1
102
RTVSPost2010Prop41ColorIndex
 90
       18
102
RTVSPost2010Prop41ColorRGB
 90
        0
102
RTVSPost2010PropOp41
 70
     1
102
RTVSPost2010Prop42
 90
       50
102
RTVSPost2010PropOp42
 70
     1
102
RTVSPost2010Prop43
 90
        3
102
RTVSPost2010PropOp43
 70
     1
102
RTVSPost2010Prop44ColorIndex
 90
        5
102
RTVSPost2010Prop44ColorRGB
 90
      255
102
RTVSPost2010PropOp44
 70
     1
102
RTVSPost2010Prop45
280
     0
102
RTVSPost2010PropOp45
 70
     1
102
RTVSPost2010Prop46
 90
       50
102
RTVSPost2010PropOp46
 70
     1
102
RTVSPost2010Prop47
 90
       50
102
RTVSPost2010PropOp47
 70
     1
102
RTVSPost2010Prop48
 90
       50
102
RTVSPost2010PropOp48
 70
     1
102
RTVSPost2010Prop49
280
     0
102
RTVSPost2010PropOp49
 70
     1
102
RTVSPost2010Prop50
 90
       50
102
RTVSPost2010PropOp50
 70
     1
102
RTVSPost2010Prop51ColorIndex
 90
      256
102
RTVSPost2010Prop51ColorRGB
 90
-16777216
102
RTVSPost2010PropOp51
 70
     0
102
RTVSPost2010Prop52
140
1.0
102
RTVSPost2010PropOp52
 70
     0
102
RTVSPost2010Prop53
 90
        2
102
RTVSPost2010PropOp53
 70
     1
102
RTVSPost2010Prop54
  1
strokes_ogs.tif
102
RTVSPost2010PropOp54
 70
     1
102
RTVSPost2010Prop55
280
     0
102
RTVSPost2010PropOp55
 70
     1
102
RTVSPost2010Prop56
140
1.0
102
RTVSPost2010PropOp56
 70
     1
102
RTVSPost2010Prop57
140
1.0
102
RTVSPost2010PropOp57
 70
     1
102
RTVSPropertyOp0
 70
     1
102
RTVSPropertyOp1
 70
     1
102
RTVSPropertyOp2
 70
     1
102
RTVSPropertyOp3
 70
     1
102
RTVSPropertyOp4
 70
     1
102
RTVSPropertyOp5
 70
     1
102
RTVSPropertyOp6
 70
     1
102
RTVSPropertyOp7
 70
     1
102
RTVSPropertyOp8
 70
     1
102
RTVSPropertyOp9
 70
     1
102
RTVSPropertyOp10
 70
     1
102
RTVSPropertyOp11
 70
     1
102
RTVSPropertyOp12
 70
     1
102
RTVSPropertyOp13
 70
     1
102
RTVSPropertyOp14
 70
     1
102
RTVSPropertyOp15
 70
     1
102
RTVSPropertyOp16
 70
     1
102
RTVSPropertyOp17
 70
     1
102
RTVSPropertyOp18
 70
     1
102
RTVSPropertyOp19
 70
     1
102
RTVSPropertyOp20
 70
     1
102
RTVSPropertyOp21
 70
     1
102
RTVSPropertyOp22
 70
     1
102
RTVSPropertyOp23
 70
     1
102
RTVSPropertyOp24
 70
     1
102
RTVSPropertyOp25
 70
     1
102
RTVSPropertyOp26
 70
     1
102
RTVSPropertyOp27
 70
     1
102
RTVSPropertyOp28
 70
     1
102
RTVSPropertyOp29
 70
     1
102
RTVSPropertyOp30
 70
     1
102
RTVSPropertyOp31
 70
     1
102
RTVSPropertyOp32
 70
     1
102
RTVSPropertyOp33
 70
     1
102
RTVSPropertyOp34
 70
     1
102
RTVSPropertyOp35
 70
     1
102
RTVSPropertyOp36
 70
     1
102
RTVSPropertyOp37
 70
     1
102
RTVSPropertyOp38
 70
     1
102
RTVSPropertyOp39
 70
     1
102
RTVSPropertyOp40
 70
     1
102
RTVSPropertyOp41
 70
     1
102
RTVSPropertyOp42
 70
     1
102
RTVSPropertyOp43
 70
     1
102
RTVSPropertyOp44
 70
     1
102
RTVSPropertyOp45
 70
     1
102
RTVSPropertyOp46
 70
     1
102
RTVSPropertyOp47
 70
     1
102
RTVSPropertyOp48
 70
     1
102
RTVSPropertyOp49
 70
     1
102
RTVSPropertyOp50
 70
     1
102
RTVSPropertyOp51
 70
     0
102
RTVSPropertyOp52
 70
     0
102
RTVSPropertyOp53
 70
     1
102
RTVSPropertyOp54
 70
     1
102
RTVSPropertyOp55
 70
     1
102
RTVSPropertyOp56
 70
     1
102
RTVSPropertyOp57
 70
     1
102
RTVSPropertyOp58
 70
     1
102
RTVSPropertyOp59
 70
     1
102
RTVSPropertyOp60
 70
     1
102
RTVSPropertyOp61
 70
     1
102
RTVSPropertyOp62
 70
     1
  0
XRECORD
  5
6DB
102
{ACAD_REACTORS
330
6DA
102
}
330
6DA
100
AcDbXrecord
280
     1
102
RTVSPost2010Prop28
280
     0
102
RTVSPost2010PropOp28
 70
     1
102
RTVSPost2010Prop29
280
     1
102
RTVSPost2010PropOp29
 70
     1
102
RTVSPost2010Prop30
280
     1
102
RTVSPost2010PropOp30
 70
     1
102
RTVSPost2010Prop31
280
     0
102
RTVSPost2010PropOp31
 70
     1
102
RTVSPost2010Prop32
280
     0
102
RTVSPost2010PropOp32
 70
     1
102
RTVSPost2010Prop33
280
     0
102
RTVSPost2010PropOp33
 70
     1
102
RTVSPost2010Prop34
280
     0
102
RTVSPost2010PropOp34
 70
     1
102
RTVSPost2010Prop35
280
     0
102
RTVSPost2010PropOp35
 70
     1
102
RTVSPost2010Prop36
280
     0
102
RTVSPost2010PropOp36
 70
     1
102
RTVSPost2010Prop37
 90
       50
102
RTVSPost2010PropOp37
 70
     1
102
RTVSPost2010Prop38
140
0.0
102
RTVSPost2010PropOp38
 70
     1
102
RTVSPost2010Prop39
140
1.0
102
RTVSPost2010PropOp39
 70
     1
102
RTVSPost2010Prop40
 90
        0
102
RTVSPost2010PropOp40
 70
     1
102
RTVSPost2010Prop41ColorIndex
 90
       18
102
RTVSPost2010Prop41ColorRGB
 90
        0
102
RTVSPost2010PropOp41
 70
     1
102
RTVSPost2010Prop42
 90
       50
102
RTVSPost2010PropOp42
 70
     1
102
RTVSPost2010Prop43
 90
        3
102
RTVSPost2010PropOp43
 70
     1
102
RTVSPost2010Prop44ColorIndex
 90
        5
102
RTVSPost2010Prop44ColorRGB
 90
      255
102
RTVSPost2010PropOp44
 70
     1
102
RTVSPost2010Prop45
280
     0
102
RTVSPost2010PropOp45
 70
     1
102
RTVSPost2010Prop46
 90
       50
102
RTVSPost2010PropOp46
 70
     1
102
RTVSPost2010Prop47
 90
       50
102
RTVSPost2010PropOp47
 70
     1
102
RTVSPost2010Prop48
 90
       50
102
RTVSPost2010PropOp48
 70
     1
102
RTVSPost2010Prop49
280
     0
102
RTVSPost2010PropOp49
 70
     1
102
RTVSPost2010Prop50
 90
       50
102
RTVSPost2010PropOp50
 70
     1
102
RTVSPost2010Prop51ColorIndex
 90
      256
102
RTVSPost2010Prop51ColorRGB
 90
-16777216
102
RTVSPost2010PropOp51
 70
     0
102
RTVSPost2010Prop52
140
1.0
102
RTVSPost2010PropOp52
 70
     0
102
RTVSPost2010Prop53
 90
        2
102
RTVSPost2010PropOp53
 70
     1
102
RTVSPost2010Prop54
  1
strokes_ogs.tif
102
RTVSPost2010PropOp54
 70
     1
102
RTVSPost2010Prop55
280
     0
102
RTVSPost2010PropOp55
 70
     1
102
RTVSPost2010Prop56
140
1.0
102
RTVSPost2010PropOp56
 70
     1
102
RTVSPost2010Prop57
140
1.0
102
RTVSPost2010PropOp57
 70
     1
102
RTVSPropertyOp0
 70
     1
102
RTVSPropertyOp1
 70
     1
102
RTVSPropertyOp2
 70
     1
102
RTVSPropertyOp3
 70
     1
102
RTVSPropertyOp4
 70
     1
102
RTVSPropertyOp5
 70
     1
102
RTVSPropertyOp6
 70
     1
102
RTVSPropertyOp7
 70
     1
102
RTVSPropertyOp8
 70
     1
102
RTVSPropertyOp9
 70
     1
102
RTVSPropertyOp10
 70
     1
102
RTVSPropertyOp11
 70
     1
102
RTVSPropertyOp12
 70
     1
102
RTVSPropertyOp13
 70
     1
102
RTVSPropertyOp14
 70
     1
102
RTVSPropertyOp15
 70
     1
102
RTVSPropertyOp16
 70
     1
102
RTVSPropertyOp17
 70
     1
102
RTVSPropertyOp18
 70
     1
102
RTVSPropertyOp19
 70
     1
102
RTVSPropertyOp20
 70
     1
102
RTVSPropertyOp21
 70
     1
102
RTVSPropertyOp22
 70
     1
102
RTVSPropertyOp23
 70
     1
102
RTVSPropertyOp24
 70
     1
102
RTVSPropertyOp25
 70
     1
102
RTVSPropertyOp26
 70
     1
102
RTVSPropertyOp27
 70
     1
102
RTVSPropertyOp28
 70
     1
102
RTVSPropertyOp29
 70
     1
102
RTVSPropertyOp30
 70
     1
102
RTVSPropertyOp31
 70
     1
102
RTVSPropertyOp32
 70
     1
102
RTVSPropertyOp33
 70
     1
102
RTVSPropertyOp34
 70
     1
102
RTVSPropertyOp35
 70
     1
102
RTVSPropertyOp36
 70
     1
102
RTVSPropertyOp37
 70
     1
102
RTVSPropertyOp38
 70
     1
102
RTVSPropertyOp39
 70
     1
102
RTVSPropertyOp40
 70
     1
102
RTVSPropertyOp41
 70
     1
102
RTVSPropertyOp42
 70
     1
102
RTVSPropertyOp43
 70
     1
102
RTVSPropertyOp44
 70
     1
102
RTVSPropertyOp45
 70
     1
102
RTVSPropertyOp46
 70
     1
102
RTVSPropertyOp47
 70
     1
102
RTVSPropertyOp48
 70
     1
102
RTVSPropertyOp49
 70
     1
102
RTVSPropertyOp50
 70
     1
102
RTVSPropertyOp51
 70
     0
102
RTVSPropertyOp52
 70
     0
102
RTVSPropertyOp53
 70
     1
102
RTVSPropertyOp54
 70
     1
102
RTVSPropertyOp55
 70
     1
102
RTVSPropertyOp56
 70
     1
102
RTVSPropertyOp57
 70
     1
102
RTVSPropertyOp58
 70
     1
102
RTVSPropertyOp59
 70
     1
102
RTVSPropertyOp60
 70
     1
102
RTVSPropertyOp61
 70
     1
102
RTVSPropertyOp62
 70
     1
  0
XRECORD
  5
6D5
102
{ACAD_REACTORS
330
6D4
102
}
330
6D4
100
AcDbXrecord
280
     1
102
RTVSPost2010Prop28
280
     0
102
RTVSPost2010PropOp28
 70
     1
102
RTVSPost2010Prop29
280
     1
102
RTVSPost2010PropOp29
 70
     1
102
RTVSPost2010Prop30
280
     1
102
RTVSPost2010PropOp30
 70
     1
102
RTVSPost2010Prop31
280
     0
102
RTVSPost2010PropOp31
 70
     1
102
RTVSPost2010Prop32
280
     0
102
RTVSPost2010PropOp32
 70
     1
102
RTVSPost2010Prop33
280
     0
102
RTVSPost2010PropOp33
 70
     1
102
RTVSPost2010Prop34
280
     0
102
RTVSPost2010PropOp34
 70
     1
102
RTVSPost2010Prop35
280
     0
102
RTVSPost2010PropOp35
 70
     1
102
RTVSPost2010Prop36
280
     0
102
RTVSPost2010PropOp36
 70
     1
102
RTVSPost2010Prop37
 90
       50
102
RTVSPost2010PropOp37
 70
     1
102
RTVSPost2010Prop38
140
0.0
102
RTVSPost2010PropOp38
 70
     1
102
RTVSPost2010Prop39
140
1.0
102
RTVSPost2010PropOp39
 70
     1
102
RTVSPost2010Prop40
 90
        0
102
RTVSPost2010PropOp40
 70
     1
102
RTVSPost2010Prop41ColorIndex
 90
       18
102
RTVSPost2010Prop41ColorRGB
 90
        0
102
RTVSPost2010PropOp41
 70
     1
102
RTVSPost2010Prop42
 90
       50
102
RTVSPost2010PropOp42
 70
     1
102
RTVSPost2010Prop43
 90
        3
102
RTVSPost2010PropOp43
 70
     1
102
RTVSPost2010Prop44ColorIndex
 90
        5
102
RTVSPost2010Prop44ColorRGB
 90
      255
102
RTVSPost2010PropOp44
 70
     1
102
RTVSPost2010Prop45
280
     0
102
RTVSPost2010PropOp45
 70
     1
102
RTVSPost2010Prop46
 90
       50
102
RTVSPost2010PropOp46
 70
     1
102
RTVSPost2010Prop47
 90
       50
102
RTVSPost2010PropOp47
 70
     1
102
RTVSPost2010Prop48
 90
       50
102
RTVSPost2010PropOp48
 70
     1
102
RTVSPost2010Prop49
280
     0
102
RTVSPost2010PropOp49
 70
     1
102
RTVSPost2010Prop50
 90
       50
102
RTVSPost2010PropOp50
 70
     1
102
RTVSPost2010Prop51ColorIndex
 90
      256
102
RTVSPost2010Prop51ColorRGB
 90
-16777216
102
RTVSPost2010PropOp51
 70
     0
102
RTVSPost2010Prop52
140
1.0
102
RTVSPost2010PropOp52
 70
     0
102
RTVSPost2010Prop53
 90
        2
102
RTVSPost2010PropOp53
 70
     1
102
RTVSPost2010Prop54
  1
strokes_ogs.tif
102
RTVSPost2010PropOp54
 70
     1
102
RTVSPost2010Prop55
280
     0
102
RTVSPost2010PropOp55
 70
     1
102
RTVSPost2010Prop56
140
1.0
102
RTVSPost2010PropOp56
 70
     1
102
RTVSPost2010Prop57
140
1.0
102
RTVSPost2010PropOp57
 70
     1
102
RTVSPropertyOp0
 70
     1
102
RTVSPropertyOp1
 70
     1
102
RTVSPropertyOp2
 70
     1
102
RTVSPropertyOp3
 70
     1
102
RTVSPropertyOp4
 70
     1
102
RTVSPropertyOp5
 70
     1
102
RTVSPropertyOp6
 70
     1
102
RTVSPropertyOp7
 70
     1
102
RTVSPropertyOp8
 70
     1
102
RTVSPropertyOp9
 70
     1
102
RTVSPropertyOp10
 70
     1
102
RTVSPropertyOp11
 70
     1
102
RTVSPropertyOp12
 70
     1
102
RTVSPropertyOp13
 70
     1
102
RTVSPropertyOp14
 70
     1
102
RTVSPropertyOp15
 70
     1
102
RTVSPropertyOp16
 70
     1
102
RTVSPropertyOp17
 70
     1
102
RTVSPropertyOp18
 70
     1
102
RTVSPropertyOp19
 70
     1
102
RTVSPropertyOp20
 70
     1
102
RTVSPropertyOp21
 70
     1
102
RTVSPropertyOp22
 70
     1
102
RTVSPropertyOp23
 70
     1
102
RTVSPropertyOp24
 70
     1
102
RTVSPropertyOp25
 70
     1
102
RTVSPropertyOp26
 70
     1
102
RTVSPropertyOp27
 70
     1
102
RTVSPropertyOp28
 70
     1
102
RTVSPropertyOp29
 70
     1
102
RTVSPropertyOp30
 70
     1
102
RTVSPropertyOp31
 70
     1
102
RTVSPropertyOp32
 70
     1
102
RTVSPropertyOp33
 70
     1
102
RTVSPropertyOp34
 70
     1
102
RTVSPropertyOp35
 70
     1
102
RTVSPropertyOp36
 70
     1
102
RTVSPropertyOp37
 70
     1
102
RTVSPropertyOp38
 70
     1
102
RTVSPropertyOp39
 70
     1
102
RTVSPropertyOp40
 70
     1
102
RTVSPropertyOp41
 70
     1
102
RTVSPropertyOp42
 70
     1
102
RTVSPropertyOp43
 70
     1
102
RTVSPropertyOp44
 70
     1
102
RTVSPropertyOp45
 70
     1
102
RTVSPropertyOp46
 70
     1
102
RTVSPropertyOp47
 70
     1
102
RTVSPropertyOp48
 70
     1
102
RTVSPropertyOp49
 70
     1
102
RTVSPropertyOp50
 70
     1
102
RTVSPropertyOp51
 70
     0
102
RTVSPropertyOp52
 70
     0
102
RTVSPropertyOp53
 70
     1
102
RTVSPropertyOp54
 70
     1
102
RTVSPropertyOp55
 70
     1
102
RTVSPropertyOp56
 70
     1
102
RTVSPropertyOp57
 70
     1
102
RTVSPropertyOp58
 70
     1
102
RTVSPropertyOp59
 70
     1
102
RTVSPropertyOp60
 70
     1
102
RTVSPropertyOp61
 70
     1
102
RTVSPropertyOp62
 70
     1
  0
XRECORD
  5
6D7
102
{ACAD_REACTORS
330
6D6
102
}
330
6D6
100
AcDbXrecord
280
     1
102
RTVSPost2010Prop28
280
     0
102
RTVSPost2010PropOp28
 70
     1
102
RTVSPost2010Prop29
280
     1
102
RTVSPost2010PropOp29
 70
     1
102
RTVSPost2010Prop30
280
     1
102
RTVSPost2010PropOp30
 70
     1
102
RTVSPost2010Prop31
280
     0
102
RTVSPost2010PropOp31
 70
     1
102
RTVSPost2010Prop32
280
     0
102
RTVSPost2010PropOp32
 70
     1
102
RTVSPost2010Prop33
280
     0
102
RTVSPost2010PropOp33
 70
     1
102
RTVSPost2010Prop34
280
     0
102
RTVSPost2010PropOp34
 70
     1
102
RTVSPost2010Prop35
280
     0
102
RTVSPost2010PropOp35
 70
     1
102
RTVSPost2010Prop36
280
     0
102
RTVSPost2010PropOp36
 70
     1
102
RTVSPost2010Prop37
 90
       50
102
RTVSPost2010PropOp37
 70
     1
102
RTVSPost2010Prop38
140
0.0
102
RTVSPost2010PropOp38
 70
     1
102
RTVSPost2010Prop39
140
1.0
102
RTVSPost2010PropOp39
 70
     1
102
RTVSPost2010Prop40
 90
        0
102
RTVSPost2010PropOp40
 70
     1
102
RTVSPost2010Prop41ColorIndex
 90
       18
102
RTVSPost2010Prop41ColorRGB
 90
        0
102
RTVSPost2010PropOp41
 70
     1
102
RTVSPost2010Prop42
 90
       50
102
RTVSPost2010PropOp42
 70
     1
102
RTVSPost2010Prop43
 90
        3
102
RTVSPost2010PropOp43
 70
     1
102
RTVSPost2010Prop44ColorIndex
 90
        5
102
RTVSPost2010Prop44ColorRGB
 90
      255
102
RTVSPost2010PropOp44
 70
     1
102
RTVSPost2010Prop45
280
     0
102
RTVSPost2010PropOp45
 70
     1
102
RTVSPost2010Prop46
 90
       50
102
RTVSPost2010PropOp46
 70
     1
102
RTVSPost2010Prop47
 90
       50
102
RTVSPost2010PropOp47
 70
     1
102
RTVSPost2010Prop48
 90
       50
102
RTVSPost2010PropOp48
 70
     1
102
RTVSPost2010Prop49
280
     0
102
RTVSPost2010PropOp49
 70
     1
102
RTVSPost2010Prop50
 90
       50
102
RTVSPost2010PropOp50
 70
     1
102
RTVSPost2010Prop51ColorIndex
 90
      256
102
RTVSPost2010Prop51ColorRGB
 90
-16777216
102
RTVSPost2010PropOp51
 70
     0
102
RTVSPost2010Prop52
140
1.0
102
RTVSPost2010PropOp52
 70
     0
102
RTVSPost2010Prop53
 90
        2
102
RTVSPost2010PropOp53
 70
     1
102
RTVSPost2010Prop54
  1
strokes_ogs.tif
102
RTVSPost2010PropOp54
 70
     1
102
RTVSPost2010Prop55
280
     0
102
RTVSPost2010PropOp55
 70
     1
102
RTVSPost2010Prop56
140
1.0
102
RTVSPost2010PropOp56
 70
     1
102
RTVSPost2010Prop57
140
1.0
102
RTVSPost2010PropOp57
 70
     1
102
RTVSPropertyOp0
 70
     1
102
RTVSPropertyOp1
 70
     1
102
RTVSPropertyOp2
 70
     1
102
RTVSPropertyOp3
 70
     1
102
RTVSPropertyOp4
 70
     1
102
RTVSPropertyOp5
 70
     1
102
RTVSPropertyOp6
 70
     1
102
RTVSPropertyOp7
 70
     1
102
RTVSPropertyOp8
 70
     1
102
RTVSPropertyOp9
 70
     1
102
RTVSPropertyOp10
 70
     1
102
RTVSPropertyOp11
 70
     1
102
RTVSPropertyOp12
 70
     1
102
RTVSPropertyOp13
 70
     1
102
RTVSPropertyOp14
 70
     1
102
RTVSPropertyOp15
 70
     1
102
RTVSPropertyOp16
 70
     1
102
RTVSPropertyOp17
 70
     1
102
RTVSPropertyOp18
 70
     1
102
RTVSPropertyOp19
 70
     1
102
RTVSPropertyOp20
 70
     1
102
RTVSPropertyOp21
 70
     1
102
RTVSPropertyOp22
 70
     1
102
RTVSPropertyOp23
 70
     1
102
RTVSPropertyOp24
 70
     1
102
RTVSPropertyOp25
 70
     1
102
RTVSPropertyOp26
 70
     1
102
RTVSPropertyOp27
 70
     1
102
RTVSPropertyOp28
 70
     1
102
RTVSPropertyOp29
 70
     1
102
RTVSPropertyOp30
 70
     1
102
RTVSPropertyOp31
 70
     1
102
RTVSPropertyOp32
 70
     1
102
RTVSPropertyOp33
 70
     1
102
RTVSPropertyOp34
 70
     1
102
RTVSPropertyOp35
 70
     1
102
RTVSPropertyOp36
 70
     1
102
RTVSPropertyOp37
 70
     1
102
RTVSPropertyOp38
 70
     1
102
RTVSPropertyOp39
 70
     1
102
RTVSPropertyOp40
 70
     1
102
RTVSPropertyOp41
 70
     1
102
RTVSPropertyOp42
 70
     1
102
RTVSPropertyOp43
 70
     1
102
RTVSPropertyOp44
 70
     1
102
RTVSPropertyOp45
 70
     1
102
RTVSPropertyOp46
 70
     1
102
RTVSPropertyOp47
 70
     1
102
RTVSPropertyOp48
 70
     1
102
RTVSPropertyOp49
 70
     1
102
RTVSPropertyOp50
 70
     1
102
RTVSPropertyOp51
 70
     0
102
RTVSPropertyOp52
 70
     0
102
RTVSPropertyOp53
 70
     1
102
RTVSPropertyOp54
 70
     1
102
RTVSPropertyOp55
 70
     1
102
RTVSPropertyOp56
 70
     1
102
RTVSPropertyOp57
 70
     1
102
RTVSPropertyOp58
 70
     1
102
RTVSPropertyOp59
 70
     1
102
RTVSPropertyOp60
 70
     1
102
RTVSPropertyOp61
 70
     1
102
RTVSPropertyOp62
 70
     1
  0
XRECORD
  5
6C7
102
{ACAD_REACTORS
330
6C6
102
}
330
6C6
100
AcDbXrecord
280
     1
102
RTVSPost2010Prop28
280
     0
102
RTVSPost2010PropOp28
 70
     1
102
RTVSPost2010Prop29
280
     1
102
RTVSPost2010PropOp29
 70
     1
102
RTVSPost2010Prop30
280
     1
102
RTVSPost2010PropOp30
 70
     1
102
RTVSPost2010Prop31
280
     0
102
RTVSPost2010PropOp31
 70
     1
102
RTVSPost2010Prop32
280
     0
102
RTVSPost2010PropOp32
 70
     1
102
RTVSPost2010Prop33
280
     0
102
RTVSPost2010PropOp33
 70
     1
102
RTVSPost2010Prop34
280
     0
102
RTVSPost2010PropOp34
 70
     1
102
RTVSPost2010Prop35
280
     0
102
RTVSPost2010PropOp35
 70
     1
102
RTVSPost2010Prop36
280
     0
102
RTVSPost2010PropOp36
 70
     1
102
RTVSPost2010Prop37
 90
       50
102
RTVSPost2010PropOp37
 70
     1
102
RTVSPost2010Prop38
140
0.0
102
RTVSPost2010PropOp38
 70
     1
102
RTVSPost2010Prop39
140
1.0
102
RTVSPost2010PropOp39
 70
     1
102
RTVSPost2010Prop40
 90
        0
102
RTVSPost2010PropOp40
 70
     1
102
RTVSPost2010Prop41ColorIndex
 90
       18
102
RTVSPost2010Prop41ColorRGB
 90
        0
102
RTVSPost2010PropOp41
 70
     1
102
RTVSPost2010Prop42
 90
       50
102
RTVSPost2010PropOp42
 70
     1
102
RTVSPost2010Prop43
 90
        3
102
RTVSPost2010PropOp43
 70
     1
102
RTVSPost2010Prop44ColorIndex
 90
        5
102
RTVSPost2010Prop44ColorRGB
 90
      255
102
RTVSPost2010PropOp44
 70
     1
102
RTVSPost2010Prop45
280
     0
102
RTVSPost2010PropOp45
 70
     1
102
RTVSPost2010Prop46
 90
       50
102
RTVSPost2010PropOp46
 70
     1
102
RTVSPost2010Prop47
 90
       50
102
RTVSPost2010PropOp47
 70
     1
102
RTVSPost2010Prop48
 90
       50
102
RTVSPost2010PropOp48
 70
     1
102
RTVSPost2010Prop49
280
     0
102
RTVSPost2010PropOp49
 70
     1
102
RTVSPost2010Prop50
 90
       50
102
RTVSPost2010PropOp50
 70
     1
102
RTVSPost2010Prop51ColorIndex
 90
      256
102
RTVSPost2010Prop51ColorRGB
 90
-16777216
102
RTVSPost2010PropOp51
 70
     0
102
RTVSPost2010Prop52
140
1.0
102
RTVSPost2010PropOp52
 70
     0
102
RTVSPost2010Prop53
 90
        2
102
RTVSPost2010PropOp53
 70
     1
102
RTVSPost2010Prop54
  1
strokes_ogs.tif
102
RTVSPost2010PropOp54
 70
     1
102
RTVSPost2010Prop55
280
     0
102
RTVSPost2010PropOp55
 70
     1
102
RTVSPost2010Prop56
140
1.0
102
RTVSPost2010PropOp56
 70
     1
102
RTVSPost2010Prop57
140
1.0
102
RTVSPost2010PropOp57
 70
     1
102
RTVSPropertyOp0
 70
     1
102
RTVSPropertyOp1
 70
     1
102
RTVSPropertyOp2
 70
     1
102
RTVSPropertyOp3
 70
     1
102
RTVSPropertyOp4
 70
     1
102
RTVSPropertyOp5
 70
     1
102
RTVSPropertyOp6
 70
     1
102
RTVSPropertyOp7
 70
     1
102
RTVSPropertyOp8
 70
     1
102
RTVSPropertyOp9
 70
     1
102
RTVSPropertyOp10
 70
     1
102
RTVSPropertyOp11
 70
     1
102
RTVSPropertyOp12
 70
     1
102
RTVSPropertyOp13
 70
     1
102
RTVSPropertyOp14
 70
     1
102
RTVSPropertyOp15
 70
     1
102
RTVSPropertyOp16
 70
     1
102
RTVSPropertyOp17
 70
     1
102
RTVSPropertyOp18
 70
     1
102
RTVSPropertyOp19
 70
     1
102
RTVSPropertyOp20
 70
     1
102
RTVSPropertyOp21
 70
     1
102
RTVSPropertyOp22
 70
     1
102
RTVSPropertyOp23
 70
     1
102
RTVSPropertyOp24
 70
     1
102
RTVSPropertyOp25
 70
     1
102
RTVSPropertyOp26
 70
     1
102
RTVSPropertyOp27
 70
     1
102
RTVSPropertyOp28
 70
     1
102
RTVSPropertyOp29
 70
     1
102
RTVSPropertyOp30
 70
     1
102
RTVSPropertyOp31
 70
     1
102
RTVSPropertyOp32
 70
     1
102
RTVSPropertyOp33
 70
     1
102
RTVSPropertyOp34
 70
     1
102
RTVSPropertyOp35
 70
     1
102
RTVSPropertyOp36
 70
     1
102
RTVSPropertyOp37
 70
     1
102
RTVSPropertyOp38
 70
     1
102
RTVSPropertyOp39
 70
     1
102
RTVSPropertyOp40
 70
     1
102
RTVSPropertyOp41
 70
     1
102
RTVSPropertyOp42
 70
     1
102
RTVSPropertyOp43
 70
     1
102
RTVSPropertyOp44
 70
     1
102
RTVSPropertyOp45
 70
     1
102
RTVSPropertyOp46
 70
     1
102
RTVSPropertyOp47
 70
     1
102
RTVSPropertyOp48
 70
     1
102
RTVSPropertyOp49
 70
     1
102
RTVSPropertyOp50
 70
     1
102
RTVSPropertyOp51
 70
     0
102
RTVSPropertyOp52
 70
     0
102
RTVSPropertyOp53
 70
     1
102
RTVSPropertyOp54
 70
     1
102
RTVSPropertyOp55
 70
     1
102
RTVSPropertyOp56
 70
     1
102
RTVSPropertyOp57
 70
     1
102
RTVSPropertyOp58
 70
     1
102
RTVSPropertyOp59
 70
     1
102
RTVSPropertyOp60
 70
     1
102
RTVSPropertyOp61
 70
     1
102
RTVSPropertyOp62
 70
     1
  0
XRECORD
  5
6B9
102
{ACAD_REACTORS
330
6B8
102
}
330
6B8
100
AcDbXrecord
280
     1
102
RTVSPost2010Prop28
280
     0
102
RTVSPost2010PropOp28
 70
     1
102
RTVSPost2010Prop29
280
     1
102
RTVSPost2010PropOp29
 70
     1
102
RTVSPost2010Prop30
280
     1
102
RTVSPost2010PropOp30
 70
     1
102
RTVSPost2010Prop31
280
     0
102
RTVSPost2010PropOp31
 70
     1
102
RTVSPost2010Prop32
280
     0
102
RTVSPost2010PropOp32
 70
     1
102
RTVSPost2010Prop33
280
     0
102
RTVSPost2010PropOp33
 70
     1
102
RTVSPost2010Prop34
280
     0
102
RTVSPost2010PropOp34
 70
     1
102
RTVSPost2010Prop35
280
     0
102
RTVSPost2010PropOp35
 70
     1
102
RTVSPost2010Prop36
280
     0
102
RTVSPost2010PropOp36
 70
     1
102
RTVSPost2010Prop37
 90
       50
102
RTVSPost2010PropOp37
 70
     1
102
RTVSPost2010Prop38
140
0.0
102
RTVSPost2010PropOp38
 70
     1
102
RTVSPost2010Prop39
140
1.0
102
RTVSPost2010PropOp39
 70
     1
102
RTVSPost2010Prop40
 90
        0
102
RTVSPost2010PropOp40
 70
     1
102
RTVSPost2010Prop41ColorIndex
 90
       18
102
RTVSPost2010Prop41ColorRGB
 90
        0
102
RTVSPost2010PropOp41
 70
     1
102
RTVSPost2010Prop42
 90
       50
102
RTVSPost2010PropOp42
 70
     1
102
RTVSPost2010Prop43
 90
        3
102
RTVSPost2010PropOp43
 70
     1
102
RTVSPost2010Prop44ColorIndex
 90
        5
102
RTVSPost2010Prop44ColorRGB
 90
      255
102
RTVSPost2010PropOp44
 70
     1
102
RTVSPost2010Prop45
280
     0
102
RTVSPost2010PropOp45
 70
     1
102
RTVSPost2010Prop46
 90
       50
102
RTVSPost2010PropOp46
 70
     1
102
RTVSPost2010Prop47
 90
       50
102
RTVSPost2010PropOp47
 70
     1
102
RTVSPost2010Prop48
 90
       50
102
RTVSPost2010PropOp48
 70
     1
102
RTVSPost2010Prop49
280
     0
102
RTVSPost2010PropOp49
 70
     1
102
RTVSPost2010Prop50
 90
       50
102
RTVSPost2010PropOp50
 70
     1
102
RTVSPost2010Prop51ColorIndex
 90
      256
102
RTVSPost2010Prop51ColorRGB
 90
-16777216
102
RTVSPost2010PropOp51
 70
     0
102
RTVSPost2010Prop52
140
1.0
102
RTVSPost2010PropOp52
 70
     0
102
RTVSPost2010Prop53
 90
        2
102
RTVSPost2010PropOp53
 70
     1
102
RTVSPost2010Prop54
  1
strokes_ogs.tif
102
RTVSPost2010PropOp54
 70
     1
102
RTVSPost2010Prop55
280
     0
102
RTVSPost2010PropOp55
 70
     1
102
RTVSPost2010Prop56
140
1.0
102
RTVSPost2010PropOp56
 70
     1
102
RTVSPost2010Prop57
140
1.0
102
RTVSPost2010PropOp57
 70
     1
102
RTVSPropertyOp0
 70
     1
102
RTVSPropertyOp1
 70
     1
102
RTVSPropertyOp2
 70
     1
102
RTVSPropertyOp3
 70
     1
102
RTVSPropertyOp4
 70
     1
102
RTVSPropertyOp5
 70
     1
102
RTVSPropertyOp6
 70
     1
102
RTVSPropertyOp7
 70
     1
102
RTVSPropertyOp8
 70
     1
102
RTVSPropertyOp9
 70
     1
102
RTVSPropertyOp10
 70
     1
102
RTVSPropertyOp11
 70
     1
102
RTVSPropertyOp12
 70
     1
102
RTVSPropertyOp13
 70
     1
102
RTVSPropertyOp14
 70
     1
102
RTVSPropertyOp15
 70
     1
102
RTVSPropertyOp16
 70
     1
102
RTVSPropertyOp17
 70
     1
102
RTVSPropertyOp18
 70
     1
102
RTVSPropertyOp19
 70
     1
102
RTVSPropertyOp20
 70
     1
102
RTVSPropertyOp21
 70
     1
102
RTVSPropertyOp22
 70
     1
102
RTVSPropertyOp23
 70
     1
102
RTVSPropertyOp24
 70
     1
102
RTVSPropertyOp25
 70
     1
102
RTVSPropertyOp26
 70
     1
102
RTVSPropertyOp27
 70
     1
102
RTVSPropertyOp28
 70
     1
102
RTVSPropertyOp29
 70
     1
102
RTVSPropertyOp30
 70
     1
102
RTVSPropertyOp31
 70
     1
102
RTVSPropertyOp32
 70
     1
102
RTVSPropertyOp33
 70
     1
102
RTVSPropertyOp34
 70
     1
102
RTVSPropertyOp35
 70
     1
102
RTVSPropertyOp36
 70
     1
102
RTVSPropertyOp37
 70
     1
102
RTVSPropertyOp38
 70
     1
102
RTVSPropertyOp39
 70
     1
102
RTVSPropertyOp40
 70
     1
102
RTVSPropertyOp41
 70
     1
102
RTVSPropertyOp42
 70
     1
102
RTVSPropertyOp43
 70
     1
102
RTVSPropertyOp44
 70
     1
102
RTVSPropertyOp45
 70
     1
102
RTVSPropertyOp46
 70
     1
102
RTVSPropertyOp47
 70
     1
102
RTVSPropertyOp48
 70
     1
102
RTVSPropertyOp49
 70
     1
102
RTVSPropertyOp50
 70
     1
102
RTVSPropertyOp51
 70
     0
102
RTVSPropertyOp52
 70
     0
102
RTVSPropertyOp53
 70
     1
102
RTVSPropertyOp54
 70
     1
102
RTVSPropertyOp55
 70
     1
102
RTVSPropertyOp56
 70
     1
102
RTVSPropertyOp57
 70
     1
102
RTVSPropertyOp58
 70
     1
102
RTVSPropertyOp59
 70
     1
102
RTVSPropertyOp60
 70
     1
102
RTVSPropertyOp61
 70
     1
102
RTVSPropertyOp62
 70
     1
  0
XRECORD
  5
6D9
102
{ACAD_REACTORS
330
6D8
102
}
330
6D8
100
AcDbXrecord
280
     1
102
RTVSPost2010Prop28
280
     0
102
RTVSPost2010PropOp28
 70
     1
102
RTVSPost2010Prop29
280
     1
102
RTVSPost2010PropOp29
 70
     1
102
RTVSPost2010Prop30
280
     1
102
RTVSPost2010PropOp30
 70
     1
102
RTVSPost2010Prop31
280
     0
102
RTVSPost2010PropOp31
 70
     1
102
RTVSPost2010Prop32
280
     0
102
RTVSPost2010PropOp32
 70
     1
102
RTVSPost2010Prop33
280
     0
102
RTVSPost2010PropOp33
 70
     1
102
RTVSPost2010Prop34
280
     0
102
RTVSPost2010PropOp34
 70
     1
102
RTVSPost2010Prop35
280
     0
102
RTVSPost2010PropOp35
 70
     1
102
RTVSPost2010Prop36
280
     0
102
RTVSPost2010PropOp36
 70
     1
102
RTVSPost2010Prop37
 90
       50
102
RTVSPost2010PropOp37
 70
     1
102
RTVSPost2010Prop38
140
0.0
102
RTVSPost2010PropOp38
 70
     1
102
RTVSPost2010Prop39
140
1.0
102
RTVSPost2010PropOp39
 70
     1
102
RTVSPost2010Prop40
 90
        0
102
RTVSPost2010PropOp40
 70
     1
102
RTVSPost2010Prop41ColorIndex
 90
       18
102
RTVSPost2010Prop41ColorRGB
 90
        0
102
RTVSPost2010PropOp41
 70
     1
102
RTVSPost2010Prop42
 90
       50
102
RTVSPost2010PropOp42
 70
     1
102
RTVSPost2010Prop43
 90
        3
102
RTVSPost2010PropOp43
 70
     1
102
RTVSPost2010Prop44ColorIndex
 90
        5
102
RTVSPost2010Prop44ColorRGB
 90
      255
102
RTVSPost2010PropOp44
 70
     1
102
RTVSPost2010Prop45
280
     0
102
RTVSPost2010PropOp45
 70
     1
102
RTVSPost2010Prop46
 90
       50
102
RTVSPost2010PropOp46
 70
     1
102
RTVSPost2010Prop47
 90
       50
102
RTVSPost2010PropOp47
 70
     1
102
RTVSPost2010Prop48
 90
       50
102
RTVSPost2010PropOp48
 70
     1
102
RTVSPost2010Prop49
280
     0
102
RTVSPost2010PropOp49
 70
     1
102
RTVSPost2010Prop50
 90
       50
102
RTVSPost2010PropOp50
 70
     1
102
RTVSPost2010Prop51ColorIndex
 90
      256
102
RTVSPost2010Prop51ColorRGB
 90
-16777216
102
RTVSPost2010PropOp51
 70
     0
102
RTVSPost2010Prop52
140
1.0
102
RTVSPost2010PropOp52
 70
     0
102
RTVSPost2010Prop53
 90
        2
102
RTVSPost2010PropOp53
 70
     1
102
RTVSPost2010Prop54
  1
strokes_ogs.tif
102
RTVSPost2010PropOp54
 70
     1
102
RTVSPost2010Prop55
280
     0
102
RTVSPost2010PropOp55
 70
     1
102
RTVSPost2010Prop56
140
1.0
102
RTVSPost2010PropOp56
 70
     1
102
RTVSPost2010Prop57
140
1.0
102
RTVSPost2010PropOp57
 70
     1
102
RTVSPropertyOp0
 70
     1
102
RTVSPropertyOp1
 70
     1
102
RTVSPropertyOp2
 70
     1
102
RTVSPropertyOp3
 70
     1
102
RTVSPropertyOp4
 70
     1
102
RTVSPropertyOp5
 70
     1
102
RTVSPropertyOp6
 70
     1
102
RTVSPropertyOp7
 70
     1
102
RTVSPropertyOp8
 70
     1
102
RTVSPropertyOp9
 70
     1
102
RTVSPropertyOp10
 70
     1
102
RTVSPropertyOp11
 70
     1
102
RTVSPropertyOp12
 70
     1
102
RTVSPropertyOp13
 70
     1
102
RTVSPropertyOp14
 70
     1
102
RTVSPropertyOp15
 70
     1
102
RTVSPropertyOp16
 70
     1
102
RTVSPropertyOp17
 70
     1
102
RTVSPropertyOp18
 70
     1
102
RTVSPropertyOp19
 70
     1
102
RTVSPropertyOp20
 70
     1
102
RTVSPropertyOp21
 70
     1
102
RTVSPropertyOp22
 70
     1
102
RTVSPropertyOp23
 70
     1
102
RTVSPropertyOp24
 70
     1
102
RTVSPropertyOp25
 70
     1
102
RTVSPropertyOp26
 70
     1
102
RTVSPropertyOp27
 70
     1
102
RTVSPropertyOp28
 70
     1
102
RTVSPropertyOp29
 70
     1
102
RTVSPropertyOp30
 70
     1
102
RTVSPropertyOp31
 70
     1
102
RTVSPropertyOp32
 70
     1
102
RTVSPropertyOp33
 70
     1
102
RTVSPropertyOp34
 70
     1
102
RTVSPropertyOp35
 70
     1
102
RTVSPropertyOp36
 70
     1
102
RTVSPropertyOp37
 70
     1
102
RTVSPropertyOp38
 70
     1
102
RTVSPropertyOp39
 70
     1
102
RTVSPropertyOp40
 70
     1
102
RTVSPropertyOp41
 70
     1
102
RTVSPropertyOp42
 70
     1
102
RTVSPropertyOp43
 70
     1
102
RTVSPropertyOp44
 70
     1
102
RTVSPropertyOp45
 70
     1
102
RTVSPropertyOp46
 70
     1
102
RTVSPropertyOp47
 70
     1
102
RTVSPropertyOp48
 70
     1
102
RTVSPropertyOp49
 70
     1
102
RTVSPropertyOp50
 70
     1
102
RTVSPropertyOp51
 70
     0
102
RTVSPropertyOp52
 70
     0
102
RTVSPropertyOp53
 70
     1
102
RTVSPropertyOp54
 70
     1
102
RTVSPropertyOp55
 70
     1
102
RTVSPropertyOp56
 70
     1
102
RTVSPropertyOp57
 70
     1
102
RTVSPropertyOp58
 70
     1
102
RTVSPropertyOp59
 70
     1
102
RTVSPropertyOp60
 70
     1
102
RTVSPropertyOp61
 70
     1
102
RTVSPropertyOp62
 70
     1
  0
ENDSEC
  0
EOF
