  0
SECTION
  2
HEADER
  9
$ACADVER
  1
AC1015
  9
$ACADMAINTVER
 70
    20
  9
$DWGCODEPAGE
  3
ANSI_932
  9
$INSBASE
 10
0.0
 20
0.0
 30
0.0
  9
$EXTMIN
 10
10.70294856047377
 20
5.274676577618492
 30
0.0
  9
$EXTMAX
 10
857.7029485604734
 20
655.2746765776182
 30
0.0
  9
$LIMMIN
 10
-291.4212551116943
 20
-357.107795715332
  9
$LIMMAX
 10
850.9813117980957
 20
566.1494216918945
  9
$ORTHOMODE
 70
     0
  9
$REGENMODE
 70
     1
  9
$FILLMODE
 70
     1
  9
$QTEXTMODE
 70
     0
  9
$MIRRTEXT
 70
     1
  9
$LTSCALE
 40
0.0689312221497063
  9
$ATTMODE
 70
     1
  9
$TEXTSIZE
 40
2.5
  9
$TRACEWID
 40
1.0
  9
$TEXTSTYLE
  7
Standard
  9
$CLAYER
  8
0
  9
$CELTYPE
  6
ByLayer
  9
$CECOLOR
 62
   256
  9
$CELTSCALE
 40
1.0
  9
$DISPSILH
 70
     0
  9
$DIMSCALE
 40
1.0
  9
$DIMASZ
 40
2.5
  9
$DIMEXO
 40
0.625
  9
$DIMDLI
 40
3.75
  9
$DIMRND
 40
0.0
  9
$DIMDLE
 40
0.0
  9
$DIMEXE
 40
1.25
  9
$DIMTP
 40
0.0
  9
$DIMTM
 40
0.0
  9
$DIMTXT
 40
2.5
  9
$DIMCEN
 40
2.5
  9
$DIMTSZ
 40
0.0
  9
$DIMTOL
 70
     0
  9
$DIMLIM
 70
     0
  9
$DIMTIH
 70
     0
  9
$DIMTOH
 70
     0
  9
$DIMSE1
 70
     0
  9
$DIMSE2
 70
     0
  9
$DIMTAD
 70
     1
  9
$DIMZIN
 70
     0
  9
$DIMBLK
  1

  9
$DIMASO
 70
     1
  9
$DIMSHO
 70
     1
  9
$DIMPOST
  1

  9
$DIMAPOST
  1

  9
$DIMALT
 70
     0
  9
$DIMALTD
 70
     3
  9
$DIMALTF
 40
0.03937007874016
  9
$DIMLFAC
 40
1.0
  9
$DIMTOFL
 70
     1
  9
$DIMTVP
 40
0.0
  9
$DIMTIX
 70
     0
  9
$DIMSOXD
 70
     0
  9
$DIMSAH
 70
     0
  9
$DIMBLK1
  1

  9
$DIMBLK2
  1

  9
$DIMSTYLE
  2
Standard
  9
$DIMCLRD
 70
     0
  9
$DIMCLRE
 70
     0
  9
$DIMCLRT
 70
     0
  9
$DIMTFAC
 40
0.75
  9
$DIMGAP
 40
0.625
  9
$DIMJUST
 70
     0
  9
$DIMSD1
 70
     0
  9
$DIMSD2
 70
     0
  9
$DIMTOLJ
 70
     0
  9
$DIMTZIN
 70
     8
  9
$DIMALTZ
 70
     0
  9
$DIMALTTZ
 70
     0
  9
$DIMUPT
 70
     0
  9
$DIMDEC
 70
     2
  9
$DIMTDEC
 70
     2
  9
$DIMALTU
 70
     2
  9
$DIMALTTD
 70
     3
  9
$DIMTXSTY
  7
Standard
  9
$DIMAUNIT
 70
     0
  9
$DIMADEC
 70
     0
  9
$DIMALTRND
 40
0.0
  9
$DIMAZIN
 70
     0
  9
$DIMDSEP
 70
    46
  9
$DIMATFIT
 70
     3
  9
$DIMFRAC
 70
     0
  9
$DIMLDRBLK
  1

  9
$DIMLUNIT
 70
     2
  9
$DIMLWD
 70
    -2
  9
$DIMLWE
 70
    -2
  9
$DIMTMOVE
 70
     0
  9
$LUNITS
 70
     2
  9
$LUPREC
 70
     4
  9
$SKETCHINC
 40
1.0
  9
$FILLETRAD
 40
0.0
  9
$AUNITS
 70
     0
  9
$AUPREC
 70
     0
  9
$MENU
  1
.
  9
$ELEVATION
 40
0.0
  9
$PELEVATION
 40
0.0
  9
$THICKNESS
 40
0.0
  9
$LIMCHECK
 70
     0
  9
$CHAMFERA
 40
10.0
  9
$CHAMFERB
 40
10.0
  9
$CHAMFERC
 40
20.0
  9
$CHAMFERD
 40
0.0
  9
$SKPOLY
 70
     0
  9
$TDCREATE
 40
2455188.750000000
  9
$TDUCREATE
 40
2455188.375000000
  9
$TDUPDATE
 40
2459747.336501053
  9
$TDUUPDATE
 40
2459746.961501053
  9
$TDINDWG
 40
0.0104494213
  9
$TDUSRTIMER
 40
0.0104491551
  9
$USRTIMER
 70
     1
  9
$ANGBASE
 50
0.0
  9
$ANGDIR
 70
     0
  9
$PDMODE
 70
     0
  9
$PDSIZE
 40
0.0
  9
$PLINEWID
 40
0.0
  9
$SPLFRAME
 70
     0
  9
$SPLINETYPE
 70
     6
  9
$SPLINESEGS
 70
     8
  9
$HANDSEED
  5
74B
  9
$SURFTAB1
 70
     6
  9
$SURFTAB2
 70
     6
  9
$SURFTYPE
 70
     6
  9
$SURFU
 70
     6
  9
$SURFV
 70
     6
  9
$UCSBASE
  2

  9
$UCSNAME
  2

  9
$UCSORG
 10
0.0
 20
0.0
 30
0.0
  9
$UCSXDIR
 10
1.0
 20
0.0
 30
0.0
  9
$UCSYDIR
 10
0.0
 20
1.0
 30
0.0
  9
$UCSORTHOREF
  2

  9
$UCSORTHOVIEW
 70
     0
  9
$UCSORGTOP
 10
0.0
 20
0.0
 30
0.0
  9
$UCSORGBOTTOM
 10
0.0
 20
0.0
 30
0.0
  9
$UCSORGLEFT
 10
0.0
 20
0.0
 30
0.0
  9
$UCSORGRIGHT
 10
0.0
 20
0.0
 30
0.0
  9
$UCSORGFRONT
 10
0.0
 20
0.0
 30
0.0
  9
$UCSORGBACK
 10
0.0
 20
0.0
 30
0.0
  9
$PUCSBASE
  2

  9
$PUCSNAME
  2

  9
$PUCSORG
 10
0.0
 20
0.0
 30
0.0
  9
$PUCSXDIR
 10
1.0
 20
0.0
 30
0.0
  9
$PUCSYDIR
 10
0.0
 20
1.0
 30
0.0
  9
$PUCSORTHOREF
  2

  9
$PUCSORTHOVIEW
 70
     0
  9
$PUCSORGTOP
 10
0.0
 20
0.0
 30
0.0
  9
$PUCSORGBOTTOM
 10
0.0
 20
0.0
 30
0.0
  9
$PUCSORGLEFT
 10
0.0
 20
0.0
 30
0.0
  9
$PUCSORGRIGHT
 10
0.0
 20
0.0
 30
0.0
  9
$PUCSORGFRONT
 10
0.0
 20
0.0
 30
0.0
  9
$PUCSORGBACK
 10
0.0
 20
0.0
 30
0.0
  9
$USERI1
 70
     0
  9
$USERI2
 70
     0
  9
$USERI3
 70
     0
  9
$USERI4
 70
     0
  9
$USERI5
 70
     0
  9
$USERR1
 40
0.0
  9
$USERR2
 40
0.0
  9
$USERR3
 40
0.0
  9
$USERR4
 40
0.0
  9
$USERR5
 40
0.0
  9
$WORLDVIEW
 70
     1
  9
$SHADEDGE
 70
     3
  9
$SHADEDIF
 70
    70
  9
$TILEMODE
 70
     1
  9
$MAXACTVP
 70
    64
  9
$PINSBASE
 10
0.0
 20
0.0
 30
0.0
  9
$PLIMCHECK
 70
     0
  9
$PEXTMIN
 10
1.000000000000000E+20
 20
1.000000000000000E+20
 30
1.000000000000000E+20
  9
$PEXTMAX
 10
-1.000000000000000E+20
 20
-1.000000000000000E+20
 30
-1.000000000000000E+20
  9
$PLIMMIN
 10
0.0
 20
0.0
  9
$PLIMMAX
 10
420.0
 20
297.0
  9
$UNITMODE
 70
     0
  9
$VISRETAIN
 70
     0
  9
$PLINEGEN
 70
     0
  9
$PSLTSCALE
 70
     1
  9
$TREEDEPTH
 70
  3020
  9
$CMLSTYLE
  2
Standard
  9
$CMLJUST
 70
     0
  9
$CMLSCALE
 40
20.0
  9
$PROXYGRAPHICS
 70
     1
  9
$MEASUREMENT
 70
     1
  9
$CELWEIGHT
370
    -1
  9
$ENDCAPS
280
     0
  9
$JOINSTYLE
280
     0
  9
$LWDISPLAY
290
     0
  9
$INSUNITS
 70
     4
  9
$HYPERLINKBASE
  1

  9
$STYLESHEET
  1

  9
$XEDIT
290
     1
  9
$CEPSNTYPE
380
     0
  9
$PSTYLEMODE
290
     1
  9
$FINGERPRINTGUID
  2
{0583F420-12D1-473F-910F-DA9B65662C3A}
  9
$VERSIONGUID
  2
{3DB0B326-A6CE-4F84-8969-4D3696DE1EE6}
  9
$EXTNAMES
290
     1
  9
$PSVPSCALE
 40
0.0
  9
$OLESTARTUP
290
     0
  0
ENDSEC
  0
SECTION
  2
CLASSES
  0
CLASS
  1
ACDBDICTIONARYWDFLT
  2
AcDbDictionaryWithDefault
  3
ObjectDBX Classes
 90
        0
280
     0
281
     0
  0
CLASS
  1
VISUALSTYLE
  2
AcDbVisualStyle
  3
ObjectDBX Classes
 90
     4095
280
     0
281
     0
  0
CLASS
  1
MATERIAL
  2
AcDbMaterial
  3
ObjectDBX Classes
 90
     1153
280
     0
281
     0
  0
CLASS
  1
SCALE
  2
AcDbScale
  3
ObjectDBX Classes
 90
     1153
280
     0
281
     0
  0
CLASS
  1
TABLESTYLE
  2
AcDbTableStyle
  3
ObjectDBX Classes
 90
     4095
280
     0
281
     0
  0
CLASS
  1
MLEADERSTYLE
  2
AcDbMLeaderStyle
  3
ACDB_MLEADERSTYLE_CLASS
 90
     4095
280
     0
281
     0
  0
CLASS
  1
SUN
  2
AcDbSun
  3
SCENEOE
 90
    33921
280
     0
281
     0
  0
CLASS
  1
DICTIONARYVAR
  2
AcDbDictionaryVar
  3
ObjectDBX Classes
 90
        0
280
     0
281
     0
  0
CLASS
  1
ACDBSECTIONVIEWSTYLE
  2
AcDbSectionViewStyle
  3
ObjectDBX Classes
 90
     1025
280
     0
281
     0
  0
CLASS
  1
ACDBDETAILVIEWSTYLE
  2
AcDbDetailViewStyle
  3
ObjectDBX Classes
 90
     1025
280
     0
281
     0
  0
CLASS
  1
SORTENTSTABLE
  2
AcDbSortentsTable
  3
ObjectDBX Classes
 90
        0
280
     0
281
     0
  0
CLASS
  1
CELLSTYLEMAP
  2
AcDbCellStyleMap
  3
ObjectDBX Classes
 90
     1152
280
     0
281
     0
  0
CLASS
  1
ACDBPLACEHOLDER
  2
AcDbPlaceHolder
  3
ObjectDBX Classes
 90
        0
280
     0
281
     0
  0
CLASS
  1
LAYOUT
  2
AcDbLayout
  3
ObjectDBX Classes
 90
        0
280
     0
281
     0
  0
ENDSEC
  0
SECTION
  2
TABLES
  0
TABLE
  2
VPORT
  5
8
330
0
100
AcDbSymbolTable
 70
     1
  0
VPORT
  5
29
330
8
100
AcDbSymbolTableRecord
100
AcDbViewportTableRecord
  2
*Active
 70
     0
 10
0.0
 20
0.0
 11
1.0
 21
1.0
 12
730.0614086918372
 22
259.0556700239906
 13
0.0
 23
0.0
 14
10.0
 24
10.0
 15
10.0
 25
10.0
 16
0.0
 26
0.0
 36
1.0
 17
0.0
 27
0.0
 37
0.0
 40
877.4042896844353
 41
2.204301075268817
 42
50.0
 43
0.0
 44
0.0
 50
0.0
 51
0.0
 71
     0
 72
 20000
 73
     1
 74
     3
 75
     0
 76
     0
 77
     0
 78
     0
281
     0
 65
     1
110
0.0
120
0.0
130
0.0
111
1.0
121
0.0
131
0.0
112
0.0
122
1.0
132
0.0
 79
     0
146
0.0
1001
ACAD_NAV_VCDISPLAY
1070
     3
  0
ENDTAB
  0
TABLE
  2
LTYPE
  5
5
330
0
100
AcDbSymbolTable
 70
     2
  0
LTYPE
  5
14
330
5
100
AcDbSymbolTableRecord
100
AcDbLinetypeTableRecord
  2
ByBlock
 70
     0
  3

 72
    65
 73
     0
 40
0.0
  0
LTYPE
  5
15
330
5
100
AcDbSymbolTableRecord
100
AcDbLinetypeTableRecord
  2
ByLayer
 70
     0
  3

 72
    65
 73
     0
 40
0.0
  0
LTYPE
  5
16
330
5
100
AcDbSymbolTableRecord
100
AcDbLinetypeTableRecord
  2
Continuous
 70
     0
  3
Solid line
 72
    65
 73
     0
 40
0.0
  0
LTYPE
  5
405
330
5
100
AcDbSymbolTableRecord
100
AcDbLinetypeTableRecord
  2
CENTER2
 70
     0
  3
Center (.5x) ___ _ ___ _ ___ _ ___ _ ___ _ ___
 72
    65
 73
     4
 40
28.575
 49
19.05
 74
     0
 49
-3.174999999999998
 74
     0
 49
3.174999999999998
 74
     0
 49
-3.174999999999998
 74
     0
  0
ENDTAB
  0
TABLE
  2
LAYER
  5
2
102
{ACAD_XDICTIONARY
360
40B
102
}
330
0
100
AcDbSymbolTable
 70
     4
  0
LAYER
  5
10
102
{ACAD_XDICTIONARY
360
66F
102
}
330
2
100
AcDbSymbolTableRecord
100
AcDbLayerTableRecord
  2
0
 70
     0
 62
     7
  6
Continuous
370
    -3
390
F
  0
LAYER
  5
66
330
2
100
AcDbSymbolTableRecord
100
AcDbLayerTableRecord
  2
Defpoints
 70
     0
 62
     7
  6
Continuous
290
     0
370
    -3
390
F
  0
LAYER
  5
406
102
{ACAD_XDICTIONARY
360
407
102
}
330
2
100
AcDbSymbolTableRecord
100
AcDbLayerTableRecord
  2
中心線
 70
     0
 62
     3
  6
CENTER2
370
    -3
390
F
  0
LAYER
  5
408
102
{ACAD_XDICTIONARY
360
409
102
}
330
2
100
AcDbSymbolTableRecord
100
AcDbLayerTableRecord
  2
実線
 70
     0
 62
     7
  6
Continuous
370
    -3
390
F
  0
ENDTAB
  0
TABLE
  2
STYLE
  5
3
330
0
100
AcDbSymbolTable
 70
     1
  0
STYLE
  5
11
330
3
100
AcDbSymbolTableRecord
100
AcDbTextStyleTableRecord
  2
Standard
 70
     0
 40
0.0
 41
1.0
 50
0.0
 71
     0
 42
2.5
  3
txt
  4
extfont2
  0
ENDTAB
  0
TABLE
  2
VIEW
  5
6
330
0
100
AcDbSymbolTable
 70
     0
  0
ENDTAB
  0
TABLE
  2
UCS
  5
7
330
0
100
AcDbSymbolTable
 70
     0
  0
ENDTAB
  0
TABLE
  2
APPID
  5
9
330
0
100
AcDbSymbolTable
 70
     3
  0
APPID
  5
12
330
9
100
AcDbSymbolTableRecord
100
AcDbRegAppTableRecord
  2
ACAD
 70
     0
  0
APPID
  5
25C
330
9
100
AcDbSymbolTableRecord
100
AcDbRegAppTableRecord
  2
ACAD_MLEADERVER
 70
     0
  0
APPID
  5
40A
330
9
100
AcDbSymbolTableRecord
100
AcDbRegAppTableRecord
  2
ACAD_NAV_VCDISPLAY
 70
     0
  0
ENDTAB
  0
TABLE
  2
DIMSTYLE
  5
A
330
0
100
AcDbSymbolTable
 70
     1
100
AcDbDimStyleTable
 71
     0
  0
DIMSTYLE
105
27
330
A
100
AcDbSymbolTableRecord
100
AcDbDimStyleTableRecord
  2
Standard
 70
     0
 41
2.5
 42
0.625
 43
3.75
 44
1.25
 73
     0
 74
     0
 77
     1
140
2.5
141
2.5
143
0.03937007874016
146
0.75
147
0.625
171
     3
172
     1
271
     2
272
     2
274
     3
283
     0
284
     8
340
11
  0
ENDTAB
  0
TABLE
  2
BLOCK_RECORD
  5
1
330
0
100
AcDbSymbolTable
 70
     1
  0
BLOCK_RECORD
  5
1F
102
{ACAD_XDICTIONARY
360
29B
102
}
330
1
100
AcDbSymbolTableRecord
100
AcDbBlockTableRecord
  2
*Model_Space
340
22
  0
BLOCK_RECORD
  5
1B
330
1
100
AcDbSymbolTableRecord
100
AcDbBlockTableRecord
  2
*Paper_Space
340
1E
  0
BLOCK_RECORD
  5
23
330
1
100
AcDbSymbolTableRecord
100
AcDbBlockTableRecord
  2
*Paper_Space0
340
266
  0
ENDTAB
  0
ENDSEC
  0
SECTION
  2
BLOCKS
  0
BLOCK
  5
20
330
1F
100
AcDbEntity
  8
0
100
AcDbBlockBegin
  2
*Model_Space
 70
     0
 10
0.0
 20
0.0
 30
0.0
  3
*Model_Space
  1

  0
ENDBLK
  5
21
330
1F
100
AcDbEntity
  8
0
100
AcDbBlockEnd
  0
BLOCK
  5
1C
330
1B
100
AcDbEntity
 67
     1
  8
0
100
AcDbBlockBegin
  2
*Paper_Space
 70
     0
 10
0.0
 20
0.0
 30
0.0
  3
*Paper_Space
  1

  0
ENDBLK
  5
1D
330
1B
100
AcDbEntity
 67
     1
  8
0
100
AcDbBlockEnd
  0
BLOCK
  5
24
330
23
100
AcDbEntity
 67
     1
  8
0
100
AcDbBlockBegin
  2
*Paper_Space0
 70
     0
 10
0.0
 20
0.0
 30
0.0
  3
*Paper_Space0
  1

  0
ENDBLK
  5
25
330
23
100
AcDbEntity
 67
     1
  8
0
100
AcDbBlockEnd
  0
ENDSEC
  0
SECTION
  2
ENTITIES
  0
LINE
  5
26C
102
{ACAD_REACTORS
330
66E
102
}
330
1F
100
AcDbEntity
  8
実線
100
AcDbLine
 10
332.2029485604744
 20
581.7246765776181
 30
0.0
 11
332.2029485604744
 21
584.7246765776183
 31
0.0
  0
LINE
  5
26D
102
{ACAD_REACTORS
330
66E
102
}
330
1F
100
AcDbEntity
  8
実線
100
AcDbLine
 10
325.7029485604743
 20
581.7246765776181
 30
0.0
 11
332.2029485604744
 21
581.7246765776181
 31
0.0
  0
LINE
  5
26E
102
{ACAD_REACTORS
330
66E
102
}
330
1F
100
AcDbEntity
  8
実線
100
AcDbLine
 10
332.2029485604744
 20
584.7246765776183
 30
0.0
 11
325.7029485604743
 21
584.7246765776183
 31
0.0
  0
CIRCLE
  5
26F
102
{ACAD_REACTORS
330
66E
102
}
330
1F
100
AcDbEntity
  8
実線
100
AcDbCircle
 10
305.7029485604743
 20
600.2746765776181
 30
0.0
 40
12.5
  0
LINE
  5
270
102
{ACAD_REACTORS
330
66E
102
}
330
1F
100
AcDbEntity
  8
実線
100
AcDbLine
 10
240.8029485604744
 20
581.2246765776182
 30
0.0
 11
259.4741966846125
 21
581.2246765776182
 31
0.0
  0
LINE
  5
271
102
{ACAD_REACTORS
330
66E
102
}
330
1F
100
AcDbEntity
  8
実線
100
AcDbLine
 10
259.4741966846125
 20
619.3246765776181
 30
0.0
 11
240.8029485604744
 21
619.3246765776181
 31
0.0
  0
LINE
  5
272
102
{ACAD_REACTORS
330
66E
102
}
330
1F
100
AcDbEntity
  8
実線
100
AcDbLine
 10
240.8029485604744
 20
619.3246765776181
 30
0.0
 11
238.4529485604744
 21
625.5246765776182
 31
0.0
  0
LINE
  5
273
102
{ACAD_REACTORS
330
66E
102
}
330
1F
100
AcDbEntity
  8
実線
100
AcDbLine
 10
238.4529485604744
 20
575.0246765776181
 30
0.0
 11
240.8029485604744
 21
581.2246765776182
 31
0.0
  0
LINE
  5
274
102
{ACAD_REACTORS
330
66E
102
}
330
1F
100
AcDbEntity
  8
実線
100
AcDbLine
 10
240.8029485604744
 20
619.3246765776181
 30
0.0
 11
240.8029485604744
 21
581.2246765776182
 31
0.0
  0
LINE
  5
275
102
{ACAD_REACTORS
330
66E
102
}
330
1F
100
AcDbEntity
  8
実線
100
AcDbLine
 10
235.7029485604745
 20
575.0246765776181
 30
0.0
 11
238.4529485604744
 21
575.0246765776181
 31
0.0
  0
LINE
  5
276
102
{ACAD_REACTORS
330
66E
102
}
330
1F
100
AcDbEntity
  8
実線
100
AcDbLine
 10
238.4529485604744
 20
625.5246765776182
 30
0.0
 11
235.7029485604745
 21
625.5246765776182
 31
0.0
  0
LINE
  5
277
102
{ACAD_REACTORS
330
66E
102
}
330
1F
100
AcDbEntity
  8
実線
100
AcDbLine
 10
235.7029485604745
 20
625.5246765776182
 30
0.0
 11
235.7029485604745
 21
575.0246765776181
 31
0.0
  0
LINE
  5
278
102
{ACAD_REACTORS
330
66E
102
}
330
1F
100
AcDbEntity
  8
実線
100
AcDbLine
 10
238.4529485604744
 20
625.5246765776182
 30
0.0
 11
238.4529485604744
 21
575.0246765776181
 31
0.0
  0
CIRCLE
  5
279
102
{ACAD_REACTORS
330
66E
102
}
330
1F
100
AcDbEntity
  8
実線
100
AcDbCircle
 10
305.7029485604743
 20
600.2746765776181
 30
0.0
 40
35.0
  0
ARC
  5
27A
102
{ACAD_REACTORS
330
66E
102
}
330
1F
100
AcDbEntity
  8
実線
100
AcDbCircle
 10
305.7029485604743
 20
600.2746765776181
 30
0.0
 40
25.0
100
AcDbArc
 50
233.1301023541579
 51
293.0739180656313
  0
CIRCLE
  5
27B
102
{ACAD_REACTORS
330
66E
102
}
330
1F
100
AcDbEntity
  8
実線
100
AcDbCircle
 10
305.7029485604743
 20
600.2746765776181
 30
0.0
 40
7.5
  0
LINE
  5
27C
102
{ACAD_REACTORS
330
66E
102
}
330
1F
100
AcDbEntity
  8
実線
100
AcDbLine
 10
300.7029485604743
 20
587.1746765776181
 30
0.0
 11
300.7029485604743
 21
579.2746765776181
 31
0.0
  0
LINE
  5
27D
102
{ACAD_REACTORS
330
66E
102
}
330
1F
100
AcDbEntity
  8
実線
100
AcDbLine
 10
300.7029485604743
 20
587.1746765776181
 30
0.0
 11
325.7029485604743
 21
587.1746765776181
 31
0.0
  0
LINE
  5
27E
102
{ACAD_REACTORS
330
66E
102
}
330
1F
100
AcDbEntity
  8
実線
100
AcDbLine
 10
320.7029485604743
 20
579.2746765776181
 30
0.0
 11
325.7029485604743
 21
579.2746765776181
 31
0.0
  0
LINE
  5
27F
102
{ACAD_REACTORS
330
66E
102
}
330
1F
100
AcDbEntity
  8
実線
100
AcDbLine
 10
325.7029485604743
 20
579.2746765776181
 30
0.0
 11
325.7029485604743
 21
587.1746765776181
 31
0.0
  0
ARC
  5
280
102
{ACAD_REACTORS
330
66E
102
}
330
1F
100
AcDbEntity
  8
実線
100
AcDbCircle
 10
344.6801183293583
 20
636.9220535206904
 30
0.0
 40
7.999999999999995
100
AcDbArc
 50
325.0000000000003
 51
43.23542625711335
  0
ARC
  5
281
102
{ACAD_REACTORS
330
66E
102
}
330
1F
100
AcDbEntity
  8
実線
100
AcDbCircle
 10
305.7029485604745
 20
600.274676577618
 30
0.0
 40
61.50000000000009
100
AcDbArc
 50
43.23542625711335
 51
46.76457374288665
  0
ARC
  5
282
102
{ACAD_REACTORS
330
66E
102
}
330
1F
100
AcDbEntity
  8
実線
100
AcDbCircle
 10
342.3503255035463
 20
639.2518463465022
 30
0.0
 40
8.000000000000008
100
AcDbArc
 50
46.76457374288665
 51
125.0000000000009
  0
LINE
  5
283
102
{ACAD_REACTORS
330
66E
102
}
330
1F
100
AcDbEntity
  8
実線
100
AcDbLine
 10
337.761714012738
 20
645.805062700814
 30
0.0
 11
332.7737242346531
 21
642.312434657686
 31
0.0
  0
LINE
  5
284
102
{ACAD_REACTORS
330
66E
102
}
330
1F
100
AcDbEntity
  8
実線
100
AcDbLine
 10
278.6321728862958
 20
642.312434657686
 30
0.0
 11
273.6441831082108
 21
645.805062700814
 31
0.0
  0
ARC
  5
285
102
{ACAD_REACTORS
330
66E
102
}
330
1F
100
AcDbEntity
  8
実線
100
AcDbCircle
 10
269.0555716174023
 20
639.2518463465022
 30
0.0
 40
8.000000000000008
100
AcDbArc
 50
54.99999999999904
 51
133.2354262571133
  0
ARC
  5
286
102
{ACAD_REACTORS
330
66E
102
}
330
1F
100
AcDbEntity
  8
実線
100
AcDbCircle
 10
305.7029485604753
 20
600.2746765776175
 30
0.0
 40
61.50000000000114
100
AcDbArc
 50
133.2354262571133
 51
136.7645737428866
  0
ARC
  5
287
102
{ACAD_REACTORS
330
66E
102
}
330
1F
100
AcDbEntity
  8
実線
100
AcDbCircle
 10
266.7257787915904
 20
636.9220535206904
 30
0.0
 40
8.000000000000008
100
AcDbArc
 50
136.7645737428866
 51
214.9999999999987
  0
LINE
  5
288
102
{ACAD_REACTORS
330
66E
102
}
330
1F
100
AcDbEntity
  8
実線
100
AcDbLine
 10
260.1725624372785
 20
632.333442029882
 30
0.0
 11
263.6651904804067
 21
627.3454522517966
 31
0.0
  0
LINE
  5
289
102
{ACAD_REACTORS
330
66E
102
}
330
1F
100
AcDbEntity
  8
実線
100
AcDbLine
 10
263.6651904804067
 20
573.2039009034394
 30
0.0
 11
260.1725624372785
 21
568.2159111253546
 31
0.0
  0
ARC
  5
28A
102
{ACAD_REACTORS
330
66E
102
}
330
1F
100
AcDbEntity
  8
実線
100
AcDbCircle
 10
266.7257787915904
 20
563.6272996345462
 30
0.0
 40
7.999999999999996
100
AcDbArc
 50
145.0000000000003
 51
223.2354262571135
  0
ARC
  5
28B
102
{ACAD_REACTORS
330
66E
102
}
330
1F
100
AcDbEntity
  8
実線
100
AcDbCircle
 10
305.7029485604746
 20
600.2746765776181
 30
0.0
 40
61.50000000000008
100
AcDbArc
 50
223.2354262571135
 51
226.7645737428867
  0
ARC
  5
28C
102
{ACAD_REACTORS
330
66E
102
}
330
1F
100
AcDbEntity
  8
実線
100
AcDbCircle
 10
269.0555716174023
 20
561.2975068087344
 30
0.0
 40
8.000000000000021
100
AcDbArc
 50
226.7645737428867
 51
305.000000000001
  0
LINE
  5
28D
102
{ACAD_REACTORS
330
66E
102
}
330
1F
100
AcDbEntity
  8
実線
100
AcDbLine
 10
273.6441831082108
 20
554.7442904544224
 30
0.0
 11
278.6321728862958
 21
558.2369184975504
 31
0.0
  0
LINE
  5
28E
102
{ACAD_REACTORS
330
66E
102
}
330
1F
100
AcDbEntity
  8
実線
100
AcDbLine
 10
332.7737242346531
 20
558.2369184975504
 30
0.0
 11
337.761714012738
 21
554.7442904544224
 31
0.0
  0
ARC
  5
28F
102
{ACAD_REACTORS
330
66E
102
}
330
1F
100
AcDbEntity
  8
実線
100
AcDbCircle
 10
342.3503255035463
 20
561.2975068087344
 30
0.0
 40
7.999999999999986
100
AcDbArc
 50
234.999999999999
 51
313.2354262571133
  0
ARC
  5
290
102
{ACAD_REACTORS
330
66E
102
}
330
1F
100
AcDbEntity
  8
実線
100
AcDbCircle
 10
305.7029485604751
 20
600.2746765776175
 30
0.0
 40
61.49999999999885
100
AcDbArc
 50
313.2354262571133
 51
316.7645737428866
  0
ARC
  5
291
102
{ACAD_REACTORS
330
66E
102
}
330
1F
100
AcDbEntity
  8
実線
100
AcDbCircle
 10
344.6801183293583
 20
563.6272996345462
 30
0.0
 40
8.000000000000023
100
AcDbArc
 50
316.7645737428866
 51
34.99999999999963
  0
LINE
  5
292
102
{ACAD_REACTORS
330
66E
102
}
330
1F
100
AcDbEntity
  8
実線
100
AcDbLine
 10
351.23333468367
 20
568.2159111253546
 30
0.0
 11
347.7407066405421
 21
573.2039009034394
 31
0.0
  0
LINE
  5
293
102
{ACAD_REACTORS
330
66E
102
}
330
1F
100
AcDbEntity
  8
実線
100
AcDbLine
 10
347.7407066405421
 20
627.3454522517966
 30
0.0
 11
351.2333346836704
 21
632.333442029882
 31
0.0
  0
CIRCLE
  5
294
102
{ACAD_REACTORS
330
66E
102
}
330
1F
100
AcDbEntity
  8
実線
100
AcDbCircle
 10
305.7029485604743
 20
600.2746765776181
 30
0.0
 40
50.0
  0
ARC
  5
295
102
{ACAD_REACTORS
330
66E
102
}
330
1F
100
AcDbEntity
  8
実線
100
AcDbCircle
 10
305.7029485604743
 20
600.2746765776181
 30
0.0
 40
25.0
100
AcDbArc
 50
323.1301023541544
 51
233.1301023541579
  0
LINE
  5
296
102
{ACAD_REACTORS
330
66E
102
}
330
1F
100
AcDbEntity
  8
実線
100
AcDbLine
 10
290.7029485604743
 20
580.2746765776181
 30
0.0
 11
300.7029485604743
 21
580.2746765776181
 31
0.0
  0
LINE
  5
297
102
{ACAD_REACTORS
330
66E
102
}
330
1F
100
AcDbEntity
  8
実線
100
AcDbLine
 10
320.7029485604743
 20
579.2746765776181
 30
0.0
 11
320.7029485604743
 21
577.2746765776181
 31
0.0
  0
LINE
  5
298
102
{ACAD_REACTORS
330
66E
102
}
330
1F
100
AcDbEntity
  8
実線
100
AcDbLine
 10
300.7029485604743
 20
579.2746765776181
 30
0.0
 11
320.7029485604743
 21
579.2746765776181
 31
0.0
  0
LINE
  5
299
102
{ACAD_REACTORS
330
66E
102
}
330
1F
100
AcDbEntity
  8
実線
100
AcDbLine
 10
300.7029485604743
 20
577.2746765776181
 30
0.0
 11
300.7029485604743
 21
579.2746765776181
 31
0.0
  0
LINE
  5
29A
102
{ACAD_REACTORS
330
66E
102
}
330
1F
100
AcDbEntity
  8
実線
100
AcDbLine
 10
320.7029485604743
 20
577.2746765776181
 30
0.0
 11
300.7029485604743
 21
577.2746765776181
 31
0.0
  0
CIRCLE
  5
29D
102
{ACAD_REACTORS
330
66B
102
}
330
1F
100
AcDbEntity
  8
実線
100
AcDbCircle
 10
305.7029485604743
 20
60.27467657761842
 30
0.0
 40
25.25
  0
LINE
  5
29E
102
{ACAD_REACTORS
330
66B
102
}
330
1F
100
AcDbEntity
  8
実線
100
AcDbLine
 10
240.8029485604744
 20
41.22467657761842
 30
0.0
 11
270.5305517129464
 21
41.22467657761842
 31
0.0
  0
LINE
  5
29F
102
{ACAD_REACTORS
330
66B
102
}
330
1F
100
AcDbEntity
  8
実線
100
AcDbLine
 10
270.5305517129464
 20
79.32467657761844
 30
0.0
 11
240.8029485604744
 21
79.32467657761844
 31
0.0
  0
LINE
  5
2A0
102
{ACAD_REACTORS
330
66B
102
}
330
1F
100
AcDbEntity
  8
実線
100
AcDbLine
 10
240.8029485604744
 20
41.22467657761842
 30
0.0
 11
240.8029485604744
 21
79.32467657761844
 31
0.0
  0
LINE
  5
2A1
102
{ACAD_REACTORS
330
66B
102
}
330
1F
100
AcDbEntity
  8
実線
100
AcDbLine
 10
240.8029485604744
 20
79.32467657761844
 30
0.0
 11
238.4529485604744
 21
85.52467657761843
 31
0.0
  0
LINE
  5
2A2
102
{ACAD_REACTORS
330
66B
102
}
330
1F
100
AcDbEntity
  8
実線
100
AcDbLine
 10
238.4529485604744
 20
35.02467657761844
 30
0.0
 11
240.8029485604744
 21
41.22467657761842
 31
0.0
  0
LINE
  5
2A3
102
{ACAD_REACTORS
330
66B
102
}
330
1F
100
AcDbEntity
  8
実線
100
AcDbLine
 10
235.7029485604745
 20
35.02467657761844
 30
0.0
 11
235.7029485604745
 21
85.52467657761843
 31
0.0
  0
LINE
  5
2A4
102
{ACAD_REACTORS
330
66B
102
}
330
1F
100
AcDbEntity
  8
実線
100
AcDbLine
 10
238.4529485604744
 20
35.02467657761844
 30
0.0
 11
238.4529485604744
 21
85.52467657761843
 31
0.0
  0
LINE
  5
2A5
102
{ACAD_REACTORS
330
66B
102
}
330
1F
100
AcDbEntity
  8
実線
100
AcDbLine
 10
235.7029485604745
 20
35.02467657761844
 30
0.0
 11
238.4529485604744
 21
35.02467657761844
 31
0.0
  0
LINE
  5
2A6
102
{ACAD_REACTORS
330
66B
102
}
330
1F
100
AcDbEntity
  8
実線
100
AcDbLine
 10
238.4529485604744
 20
85.52467657761843
 30
0.0
 11
235.7029485604745
 21
85.52467657761843
 31
0.0
  0
ARC
  5
2A7
102
{ACAD_REACTORS
330
66B
102
}
330
1F
100
AcDbEntity
  8
実線
100
AcDbCircle
 10
305.7029485604743
 20
60.27467657761842
 30
0.0
 40
50.0
100
AcDbArc
 50
57.21994893713739
 51
122.7800510628626
  0
ARC
  5
2A8
102
{ACAD_REACTORS
330
66B
102
}
330
1F
100
AcDbEntity
  8
実線
100
AcDbCircle
 10
305.7029485604743
 20
60.27467657761842
 30
0.0
 40
50.0
100
AcDbArc
 50
147.2199489371374
 51
157.6043612805129
  0
ARC
  5
2A9
102
{ACAD_REACTORS
330
66B
102
}
330
1F
100
AcDbEntity
  8
実線
100
AcDbCircle
 10
305.7029485604743
 20
60.27467657761842
 30
0.0
 40
50.0
100
AcDbArc
 50
202.395638719487
 51
212.7800510628626
  0
ARC
  5
2AA
102
{ACAD_REACTORS
330
66B
102
}
330
1F
100
AcDbEntity
  8
実線
100
AcDbCircle
 10
305.7029485604743
 20
60.27467657761842
 30
0.0
 40
50.0
100
AcDbArc
 50
237.2199489371374
 51
302.7800510628626
  0
ARC
  5
2AB
102
{ACAD_REACTORS
330
66B
102
}
330
1F
100
AcDbEntity
  8
実線
100
AcDbCircle
 10
305.7029485604743
 20
60.27467657761842
 30
0.0
 40
50.0
100
AcDbArc
 50
327.2199489371374
 51
32.78005106286261
  0
LINE
  5
2AC
102
{ACAD_REACTORS
330
66B
102
}
330
1F
100
AcDbEntity
  8
実線
100
AcDbLine
 10
350.0029485604742
 20
71.52467657761843
 30
0.0
 11
344.0883298924346
 21
71.52467657761843
 31
0.0
  0
LINE
  5
2AD
102
{ACAD_REACTORS
330
66B
102
}
330
1F
100
AcDbEntity
  8
実線
100
AcDbLine
 10
350.0029485604742
 20
49.02467657761842
 30
0.0
 11
344.0883298924346
 21
49.02467657761842
 31
0.0
  0
LINE
  5
2AE
102
{ACAD_REACTORS
330
66B
102
}
330
1F
100
AcDbEntity
  8
実線
100
AcDbLine
 10
350.0029485604742
 20
49.02467657761842
 30
0.0
 11
350.0029485604742
 21
71.52467657761843
 31
0.0
  0
LINE
  5
2AF
102
{ACAD_REACTORS
330
66B
102
}
330
1F
100
AcDbEntity
  8
実線
100
AcDbLine
 10
269.2813980697555
 20
79.32467657761844
 30
0.0
 11
260.1725624372785
 21
92.33344202988206
 31
0.0
  0
ARC
  5
2B0
102
{ACAD_REACTORS
330
66B
102
}
330
1F
100
AcDbEntity
  8
実線
100
AcDbCircle
 10
266.7257787915904
 20
96.92205352069045
 30
0.0
 40
7.999999999999996
100
AcDbArc
 50
136.7645737428866
 51
215.0000000000003
  0
LINE
  5
2B1
102
{ACAD_REACTORS
330
66B
102
}
330
1F
100
AcDbEntity
  8
実線
100
AcDbLine
 10
273.6441831082108
 20
105.8050627008143
 30
0.0
 11
287.6740517500504
 21
95.98124291770616
 31
0.0
  0
ARC
  5
2B2
102
{ACAD_REACTORS
330
66B
102
}
330
1F
100
AcDbEntity
  8
実線
100
AcDbCircle
 10
269.0555716174023
 20
99.25184634650236
 30
0.0
 40
8.000000000000021
100
AcDbArc
 50
55.00000000000084
 51
133.2354262571133
  0
ARC
  5
2B3
102
{ACAD_REACTORS
330
66B
102
}
330
1F
100
AcDbEntity
  8
実線
100
AcDbCircle
 10
305.7029485604746
 20
60.27467657761855
 30
0.0
 40
61.50000000000008
100
AcDbArc
 50
133.2354262571133
 51
136.7645737428866
  0
LINE
  5
2B4
102
{ACAD_REACTORS
330
66B
102
}
330
1F
100
AcDbEntity
  8
実線
100
AcDbLine
 10
341.409514900562
 20
42.24577976719444
 30
0.0
 11
351.23333468367
 21
28.21591112535484
 31
0.0
  0
ARC
  5
2B5
102
{ACAD_REACTORS
330
66B
102
}
330
1F
100
AcDbEntity
  8
実線
100
AcDbCircle
 10
344.6801183293583
 20
23.62729963454643
 30
0.0
 40
7.999999999999995
100
AcDbArc
 50
316.7645737428866
 51
35.0000000000003
  0
LINE
  5
2B6
102
{ACAD_REACTORS
330
66B
102
}
330
1F
100
AcDbEntity
  8
実線
100
AcDbLine
 10
337.761714012738
 20
14.74429045442267
 30
0.0
 11
323.7318453708982
 21
24.56811023753073
 31
0.0
  0
ARC
  5
2B7
102
{ACAD_REACTORS
330
66B
102
}
330
1F
100
AcDbEntity
  8
実線
100
AcDbCircle
 10
342.3503255035463
 20
21.2975068087346
 30
0.0
 40
8.000000000000008
100
AcDbArc
 50
235.0000000000008
 51
313.2354262571133
  0
ARC
  5
2B8
102
{ACAD_REACTORS
330
66B
102
}
330
1F
100
AcDbEntity
  8
実線
100
AcDbCircle
 10
305.7029485604745
 20
60.2746765776186
 30
0.0
 40
61.50000000000009
100
AcDbArc
 50
313.2354262571133
 51
316.7645737428866
  0
LINE
  5
2B9
102
{ACAD_REACTORS
330
66B
102
}
330
1F
100
AcDbEntity
  8
実線
100
AcDbLine
 10
287.6740517500504
 20
24.56811023753073
 30
0.0
 11
273.6441831082108
 21
14.74429045442267
 31
0.0
  0
ARC
  5
2BA
102
{ACAD_REACTORS
330
66B
102
}
330
1F
100
AcDbEntity
  8
実線
100
AcDbCircle
 10
269.0555716174023
 20
21.2975068087346
 30
0.0
 40
8.000000000000008
100
AcDbArc
 50
226.7645737428867
 51
304.9999999999991
  0
LINE
  5
2BB
102
{ACAD_REACTORS
330
66B
102
}
330
1F
100
AcDbEntity
  8
実線
100
AcDbLine
 10
260.1725624372785
 20
28.21591112535489
 30
0.0
 11
269.2813980697555
 21
41.22467657761842
 31
0.0
  0
ARC
  5
2BC
102
{ACAD_REACTORS
330
66B
102
}
330
1F
100
AcDbEntity
  8
実線
100
AcDbCircle
 10
266.7257787915904
 20
23.62729963454649
 30
0.0
 40
8.000000000000008
100
AcDbArc
 50
144.9999999999997
 51
223.2354262571135
  0
ARC
  5
2BD
102
{ACAD_REACTORS
330
66B
102
}
330
1F
100
AcDbEntity
  8
実線
100
AcDbCircle
 10
305.7029485604753
 20
60.27467657761921
 30
0.0
 40
61.50000000000114
100
AcDbArc
 50
223.2354262571135
 51
226.7645737428867
  0
LINE
  5
2BE
102
{ACAD_REACTORS
330
66B
102
}
330
1F
100
AcDbEntity
  8
実線
100
AcDbLine
 10
351.23333468367
 20
92.33344202988206
 30
0.0
 11
341.409514900562
 21
78.30357338804252
 31
0.0
  0
ARC
  5
2BF
102
{ACAD_REACTORS
330
66B
102
}
330
1F
100
AcDbEntity
  8
実線
100
AcDbCircle
 10
344.6801183293583
 20
96.92205352069045
 30
0.0
 40
8.000000000000023
100
AcDbArc
 50
324.9999999999996
 51
43.23542625711335
  0
ARC
  5
2C0
102
{ACAD_REACTORS
330
66B
102
}
330
1F
100
AcDbEntity
  8
実線
100
AcDbCircle
 10
305.7029485604751
 20
60.27467657761929
 30
0.0
 40
61.49999999999885
100
AcDbArc
 50
43.23542625711335
 51
46.76457374288665
  0
ARC
  5
2C1
102
{ACAD_REACTORS
330
66B
102
}
330
1F
100
AcDbEntity
  8
実線
100
AcDbCircle
 10
342.3503255035463
 20
99.25184634650236
 30
0.0
 40
7.999999999999986
100
AcDbArc
 50
46.76457374288665
 51
124.9999999999992
  0
LINE
  5
2C2
102
{ACAD_REACTORS
330
66B
102
}
330
1F
100
AcDbEntity
  8
実線
100
AcDbLine
 10
323.7318453708982
 20
95.98124291770616
 30
0.0
 11
337.761714012738
 21
105.8050627008143
 31
0.0
  0
ARC
  5
2C3
102
{ACAD_REACTORS
330
66B
102
}
330
1F
100
AcDbEntity
  8
実線
100
AcDbCircle
 10
305.7029485604743
 20
60.27467657761842
 30
0.0
 40
40.0
100
AcDbArc
 50
204.1042497819163
 51
155.8957502180837
  0
LINE
  5
2C4
102
{ACAD_REACTORS
330
669
102
}
330
1F
100
AcDbEntity
  8
実線
100
AcDbLine
 10
779.7029485604738
 20
466.6246765776183
 30
0.0
 11
765.7029485604738
 21
466.6246765776183
 31
0.0
  0
LINE
  5
2C5
102
{ACAD_REACTORS
330
669
102
}
330
1F
100
AcDbEntity
  8
実線
100
AcDbLine
 10
765.7029485604738
 20
466.6246765776183
 30
0.0
 11
765.7029485604738
 21
458.7246765776183
 31
0.0
  0
LINE
  5
2C6
102
{ACAD_REACTORS
330
669
102
}
330
1F
100
AcDbEntity
  8
実線
100
AcDbLine
 10
779.7029485604738
 20
458.7246765776183
 30
0.0
 11
765.7029485604738
 21
458.7246765776183
 31
0.0
  0
LINE
  5
2C7
102
{ACAD_REACTORS
330
669
102
}
330
1F
100
AcDbEntity
  8
実線
100
AcDbLine
 10
765.7029485604738
 20
475.6746765776183
 30
0.0
 11
759.2029485604738
 21
475.6746765776183
 31
0.0
  0
LINE
  5
2C8
102
{ACAD_REACTORS
330
669
102
}
330
1F
100
AcDbEntity
  8
実線
100
AcDbLine
 10
759.2029485604738
 20
472.6746765776183
 30
0.0
 11
765.7029485604738
 21
472.6746765776183
 31
0.0
  0
LINE
  5
2C9
102
{ACAD_REACTORS
330
669
102
}
330
1F
100
AcDbEntity
  8
実線
100
AcDbLine
 10
759.2029485604738
 20
475.6746765776183
 30
0.0
 11
759.2029485604738
 21
472.6746765776183
 31
0.0
  0
LINE
  5
2CA
102
{ACAD_REACTORS
330
669
102
}
330
1F
100
AcDbEntity
  8
実線
100
AcDbLine
 10
773.2029485604738
 20
476.6746765776183
 30
0.0
 11
798.2029485604738
 21
476.6746765776183
 31
0.0
  0
LINE
  5
2CB
102
{ACAD_REACTORS
330
669
102
}
330
1F
100
AcDbEntity
  8
実線
100
AcDbLine
 10
798.2029485604738
 20
471.6746765776183
 30
0.0
 11
798.2029485604738
 21
476.6746765776183
 31
0.0
  0
LINE
  5
2CC
102
{ACAD_REACTORS
330
669
102
}
330
1F
100
AcDbEntity
  8
実線
100
AcDbLine
 10
773.2029485604738
 20
476.6746765776183
 30
0.0
 11
773.2029485604738
 21
471.6746765776183
 31
0.0
  0
LINE
  5
2CD
102
{ACAD_REACTORS
330
669
102
}
330
1F
100
AcDbEntity
  8
実線
100
AcDbLine
 10
798.2029485604738
 20
471.6746765776183
 30
0.0
 11
773.2029485604738
 21
471.6746765776183
 31
0.0
  0
LINE
  5
2CE
102
{ACAD_REACTORS
330
669
102
}
330
1F
100
AcDbEntity
  8
実線
100
AcDbLine
 10
804.7529485604737
 20
208.3746765776183
 30
0.0
 11
804.7529485604737
 21
217.4746765776184
 31
0.0
  0
LINE
  5
2CF
102
{ACAD_REACTORS
330
669
102
}
330
1F
100
AcDbEntity
  8
実線
100
AcDbLine
 10
766.6529485604737
 20
217.4746765776184
 30
0.0
 11
766.6529485604737
 21
208.3746765776183
 31
0.0
  0
LINE
  5
2D0
102
{ACAD_REACTORS
330
669
102
}
330
1F
100
AcDbEntity
  8
実線
100
AcDbLine
 10
766.6529485604737
 20
208.3746765776183
 30
0.0
 11
804.7529485604737
 21
208.3746765776183
 31
0.0
  0
LINE
  5
2D1
102
{ACAD_REACTORS
330
669
102
}
330
1F
100
AcDbEntity
  8
実線
100
AcDbLine
 10
766.6529485604737
 20
208.3746765776183
 30
0.0
 11
760.4529485604738
 21
206.0246765776184
 31
0.0
  0
LINE
  5
2D2
102
{ACAD_REACTORS
330
669
102
}
330
1F
100
AcDbEntity
  8
実線
100
AcDbLine
 10
810.9529485604738
 20
206.0246765776184
 30
0.0
 11
804.7529485604737
 21
208.3746765776183
 31
0.0
  0
LINE
  5
2D3
102
{ACAD_REACTORS
330
669
102
}
330
1F
100
AcDbEntity
  8
実線
100
AcDbLine
 10
760.4529485604738
 20
203.2746765776184
 30
0.0
 11
810.9529485604738
 21
203.2746765776184
 31
0.0
  0
LINE
  5
2D4
102
{ACAD_REACTORS
330
669
102
}
330
1F
100
AcDbEntity
  8
実線
100
AcDbLine
 10
760.4529485604738
 20
206.0246765776184
 30
0.0
 11
810.9529485604738
 21
206.0246765776184
 31
0.0
  0
LINE
  5
2D5
102
{ACAD_REACTORS
330
669
102
}
330
1F
100
AcDbEntity
  8
実線
100
AcDbLine
 10
810.9529485604738
 20
203.2746765776184
 30
0.0
 11
810.9529485604738
 21
206.0246765776184
 31
0.0
  0
LINE
  5
2D6
102
{ACAD_REACTORS
330
669
102
}
330
1F
100
AcDbEntity
  8
実線
100
AcDbLine
 10
760.4529485604738
 20
206.0246765776184
 30
0.0
 11
760.4529485604738
 21
203.2746765776184
 31
0.0
  0
LINE
  5
2D7
102
{ACAD_REACTORS
330
669
102
}
330
1F
100
AcDbEntity
  8
実線
100
AcDbLine
 10
850.6029485604736
 20
259.3246765776185
 30
0.0
 11
832.6801183293575
 21
259.3246765776185
 31
0.0
  0
LINE
  5
2D8
102
{ACAD_REACTORS
330
669
102
}
330
1F
100
AcDbEntity
  8
実線
100
AcDbLine
 10
821.8373615136966
 20
221.2246765776184
 30
0.0
 11
850.6029485604736
 21
221.2246765776184
 31
0.0
  0
LINE
  5
2D9
102
{ACAD_REACTORS
330
669
102
}
330
1F
100
AcDbEntity
  8
実線
100
AcDbLine
 10
850.6029485604736
 20
221.2246765776184
 30
0.0
 11
850.6029485604736
 21
259.3246765776185
 31
0.0
  0
LINE
  5
2DA
102
{ACAD_REACTORS
330
669
102
}
330
1F
100
AcDbEntity
  8
実線
100
AcDbLine
 10
850.6029485604736
 20
221.2246765776184
 30
0.0
 11
852.9529485604738
 21
215.0246765776185
 31
0.0
  0
LINE
  5
2DB
102
{ACAD_REACTORS
330
669
102
}
330
1F
100
AcDbEntity
  8
実線
100
AcDbLine
 10
852.9529485604738
 20
265.5246765776184
 30
0.0
 11
850.6029485604736
 21
259.3246765776185
 31
0.0
  0
LINE
  5
2DC
102
{ACAD_REACTORS
330
669
102
}
330
1F
100
AcDbEntity
  8
実線
100
AcDbLine
 10
855.7029485604736
 20
215.0246765776185
 30
0.0
 11
855.7029485604736
 21
265.5246765776184
 31
0.0
  0
LINE
  5
2DD
102
{ACAD_REACTORS
330
669
102
}
330
1F
100
AcDbEntity
  8
実線
100
AcDbLine
 10
852.9529485604738
 20
215.0246765776185
 30
0.0
 11
852.9529485604738
 21
265.5246765776184
 31
0.0
  0
LINE
  5
2DE
102
{ACAD_REACTORS
330
669
102
}
330
1F
100
AcDbEntity
  8
実線
100
AcDbLine
 10
855.7029485604736
 20
265.5246765776184
 30
0.0
 11
852.9529485604738
 21
265.5246765776184
 31
0.0
  0
LINE
  5
2DF
102
{ACAD_REACTORS
330
669
102
}
330
1F
100
AcDbEntity
  8
実線
100
AcDbLine
 10
852.9529485604738
 20
215.0246765776185
 30
0.0
 11
855.7029485604736
 21
215.0246765776185
 31
0.0
  0
LINE
  5
2E0
102
{ACAD_REACTORS
330
669
102
}
330
1F
100
AcDbEntity
  8
実線
100
AcDbLine
 10
791.7029485604738
 20
281.6746765776183
 30
0.0
 11
791.7029485604738
 21
308.6746765776184
 31
0.0
  0
LINE
  5
2E1
102
{ACAD_REACTORS
330
669
102
}
330
1F
100
AcDbEntity
  8
実線
100
AcDbLine
 10
779.7029485604738
 20
308.6746765776184
 30
0.0
 11
779.7029485604738
 21
281.6746765776183
 31
0.0
  0
LINE
  5
2E2
102
{ACAD_REACTORS
330
669
102
}
330
1F
100
AcDbEntity
  8
実線
100
AcDbLine
 10
735.7029485604738
 20
428.1746765776181
 30
0.0
 11
835.7029485604737
 21
428.1746765776181
 31
0.0
  0
LINE
  5
2E3
102
{ACAD_REACTORS
330
669
102
}
330
1F
100
AcDbEntity
  8
実線
100
AcDbLine
 10
835.7029485604737
 20
352.1746765776184
 30
0.0
 11
835.7029485604737
 21
428.1746765776183
 31
0.0
  0
LINE
  5
2E4
102
{ACAD_REACTORS
330
669
102
}
330
1F
100
AcDbEntity
  8
実線
100
AcDbLine
 10
735.7029485604738
 20
428.1746765776181
 30
0.0
 11
735.7029485604738
 21
352.1746765776184
 31
0.0
  0
LINE
  5
2E5
102
{ACAD_REACTORS
330
669
102
}
330
1F
100
AcDbEntity
  8
実線
100
AcDbLine
 10
735.7029485604738
 20
352.1746765776184
 30
0.0
 11
835.7029485604737
 21
352.1746765776184
 31
0.0
  0
LINE
  5
2E6
102
{ACAD_REACTORS
330
669
102
}
330
1F
100
AcDbEntity
  8
実線
100
AcDbLine
 10
750.7029485604738
 20
443.1746765776183
 30
0.0
 11
820.7029485604738
 21
443.1746765776183
 31
0.0
  0
LINE
  5
2E7
102
{ACAD_REACTORS
330
669
102
}
330
1F
100
AcDbEntity
  8
実線
100
AcDbLine
 10
820.7029485604738
 20
432.6746765776183
 30
0.0
 11
820.7029485604738
 21
443.1746765776183
 31
0.0
  0
LINE
  5
2E8
102
{ACAD_REACTORS
330
669
102
}
330
1F
100
AcDbEntity
  8
実線
100
AcDbLine
 10
750.7029485604738
 20
443.1746765776183
 30
0.0
 11
750.7029485604738
 21
432.6746765776183
 31
0.0
  0
LINE
  5
2E9
102
{ACAD_REACTORS
330
669
102
}
330
1F
100
AcDbEntity
  8
実線
100
AcDbLine
 10
791.7029485604738
 20
450.1746765776183
 30
0.0
 11
791.7029485604738
 21
471.6746765776183
 31
0.0
  0
LINE
  5
2EA
102
{ACAD_REACTORS
330
669
102
}
330
1F
100
AcDbEntity
  8
実線
100
AcDbLine
 10
779.7029485604738
 20
471.6746765776183
 30
0.0
 11
779.7029485604738
 21
450.1746765776183
 31
0.0
  0
LINE
  5
2EB
102
{ACAD_REACTORS
330
669
102
}
330
1F
100
AcDbEntity
  8
実線
100
AcDbLine
 10
760.7029485604738
 20
448.1746765776184
 30
0.0
 11
810.7029485604737
 21
448.1746765776184
 31
0.0
  0
LINE
  5
2EC
102
{ACAD_REACTORS
330
669
102
}
330
1F
100
AcDbEntity
  8
実線
100
AcDbLine
 10
810.7029485604737
 20
443.1746765776183
 30
0.0
 11
810.7029485604737
 21
448.1746765776184
 31
0.0
  0
LINE
  5
2ED
102
{ACAD_REACTORS
330
669
102
}
330
1F
100
AcDbEntity
  8
実線
100
AcDbLine
 10
760.7029485604738
 20
448.1746765776184
 30
0.0
 11
760.7029485604738
 21
443.1746765776183
 31
0.0
  0
LINE
  5
2EE
102
{ACAD_REACTORS
330
669
102
}
330
1F
100
AcDbEntity
  8
実線
100
AcDbLine
 10
778.2029485604738
 20
481.9746765776183
 30
0.0
 11
793.2029485604738
 21
481.9746765776183
 31
0.0
  0
LINE
  5
2EF
102
{ACAD_REACTORS
330
669
102
}
330
1F
100
AcDbEntity
  8
実線
100
AcDbLine
 10
793.2029485604738
 20
476.6746765776183
 30
0.0
 11
793.2029485604738
 21
481.9746765776183
 31
0.0
  0
LINE
  5
2F0
102
{ACAD_REACTORS
330
669
102
}
330
1F
100
AcDbEntity
  8
実線
100
AcDbLine
 10
778.2029485604738
 20
481.9746765776183
 30
0.0
 11
778.2029485604738
 21
476.6746765776183
 31
0.0
  0
LINE
  5
2F1
102
{ACAD_REACTORS
330
669
102
}
330
1F
100
AcDbEntity
  8
実線
100
AcDbLine
 10
778.2029485604738
 20
478.1246765776184
 30
0.0
 11
765.7029485604738
 21
478.1246765776184
 31
0.0
  0
LINE
  5
2F2
102
{ACAD_REACTORS
330
669
102
}
330
1F
100
AcDbEntity
  8
実線
100
AcDbLine
 10
765.7029485604738
 20
478.1246765776184
 30
0.0
 11
765.7029485604738
 21
470.2246765776183
 31
0.0
  0
LINE
  5
2F3
102
{ACAD_REACTORS
330
669
102
}
330
1F
100
AcDbEntity
  8
実線
100
AcDbLine
 10
779.7029485604738
 20
470.2246765776183
 30
0.0
 11
765.7029485604738
 21
470.2246765776183
 31
0.0
  0
LINE
  5
2F4
102
{ACAD_REACTORS
330
669
102
}
330
1F
100
AcDbEntity
  8
実線
100
AcDbLine
 10
765.7029485604738
 20
464.1746765776183
 30
0.0
 11
759.2029485604738
 21
464.1746765776183
 31
0.0
  0
LINE
  5
2F5
102
{ACAD_REACTORS
330
669
102
}
330
1F
100
AcDbEntity
  8
実線
100
AcDbLine
 10
759.2029485604738
 20
461.1746765776183
 30
0.0
 11
765.7029485604738
 21
461.1746765776183
 31
0.0
  0
LINE
  5
2F6
102
{ACAD_REACTORS
330
669
102
}
330
1F
100
AcDbEntity
  8
実線
100
AcDbLine
 10
759.2029485604738
 20
464.1746765776183
 30
0.0
 11
759.2029485604738
 21
461.1746765776183
 31
0.0
  0
LINE
  5
2F7
102
{ACAD_REACTORS
330
669
102
}
330
1F
100
AcDbEntity
  8
実線
100
AcDbLine
 10
738.7257787915896
 20
268.1746765776184
 30
0.0
 11
832.6801183293575
 21
268.1746765776184
 31
0.0
  0
LINE
  5
2F8
102
{ACAD_REACTORS
330
669
102
}
330
1F
100
AcDbEntity
  8
実線
100
AcDbLine
 10
738.7257787915896
 20
281.6746765776183
 30
0.0
 11
832.6801183293575
 21
281.6746765776183
 31
0.0
  0
LINE
  5
2F9
102
{ACAD_REACTORS
330
669
102
}
330
1F
100
AcDbEntity
  8
実線
100
AcDbLine
 10
832.6801183293575
 20
268.1746765776184
 30
0.0
 11
832.6801183293575
 21
281.6746765776183
 31
0.0
  0
LINE
  5
2FA
102
{ACAD_REACTORS
330
669
102
}
330
1F
100
AcDbEntity
  8
実線
100
AcDbLine
 10
738.7257787915896
 20
281.6746765776183
 30
0.0
 11
738.7257787915896
 21
268.1746765776184
 31
0.0
  0
LINE
  5
2FB
102
{ACAD_REACTORS
330
669
102
}
330
1F
100
AcDbEntity
  8
実線
100
AcDbLine
 10
767.6740517500494
 20
281.6746765776183
 30
0.0
 11
767.6740517500494
 21
268.1746765776184
 31
0.0
  0
LINE
  5
2FC
102
{ACAD_REACTORS
330
669
102
}
330
1F
100
AcDbEntity
  8
実線
100
AcDbLine
 10
803.7318453708977
 20
281.6746765776183
 30
0.0
 11
803.7318453708977
 21
268.1746765776184
 31
0.0
  0
LINE
  5
2FD
102
{ACAD_REACTORS
330
669
102
}
330
1F
100
AcDbEntity
  8
実線
100
AcDbLine
 10
830.0029485604737
 20
352.1746765776184
 30
0.0
 11
830.0029485604737
 21
322.6746765776184
 31
0.0
  0
ARC
  5
2FE
102
{ACAD_REACTORS
330
669
102
}
330
1F
100
AcDbEntity
  8
実線
100
AcDbCircle
 10
760.0029485604737
 20
322.6746765776184
 30
0.0
 40
70.00000000000003
100
AcDbArc
 50
324.1465329365337
 51
0.0
  0
ARC
  5
2FF
102
{ACAD_REACTORS
330
669
102
}
330
1F
100
AcDbEntity
  8
実線
100
AcDbCircle
 10
762.0029485604736
 20
322.6746765776184
 30
0.0
 40
57.99999999999997
100
AcDbArc
 50
315.0170320400987
 51
346.0320373253488
  0
ARC
  5
300
102
{ACAD_REACTORS
330
669
102
}
330
1F
100
AcDbEntity
  8
実線
100
AcDbCircle
 10
811.4029485604737
 20
322.6746765776184
 30
0.0
 40
70.00000000000003
100
AcDbArc
 50
180.0
 51
215.8534670634663
  0
LINE
  5
301
102
{ACAD_REACTORS
330
669
102
}
330
1F
100
AcDbEntity
  8
実線
100
AcDbLine
 10
741.4029485604737
 20
352.1746765776184
 30
0.0
 11
741.4029485604737
 21
322.6746765776184
 31
0.0
  0
ARC
  5
302
102
{ACAD_REACTORS
330
669
102
}
330
1F
100
AcDbEntity
  8
実線
100
AcDbCircle
 10
809.4029485604737
 20
322.6746765776184
 30
0.0
 40
57.99999999999997
100
AcDbArc
 50
193.9679626746511
 51
224.9829679599013
  0
LINE
  5
303
102
{ACAD_REACTORS
330
669
102
}
330
1F
100
AcDbEntity
  8
実線
100
AcDbLine
 10
747.3175672285138
 20
308.6746765776184
 30
0.0
 11
824.0883298924336
 21
308.6746765776184
 31
0.0
  0
LINE
  5
304
102
{ACAD_REACTORS
330
669
102
}
330
1F
100
AcDbEntity
  8
実線
100
AcDbLine
 10
824.0883298924336
 20
352.1746765776184
 30
0.0
 11
824.0883298924336
 21
308.6746765776184
 31
0.0
  0
LINE
  5
305
102
{ACAD_REACTORS
330
669
102
}
330
1F
100
AcDbEntity
  8
実線
100
AcDbLine
 10
747.3175672285138
 20
352.1746765776184
 30
0.0
 11
747.3175672285138
 21
308.6746765776184
 31
0.0
  0
LINE
  5
306
102
{ACAD_REACTORS
330
669
102
}
330
1F
100
AcDbEntity
  8
実線
100
AcDbLine
 10
832.6801183293575
 20
258.1746765776184
 30
0.0
 11
803.7318453708977
 21
258.1746765776184
 31
0.0
  0
LINE
  5
307
102
{ACAD_REACTORS
330
669
102
}
330
1F
100
AcDbEntity
  8
実線
100
AcDbLine
 10
832.6801183293575
 20
258.1746765776184
 30
0.0
 11
832.6801183293575
 21
268.1746765776184
 31
0.0
  0
LINE
  5
308
102
{ACAD_REACTORS
330
669
102
}
330
1F
100
AcDbEntity
  8
実線
100
AcDbLine
 10
738.7257787915896
 20
268.1746765776184
 30
0.0
 11
738.7257787915896
 21
258.1746765776185
 31
0.0
  0
LINE
  5
309
102
{ACAD_REACTORS
330
669
102
}
330
1F
100
AcDbEntity
  8
実線
100
AcDbLine
 10
738.7257787915896
 20
258.1746765776184
 30
0.0
 11
767.6740517500494
 21
258.1746765776184
 31
0.0
  0
LINE
  5
30A
102
{ACAD_REACTORS
330
669
102
}
330
1F
100
AcDbEntity
  8
実線
100
AcDbLine
 10
803.7318453708977
 20
268.1746765776184
 30
0.0
 11
803.7318453708977
 21
258.1746765776185
 31
0.0
  0
LINE
  5
30B
102
{ACAD_REACTORS
330
669
102
}
330
1F
100
AcDbEntity
  8
実線
100
AcDbLine
 10
767.6740517500494
 20
268.1746765776184
 30
0.0
 11
767.6740517500494
 21
258.1746765776185
 31
0.0
  0
LINE
  5
30C
102
{ACAD_REACTORS
330
669
102
}
330
1F
100
AcDbEntity
  8
実線
100
AcDbLine
 10
745.7029485604738
 20
258.1746765776184
 30
0.0
 11
745.7029485604738
 21
230.4746765776184
 31
0.0
  0
LINE
  5
30D
102
{ACAD_REACTORS
330
669
102
}
330
1F
100
AcDbEntity
  8
実線
100
AcDbLine
 10
812.7029485604738
 20
217.4746765776184
 30
0.0
 11
758.7029485604737
 21
217.4746765776184
 31
0.0
  0
ARC
  5
30E
102
{ACAD_REACTORS
330
669
102
}
330
1F
100
AcDbEntity
  8
実線
100
AcDbCircle
 10
758.7029485604737
 20
230.4746765776184
 30
0.0
 40
13.0
100
AcDbArc
 50
180.0
 51
270.0
  0
ARC
  5
30F
102
{ACAD_REACTORS
330
669
102
}
330
1F
100
AcDbEntity
  8
実線
100
AcDbCircle
 10
812.7029485604738
 20
230.4746765776184
 30
0.0
 40
13.0
100
AcDbArc
 50
270.0
 51
314.639772958605
  0
LINE
  5
310
102
{ACAD_REACTORS
330
669
102
}
330
1F
100
AcDbEntity
  8
実線
100
AcDbLine
 10
835.7029485604737
 20
428.1746765776183
 30
0.0
 11
835.7029485604737
 21
429.6746765776183
 31
0.0
  0
LINE
  5
311
102
{ACAD_REACTORS
330
669
102
}
330
1F
100
AcDbEntity
  8
実線
100
AcDbLine
 10
735.7029485604738
 20
429.6746765776183
 30
0.0
 11
735.7029485604738
 21
428.1746765776183
 31
0.0
  0
LINE
  5
312
102
{ACAD_REACTORS
330
669
102
}
330
1F
100
AcDbEntity
  8
実線
100
AcDbLine
 10
832.7029485604736
 20
432.6746765776183
 30
0.0
 11
738.7029485604736
 21
432.6746765776183
 31
0.0
  0
ARC
  5
313
102
{ACAD_REACTORS
330
669
102
}
330
1F
100
AcDbEntity
  8
実線
100
AcDbCircle
 10
832.7029485604736
 20
429.6746765776183
 30
0.0
 40
3.0
100
AcDbArc
 50
0.0
 51
90.0
  0
ARC
  5
314
102
{ACAD_REACTORS
330
669
102
}
330
1F
100
AcDbEntity
  8
実線
100
AcDbCircle
 10
738.7029485604736
 20
429.6746765776183
 30
0.0
 40
3.0
100
AcDbArc
 50
90.0
 51
180.0
  0
LINE
  5
315
102
{ACAD_REACTORS
330
669
102
}
330
1F
100
AcDbEntity
  8
実線
100
AcDbLine
 10
770.7029485604738
 20
478.1246765776184
 30
0.0
 11
770.7029485604738
 21
479.1746765776183
 31
0.0
  0
LINE
  5
316
102
{ACAD_REACTORS
330
669
102
}
330
1F
100
AcDbEntity
  8
実線
100
AcDbLine
 10
770.7029485604738
 20
466.6246765776183
 30
0.0
 11
770.7029485604738
 21
470.2246765776183
 31
0.0
  0
LINE
  5
317
102
{ACAD_REACTORS
330
669
102
}
330
1F
100
AcDbEntity
  8
実線
100
AcDbLine
 10
770.7029485604738
 20
450.1746765775711
 30
0.0
 11
770.7029485604738
 21
458.7246765776183
 31
0.0
  0
LINE
  5
318
102
{ACAD_REACTORS
330
669
102
}
330
1F
100
AcDbEntity
  8
実線
100
AcDbLine
 10
778.2029485604738
 20
479.1746765776183
 30
0.0
 11
770.7029485604738
 21
479.1746765776183
 31
0.0
  0
LINE
  5
319
102
{ACAD_REACTORS
330
669
102
}
330
1F
100
AcDbEntity
  8
実線
100
AcDbLine
 10
810.7029485604737
 20
448.1746765776184
 30
0.0
 11
810.7029485604737
 21
450.1746765776183
 31
0.0
  0
LINE
  5
31A
102
{ACAD_REACTORS
330
669
102
}
330
1F
100
AcDbEntity
  8
実線
100
AcDbLine
 10
760.7029485604738
 20
450.1746765776183
 30
0.0
 11
760.7029485604738
 21
448.1746765776184
 31
0.0
  0
LINE
  5
31B
102
{ACAD_REACTORS
330
669
102
}
330
1F
100
AcDbEntity
  8
実線
100
AcDbLine
 10
810.7029485604737
 20
450.1746765776183
 30
0.0
 11
760.7029485604738
 21
450.1746765776183
 31
0.0
  0
LINE
  5
31C
102
{ACAD_REACTORS
330
66A
102
}
330
1F
100
AcDbEntity
  8
実線
100
AcDbLine
 10
532.6029485604736
 20
466.6246765776183
 30
0.0
 11
532.6029485604736
 21
458.7246765776183
 31
0.0
  0
LINE
  5
31D
102
{ACAD_REACTORS
330
66A
102
}
330
1F
100
AcDbEntity
  8
実線
100
AcDbLine
 10
532.6029485604736
 20
458.7246765776183
 30
0.0
 11
524.7029485604737
 21
458.7246765776183
 31
0.0
  0
LINE
  5
31E
102
{ACAD_REACTORS
330
66A
102
}
330
1F
100
AcDbEntity
  8
実線
100
AcDbLine
 10
524.7029485604737
 20
466.6246765776183
 30
0.0
 11
532.6029485604736
 21
466.6246765776183
 31
0.0
  0
LINE
  5
31F
102
{ACAD_REACTORS
330
66A
102
}
330
1F
100
AcDbEntity
  8
実線
100
AcDbLine
 10
524.7029485604737
 20
458.7246765776183
 30
0.0
 11
524.7029485604737
 21
466.6246765776183
 31
0.0
  0
CIRCLE
  5
320
102
{ACAD_REACTORS
330
66A
102
}
330
1F
100
AcDbEntity
  8
実線
100
AcDbCircle
 10
528.6529485604737
 20
474.1746765776183
 30
0.0
 40
1.5
  0
LINE
  5
321
102
{ACAD_REACTORS
330
66A
102
}
330
1F
100
AcDbEntity
  8
実線
100
AcDbLine
 10
558.2029485604737
 20
476.6746765776183
 30
0.0
 11
533.2029485604737
 21
476.6746765776183
 31
0.0
  0
LINE
  5
322
102
{ACAD_REACTORS
330
66A
102
}
330
1F
100
AcDbEntity
  8
実線
100
AcDbLine
 10
533.2029485604737
 20
471.6746765776183
 30
0.0
 11
558.2029485604737
 21
471.6746765776183
 31
0.0
  0
LINE
  5
323
102
{ACAD_REACTORS
330
66A
102
}
330
1F
100
AcDbEntity
  8
実線
100
AcDbLine
 10
558.2029485604737
 20
471.6746765776183
 30
0.0
 11
558.2029485604737
 21
476.6746765776183
 31
0.0
  0
LINE
  5
324
102
{ACAD_REACTORS
330
66A
102
}
330
1F
100
AcDbEntity
  8
実線
100
AcDbLine
 10
533.2029485604737
 20
476.6746765776183
 30
0.0
 11
533.2029485604737
 21
471.6746765776183
 31
0.0
  0
LINE
  5
325
102
{ACAD_REACTORS
330
66A
102
}
330
1F
100
AcDbEntity
  8
実線
100
AcDbLine
 10
564.7529485604736
 20
208.3746765776183
 30
0.0
 11
564.7529485604736
 21
217.4746765776183
 31
0.0
  0
LINE
  5
326
102
{ACAD_REACTORS
330
66A
102
}
330
1F
100
AcDbEntity
  8
実線
100
AcDbLine
 10
526.6529485604737
 20
217.4746765776183
 30
0.0
 11
526.6529485604737
 21
208.3746765776183
 31
0.0
  0
LINE
  5
327
102
{ACAD_REACTORS
330
66A
102
}
330
1F
100
AcDbEntity
  8
実線
100
AcDbLine
 10
564.7529485604736
 20
208.3746765776183
 30
0.0
 11
526.6529485604737
 21
208.3746765776183
 31
0.0
  0
LINE
  5
328
102
{ACAD_REACTORS
330
66A
102
}
330
1F
100
AcDbEntity
  8
実線
100
AcDbLine
 10
526.6529485604737
 20
208.3746765776183
 30
0.0
 11
520.4529485604735
 21
206.0246765776183
 31
0.0
  0
LINE
  5
329
102
{ACAD_REACTORS
330
66A
102
}
330
1F
100
AcDbEntity
  8
実線
100
AcDbLine
 10
570.9529485604738
 20
206.0246765776183
 30
0.0
 11
564.7529485604736
 21
208.3746765776183
 31
0.0
  0
LINE
  5
32A
102
{ACAD_REACTORS
330
66A
102
}
330
1F
100
AcDbEntity
  8
実線
100
AcDbLine
 10
570.9529485604738
 20
203.2746765776183
 30
0.0
 11
520.4529485604735
 21
203.2746765776183
 31
0.0
  0
LINE
  5
32B
102
{ACAD_REACTORS
330
66A
102
}
330
1F
100
AcDbEntity
  8
実線
100
AcDbLine
 10
570.9529485604738
 20
206.0246765776183
 30
0.0
 11
520.4529485604735
 21
206.0246765776183
 31
0.0
  0
LINE
  5
32C
102
{ACAD_REACTORS
330
66A
102
}
330
1F
100
AcDbEntity
  8
実線
100
AcDbLine
 10
570.9529485604738
 20
203.2746765776183
 30
0.0
 11
570.9529485604738
 21
206.0246765776183
 31
0.0
  0
LINE
  5
32D
102
{ACAD_REACTORS
330
66A
102
}
330
1F
100
AcDbEntity
  8
実線
100
AcDbLine
 10
520.4529485604735
 20
206.0246765776183
 30
0.0
 11
520.4529485604735
 21
203.2746765776183
 31
0.0
  0
LINE
  5
32E
102
{ACAD_REACTORS
330
66A
102
}
330
1F
100
AcDbEntity
  8
実線
100
AcDbLine
 10
595.7029485604738
 20
428.1746765776181
 30
0.0
 11
495.7029485604737
 21
428.1746765776181
 31
0.0
  0
LINE
  5
32F
102
{ACAD_REACTORS
330
66A
102
}
330
1F
100
AcDbEntity
  8
実線
100
AcDbLine
 10
495.7029485604737
 20
352.1746765776182
 30
0.0
 11
595.7029485604738
 21
352.1746765776182
 31
0.0
  0
LINE
  5
330
102
{ACAD_REACTORS
330
66A
102
}
330
1F
100
AcDbEntity
  8
実線
100
AcDbLine
 10
595.7029485604738
 20
352.1746765776182
 30
0.0
 11
595.7029485604738
 21
428.1746765776183
 31
0.0
  0
LINE
  5
331
102
{ACAD_REACTORS
330
66A
102
}
330
1F
100
AcDbEntity
  8
実線
100
AcDbLine
 10
495.7029485604737
 20
428.1746765776181
 30
0.0
 11
495.7029485604737
 21
352.1746765776182
 31
0.0
  0
LINE
  5
332
102
{ACAD_REACTORS
330
66A
102
}
330
1F
100
AcDbEntity
  8
実線
100
AcDbLine
 10
580.7029485604735
 20
443.1746765776183
 30
0.0
 11
510.7029485604737
 21
443.1746765776183
 31
0.0
  0
LINE
  5
333
102
{ACAD_REACTORS
330
66A
102
}
330
1F
100
AcDbEntity
  8
実線
100
AcDbLine
 10
580.7029485604735
 20
432.6746765776183
 30
0.0
 11
580.7029485604735
 21
443.1746765776183
 31
0.0
  0
LINE
  5
334
102
{ACAD_REACTORS
330
66A
102
}
330
1F
100
AcDbEntity
  8
実線
100
AcDbLine
 10
510.7029485604737
 20
443.1746765776183
 30
0.0
 11
510.7029485604737
 21
432.6746765776183
 31
0.0
  0
LINE
  5
335
102
{ACAD_REACTORS
330
66A
102
}
330
1F
100
AcDbEntity
  8
実線
100
AcDbLine
 10
551.7029485604735
 20
450.1746765776183
 30
0.0
 11
551.7029485604735
 21
471.6746765776183
 31
0.0
  0
LINE
  5
336
102
{ACAD_REACTORS
330
66A
102
}
330
1F
100
AcDbEntity
  8
実線
100
AcDbLine
 10
539.7029485604737
 20
471.6746765776183
 30
0.0
 11
539.7029485604737
 21
450.1746765776183
 31
0.0
  0
LINE
  5
337
102
{ACAD_REACTORS
330
66A
102
}
330
1F
100
AcDbEntity
  8
実線
100
AcDbLine
 10
522.7029485604737
 20
448.1746765776184
 30
0.0
 11
520.7029485604737
 21
448.1746765776184
 31
0.0
  0
LINE
  5
338
102
{ACAD_REACTORS
330
66A
102
}
330
1F
100
AcDbEntity
  8
実線
100
AcDbLine
 10
570.7029485604738
 20
443.1746765776183
 30
0.0
 11
570.7029485604738
 21
448.1746765776184
 31
0.0
  0
LINE
  5
339
102
{ACAD_REACTORS
330
66A
102
}
330
1F
100
AcDbEntity
  8
実線
100
AcDbLine
 10
520.7029485604737
 20
448.1746765776184
 30
0.0
 11
520.7029485604737
 21
443.1746765776183
 31
0.0
  0
LINE
  5
33A
102
{ACAD_REACTORS
330
66A
102
}
330
1F
100
AcDbEntity
  8
実線
100
AcDbLine
 10
553.2029485604737
 20
481.9746765776183
 30
0.0
 11
538.2029485604737
 21
481.9746765776183
 31
0.0
  0
LINE
  5
33B
102
{ACAD_REACTORS
330
66A
102
}
330
1F
100
AcDbEntity
  8
実線
100
AcDbLine
 10
553.2029485604737
 20
476.6746765776183
 30
0.0
 11
553.2029485604737
 21
481.9746765776183
 31
0.0
  0
LINE
  5
33C
102
{ACAD_REACTORS
330
66A
102
}
330
1F
100
AcDbEntity
  8
実線
100
AcDbLine
 10
538.2029485604737
 20
481.9746765776183
 30
0.0
 11
538.2029485604737
 21
476.6746765776181
 31
0.0
  0
LINE
  5
33D
102
{ACAD_REACTORS
330
66A
102
}
330
1F
100
AcDbEntity
  8
実線
100
AcDbLine
 10
532.6029485604736
 20
478.1246765776184
 30
0.0
 11
532.6029485604736
 21
470.2246765776183
 31
0.0
  0
LINE
  5
33E
102
{ACAD_REACTORS
330
66A
102
}
330
1F
100
AcDbEntity
  8
実線
100
AcDbLine
 10
524.7029485604737
 20
478.1246765776184
 30
0.0
 11
532.6029485604736
 21
478.1246765776184
 31
0.0
  0
LINE
  5
33F
102
{ACAD_REACTORS
330
66A
102
}
330
1F
100
AcDbEntity
  8
実線
100
AcDbLine
 10
524.7029485604737
 20
470.2246765776183
 30
0.0
 11
524.7029485604737
 21
478.1246765776181
 31
0.0
  0
LINE
  5
340
102
{ACAD_REACTORS
330
66A
102
}
330
1F
100
AcDbEntity
  8
実線
100
AcDbLine
 10
532.6029485604736
 20
470.2246765776183
 30
0.0
 11
524.7029485604737
 21
470.2246765776183
 31
0.0
  0
CIRCLE
  5
341
102
{ACAD_REACTORS
330
66A
102
}
330
1F
100
AcDbEntity
  8
実線
100
AcDbCircle
 10
528.6529485604737
 20
462.6746765776183
 30
0.0
 40
1.5
  0
LINE
  5
342
102
{ACAD_REACTORS
330
66A
102
}
330
1F
100
AcDbEntity
  8
実線
100
AcDbLine
 10
592.6801183293572
 20
268.1746765776183
 30
0.0
 11
498.7257787915896
 21
268.1746765776183
 31
0.0
  0
LINE
  5
343
102
{ACAD_REACTORS
330
66A
102
}
330
1F
100
AcDbEntity
  8
実線
100
AcDbLine
 10
592.6801183293572
 20
281.6746765776183
 30
0.0
 11
498.7257787915896
 21
281.6746765776183
 31
0.0
  0
LINE
  5
344
102
{ACAD_REACTORS
330
66A
102
}
330
1F
100
AcDbEntity
  8
実線
100
AcDbLine
 10
498.7257787915896
 20
281.6746765776183
 30
0.0
 11
498.7257787915896
 21
268.1746765776183
 31
0.0
  0
LINE
  5
345
102
{ACAD_REACTORS
330
66A
102
}
330
1F
100
AcDbEntity
  8
実線
100
AcDbLine
 10
592.6801183293572
 20
268.1746765776183
 30
0.0
 11
592.6801183293572
 21
281.6746765776183
 31
0.0
  0
LINE
  5
346
102
{ACAD_REACTORS
330
66A
102
}
330
1F
100
AcDbEntity
  8
実線
100
AcDbLine
 10
527.6740517500495
 20
281.6746765776183
 30
0.0
 11
527.6740517500495
 21
268.1746765776183
 31
0.0
  0
LINE
  5
347
102
{ACAD_REACTORS
330
66A
102
}
330
1F
100
AcDbEntity
  8
実線
100
AcDbLine
 10
563.7318453708976
 20
281.6746765776183
 30
0.0
 11
563.7318453708976
 21
268.1746765776183
 31
0.0
  0
LINE
  5
348
102
{ACAD_REACTORS
330
66A
102
}
330
1F
100
AcDbEntity
  8
実線
100
AcDbLine
 10
505.7029485604736
 20
352.1746765776182
 30
0.0
 11
505.7029485604736
 21
308.6746765776183
 31
0.0
  0
LINE
  5
349
102
{ACAD_REACTORS
330
66A
102
}
330
1F
100
AcDbEntity
  8
実線
100
AcDbLine
 10
505.7029485604736
 20
308.6746765776183
 30
0.0
 11
534.4529485604737
 21
308.6746765776183
 31
0.0
  0
LINE
  5
34A
102
{ACAD_REACTORS
330
66A
102
}
330
1F
100
AcDbEntity
  8
実線
100
AcDbLine
 10
556.9529485604737
 20
308.6746765776183
 30
0.0
 11
585.7029485604738
 21
308.6746765776183
 31
0.0
  0
LINE
  5
34B
102
{ACAD_REACTORS
330
66A
102
}
330
1F
100
AcDbEntity
  8
実線
100
AcDbLine
 10
585.7029485604738
 20
308.6746765776183
 30
0.0
 11
585.7029485604738
 21
352.1746765776182
 31
0.0
  0
LINE
  5
34C
102
{ACAD_REACTORS
330
66A
102
}
330
1F
100
AcDbEntity
  8
実線
100
AcDbLine
 10
534.4529485604737
 20
281.6746765776183
 30
0.0
 11
534.4529485604737
 21
352.1746765776182
 31
0.0
  0
LINE
  5
34D
102
{ACAD_REACTORS
330
66A
102
}
330
1F
100
AcDbEntity
  8
実線
100
AcDbLine
 10
556.9529485604737
 20
281.6746765776183
 30
0.0
 11
556.9529485604737
 21
352.1746765776182
 31
0.0
  0
LINE
  5
34E
102
{ACAD_REACTORS
330
66A
102
}
330
1F
100
AcDbEntity
  8
実線
100
AcDbLine
 10
498.7257787915896
 20
268.1746765776183
 30
0.0
 11
498.7257787915896
 21
258.1746765776184
 31
0.0
  0
LINE
  5
34F
102
{ACAD_REACTORS
330
66A
102
}
330
1F
100
AcDbEntity
  8
実線
100
AcDbLine
 10
498.7257787915896
 20
258.1746765776183
 30
0.0
 11
527.6740517500495
 21
258.1746765776183
 31
0.0
  0
LINE
  5
350
102
{ACAD_REACTORS
330
66A
102
}
330
1F
100
AcDbEntity
  8
実線
100
AcDbLine
 10
592.6801183293572
 20
258.1746765776183
 30
0.0
 11
563.7318453708976
 21
258.1746765776183
 31
0.0
  0
LINE
  5
351
102
{ACAD_REACTORS
330
66A
102
}
330
1F
100
AcDbEntity
  8
実線
100
AcDbLine
 10
592.6801183293572
 20
258.1746765776183
 30
0.0
 11
592.6801183293572
 21
268.1746765776183
 31
0.0
  0
LINE
  5
352
102
{ACAD_REACTORS
330
66A
102
}
330
1F
100
AcDbEntity
  8
実線
100
AcDbLine
 10
527.6740517500495
 20
268.1746765776183
 30
0.0
 11
527.6740517500495
 21
258.1746765776184
 31
0.0
  0
LINE
  5
353
102
{ACAD_REACTORS
330
66A
102
}
330
1F
100
AcDbEntity
  8
実線
100
AcDbLine
 10
563.7318453708976
 20
268.1746765776183
 30
0.0
 11
563.7318453708976
 21
258.1746765776184
 31
0.0
  0
LINE
  5
354
102
{ACAD_REACTORS
330
66A
102
}
330
1F
100
AcDbEntity
  8
実線
100
AcDbLine
 10
505.7029485604736
 20
258.1746765776183
 30
0.0
 11
505.7029485604736
 21
230.4746765776183
 31
0.0
  0
LINE
  5
355
102
{ACAD_REACTORS
330
66A
102
}
330
1F
100
AcDbEntity
  8
実線
100
AcDbLine
 10
585.7029485604738
 20
230.4746765776183
 30
0.0
 11
585.7029485604738
 21
258.1746765776183
 31
0.0
  0
LINE
  5
356
102
{ACAD_REACTORS
330
66A
102
}
330
1F
100
AcDbEntity
  8
実線
100
AcDbLine
 10
518.7029485604737
 20
217.4746765776183
 30
0.0
 11
572.7029485604738
 21
217.4746765776183
 31
0.0
  0
ARC
  5
357
102
{ACAD_REACTORS
330
66A
102
}
330
1F
100
AcDbEntity
  8
実線
100
AcDbCircle
 10
518.7029485604737
 20
230.4746765776183
 30
0.0
 40
13.0
100
AcDbArc
 50
180.0
 51
270.0
  0
ARC
  5
358
102
{ACAD_REACTORS
330
66A
102
}
330
1F
100
AcDbEntity
  8
実線
100
AcDbCircle
 10
572.7029485604738
 20
230.4746765776183
 30
0.0
 40
13.0
100
AcDbArc
 50
270.0
 51
0.0
  0
LINE
  5
359
102
{ACAD_REACTORS
330
66A
102
}
330
1F
100
AcDbEntity
  8
実線
100
AcDbLine
 10
498.7029485624566
 20
432.6746765776183
 30
0.0
 11
592.7029485604736
 21
432.6746765776183
 31
0.0
  0
ARC
  5
35A
102
{ACAD_REACTORS
330
66A
102
}
330
1F
100
AcDbEntity
  8
実線
100
AcDbCircle
 10
592.7029485604736
 20
429.6746765776183
 30
0.0
 40
3.0
100
AcDbArc
 50
0.0
 51
90.0
  0
ARC
  5
35B
102
{ACAD_REACTORS
330
66A
102
}
330
1F
100
AcDbEntity
  8
実線
100
AcDbCircle
 10
498.7029485604737
 20
429.6746765776183
 30
0.0
 40
3.0
100
AcDbArc
 50
90.0
 51
180.0
  0
LINE
  5
35C
102
{ACAD_REACTORS
330
66A
102
}
330
1F
100
AcDbEntity
  8
実線
100
AcDbLine
 10
595.7029485604738
 20
428.1746765776183
 30
0.0
 11
595.7029485604738
 21
429.6746765776183
 31
0.0
  0
LINE
  5
35D
102
{ACAD_REACTORS
330
66A
102
}
330
1F
100
AcDbEntity
  8
実線
100
AcDbLine
 10
495.7029485604737
 20
429.6746765776183
 30
0.0
 11
495.7029485604737
 21
428.1746765776183
 31
0.0
  0
LINE
  5
35E
102
{ACAD_REACTORS
330
66A
102
}
330
1F
100
AcDbEntity
  8
実線
100
AcDbLine
 10
524.7029485604737
 20
450.1746765775707
 30
0.0
 11
570.7029485604738
 21
450.1746765775707
 31
0.0
  0
LINE
  5
35F
102
{ACAD_REACTORS
330
66A
102
}
330
1F
100
AcDbEntity
  8
実線
100
AcDbLine
 10
522.7029485604737
 20
448.1746765776184
 30
0.0
 11
570.7029485604738
 21
448.1746765776184
 31
0.0
  0
LINE
  5
360
102
{ACAD_REACTORS
330
66A
102
}
330
1F
100
AcDbEntity
  8
実線
100
AcDbLine
 10
524.7029485604737
 20
478.1246765776184
 30
0.0
 11
524.7029485604737
 21
479.1746765776183
 31
0.0
  0
LINE
  5
361
102
{ACAD_REACTORS
330
66A
102
}
330
1F
100
AcDbEntity
  8
実線
100
AcDbLine
 10
524.7029485604737
 20
466.6246765776183
 30
0.0
 11
524.7029485604737
 21
470.2246765776183
 31
0.0
  0
LINE
  5
362
102
{ACAD_REACTORS
330
66A
102
}
330
1F
100
AcDbEntity
  8
実線
100
AcDbLine
 10
524.7029485604737
 20
450.1746765775707
 30
0.0
 11
524.7029485604737
 21
458.7246765776183
 31
0.0
  0
LINE
  5
363
102
{ACAD_REACTORS
330
66A
102
}
330
1F
100
AcDbEntity
  8
実線
100
AcDbLine
 10
524.7029485604737
 20
479.1746765776183
 30
0.0
 11
522.7029485604737
 21
479.1746765776183
 31
0.0
  0
LINE
  5
364
102
{ACAD_REACTORS
330
66A
102
}
330
1F
100
AcDbEntity
  8
実線
100
AcDbLine
 10
522.7029485604737
 20
448.1746765776184
 30
0.0
 11
522.7029485604737
 21
479.1746765776183
 31
0.0
  0
LINE
  5
365
102
{ACAD_REACTORS
330
66A
102
}
330
1F
100
AcDbEntity
  8
実線
100
AcDbLine
 10
525.7029485604916
 20
448.1746765776184
 30
0.0
 11
525.7029485604916
 21
450.1746765775707
 31
0.0
  0
LINE
  5
366
102
{ACAD_REACTORS
330
66A
102
}
330
1F
100
AcDbEntity
  8
実線
100
AcDbLine
 10
570.7029485604738
 20
448.1746765776184
 30
0.0
 11
570.7029485604738
 21
450.1746765776183
 31
0.0
  0
LINE
  5
367
102
{ACAD_REACTORS
330
66D
102
}
330
1F
100
AcDbEntity
  8
実線
100
AcDbLine
 10
86.7029485604738
 20
458.724676577618
 30
0.0
 11
78.80294856047384
 21
458.724676577618
 31
0.0
  0
LINE
  5
368
102
{ACAD_REACTORS
330
66D
102
}
330
1F
100
AcDbEntity
  8
実線
100
AcDbLine
 10
78.80294856047384
 20
466.6246765776182
 30
0.0
 11
86.7029485604738
 21
466.6246765776182
 31
0.0
  0
LINE
  5
369
102
{ACAD_REACTORS
330
66D
102
}
330
1F
100
AcDbEntity
  8
実線
100
AcDbLine
 10
78.80294856047384
 20
458.724676577618
 30
0.0
 11
78.80294856047384
 21
466.6246765776182
 31
0.0
  0
LINE
  5
36A
102
{ACAD_REACTORS
330
66D
102
}
330
1F
100
AcDbEntity
  8
実線
100
AcDbLine
 10
78.20294856047389
 20
471.6746765776181
 30
0.0
 11
78.20294856047389
 21
476.6746765776181
 31
0.0
  0
LINE
  5
36B
102
{ACAD_REACTORS
330
66D
102
}
330
1F
100
AcDbEntity
  8
実線
100
AcDbLine
 10
53.20294856047389
 20
476.6746765776181
 30
0.0
 11
53.20294856047389
 21
471.6746765776181
 31
0.0
  0
LINE
  5
36C
102
{ACAD_REACTORS
330
66D
102
}
330
1F
100
AcDbEntity
  8
実線
100
AcDbLine
 10
78.20294856047389
 20
476.6746765776181
 30
0.0
 11
53.20294856047389
 21
476.6746765776181
 31
0.0
  0
LINE
  5
36D
102
{ACAD_REACTORS
330
66D
102
}
330
1F
100
AcDbEntity
  8
実線
100
AcDbLine
 10
53.20294856047389
 20
471.6746765776181
 30
0.0
 11
78.20294856047389
 21
471.6746765776181
 31
0.0
  0
LINE
  5
36E
102
{ACAD_REACTORS
330
66D
102
}
330
1F
100
AcDbEntity
  8
実線
100
AcDbLine
 10
84.75294856047389
 20
208.3746765776181
 30
0.0
 11
84.75294856047389
 21
217.4746765776181
 31
0.0
  0
LINE
  5
36F
102
{ACAD_REACTORS
330
66D
102
}
330
1F
100
AcDbEntity
  8
実線
100
AcDbLine
 10
46.65294856047387
 20
217.4746765776181
 30
0.0
 11
46.65294856047387
 21
208.3746765776181
 31
0.0
  0
LINE
  5
370
102
{ACAD_REACTORS
330
66D
102
}
330
1F
100
AcDbEntity
  8
実線
100
AcDbLine
 10
90.95294856047384
 20
203.2746765776181
 30
0.0
 11
90.95294856047384
 21
206.0246765776181
 31
0.0
  0
LINE
  5
371
102
{ACAD_REACTORS
330
66D
102
}
330
1F
100
AcDbEntity
  8
実線
100
AcDbLine
 10
40.45294856047387
 20
206.0246765776181
 30
0.0
 11
40.45294856047387
 21
203.2746765776181
 31
0.0
  0
LINE
  5
372
102
{ACAD_REACTORS
330
66D
102
}
330
1F
100
AcDbEntity
  8
実線
100
AcDbLine
 10
40.45294856047387
 20
203.2746765776181
 30
0.0
 11
90.95294856047384
 21
203.2746765776181
 31
0.0
  0
LINE
  5
373
102
{ACAD_REACTORS
330
66D
102
}
330
1F
100
AcDbEntity
  8
実線
100
AcDbLine
 10
46.65294856047387
 20
208.3746765776181
 30
0.0
 11
40.45294856047387
 21
206.0246765776181
 31
0.0
  0
LINE
  5
374
102
{ACAD_REACTORS
330
66D
102
}
330
1F
100
AcDbEntity
  8
実線
100
AcDbLine
 10
90.95294856047384
 20
206.0246765776181
 30
0.0
 11
84.75294856047389
 21
208.3746765776181
 31
0.0
  0
LINE
  5
375
102
{ACAD_REACTORS
330
66D
102
}
330
1F
100
AcDbEntity
  8
実線
100
AcDbLine
 10
40.45294856047387
 20
206.0246765776181
 30
0.0
 11
90.95294856047384
 21
206.0246765776181
 31
0.0
  0
LINE
  5
376
102
{ACAD_REACTORS
330
66D
102
}
330
1F
100
AcDbEntity
  8
実線
100
AcDbLine
 10
46.65294856047387
 20
208.3746765776181
 30
0.0
 11
84.75294856047389
 21
208.3746765776181
 31
0.0
  0
CIRCLE
  5
377
102
{ACAD_REACTORS
330
66D
102
}
330
1F
100
AcDbEntity
  8
実線
100
AcDbCircle
 10
65.70294856047389
 20
240.2746765776182
 30
0.0
 40
25.25
  0
LINE
  5
378
102
{ACAD_REACTORS
330
66D
102
}
330
1F
100
AcDbEntity
  8
実線
100
AcDbLine
 10
115.7029485604738
 20
352.1746765776181
 30
0.0
 11
115.7029485604738
 21
428.1746765776181
 31
0.0
  0
LINE
  5
379
102
{ACAD_REACTORS
330
66D
102
}
330
1F
100
AcDbEntity
  8
実線
100
AcDbLine
 10
15.70294856047388
 20
428.1746765776179
 30
0.0
 11
15.70294856047388
 21
352.1746765776181
 31
0.0
  0
LINE
  5
37A
102
{ACAD_REACTORS
330
66D
102
}
330
1F
100
AcDbEntity
  8
実線
100
AcDbLine
 10
115.7029485604738
 20
428.1746765776179
 30
0.0
 11
15.70294856047388
 21
428.1746765776179
 31
0.0
  0
LINE
  5
37B
102
{ACAD_REACTORS
330
66D
102
}
330
1F
100
AcDbEntity
  8
実線
100
AcDbLine
 10
15.70294856047388
 20
352.1746765776181
 30
0.0
 11
115.7029485604738
 21
352.1746765776181
 31
0.0
  0
LINE
  5
37C
102
{ACAD_REACTORS
330
66D
102
}
330
1F
100
AcDbEntity
  8
実線
100
AcDbLine
 10
100.7029485604738
 20
432.6746765776181
 30
0.0
 11
100.7029485604738
 21
443.1746765776181
 31
0.0
  0
LINE
  5
37D
102
{ACAD_REACTORS
330
66D
102
}
330
1F
100
AcDbEntity
  8
実線
100
AcDbLine
 10
30.70294856047389
 20
443.1746765776181
 30
0.0
 11
30.70294856047389
 21
432.6746765776181
 31
0.0
  0
LINE
  5
37E
102
{ACAD_REACTORS
330
66D
102
}
330
1F
100
AcDbEntity
  8
実線
100
AcDbLine
 10
100.7029485604738
 20
443.1746765776181
 30
0.0
 11
30.70294856047389
 21
443.1746765776181
 31
0.0
  0
LINE
  5
37F
102
{ACAD_REACTORS
330
66D
102
}
330
1F
100
AcDbEntity
  8
実線
100
AcDbLine
 10
71.70294856047387
 20
450.1746765776181
 30
0.0
 11
71.70294856047387
 21
471.6746765776181
 31
0.0
  0
LINE
  5
380
102
{ACAD_REACTORS
330
66D
102
}
330
1F
100
AcDbEntity
  8
実線
100
AcDbLine
 10
59.70294856047388
 20
471.6746765776181
 30
0.0
 11
59.70294856047388
 21
450.1746765776181
 31
0.0
  0
LINE
  5
381
102
{ACAD_REACTORS
330
66D
102
}
330
1F
100
AcDbEntity
  8
実線
100
AcDbLine
 10
90.70294856047381
 20
443.1746765776181
 30
0.0
 11
90.70294856047381
 21
448.1746765776181
 31
0.0
  0
LINE
  5
382
102
{ACAD_REACTORS
330
66D
102
}
330
1F
100
AcDbEntity
  8
実線
100
AcDbLine
 10
40.70294856047389
 20
448.1746765776181
 30
0.0
 11
40.70294856047389
 21
443.1746765776181
 31
0.0
  0
LINE
  5
383
102
{ACAD_REACTORS
330
66D
102
}
330
1F
100
AcDbEntity
  8
実線
100
AcDbLine
 10
40.70294856047389
 20
448.1746765776181
 30
0.0
 11
90.70294856047381
 21
448.1746765776181
 31
0.0
  0
LINE
  5
384
102
{ACAD_REACTORS
330
66D
102
}
330
1F
100
AcDbEntity
  8
実線
100
AcDbLine
 10
73.20294856047389
 20
476.6746765776181
 30
0.0
 11
73.20294856047389
 21
481.974676577618
 31
0.0
  0
LINE
  5
385
102
{ACAD_REACTORS
330
66D
102
}
330
1F
100
AcDbEntity
  8
実線
100
AcDbLine
 10
58.20294856047389
 20
481.974676577618
 30
0.0
 11
58.20294856047389
 21
476.6746765776181
 31
0.0
  0
LINE
  5
386
102
{ACAD_REACTORS
330
66D
102
}
330
1F
100
AcDbEntity
  8
実線
100
AcDbLine
 10
73.20294856047389
 20
481.974676577618
 30
0.0
 11
58.20294856047389
 21
481.974676577618
 31
0.0
  0
LINE
  5
387
102
{ACAD_REACTORS
330
66D
102
}
330
1F
100
AcDbEntity
  8
実線
100
AcDbLine
 10
78.80294856047384
 20
478.1246765776181
 30
0.0
 11
86.7029485604738
 21
478.1246765776181
 31
0.0
  0
LINE
  5
388
102
{ACAD_REACTORS
330
66D
102
}
330
1F
100
AcDbEntity
  8
実線
100
AcDbLine
 10
78.80294856047384
 20
470.2246765776179
 30
0.0
 11
78.80294856047384
 21
478.1246765776181
 31
0.0
  0
LINE
  5
389
102
{ACAD_REACTORS
330
66D
102
}
330
1F
100
AcDbEntity
  8
実線
100
AcDbLine
 10
86.7029485604738
 20
470.2246765776179
 30
0.0
 11
78.80294856047384
 21
470.2246765776179
 31
0.0
  0
LINE
  5
38A
102
{ACAD_REACTORS
330
66D
102
}
330
1F
100
AcDbEntity
  8
実線
100
AcDbLine
 10
112.6801183293578
 20
281.6746765776182
 30
0.0
 11
18.72577879158996
 21
281.6746765776182
 31
0.0
  0
LINE
  5
38B
102
{ACAD_REACTORS
330
66D
102
}
330
1F
100
AcDbEntity
  8
実線
100
AcDbLine
 10
18.72577879158996
 20
281.6746765776182
 30
0.0
 11
18.72577879158996
 21
268.1746765776182
 31
0.0
  0
LINE
  5
38C
102
{ACAD_REACTORS
330
66D
102
}
330
1F
100
AcDbEntity
  8
実線
100
AcDbLine
 10
112.6801183293578
 20
268.1746765776182
 30
0.0
 11
112.6801183293578
 21
281.6746765776182
 31
0.0
  0
LINE
  5
38D
102
{ACAD_REACTORS
330
66D
102
}
330
1F
100
AcDbEntity
  8
実線
100
AcDbLine
 10
47.6740517500499
 20
281.6746765776182
 30
0.0
 11
47.6740517500499
 21
268.1746765776182
 31
0.0
  0
LINE
  5
38E
102
{ACAD_REACTORS
330
66D
102
}
330
1F
100
AcDbEntity
  8
実線
100
AcDbLine
 10
83.73184537089787
 20
281.6746765776182
 30
0.0
 11
83.73184537089787
 21
268.1746765776182
 31
0.0
  0
LINE
  5
38F
102
{ACAD_REACTORS
330
66D
102
}
330
1F
100
AcDbEntity
  8
実線
100
AcDbLine
 10
76.95294856047389
 20
308.6746765776182
 30
0.0
 11
105.7029485604738
 21
308.6746765776182
 31
0.0
  0
LINE
  5
390
102
{ACAD_REACTORS
330
66D
102
}
330
1F
100
AcDbEntity
  8
実線
100
AcDbLine
 10
105.7029485604738
 20
308.6746765776182
 30
0.0
 11
105.7029485604738
 21
352.1746765776181
 31
0.0
  0
LINE
  5
391
102
{ACAD_REACTORS
330
66D
102
}
330
1F
100
AcDbEntity
  8
実線
100
AcDbLine
 10
25.70294856047389
 20
352.1746765776181
 30
0.0
 11
25.70294856047389
 21
308.6746765776182
 31
0.0
  0
LINE
  5
392
102
{ACAD_REACTORS
330
66D
102
}
330
1F
100
AcDbEntity
  8
実線
100
AcDbLine
 10
25.70294856047389
 20
308.6746765776182
 30
0.0
 11
54.45294856047389
 21
308.6746765776182
 31
0.0
  0
LINE
  5
393
102
{ACAD_REACTORS
330
66D
102
}
330
1F
100
AcDbEntity
  8
実線
100
AcDbLine
 10
76.95294856047389
 20
352.1746765776181
 30
0.0
 11
76.95294856047389
 21
281.6746765776182
 31
0.0
  0
LINE
  5
394
102
{ACAD_REACTORS
330
66D
102
}
330
1F
100
AcDbEntity
  8
実線
100
AcDbLine
 10
54.45294856047389
 20
352.1746765776181
 30
0.0
 11
54.45294856047389
 21
281.6746765776182
 31
0.0
  0
LINE
  5
395
102
{ACAD_REACTORS
330
66D
102
}
330
1F
100
AcDbEntity
  8
実線
100
AcDbLine
 10
18.72577879158996
 20
268.1746765776182
 30
0.0
 11
18.72577879158996
 21
258.1746765776182
 31
0.0
  0
LINE
  5
396
102
{ACAD_REACTORS
330
66D
102
}
330
1F
100
AcDbEntity
  8
実線
100
AcDbLine
 10
18.72577879158996
 20
258.1746765776182
 30
0.0
 11
47.6740517500499
 21
258.1746765776182
 31
0.0
  0
LINE
  5
397
102
{ACAD_REACTORS
330
66D
102
}
330
1F
100
AcDbEntity
  8
実線
100
AcDbLine
 10
18.72577879158996
 20
268.1746765776182
 30
0.0
 11
112.6801183293578
 21
268.1746765776182
 31
0.0
  0
LINE
  5
398
102
{ACAD_REACTORS
330
66D
102
}
330
1F
100
AcDbEntity
  8
実線
100
AcDbLine
 10
112.6801183293578
 20
258.1746765776182
 30
0.0
 11
83.73184537089787
 21
258.1746765776182
 31
0.0
  0
LINE
  5
399
102
{ACAD_REACTORS
330
66D
102
}
330
1F
100
AcDbEntity
  8
実線
100
AcDbLine
 10
112.6801183293578
 20
258.1746765776182
 30
0.0
 11
112.6801183293578
 21
268.1746765776182
 31
0.0
  0
LINE
  5
39A
102
{ACAD_REACTORS
330
66D
102
}
330
1F
100
AcDbEntity
  8
実線
100
AcDbLine
 10
83.73184537089787
 20
268.1746765776182
 30
0.0
 11
83.73184537089787
 21
258.1746765776182
 31
0.0
  0
LINE
  5
39B
102
{ACAD_REACTORS
330
66D
102
}
330
1F
100
AcDbEntity
  8
実線
100
AcDbLine
 10
47.6740517500499
 20
268.1746765776182
 30
0.0
 11
47.6740517500499
 21
258.1746765776182
 31
0.0
  0
LINE
  5
39C
102
{ACAD_REACTORS
330
66D
102
}
330
1F
100
AcDbEntity
  8
実線
100
AcDbLine
 10
25.70294856047389
 20
258.1746765776182
 30
0.0
 11
25.70294856047389
 21
230.4746765776182
 31
0.0
  0
LINE
  5
39D
102
{ACAD_REACTORS
330
66D
102
}
330
1F
100
AcDbEntity
  8
実線
100
AcDbLine
 10
105.7029485604737
 20
230.4746765776182
 30
0.0
 11
105.7029485604737
 21
258.1746765776182
 31
0.0
  0
LINE
  5
39E
102
{ACAD_REACTORS
330
66D
102
}
330
1F
100
AcDbEntity
  8
実線
100
AcDbLine
 10
54.85294856047392
 20
217.4746765776181
 30
0.0
 11
38.70294856047389
 21
217.4746765776181
 31
0.0
  0
LINE
  5
39F
102
{ACAD_REACTORS
330
66D
102
}
330
1F
100
AcDbEntity
  8
実線
100
AcDbLine
 10
76.55294856047383
 20
217.4746765776181
 30
0.0
 11
92.70294856047383
 21
217.4746765776181
 31
0.0
  0
ARC
  5
3A0
102
{ACAD_REACTORS
330
66D
102
}
330
1F
100
AcDbEntity
  8
実線
100
AcDbCircle
 10
38.70294856047389
 20
230.4746765776182
 30
0.0
 40
13.0
100
AcDbArc
 50
180.0
 51
270.0
  0
ARC
  5
3A1
102
{ACAD_REACTORS
330
66D
102
}
330
1F
100
AcDbEntity
  8
実線
100
AcDbCircle
 10
92.70294856047383
 20
230.4746765776182
 30
0.0
 40
13.0
100
AcDbArc
 50
270.0
 51
0.0
  0
LINE
  5
3A2
102
{ACAD_REACTORS
330
66D
102
}
330
1F
100
AcDbEntity
  8
実線
100
AcDbLine
 10
115.7029485604738
 20
428.1746765776181
 30
0.0
 11
115.7029485604738
 21
429.6746765776181
 31
0.0
  0
LINE
  5
3A3
102
{ACAD_REACTORS
330
66D
102
}
330
1F
100
AcDbEntity
  8
実線
100
AcDbLine
 10
15.70294856047388
 20
429.6746765776181
 30
0.0
 11
15.70294856047388
 21
428.1746765776181
 31
0.0
  0
LINE
  5
3A4
102
{ACAD_REACTORS
330
66D
102
}
330
1F
100
AcDbEntity
  8
実線
100
AcDbLine
 10
18.70294856047388
 20
432.6746765776181
 30
0.0
 11
112.7029485604738
 21
432.6746765776181
 31
0.0
  0
ARC
  5
3A5
102
{ACAD_REACTORS
330
66D
102
}
330
1F
100
AcDbEntity
  8
実線
100
AcDbCircle
 10
112.7029485604738
 20
429.6746765776181
 30
0.0
 40
3.0
100
AcDbArc
 50
0.0
 51
90.0
  0
ARC
  5
3A6
102
{ACAD_REACTORS
330
66D
102
}
330
1F
100
AcDbEntity
  8
実線
100
AcDbCircle
 10
18.70294856047388
 20
429.6746765776181
 30
0.0
 40
3.0
100
AcDbArc
 50
90.0
 51
180.0
  0
LINE
  5
3A7
102
{ACAD_REACTORS
330
66D
102
}
330
1F
100
AcDbEntity
  8
実線
100
AcDbLine
 10
86.7029485604738
 20
450.1746765775707
 30
0.0
 11
40.70294856047389
 21
450.1746765775707
 31
0.0
  0
LINE
  5
3A8
102
{ACAD_REACTORS
330
66D
102
}
330
1F
100
AcDbEntity
  8
実線
100
AcDbLine
 10
86.7029485604738
 20
479.174676577618
 30
0.0
 11
86.7029485604738
 21
450.1746765775707
 31
0.0
  0
LINE
  5
3A9
102
{ACAD_REACTORS
330
66D
102
}
330
1F
100
AcDbEntity
  8
実線
100
AcDbLine
 10
88.70294856047383
 20
479.174676577618
 30
0.0
 11
86.7029485604738
 21
479.174676577618
 31
0.0
  0
LINE
  5
3AA
102
{ACAD_REACTORS
330
66D
102
}
330
1F
100
AcDbEntity
  8
実線
100
AcDbLine
 10
88.70294856047383
 20
448.1746765776181
 30
0.0
 11
88.70294856047383
 21
479.174676577618
 31
0.0
  0
LINE
  5
3AB
102
{ACAD_REACTORS
330
66D
102
}
330
1F
100
AcDbEntity
  8
実線
100
AcDbLine
 10
85.70294856047381
 20
450.1746765776181
 30
0.0
 11
85.70294856047381
 21
448.1746765776181
 31
0.0
  0
LINE
  5
3AC
102
{ACAD_REACTORS
330
66D
102
}
330
1F
100
AcDbEntity
  8
実線
100
AcDbLine
 10
40.70294856047389
 20
450.1746765776181
 30
0.0
 11
40.70294856047389
 21
448.1746765776181
 31
0.0
  0
LINE
  5
3AD
102
{ACAD_REACTORS
330
66C
102
}
330
1F
100
AcDbEntity
  8
実線
100
AcDbLine
 10
320.7029485604743
 20
458.7246765776182
 30
0.0
 11
325.7029485604743
 21
458.7246765776182
 31
0.0
  0
LINE
  5
3AE
102
{ACAD_REACTORS
330
66C
102
}
330
1F
100
AcDbEntity
  8
実線
100
AcDbLine
 10
320.7029485604743
 20
466.6246765776183
 30
0.0
 11
325.7029485604743
 21
466.6246765776183
 31
0.0
  0
LINE
  5
3AF
102
{ACAD_REACTORS
330
66C
102
}
330
1F
100
AcDbEntity
  8
実線
100
AcDbLine
 10
325.7029485604743
 20
458.7246765776182
 30
0.0
 11
325.7029485604743
 21
466.6246765776183
 31
0.0
  0
LINE
  5
3B0
102
{ACAD_REACTORS
330
66C
102
}
330
1F
100
AcDbEntity
  8
実線
100
AcDbLine
 10
332.2029485604744
 20
475.6746765776181
 30
0.0
 11
332.2029485604744
 21
472.6746765776181
 31
0.0
  0
LINE
  5
3B1
102
{ACAD_REACTORS
330
66C
102
}
330
1F
100
AcDbEntity
  8
実線
100
AcDbLine
 10
325.7029485604743
 20
472.6746765776181
 30
0.0
 11
332.2029485604744
 21
472.6746765776181
 31
0.0
  0
LINE
  5
3B2
102
{ACAD_REACTORS
330
66C
102
}
330
1F
100
AcDbEntity
  8
実線
100
AcDbLine
 10
332.2029485604744
 20
475.6746765776181
 30
0.0
 11
325.7029485604743
 21
475.6746765776181
 31
0.0
  0
LINE
  5
3B3
102
{ACAD_REACTORS
330
66C
102
}
330
1F
100
AcDbEntity
  8
実線
100
AcDbLine
 10
293.2029485604743
 20
476.6746765776182
 30
0.0
 11
293.2029485604743
 21
471.6746765776181
 31
0.0
  0
LINE
  5
3B4
102
{ACAD_REACTORS
330
66C
102
}
330
1F
100
AcDbEntity
  8
実線
100
AcDbLine
 10
300.7029485604743
 20
476.6746765776182
 30
0.0
 11
293.2029485604743
 21
476.6746765776182
 31
0.0
  0
LINE
  5
3B5
102
{ACAD_REACTORS
330
66C
102
}
330
1F
100
AcDbEntity
  8
実線
100
AcDbLine
 10
300.7029485604743
 20
471.6746765776181
 30
0.0
 11
293.2029485604743
 21
471.6746765776181
 31
0.0
  0
LINE
  5
3B6
102
{ACAD_REACTORS
330
66C
102
}
330
1F
100
AcDbEntity
  8
実線
100
AcDbLine
 10
324.7529485604742
 20
208.3746765776182
 30
0.0
 11
324.7529485604742
 21
217.4746765776182
 31
0.0
  0
LINE
  5
3B7
102
{ACAD_REACTORS
330
66C
102
}
330
1F
100
AcDbEntity
  8
実線
100
AcDbLine
 10
286.6529485604744
 20
217.4746765776182
 30
0.0
 11
286.6529485604744
 21
208.3746765776182
 31
0.0
  0
LINE
  5
3B8
102
{ACAD_REACTORS
330
66C
102
}
330
1F
100
AcDbEntity
  8
実線
100
AcDbLine
 10
286.6529485604744
 20
208.3746765776182
 30
0.0
 11
280.4529485604744
 21
206.0246765776182
 31
0.0
  0
LINE
  5
3B9
102
{ACAD_REACTORS
330
66C
102
}
330
1F
100
AcDbEntity
  8
実線
100
AcDbLine
 10
330.9529485604743
 20
206.0246765776182
 30
0.0
 11
324.7529485604742
 21
208.3746765776182
 31
0.0
  0
LINE
  5
3BA
102
{ACAD_REACTORS
330
66C
102
}
330
1F
100
AcDbEntity
  8
実線
100
AcDbLine
 10
286.6529485604744
 20
208.3746765776182
 30
0.0
 11
324.7529485604742
 21
208.3746765776182
 31
0.0
  0
LINE
  5
3BB
102
{ACAD_REACTORS
330
66C
102
}
330
1F
100
AcDbEntity
  8
実線
100
AcDbLine
 10
330.9529485604743
 20
203.2746765776182
 30
0.0
 11
330.9529485604743
 21
206.0246765776182
 31
0.0
  0
LINE
  5
3BC
102
{ACAD_REACTORS
330
66C
102
}
330
1F
100
AcDbEntity
  8
実線
100
AcDbLine
 10
280.4529485604744
 20
206.0246765776182
 30
0.0
 11
280.4529485604744
 21
203.2746765776182
 31
0.0
  0
LINE
  5
3BD
102
{ACAD_REACTORS
330
66C
102
}
330
1F
100
AcDbEntity
  8
実線
100
AcDbLine
 10
330.9529485604743
 20
203.2746765776182
 30
0.0
 11
280.4529485604744
 21
203.2746765776182
 31
0.0
  0
LINE
  5
3BE
102
{ACAD_REACTORS
330
66C
102
}
330
1F
100
AcDbEntity
  8
実線
100
AcDbLine
 10
330.9529485604743
 20
206.0246765776182
 30
0.0
 11
280.4529485604744
 21
206.0246765776182
 31
0.0
  0
LINE
  5
3BF
102
{ACAD_REACTORS
330
66C
102
}
330
1F
100
AcDbEntity
  8
実線
100
AcDbLine
 10
240.8029485604744
 20
221.2246765776182
 30
0.0
 11
269.5685356072519
 21
221.2246765776182
 31
0.0
  0
LINE
  5
3C0
102
{ACAD_REACTORS
330
66C
102
}
330
1F
100
AcDbEntity
  8
実線
100
AcDbLine
 10
258.7257787915905
 20
259.3246765776183
 30
0.0
 11
240.8029485604744
 21
259.3246765776183
 31
0.0
  0
LINE
  5
3C1
102
{ACAD_REACTORS
330
66C
102
}
330
1F
100
AcDbEntity
  8
実線
100
AcDbLine
 10
235.7029485604745
 20
215.0246765776183
 30
0.0
 11
238.4529485604744
 21
215.0246765776183
 31
0.0
  0
LINE
  5
3C2
102
{ACAD_REACTORS
330
66C
102
}
330
1F
100
AcDbEntity
  8
実線
100
AcDbLine
 10
238.4529485604744
 20
265.5246765776183
 30
0.0
 11
235.7029485604745
 21
265.5246765776183
 31
0.0
  0
LINE
  5
3C3
102
{ACAD_REACTORS
330
66C
102
}
330
1F
100
AcDbEntity
  8
実線
100
AcDbLine
 10
235.7029485604745
 20
215.0246765776183
 30
0.0
 11
235.7029485604745
 21
265.5246765776183
 31
0.0
  0
LINE
  5
3C4
102
{ACAD_REACTORS
330
66C
102
}
330
1F
100
AcDbEntity
  8
実線
100
AcDbLine
 10
240.8029485604744
 20
259.3246765776183
 30
0.0
 11
238.4529485604744
 21
265.5246765776183
 31
0.0
  0
LINE
  5
3C5
102
{ACAD_REACTORS
330
66C
102
}
330
1F
100
AcDbEntity
  8
実線
100
AcDbLine
 10
238.4529485604744
 20
215.0246765776183
 30
0.0
 11
240.8029485604744
 21
221.2246765776182
 31
0.0
  0
LINE
  5
3C6
102
{ACAD_REACTORS
330
66C
102
}
330
1F
100
AcDbEntity
  8
実線
100
AcDbLine
 10
238.4529485604744
 20
265.5246765776183
 30
0.0
 11
238.4529485604744
 21
215.0246765776183
 31
0.0
  0
LINE
  5
3C7
102
{ACAD_REACTORS
330
66C
102
}
330
1F
100
AcDbEntity
  8
実線
100
AcDbLine
 10
240.8029485604744
 20
259.3246765776183
 30
0.0
 11
240.8029485604744
 21
221.2246765776182
 31
0.0
  0
LINE
  5
3C8
102
{ACAD_REACTORS
330
66C
102
}
330
1F
100
AcDbEntity
  8
実線
100
AcDbLine
 10
311.7029485604744
 20
281.6746765776183
 30
0.0
 11
311.7029485604744
 21
308.6746765776183
 31
0.0
  0
LINE
  5
3C9
102
{ACAD_REACTORS
330
66C
102
}
330
1F
100
AcDbEntity
  8
実線
100
AcDbLine
 10
299.7029485604743
 20
308.6746765776183
 30
0.0
 11
299.7029485604743
 21
281.6746765776183
 31
0.0
  0
LINE
  5
3CA
102
{ACAD_REACTORS
330
66C
102
}
330
1F
100
AcDbEntity
  8
実線
100
AcDbLine
 10
355.7029485604743
 20
352.1746765776182
 30
0.0
 11
255.7029485604743
 21
352.1746765776182
 31
0.0
  0
LINE
  5
3CB
102
{ACAD_REACTORS
330
66C
102
}
330
1F
100
AcDbEntity
  8
実線
100
AcDbLine
 10
355.7029485604743
 20
352.1746765776182
 30
0.0
 11
355.7029485604743
 21
428.1746765776182
 31
0.0
  0
LINE
  5
3CC
102
{ACAD_REACTORS
330
66C
102
}
330
1F
100
AcDbEntity
  8
実線
100
AcDbLine
 10
255.7029485604743
 20
428.174676577618
 30
0.0
 11
255.7029485604743
 21
352.1746765776182
 31
0.0
  0
LINE
  5
3CD
102
{ACAD_REACTORS
330
66C
102
}
330
1F
100
AcDbEntity
  8
実線
100
AcDbLine
 10
355.7029485604743
 20
428.174676577618
 30
0.0
 11
255.7029485604743
 21
428.174676577618
 31
0.0
  0
LINE
  5
3CE
102
{ACAD_REACTORS
330
66C
102
}
330
1F
100
AcDbEntity
  8
実線
100
AcDbLine
 10
340.7029485604744
 20
432.6746765776182
 30
0.0
 11
340.7029485604744
 21
443.1746765776181
 31
0.0
  0
LINE
  5
3CF
102
{ACAD_REACTORS
330
66C
102
}
330
1F
100
AcDbEntity
  8
実線
100
AcDbLine
 10
270.7029485604744
 20
443.1746765776181
 30
0.0
 11
270.7029485604744
 21
432.6746765776182
 31
0.0
  0
LINE
  5
3D0
102
{ACAD_REACTORS
330
66C
102
}
330
1F
100
AcDbEntity
  8
実線
100
AcDbLine
 10
340.7029485604744
 20
443.1746765776181
 30
0.0
 11
270.7029485604744
 21
443.1746765776181
 31
0.0
  0
LINE
  5
3D1
102
{ACAD_REACTORS
330
66C
102
}
330
1F
100
AcDbEntity
  8
実線
100
AcDbLine
 10
299.7029485604743
 20
471.6746765776181
 30
0.0
 11
299.7029485604743
 21
450.1746765776181
 31
0.0
  0
LINE
  5
3D2
102
{ACAD_REACTORS
330
66C
102
}
330
1F
100
AcDbEntity
  8
実線
100
AcDbLine
 10
330.7029485604743
 20
443.1746765776181
 30
0.0
 11
330.7029485604743
 21
448.1746765776182
 31
0.0
  0
LINE
  5
3D3
102
{ACAD_REACTORS
330
66C
102
}
330
1F
100
AcDbEntity
  8
実線
100
AcDbLine
 10
280.7029485604744
 20
448.1746765776182
 30
0.0
 11
280.7029485604744
 21
443.1746765776181
 31
0.0
  0
LINE
  5
3D4
102
{ACAD_REACTORS
330
66C
102
}
330
1F
100
AcDbEntity
  8
実線
100
AcDbLine
 10
280.7029485604744
 20
448.1746765776182
 30
0.0
 11
315.500907531607
 21
448.1746765776182
 31
0.0
  0
LINE
  5
3D5
102
{ACAD_REACTORS
330
66C
102
}
330
1F
100
AcDbEntity
  8
実線
100
AcDbLine
 10
313.2029485604743
 20
479.1746765776181
 30
0.0
 11
313.2029485604743
 21
481.9746765776182
 31
0.0
  0
LINE
  5
3D6
102
{ACAD_REACTORS
330
66C
102
}
330
1F
100
AcDbEntity
  8
実線
100
AcDbLine
 10
298.2029485604743
 20
481.9746765776182
 30
0.0
 11
298.2029485604743
 21
476.6746765776181
 31
0.0
  0
LINE
  5
3D7
102
{ACAD_REACTORS
330
66C
102
}
330
1F
100
AcDbEntity
  8
実線
100
AcDbLine
 10
313.2029485604743
 20
481.9746765776182
 30
0.0
 11
298.2029485604743
 21
481.9746765776182
 31
0.0
  0
LINE
  5
3D8
102
{ACAD_REACTORS
330
66C
102
}
330
1F
100
AcDbEntity
  8
実線
100
AcDbLine
 10
320.7029485604743
 20
470.224676577618
 30
0.0
 11
325.7029485604743
 21
470.224676577618
 31
0.0
  0
LINE
  5
3D9
102
{ACAD_REACTORS
330
66C
102
}
330
1F
100
AcDbEntity
  8
実線
100
AcDbLine
 10
325.7029485604743
 20
470.224676577618
 30
0.0
 11
325.7029485604743
 21
478.1246765776181
 31
0.0
  0
LINE
  5
3DA
102
{ACAD_REACTORS
330
66C
102
}
330
1F
100
AcDbEntity
  8
実線
100
AcDbLine
 10
320.7029485604743
 20
478.1246765776183
 30
0.0
 11
325.7029485604743
 21
478.1246765776183
 31
0.0
  0
LINE
  5
3DB
102
{ACAD_REACTORS
330
66C
102
}
330
1F
100
AcDbEntity
  8
実線
100
AcDbLine
 10
332.2029485604744
 20
464.1746765776182
 30
0.0
 11
332.2029485604744
 21
461.1746765776182
 31
0.0
  0
LINE
  5
3DC
102
{ACAD_REACTORS
330
66C
102
}
330
1F
100
AcDbEntity
  8
実線
100
AcDbLine
 10
325.7029485604743
 20
461.1746765776182
 30
0.0
 11
332.2029485604744
 21
461.1746765776182
 31
0.0
  0
LINE
  5
3DD
102
{ACAD_REACTORS
330
66C
102
}
330
1F
100
AcDbEntity
  8
実線
100
AcDbLine
 10
332.2029485604744
 20
464.1746765776182
 30
0.0
 11
325.7029485604743
 21
464.1746765776182
 31
0.0
  0
LINE
  5
3DE
102
{ACAD_REACTORS
330
66C
102
}
330
1F
100
AcDbEntity
  8
実線
100
AcDbLine
 10
352.6801183293583
 20
268.1746765776182
 30
0.0
 11
258.7257787915905
 21
268.1746765776182
 31
0.0
  0
LINE
  5
3DF
102
{ACAD_REACTORS
330
66C
102
}
330
1F
100
AcDbEntity
  8
実線
100
AcDbLine
 10
352.6801183293583
 20
281.6746765776183
 30
0.0
 11
258.7257787915905
 21
281.6746765776183
 31
0.0
  0
LINE
  5
3E0
102
{ACAD_REACTORS
330
66C
102
}
330
1F
100
AcDbEntity
  8
実線
100
AcDbLine
 10
258.7257787915905
 20
281.6746765776183
 30
0.0
 11
258.7257787915905
 21
268.1746765776182
 31
0.0
  0
LINE
  5
3E1
102
{ACAD_REACTORS
330
66C
102
}
330
1F
100
AcDbEntity
  8
実線
100
AcDbLine
 10
352.6801183293583
 20
268.1746765776182
 30
0.0
 11
352.6801183293583
 21
281.6746765776183
 31
0.0
  0
LINE
  5
3E2
102
{ACAD_REACTORS
330
66C
102
}
330
1F
100
AcDbEntity
  8
実線
100
AcDbLine
 10
323.7318453708982
 20
281.6746765776183
 30
0.0
 11
323.7318453708982
 21
268.1746765776182
 31
0.0
  0
LINE
  5
3E3
102
{ACAD_REACTORS
330
66C
102
}
330
1F
100
AcDbEntity
  8
実線
100
AcDbLine
 10
287.6740517500504
 20
281.6746765776183
 30
0.0
 11
287.6740517500504
 21
268.1746765776182
 31
0.0
  0
ARC
  5
3E4
102
{ACAD_REACTORS
330
66C
102
}
330
1F
100
AcDbEntity
  8
実線
100
AcDbCircle
 10
329.4029485604743
 20
322.6746765776182
 30
0.0
 40
57.99999999999997
100
AcDbArc
 50
193.9679626746511
 51
224.9829679599013
  0
ARC
  5
3E5
102
{ACAD_REACTORS
330
66C
102
}
330
1F
100
AcDbEntity
  8
実線
100
AcDbCircle
 10
331.4029485604743
 20
322.6746765776182
 30
0.0
 40
70.00000000000003
100
AcDbArc
 50
180.0
 51
215.8534670634657
  0
LINE
  5
3E6
102
{ACAD_REACTORS
330
66C
102
}
330
1F
100
AcDbEntity
  8
実線
100
AcDbLine
 10
261.4029485604744
 20
352.1746765776182
 30
0.0
 11
261.4029485604744
 21
322.6746765776182
 31
0.0
  0
LINE
  5
3E7
102
{ACAD_REACTORS
330
66C
102
}
330
1F
100
AcDbEntity
  8
実線
100
AcDbLine
 10
350.0029485604742
 20
352.1746765776182
 30
0.0
 11
350.0029485604742
 21
322.6746765776182
 31
0.0
  0
ARC
  5
3E8
102
{ACAD_REACTORS
330
66C
102
}
330
1F
100
AcDbEntity
  8
実線
100
AcDbCircle
 10
282.0029485604745
 20
322.6746765776182
 30
0.0
 40
57.99999999999997
100
AcDbArc
 50
315.0170320400987
 51
346.0320373253488
  0
ARC
  5
3E9
102
{ACAD_REACTORS
330
66C
102
}
330
1F
100
AcDbEntity
  8
実線
100
AcDbCircle
 10
280.0029485604742
 20
322.6746765776182
 30
0.0
 40
70.00000000000003
100
AcDbArc
 50
324.1465329365344
 51
0.0
  0
LINE
  5
3EA
102
{ACAD_REACTORS
330
66C
102
}
330
1F
100
AcDbEntity
  8
実線
100
AcDbLine
 10
267.3175672285142
 20
352.1746765776182
 30
0.0
 11
267.3175672285142
 21
308.6746765776183
 31
0.0
  0
LINE
  5
3EB
102
{ACAD_REACTORS
330
66C
102
}
330
1F
100
AcDbEntity
  8
実線
100
AcDbLine
 10
267.3175672285141
 20
308.6746765776183
 30
0.0
 11
344.0883298924346
 21
308.6746765776183
 31
0.0
  0
LINE
  5
3EC
102
{ACAD_REACTORS
330
66C
102
}
330
1F
100
AcDbEntity
  8
実線
100
AcDbLine
 10
344.0883298924346
 20
352.1746765776182
 30
0.0
 11
344.0883298924346
 21
308.6746765776183
 31
0.0
  0
LINE
  5
3ED
102
{ACAD_REACTORS
330
66C
102
}
330
1F
100
AcDbEntity
  8
実線
100
AcDbLine
 10
258.7257787915905
 20
268.1746765776182
 30
0.0
 11
258.7257787915905
 21
258.1746765776183
 31
0.0
  0
LINE
  5
3EE
102
{ACAD_REACTORS
330
66C
102
}
330
1F
100
AcDbEntity
  8
実線
100
AcDbLine
 10
258.7257787915905
 20
258.1746765776182
 30
0.0
 11
287.6740517500504
 21
258.1746765776182
 31
0.0
  0
LINE
  5
3EF
102
{ACAD_REACTORS
330
66C
102
}
330
1F
100
AcDbEntity
  8
実線
100
AcDbLine
 10
352.6801183293583
 20
258.1746765776182
 30
0.0
 11
323.7318453708982
 21
258.1746765776182
 31
0.0
  0
LINE
  5
3F0
102
{ACAD_REACTORS
330
66C
102
}
330
1F
100
AcDbEntity
  8
実線
100
AcDbLine
 10
352.6801183293583
 20
258.1746765776182
 30
0.0
 11
352.6801183293583
 21
268.1746765776182
 31
0.0
  0
LINE
  5
3F1
102
{ACAD_REACTORS
330
66C
102
}
330
1F
100
AcDbEntity
  8
実線
100
AcDbLine
 10
323.7318453708982
 20
268.1746765776182
 30
0.0
 11
323.7318453708982
 21
258.1746765776183
 31
0.0
  0
LINE
  5
3F2
102
{ACAD_REACTORS
330
66C
102
}
330
1F
100
AcDbEntity
  8
実線
100
AcDbLine
 10
287.6740517500504
 20
268.1746765776182
 30
0.0
 11
287.6740517500504
 21
258.1746765776183
 31
0.0
  0
LINE
  5
3F3
102
{ACAD_REACTORS
330
66C
102
}
330
1F
100
AcDbEntity
  8
実線
100
AcDbLine
 10
345.7029485604743
 20
230.4746765776183
 30
0.0
 11
345.7029485604743
 21
258.1746765776182
 31
0.0
  0
LINE
  5
3F4
102
{ACAD_REACTORS
330
66C
102
}
330
1F
100
AcDbEntity
  8
実線
100
AcDbLine
 10
278.7029485604744
 20
217.4746765776182
 30
0.0
 11
332.7029485604743
 21
217.4746765776182
 31
0.0
  0
ARC
  5
3F5
102
{ACAD_REACTORS
330
66C
102
}
330
1F
100
AcDbEntity
  8
実線
100
AcDbCircle
 10
278.7029485604744
 20
230.4746765776183
 30
0.0
 40
13.0
100
AcDbArc
 50
225.3602270413949
 51
270.0
  0
ARC
  5
3F6
102
{ACAD_REACTORS
330
66C
102
}
330
1F
100
AcDbEntity
  8
実線
100
AcDbCircle
 10
332.7029485604743
 20
230.4746765776183
 30
0.0
 40
13.0
100
AcDbArc
 50
270.0
 51
0.0
  0
LINE
  5
3F7
102
{ACAD_REACTORS
330
66C
102
}
330
1F
100
AcDbEntity
  8
実線
100
AcDbLine
 10
258.7029485604743
 20
432.6746765776182
 30
0.0
 11
352.7029485604744
 21
432.6746765776182
 31
0.0
  0
ARC
  5
3F8
102
{ACAD_REACTORS
330
66C
102
}
330
1F
100
AcDbEntity
  8
実線
100
AcDbCircle
 10
352.7029485604744
 20
429.6746765776181
 30
0.0
 40
3.0
100
AcDbArc
 50
0.0
 51
90.0
  0
ARC
  5
3F9
102
{ACAD_REACTORS
330
66C
102
}
330
1F
100
AcDbEntity
  8
実線
100
AcDbCircle
 10
258.7029485604743
 20
429.6746765776181
 30
0.0
 40
3.0
100
AcDbArc
 50
90.0
 51
180.0
  0
LINE
  5
3FA
102
{ACAD_REACTORS
330
66C
102
}
330
1F
100
AcDbEntity
  8
実線
100
AcDbLine
 10
355.7029485604743
 20
428.1746765776182
 30
0.0
 11
355.7029485604743
 21
429.6746765776181
 31
0.0
  0
LINE
  5
3FB
102
{ACAD_REACTORS
330
66C
102
}
330
1F
100
AcDbEntity
  8
実線
100
AcDbLine
 10
255.7029485604743
 20
429.6746765776181
 30
0.0
 11
255.7029485604743
 21
428.1746765776182
 31
0.0
  0
LINE
  5
3FC
102
{ACAD_REACTORS
330
66C
102
}
330
1F
100
AcDbEntity
  8
実線
100
AcDbLine
 10
300.7029485604743
 20
450.1746765776181
 30
0.0
 11
280.7029485604744
 21
450.1746765776181
 31
0.0
  0
LINE
  5
3FD
102
{ACAD_REACTORS
330
66C
102
}
330
1F
100
AcDbEntity
  8
実線
100
AcDbLine
 10
330.7029485604743
 20
448.1746765776182
 30
0.0
 11
315.500907531607
 21
448.1746765776182
 31
0.0
  0
LINE
  5
3FE
102
{ACAD_REACTORS
330
66C
102
}
330
1F
100
AcDbEntity
  8
実線
100
AcDbLine
 10
290.7029485604743
 20
450.1746765776181
 30
0.0
 11
290.7029485604743
 21
448.1746765776182
 31
0.0
  0
LINE
  5
3FF
102
{ACAD_REACTORS
330
66C
102
}
330
1F
100
AcDbEntity
  8
実線
100
AcDbLine
 10
330.7029485604743
 20
448.1746765776182
 30
0.0
 11
330.7029485604743
 21
450.1746765776181
 31
0.0
  0
LINE
  5
400
102
{ACAD_REACTORS
330
66C
102
}
330
1F
100
AcDbEntity
  8
実線
100
AcDbLine
 10
280.7029485604744
 20
450.1746765776181
 30
0.0
 11
280.7029485604744
 21
448.1746765776182
 31
0.0
  0
LINE
  5
401
102
{ACAD_REACTORS
330
66C
102
}
330
1F
100
AcDbEntity
  8
実線
100
AcDbLine
 10
330.7029485604743
 20
450.1746765776181
 30
0.0
 11
320.7029485604743
 21
450.1746765775707
 31
0.0
  0
LINE
  5
402
102
{ACAD_REACTORS
330
66C
102
}
330
1F
100
AcDbEntity
  8
実線
100
AcDbLine
 10
320.7029485604743
 20
448.1746765776182
 30
0.0
 11
320.7029485604743
 21
479.1746765776181
 31
0.0
  0
LINE
  5
403
102
{ACAD_REACTORS
330
66C
102
}
330
1F
100
AcDbEntity
  8
実線
100
AcDbLine
 10
320.7029485604743
 20
479.1746765776181
 30
0.0
 11
300.7029485604743
 21
479.1746765776181
 31
0.0
  0
LINE
  5
404
102
{ACAD_REACTORS
330
66C
102
}
330
1F
100
AcDbEntity
  8
実線
100
AcDbLine
 10
300.7029485604743
 20
448.1746765776182
 30
0.0
 11
300.7029485604743
 21
479.1746765776181
 31
0.0
  0
LINE
  5
65D
102
{ACAD_REACTORS
330
66D
102
}
330
1F
100
AcDbEntity
  8
中心線
100
AcDbLine
 10
65.70294856047377
 20
185.2746765776181
 30
0.0
 11
65.70294856047377
 21
488.8838171140433
 31
0.0
  0
LINE
  5
65E
102
{ACAD_REACTORS
330
66C
102
}
330
1F
100
AcDbEntity
  8
中心線
100
AcDbLine
 10
305.7029485604738
 20
185.2746765776183
 30
0.0
 11
305.7029485604738
 21
488.8838171140433
 31
0.0
  0
LINE
  5
65F
102
{ACAD_REACTORS
330
66A
102
}
330
1F
100
AcDbEntity
  8
中心線
100
AcDbLine
 10
545.7029485604738
 20
185.2746765776181
 30
0.0
 11
545.7029485604737
 21
488.8838171140433
 31
0.0
  0
LINE
  5
660
102
{ACAD_REACTORS
330
669
102
}
330
1F
100
AcDbEntity
  8
中心線
100
AcDbLine
 10
785.7029485604738
 20
185.2746765776183
 30
0.0
 11
785.7029485604738
 21
491.6338171140436
 31
0.0
  0
LINE
  5
661
102
{ACAD_REACTORS
330
66E
102
}
330
1F
100
AcDbEntity
  8
中心線
100
AcDbLine
 10
233.7029485604744
 20
600.2746765776181
 30
0.0
 11
377.7029485604744
 21
600.2746765776181
 31
0.0
  0
LINE
  5
662
102
{ACAD_REACTORS
330
66E
102
}
330
1F
100
AcDbEntity
  8
中心線
100
AcDbLine
 10
305.7029485604743
 20
545.2746765776181
 30
0.0
 11
305.7029485604743
 21
655.2746765776182
 31
0.0
  0
LINE
  5
663
102
{ACAD_REACTORS
330
66B
102
}
330
1F
100
AcDbEntity
  8
中心線
100
AcDbLine
 10
233.7029485604744
 20
60.27467657761838
 30
0.0
 11
377.7029485604744
 21
60.27467657761838
 31
0.0
  0
LINE
  5
664
102
{ACAD_REACTORS
330
66B
102
}
330
1F
100
AcDbEntity
  8
中心線
100
AcDbLine
 10
305.7029485604743
 20
5.274676577618492
 30
0.0
 11
305.7029485604743
 21
115.2746765776185
 31
0.0
  0
LINE
  5
665
102
{ACAD_REACTORS
330
66D
102
}
330
1F
100
AcDbEntity
  8
中心線
100
AcDbLine
 10
10.70294856047377
 20
240.2746765776182
 30
0.0
 11
120.7029485604737
 21
240.2746765776182
 31
0.0
  0
LINE
  5
666
102
{ACAD_REACTORS
330
66C
102
}
330
1F
100
AcDbEntity
  8
中心線
100
AcDbLine
 10
233.7029485604744
 20
240.2746765776184
 30
0.0
 11
377.7029485604744
 21
240.2746765776184
 31
0.0
  0
LINE
  5
667
102
{ACAD_REACTORS
330
66A
102
}
330
1F
100
AcDbEntity
  8
中心線
100
AcDbLine
 10
490.7029485604736
 20
240.2746765776184
 30
0.0
 11
600.7029485604736
 21
240.2746765776184
 31
0.0
  0
LINE
  5
668
102
{ACAD_REACTORS
330
669
102
}
330
1F
100
AcDbEntity
  8
中心線
100
AcDbLine
 10
713.7029485604735
 20
240.2746765776184
 30
0.0
 11
857.7029485604734
 21
240.2746765776185
 31
0.0
  0
ENDSEC
  0
SECTION
  2
OBJECTS
  0
DICTIONARY
  5
C
330
0
100
AcDbDictionary
281
     1
  3
ACAD_CIP_PREVIOUS_PRODUCT_INFO
350
26B
  3
ACAD_COLOR
350
261
  3
ACAD_DETAILVIEWSTYLE
350
264
  3
ACAD_GROUP
350
D
  3
ACAD_LAYOUT
350
1A
  3
ACAD_MATERIAL
350
43
  3
ACAD_MLEADERSTYLE
350
5B
  3
ACAD_MLINESTYLE
350
17
  3
ACAD_PLOTSETTINGS
350
19
  3
ACAD_PLOTSTYLENAME
350
E
  3
ACAD_SCALELIST
350
47
  3
ACAD_SECTIONVIEWSTYLE
350
262
  3
ACAD_TABLESTYLE
350
59
  3
ACAD_VISUALSTYLE
350
2A
  3
ACDB_RECOMPOSE_DATA
350
70E
  3
AcDbVariableDictionary
350
216
  3
DWGPROPS
350
70F
  0
DICTIONARY
  5
40B
330
2
100
AcDbDictionary
280
     1
281
     1
  3
ACAD_LAYERSTATES
360
40C
  0
DICTIONARY
  5
66F
330
10
100
AcDbDictionary
280
     1
281
     1
  3
ADSK_XREC_LAYER_RECONCILED
360
670
  0
DICTIONARY
  5
407
330
406
100
AcDbDictionary
280
     1
281
     1
  3
ADSK_XREC_LAYER_RECONCILED
360
671
  0
DICTIONARY
  5
409
330
408
100
AcDbDictionary
280
     1
281
     1
  3
ADSK_XREC_LAYER_RECONCILED
360
672
  0
DICTIONARY
  5
29B
330
1F
100
AcDbDictionary
280
     1
281
     1
  3
ACAD_SORTENTS
360
29C
  0
XRECORD
  5
26B
102
{ACAD_REACTORS
330
C
102
}
330
C
100
AcDbXrecord
280
     1
300
ACDLT
300
2016
300
ACDLT_F_S
  0
DICTIONARY
  5
261
102
{ACAD_REACTORS
330
C
102
}
330
C
100
AcDbDictionary
281
     1
  0
DICTIONARY
  5
264
102
{ACAD_REACTORS
330
C
102
}
330
C
100
AcDbDictionary
281
     1
  3
Metric50
350
265
  0
DICTIONARY
  5
D
102
{ACAD_REACTORS
330
C
102
}
330
C
100
AcDbDictionary
281
     1
  3
*A1
350
669
  3
*A2
350
66A
  3
*A3
350
66B
  3
*A4
350
66C
  3
*A5
350
66D
  3
*A6
350
66E
  0
DICTIONARY
  5
1A
102
{ACAD_REACTORS
330
C
102
}
330
C
100
AcDbDictionary
281
     1
  3
Layout1
350
1E
  3
Model
350
22
  3
レイアウト1
350
266
  0
DICTIONARY
  5
43
102
{ACAD_REACTORS
330
C
102
}
330
C
100
AcDbDictionary
281
     1
  3
ByBlock
350
45
  3
ByLayer
350
44
  3
Global
350
46
  0
DICTIONARY
  5
5B
102
{ACAD_REACTORS
330
C
102
}
330
C
100
AcDbDictionary
281
     1
  3
Standard
350
5C
  0
DICTIONARY
  5
17
102
{ACAD_REACTORS
330
C
102
}
330
C
100
AcDbDictionary
281
     1
  3
Standard
350
18
  0
DICTIONARY
  5
19
102
{ACAD_REACTORS
330
C
102
}
330
C
100
AcDbDictionary
281
     1
  0
ACDBDICTIONARYWDFLT
  5
E
102
{ACAD_REACTORS
330
C
102
}
330
C
100
AcDbDictionary
281
     1
  3
Normal
350
F
100
AcDbDictionaryWithDefault
340
F
  0
DICTIONARY
  5
47
102
{ACAD_REACTORS
330
C
102
}
330
C
100
AcDbDictionary
281
     1
  3
A0
350
48
  3
A1
350
49
  3
A2
350
4A
  3
A3
350
4B
  3
A4
350
4C
  3
A5
350
4D
  3
A6
350
4E
  3
A7
350
4F
  3
A8
350
50
  3
A9
350
51
  3
B0
350
52
  3
B1
350
53
  3
B2
350
54
  3
B3
350
55
  3
B4
350
56
  3
B5
350
57
  3
B6
350
58
  0
DICTIONARY
  5
262
102
{ACAD_REACTORS
330
C
102
}
330
C
100
AcDbDictionary
281
     1
  3
Metric50
350
263
  0
DICTIONARY
  5
59
102
{ACAD_REACTORS
330
C
102
}
330
C
100
AcDbDictionary
281
     1
  3
Standard
350
5A
  0
DICTIONARY
  5
2A
102
{ACAD_REACTORS
330
C
102
}
330
C
100
AcDbDictionary
281
     1
  3
2dWireframe
350
2F
  3
Basic
350
32
  3
Brighten
350
36
  3
ColorChange
350
3A
  3
Conceptual
350
34
  3
Dim
350
35
  3
EdgeColorOff
350
3D
  3
Facepattern
350
39
  3
Flat
350
2B
  3
FlatWithEdges
350
2C
  3
Gouraud
350
2D
  3
GouraudWithEdges
350
2E
  3
Hidden
350
31
  3
JitterOff
350
3B
  3
Linepattern
350
38
  3
OverhangOff
350
3C
  3
Realistic
350
33
  3
Shaded
350
42
  3
Shaded with edges
350
41
  3
Shades of Gray
350
3E
  3
Sketchy
350
3F
  3
Thicken
350
37
  3
Wireframe
350
30
  3
X-Ray
350
40
  0
XRECORD
  5
70E
102
{ACAD_REACTORS
330
C
102
}
330
C
100
AcDbXrecord
280
     1
 90
        1
330
5A
  0
DICTIONARY
  5
216
102
{ACAD_REACTORS
330
C
102
}
330
C
100
AcDbDictionary
281
     1
  3
CANNOSCALE
350
224
  3
CENTEREXE
350
21D
  3
CENTERLTYPEFILE
350
21E
  3
CMLEADERSTYLE
350
218
  3
CTABLESTYLE
350
217
  3
CVIEWDETAILSTYLE
350
673
  3
CVIEWSECTIONSTYLE
350
674
  3
DIMASSOC
350
21F
  3
HIDETEXT
350
220
  3
INDEXCTL
350
6BE
  3
LAYEREVAL
350
676
  3
LAYERNOTIFY
350
677
  3
LIGHTINGUNITS
350
675
  3
LOFTANG1
350
70A
  3
LOFTANG2
350
70B
  3
MSLTSCALE
350
225
  3
PSOLHEIGHT
350
709
  3
PSOLWIDTH
350
708
  3
SORTENTS
350
6BD
  3
XCLIPFRAME
350
70C
  0
XRECORD
  5
70F
102
{ACAD_REACTORS
330
C
102
}
330
C
100
AcDbXrecord
280
     1
  1
DWGPROPS COOKIE
  2

  3

  4

  6
File was created by TR2_DExp
  7

  8
fujino
  9

300
=
301
=
302
=
303
=
304
=
305
=
306
=
307
=
308
=
309
=
 40
0.0104485995370371
 41
2455188.75
 42
2459747.336501053
  1

 90
        0
  0
DICTIONARY
  5
40C
102
{ACAD_REACTORS
330
40B
102
}
330
40B
100
AcDbDictionary
281
     1
  0
XRECORD
  5
670
102
{ACAD_REACTORS
330
66F
102
}
330
66F
100
AcDbXrecord
280
     1
290
     1
  0
XRECORD
  5
671
102
{ACAD_REACTORS
330
407
102
}
330
407
100
AcDbXrecord
280
     1
290
     1
  0
XRECORD
  5
672
102
{ACAD_REACTORS
330
409
102
}
330
409
100
AcDbXrecord
280
     1
290
     1
  0
SORTENTSTABLE
  5
29C
102
{ACAD_REACTORS
330
29B
102
}
330
29B
100
AcDbSortentsTable
330
1F
331
39F
  5
2FE
331
3DE
  5
29F
331
325
  5
315
331
364
  5
354
331
39B
  5
2FA
331
3DA
  5
299
331
3D6
  5
295
331
321
  5
311
331
2AD
  5
3BF
331
2EC
  5
37F
331
360
  5
350
331
397
  5
2F6
331
393
  5
2F2
331
3D2
  5
291
331
31D
  5
30D
331
2A9
  5
3BB
331
2E8
  5
37B
331
35C
  5
34C
331
358
  5
348
331
319
  5
3AC
331
2A5
  5
3B7
331
2E4
  5
377
331
2E0
  5
373
331
2A1
  5
3B3
331
274
  5
3DE
331
270
  5
3DA
331
26C
  5
3D6
331
667
  5
667
331
663
  5
663
331
38F
  5
2EE
331
3CE
  5
28D
331
354
  5
344
331
38B
  5
2EA
331
3CA
  5
289
331
315
  5
3A8
331
3C6
  5
285
331
311
  5
3A4
331
295
  5
3FF
331
2DC
  5
36F
331
350
  5
340
331
387
  5
2E6
331
383
  5
2E2
331
3C2
  5
281
331
30D
  5
3A0
331
291
  5
3FB
331
2D8
  5
36B
331
34C
  5
33C
331
309
  5
39C
331
28D
  5
3F7
331
2D4
  5
367
331
348
  5
338
331
2D0
  5
363
331
289
  5
3F3
331
65F
  5
65F
331
401
  5
2C2
331
3FF
  5
2C0
331
3FB
  5
2BC
331
37F
  5
2DE
331
3BE
  5
27D
331
344
  5
334
331
37B
  5
2DA
331
3BA
  5
279
331
305
  5
398
331
3B6
  5
275
331
301
  5
394
331
2CC
  5
35F
331
340
  5
330
331
377
  5
2D6
331
285
  5
3EF
331
3B2
  5
271
331
2FD
  5
390
331
281
  5
3EB
331
2C8
  5
35B
331
33C
  5
32C
331
373
  5
2D2
331
2F9
  5
38C
331
2C4
  5
357
331
338
  5
328
331
2C0
  5
3D2
331
3F7
  5
2B8
331
298
  5
402
331
3F3
  5
2B4
331
3EF
  5
2B0
331
3EB
  5
2AC
331
3AE
  5
26D
331
334
  5
324
331
3AA
  5
309
331
3E5
  5
2A6
331
2BC
  5
3CE
331
330
  5
320
331
36F
  5
2CE
331
3A6
  5
305
331
3A2
  5
301
331
3E1
  5
2A2
331
32C
  5
31C
331
2B8
  5
3CA
331
2F7
  5
38A
331
36B
  5
2CA
331
328
  5
318
331
2B4
  5
3C6
331
2F3
  5
386
331
2B0
  5
3C2
331
27F
  5
3E9
331
27B
  5
3E5
331
367
  5
2C6
331
39E
  5
2FD
331
3DD
  5
29E
331
324
  5
314
331
2EF
  5
382
331
363
  5
353
331
39A
  5
2F9
331
3D9
  5
298
331
3D5
  5
294
331
320
  5
310
331
2AC
  5
3BE
331
2EB
  5
37E
331
35F
  5
34F
331
396
  5
2F5
331
392
  5
2F1
331
3D1
  5
290
331
31C
  5
30C
331
2A8
  5
3BA
331
2E7
  5
37A
331
35B
  5
34B
331
318
  5
3AB
331
2A4
  5
3B6
331
2E3
  5
376
331
2A0
  5
3B2
331
277
  5
3E1
331
273
  5
3DD
331
26F
  5
3D9
331
666
  5
666
331
662
  5
662
331
357
  5
347
331
38E
  5
2ED
331
3CD
  5
28C
331
314
  5
3A7
331
2DF
  5
372
331
353
  5
343
331
38A
  5
2E9
331
3C9
  5
288
331
3C5
  5
284
331
310
  5
3A3
331
294
  5
3FE
331
2DB
  5
36E
331
34F
  5
33F
331
386
  5
2E5
331
382
  5
2E1
331
3C1
  5
280
331
30C
  5
39F
331
290
  5
3FA
331
2D7
  5
36A
331
34B
  5
33B
331
308
  5
39B
331
28C
  5
3F6
331
2D3
  5
366
331
288
  5
3F2
331
65E
  5
65E
331
404
  5
2C5
331
400
  5
2C1
331
3FE
  5
2BF
331
668
  5
668
331
3FA
  5
2BB
331
347
  5
337
331
37E
  5
2DD
331
3BD
  5
27C
331
343
  5
333
331
37A
  5
2D9
331
3B9
  5
278
331
2CF
  5
362
331
304
  5
397
331
3B5
  5
274
331
300
  5
393
331
284
  5
3EE
331
2CB
  5
35E
331
33F
  5
32F
331
376
  5
2D5
331
372
  5
2D1
331
3B1
  5
270
331
2FC
  5
38F
331
280
  5
3EA
331
2C7
  5
35A
331
33B
  5
32B
331
2F8
  5
38B
331
2C3
  5
3D5
331
29F
  5
3B1
331
3F6
  5
2B7
331
3F2
  5
2B3
331
3EE
  5
2AF
331
3EA
  5
2AB
331
3AD
  5
26C
331
337
  5
327
331
2BF
  5
3D1
331
333
  5
323
331
3A9
  5
308
331
3A5
  5
304
331
3E4
  5
2A5
331
2BB
  5
3CD
331
32F
  5
31F
331
36E
  5
2CD
331
3A1
  5
300
331
3E0
  5
2A1
331
32B
  5
31B
331
2B7
  5
3C9
331
2F6
  5
389
331
36A
  5
2C9
331
2F2
  5
385
331
2B3
  5
3C5
331
27E
  5
3E8
331
27A
  5
3E4
331
366
  5
356
331
39D
  5
2FC
331
3DC
  5
29D
331
327
  5
317
331
3D8
  5
297
331
323
  5
313
331
2EE
  5
381
331
362
  5
352
331
399
  5
2F8
331
2AF
  5
3C1
331
3D4
  5
293
331
31F
  5
30F
331
2AB
  5
3BD
331
2EA
  5
37D
331
35E
  5
34E
331
395
  5
2F4
331
391
  5
2F0
331
3D0
  5
28F
331
31B
  5
3AE
331
2A7
  5
3B9
331
2E6
  5
379
331
35A
  5
34A
331
2A3
  5
3B5
331
2E2
  5
375
331
276
  5
3E0
331
272
  5
3DC
331
26E
  5
3D8
331
665
  5
665
331
661
  5
661
331
356
  5
346
331
38D
  5
2EC
331
3CC
  5
28B
331
317
  5
3AA
331
313
  5
3A6
331
2DE
  5
371
331
352
  5
342
331
389
  5
2E8
331
297
  5
401
331
3C8
  5
287
331
3C4
  5
283
331
30F
  5
3A2
331
293
  5
3FD
331
2DA
  5
36D
331
34E
  5
33E
331
385
  5
2E4
331
381
  5
2E0
331
3C0
  5
27F
331
30B
  5
39E
331
28F
  5
3F9
331
2D6
  5
369
331
34A
  5
33A
331
28B
  5
3F5
331
2D2
  5
365
331
65D
  5
65D
331
403
  5
2C4
331
3FD
  5
2BE
331
3F9
  5
2BA
331
346
  5
336
331
37D
  5
2DC
331
3BC
  5
27B
331
307
  5
39A
331
303
  5
396
331
2CE
  5
361
331
342
  5
332
331
379
  5
2D8
331
287
  5
3F1
331
3B8
  5
277
331
3B4
  5
273
331
2FF
  5
392
331
283
  5
3ED
331
2CA
  5
35D
331
33E
  5
32E
331
375
  5
2D4
331
371
  5
2D0
331
3B0
  5
26F
331
2FB
  5
38E
331
2C6
  5
359
331
33A
  5
32A
331
2C2
  5
3D4
331
29E
  5
3B0
331
29A
  5
404
331
3F5
  5
2B6
331
3F1
  5
2B2
331
3ED
  5
2AE
331
3E9
  5
2AA
331
336
  5
326
331
3AC
  5
30B
331
3E7
  5
2A8
331
2BE
  5
3D0
331
332
  5
322
331
3A8
  5
307
331
3A4
  5
303
331
3E3
  5
2A4
331
2BA
  5
3CC
331
32E
  5
31E
331
36D
  5
2CC
331
369
  5
2C8
331
3A0
  5
2FF
331
32A
  5
31A
331
2B6
  5
3C8
331
2F5
  5
388
331
2F1
  5
384
331
2B2
  5
3C4
331
27D
  5
3E7
331
279
  5
3E3
331
3DF
  5
2A0
331
365
  5
355
331
39C
  5
2FB
331
3DB
  5
29A
331
326
  5
316
331
3D7
  5
296
331
322
  5
312
331
2AE
  5
3C0
331
2ED
  5
380
331
361
  5
351
331
398
  5
2F7
331
394
  5
2F3
331
3D3
  5
292
331
31E
  5
30E
331
2AA
  5
3BC
331
2E9
  5
37C
331
35D
  5
34D
331
390
  5
2EF
331
31A
  5
3AD
331
2A6
  5
3B8
331
2E5
  5
378
331
359
  5
349
331
2E1
  5
374
331
2A2
  5
3B4
331
275
  5
3DF
331
271
  5
3DB
331
26D
  5
3D7
331
664
  5
664
331
660
  5
660
331
3CF
  5
28E
331
355
  5
345
331
38C
  5
2EB
331
3CB
  5
28A
331
316
  5
3A9
331
3C7
  5
286
331
312
  5
3A5
331
2DD
  5
370
331
351
  5
341
331
388
  5
2E7
331
296
  5
400
331
3C3
  5
282
331
30E
  5
3A1
331
292
  5
3FC
331
2D9
  5
36C
331
34D
  5
33D
331
384
  5
2E3
331
380
  5
2DF
331
30A
  5
39D
331
28E
  5
3F8
331
2D5
  5
368
331
349
  5
339
331
28A
  5
3F4
331
2D1
  5
364
331
402
  5
2C3
331
3FC
  5
2BD
331
3F8
  5
2B9
331
3BF
  5
27E
331
345
  5
335
331
37C
  5
2DB
331
3BB
  5
27A
331
306
  5
399
331
302
  5
395
331
2CD
  5
360
331
341
  5
331
331
378
  5
2D7
331
286
  5
3F0
331
3B7
  5
276
331
3B3
  5
272
331
2FE
  5
391
331
282
  5
3EC
331
2C9
  5
35C
331
33D
  5
32D
331
374
  5
2D3
331
370
  5
2CF
331
2FA
  5
38D
331
2C5
  5
358
331
339
  5
329
331
2C1
  5
3D3
331
29D
  5
3AF
331
299
  5
403
331
3F4
  5
2B5
331
3F0
  5
2B1
331
3EC
  5
2AD
331
3E8
  5
2A9
331
3AF
  5
26E
331
335
  5
325
331
3AB
  5
30A
331
3E6
  5
2A7
331
2BD
  5
3CF
331
331
  5
321
331
3A7
  5
306
331
3A3
  5
302
331
3E2
  5
2A3
331
2B9
  5
3CB
331
32D
  5
31D
331
36C
  5
2CB
331
368
  5
2C7
331
329
  5
319
331
2B5
  5
3C7
331
2F4
  5
387
331
2F0
  5
383
331
2B1
  5
3C3
331
27C
  5
3E6
331
278
  5
3E2
  0
ACDBDETAILVIEWSTYLE
  5
265
102
{ACAD_XDICTIONARY
360
747
102
}
102
{ACAD_REACTORS
330
264
102
}
330
264
100
AcDbModelDocViewStyle
 70
     0
  3
Metric50
290
     0
100
AcDbDetailViewStyle
 70
     0
 71
     0
 90
        3
 71
     1
340
11
 40
5.0
340
0
 40
5.0
300

 40
0.0
280
     1
 71
     2
340
16
 90
       25
 71
     3
340
11
 40
5.0
 90
        0
 40
15.0
 90
        1
300
%<\AcVar ViewDetailId>% (%<\AcVar ViewScale \f "%sn">%)
 71
     4
340
16
 90
       25
340
16
 90
       25
280
     0
  0
GROUP
  5
669
102
{ACAD_REACTORS
330
D
102
}
330
D
100
AcDbGroup
300

 70
     1
 71
     1
340
668
340
660
340
31B
340
31A
340
319
340
318
340
317
340
316
340
315
340
314
340
313
340
312
340
311
340
310
340
30F
340
30E
340
30D
340
30C
340
30B
340
30A
340
309
340
308
340
307
340
306
340
305
340
304
340
303
340
302
340
301
340
300
340
2FF
340
2FE
340
2FD
340
2FC
340
2FB
340
2FA
340
2F9
340
2F8
340
2F7
340
2F6
340
2F5
340
2F4
340
2F3
340
2F2
340
2F1
340
2F0
340
2EF
340
2EE
340
2ED
340
2EC
340
2EB
340
2EA
340
2E9
340
2E8
340
2E7
340
2E6
340
2E5
340
2E4
340
2E3
340
2E2
340
2E1
340
2E0
340
2DF
340
2DE
340
2DD
340
2DC
340
2DB
340
2DA
340
2D9
340
2D8
340
2D7
340
2D6
340
2D5
340
2D4
340
2D3
340
2D2
340
2D1
340
2D0
340
2CF
340
2CE
340
2CD
340
2CC
340
2CB
340
2CA
340
2C9
340
2C8
340
2C7
340
2C6
340
2C5
340
2C4
  0
GROUP
  5
66A
102
{ACAD_REACTORS
330
D
102
}
330
D
100
AcDbGroup
300

 70
     1
 71
     1
340
667
340
65F
340
366
340
365
340
364
340
363
340
362
340
361
340
360
340
35F
340
35E
340
35D
340
35C
340
35B
340
35A
340
359
340
358
340
357
340
356
340
355
340
354
340
353
340
352
340
351
340
350
340
34F
340
34E
340
34D
340
34C
340
34B
340
34A
340
349
340
348
340
347
340
346
340
345
340
344
340
343
340
342
340
341
340
340
340
33F
340
33E
340
33D
340
33C
340
33B
340
33A
340
339
340
338
340
337
340
336
340
335
340
334
340
333
340
332
340
331
340
330
340
32F
340
32E
340
32D
340
32C
340
32B
340
32A
340
329
340
328
340
327
340
326
340
325
340
324
340
323
340
322
340
321
340
320
340
31F
340
31E
340
31D
340
31C
  0
GROUP
  5
66B
102
{ACAD_REACTORS
330
D
102
}
330
D
100
AcDbGroup
300

 70
     1
 71
     1
340
664
340
663
340
2C3
340
2C2
340
2C1
340
2C0
340
2BF
340
2BE
340
2BD
340
2BC
340
2BB
340
2BA
340
2B9
340
2B8
340
2B7
340
2B6
340
2B5
340
2B4
340
2B3
340
2B2
340
2B1
340
2B0
340
2AF
340
2AE
340
2AD
340
2AC
340
2AB
340
2AA
340
2A9
340
2A8
340
2A7
340
2A6
340
2A5
340
2A4
340
2A3
340
2A2
340
2A1
340
2A0
340
29F
340
29E
340
29D
  0
GROUP
  5
66C
102
{ACAD_REACTORS
330
D
102
}
330
D
100
AcDbGroup
300

 70
     1
 71
     1
340
666
340
65E
340
404
340
403
340
402
340
401
340
400
340
3FF
340
3FE
340
3FD
340
3FC
340
3FB
340
3FA
340
3F9
340
3F8
340
3F7
340
3F6
340
3F5
340
3F4
340
3F3
340
3F2
340
3F1
340
3F0
340
3EF
340
3EE
340
3ED
340
3EC
340
3EB
340
3EA
340
3E9
340
3E8
340
3E7
340
3E6
340
3E5
340
3E4
340
3E3
340
3E2
340
3E1
340
3E0
340
3DF
340
3DE
340
3DD
340
3DC
340
3DB
340
3DA
340
3D9
340
3D8
340
3D7
340
3D6
340
3D5
340
3D4
340
3D3
340
3D2
340
3D1
340
3D0
340
3CF
340
3CE
340
3CD
340
3CC
340
3CB
340
3CA
340
3C9
340
3C8
340
3C7
340
3C6
340
3C5
340
3C4
340
3C3
340
3C2
340
3C1
340
3C0
340
3BF
340
3BE
340
3BD
340
3BC
340
3BB
340
3BA
340
3B9
340
3B8
340
3B7
340
3B6
340
3B5
340
3B4
340
3B3
340
3B2
340
3B1
340
3B0
340
3AF
340
3AE
340
3AD
  0
GROUP
  5
66D
102
{ACAD_REACTORS
330
D
102
}
330
D
100
AcDbGroup
300

 70
     1
 71
     1
340
665
340
65D
340
3AC
340
3AB
340
3AA
340
3A9
340
3A8
340
3A7
340
3A6
340
3A5
340
3A4
340
3A3
340
3A2
340
3A1
340
3A0
340
39F
340
39E
340
39D
340
39C
340
39B
340
39A
340
399
340
398
340
397
340
396
340
395
340
394
340
393
340
392
340
391
340
390
340
38F
340
38E
340
38D
340
38C
340
38B
340
38A
340
389
340
388
340
387
340
386
340
385
340
384
340
383
340
382
340
381
340
380
340
37F
340
37E
340
37D
340
37C
340
37B
340
37A
340
379
340
378
340
377
340
376
340
375
340
374
340
373
340
372
340
371
340
370
340
36F
340
36E
340
36D
340
36C
340
36B
340
36A
340
369
340
368
340
367
  0
GROUP
  5
66E
102
{ACAD_REACTORS
330
D
102
}
330
D
100
AcDbGroup
300

 70
     1
 71
     1
340
662
340
661
340
29A
340
299
340
298
340
297
340
296
340
295
340
294
340
293
340
292
340
291
340
290
340
28F
340
28E
340
28D
340
28C
340
28B
340
28A
340
289
340
288
340
287
340
286
340
285
340
284
340
283
340
282
340
281
340
280
340
27F
340
27E
340
27D
340
27C
340
27B
340
27A
340
279
340
278
340
277
340
276
340
275
340
274
340
273
340
272
340
271
340
270
340
26F
340
26E
340
26D
340
26C
  0
LAYOUT
  5
1E
102
{ACAD_XDICTIONARY
360
710
102
}
102
{ACAD_REACTORS
330
1A
102
}
330
1A
100
AcDbPlotSettings
  1

  2
none_device
  4

  6

 40
0.0
 41
0.0
 42
0.0
 43
0.0
 44
0.0
 45
0.0
 46
0.0
 47
0.0
 48
0.0
 49
0.0
140
0.0
141
0.0
142
1.0
143
1.0
 70
   688
 72
     1
 73
     0
 74
     5
  7

 75
    16
147
1.0
148
0.0
149
0.0
100
AcDbLayout
  1
Layout1
 70
     1
 71
     1
 10
0.0
 20
0.0
 11
420.0
 21
297.0
 12
0.0
 22
0.0
 32
0.0
 14
1.000000000000000E+20
 24
1.000000000000000E+20
 34
1.000000000000000E+20
 15
-1.000000000000000E+20
 25
-1.000000000000000E+20
 35
-1.000000000000000E+20
146
0.0
 13
0.0
 23
0.0
 33
0.0
 16
1.0
 26
0.0
 36
0.0
 17
0.0
 27
1.0
 37
0.0
 76
     0
330
1B
  0
LAYOUT
  5
22
102
{ACAD_XDICTIONARY
360
712
102
}
102
{ACAD_REACTORS
330
1A
102
}
330
1A
100
AcDbPlotSettings
  1

  2
none_device
  4
Letter_(8.50_x_11.00_Inches)
  6

 40
6.349999999999997
 41
6.349999999999997
 42
6.350005079999997
 43
6.350005079999997
 44
215.9
 45
279.4
 46
0.0
 47
0.0
 48
0.0
 49
0.0
140
0.0
141
0.0
142
1.0
143
1.0
 70
  1712
 72
     1
 73
     0
 74
     0
  7

 75
     0
147
1.0
148
0.0
149
0.0
100
AcDbLayout
  1
Model
 70
     1
 71
     0
 10
-291.4212551116943
 20
-357.107795715332
 11
850.9813117980957
 21
566.1494216918945
 12
0.0
 22
0.0
 32
0.0
 14
-291.4212551116943
 24
-357.107795715332
 34
0.0
 15
850.9813117980957
 25
566.1494216918945
 35
0.0
146
0.0
 13
0.0
 23
0.0
 33
0.0
 16
1.0
 26
0.0
 36
0.0
 17
0.0
 27
1.0
 37
0.0
 76
     0
330
1F
331
29
  0
LAYOUT
  5
266
102
{ACAD_XDICTIONARY
360
749
102
}
102
{ACAD_REACTORS
330
1A
102
}
330
1A
100
AcDbPlotSettings
  1

  2
青梅 FX DocuCentre-V C2275 T2
  4

  6

 40
0.0
 41
0.0
 42
0.0
 43
0.0
 44
0.0
 45
0.0
 46
0.0
 47
0.0
 48
0.0
 49
0.0
140
0.0
141
0.0
142
1.0
143
1.0
 70
   688
 72
     0
 73
     0
 74
     5
  7
AutoCAD_PEN.ctb
 75
    16
147
1.0
148
0.0
149
0.0
100
AcDbLayout
  1
レイアウト1
 70
     1
 71
     2
 10
0.0
 20
0.0
 11
12.0
 21
9.0
 12
0.0
 22
0.0
 32
0.0
 14
0.0
 24
0.0
 34
0.0
 15
0.0
 25
0.0
 35
0.0
146
0.0
 13
0.0
 23
0.0
 33
0.0
 16
1.0
 26
0.0
 36
0.0
 17
0.0
 27
1.0
 37
0.0
 76
     0
330
23
  0
MATERIAL
  5
45
102
{ACAD_XDICTIONARY
360
258
102
}
102
{ACAD_REACTORS
330
43
102
}
330
43
100
AcDbMaterial
  1
ByBlock
  0
MATERIAL
  5
44
102
{ACAD_XDICTIONARY
360
256
102
}
102
{ACAD_REACTORS
330
43
102
}
330
43
100
AcDbMaterial
  1
ByLayer
  0
MATERIAL
  5
46
102
{ACAD_XDICTIONARY
360
25A
102
}
102
{ACAD_REACTORS
330
43
102
}
330
43
100
AcDbMaterial
  1
Global
  0
MLEADERSTYLE
  5
5C
102
{ACAD_REACTORS
330
5B
102
}
330
5B
100
AcDbMLeaderStyle
170
     2
171
     1
172
     0
 90
        2
 40
0.0
 41
0.0
173
     1
 91
-1056964608
340
14
 92
       -2
290
     1
 42
2.0
291
     1
 43
8.0
  3
Standard
 44
4.0
300

342
11
174
     1
178
     6
175
     1
176
     0
 93
-1056964608
 45
4.0
292
     0
297
     0
 46
4.0
 94
-1056964608
 47
1.0
 49
1.0
140
1.0
293
     1
141
0.0
294
     1
177
     0
142
1.0
295
     0
296
     0
143
3.75
1001
ACAD_MLEADERVER
1070
     2
  0
MLINESTYLE
  5
18
102
{ACAD_REACTORS
330
17
102
}
330
17
100
AcDbMlineStyle
  2
STANDARD
 70
     0
  3

 62
   256
 51
90.0
 52
90.0
 71
     2
 49
0.5
 62
   256
  6
BYLAYER
 49
-0.5
 62
   256
  6
BYLAYER
  0
ACDBPLACEHOLDER
  5
F
102
{ACAD_REACTORS
330
E
102
}
330
E
  0
SCALE
  5
48
102
{ACAD_REACTORS
330
47
102
}
330
47
100
AcDbScale
 70
     0
300
1:1
140
1.0
141
1.0
290
     1
  0
SCALE
  5
49
102
{ACAD_REACTORS
330
47
102
}
330
47
100
AcDbScale
 70
     0
300
1:2
140
1.0
141
2.0
290
     0
  0
SCALE
  5
4A
102
{ACAD_REACTORS
330
47
102
}
330
47
100
AcDbScale
 70
     0
300
1:4
140
1.0
141
4.0
290
     0
  0
SCALE
  5
4B
102
{ACAD_REACTORS
330
47
102
}
330
47
100
AcDbScale
 70
     0
300
1:5
140
1.0
141
5.0
290
     0
  0
SCALE
  5
4C
102
{ACAD_REACTORS
330
47
102
}
330
47
100
AcDbScale
 70
     0
300
1:8
140
1.0
141
8.0
290
     0
  0
SCALE
  5
4D
102
{ACAD_REACTORS
330
47
102
}
330
47
100
AcDbScale
 70
     0
300
1:10
140
1.0
141
10.0
290
     0
  0
SCALE
  5
4E
102
{ACAD_REACTORS
330
47
102
}
330
47
100
AcDbScale
 70
     0
300
1:16
140
1.0
141
16.0
290
     0
  0
SCALE
  5
4F
102
{ACAD_REACTORS
330
47
102
}
330
47
100
AcDbScale
 70
     0
300
1:20
140
1.0
141
20.0
290
     0
  0
SCALE
  5
50
102
{ACAD_REACTORS
330
47
102
}
330
47
100
AcDbScale
 70
     0
300
1:30
140
1.0
141
30.0
290
     0
  0
SCALE
  5
51
102
{ACAD_REACTORS
330
47
102
}
330
47
100
AcDbScale
 70
     0
300
1:40
140
1.0
141
40.0
290
     0
  0
SCALE
  5
52
102
{ACAD_REACTORS
330
47
102
}
330
47
100
AcDbScale
 70
     0
300
1:50
140
1.0
141
50.0
290
     0
  0
SCALE
  5
53
102
{ACAD_REACTORS
330
47
102
}
330
47
100
AcDbScale
 70
     0
300
1:100
140
1.0
141
100.0
290
     0
  0
SCALE
  5
54
102
{ACAD_REACTORS
330
47
102
}
330
47
100
AcDbScale
 70
     0
300
2:1
140
2.0
141
1.0
290
     0
  0
SCALE
  5
55
102
{ACAD_REACTORS
330
47
102
}
330
47
100
AcDbScale
 70
     0
300
4:1
140
4.0
141
1.0
290
     0
  0
SCALE
  5
56
102
{ACAD_REACTORS
330
47
102
}
330
47
100
AcDbScale
 70
     0
300
8:1
140
8.0
141
1.0
290
     0
  0
SCALE
  5
57
102
{ACAD_REACTORS
330
47
102
}
330
47
100
AcDbScale
 70
     0
300
10:1
140
10.0
141
1.0
290
     0
  0
SCALE
  5
58
102
{ACAD_REACTORS
330
47
102
}
330
47
100
AcDbScale
 70
     0
300
100:1
140
100.0
141
1.0
290
     0
  0
ACDBSECTIONVIEWSTYLE
  5
263
102
{ACAD_XDICTIONARY
360
745
102
}
102
{ACAD_REACTORS
330
262
102
}
330
262
100
AcDbModelDocViewStyle
 70
     0
  3
Metric50
290
     0
100
AcDbSectionViewStyle
 70
     0
 71
     0
 90
      102
 71
     1
340
11
 40
5.0
340
0
340
0
 40
5.0
300
I, O, Q, S, X, Z
 40
10.0
 90
        0
 40
2.5
 90
        0
 71
     2
340
16
 90
       25
340
16
 90
       50
 40
5.0
 40
2.5
 40
5.0
 71
     3
340
11
 40
5.0
 90
        0
 40
15.0
 90
        1
300
%<\AcVar ViewSectionStartId>%-%<\AcVar ViewSectionEndId>% (%<\AcVar ViewScale \f "%sn">%)
 71
     4
300
ANSI31
 40
1.0
 90
        0
290
     0
290
     0
 90
        6
 40
0.0
 40
1.570796326794896
 40
0.2617993877991494
 40
1.308996938995747
 40
-0.2617993877991494
 40
1.832595714594044
  0
TABLESTYLE
  5
5A
102
{ACAD_XDICTIONARY
360
678
102
}
102
{ACAD_REACTORS
330
59
102
}
330
59
100
AcDbTableStyle
  3
Standard
 70
     0
 71
     0
 40
1.5
 41
1.5
280
     0
281
     0
  7
Standard
140
4.5
170
     2
 62
     0
 63
     7
283
     0
274
    -2
284
     1
 64
     0
275
    -2
285
     1
 65
     0
276
    -2
286
     1
 66
     0
277
    -2
287
     1
 67
     0
278
    -2
288
     1
 68
     0
279
    -2
289
     1
 69
     0
  7
Standard
140
6.0
170
     5
 62
     0
 63
     7
283
     0
274
    -2
284
     1
 64
     0
275
    -2
285
     1
 65
     0
276
    -2
286
     1
 66
     0
277
    -2
287
     1
 67
     0
278
    -2
288
     1
 68
     0
279
    -2
289
     1
 69
     0
  7
Standard
140
4.5
170
     5
 62
     0
 63
     7
283
     0
274
    -2
284
     1
 64
     0
275
    -2
285
     1
 65
     0
276
    -2
286
     1
 66
     0
277
    -2
287
     1
 67
     0
278
    -2
288
     1
 68
     0
279
    -2
289
     1
 69
     0
  0
VISUALSTYLE
  5
2F
102
{ACAD_XDICTIONARY
360
71C
102
}
102
{ACAD_REACTORS
330
2A
102
}
330
2A
100
AcDbVisualStyle
  2

 70
     4
 71
     0
 72
     2
 73
     0
 90
        0
 40
-0.6
 41
-30.0
 62
     5
 63
     7
 74
     1
 91
        4
 64
     7
 65
   257
 75
     1
175
     1
 42
1.0
 92
        0
 66
   257
 43
1.0
 76
     1
 77
     6
 78
     2
 67
     7
 79
     5
170
     0
171
     0
290
     0
174
     0
 93
        1
 44
0.0
173
     0
291
     0
 45
0.0
1001
ACAD
1000
AcDbSavedByObjectVersion
1070
     0
  0
VISUALSTYLE
  5
32
102
{ACAD_XDICTIONARY
360
722
102
}
102
{ACAD_REACTORS
330
2A
102
}
330
2A
100
AcDbVisualStyle
  2

 70
     7
 71
     1
 72
     0
 73
     1
 90
        0
 40
-0.6
 41
-30.0
 62
     5
 63
     7
 74
     0
 91
        4
 64
     7
 65
   257
 75
     1
175
     1
 42
1.0
 92
        8
 66
     7
 43
1.0
 76
     1
 77
     6
 78
     2
 67
     7
 79
     5
170
     0
171
     0
290
     0
174
     0
 93
        1
 44
0.0
173
     0
291
     1
 45
0.0
1001
ACAD
1000
AcDbSavedByObjectVersion
1070
     0
  0
VISUALSTYLE
  5
36
102
{ACAD_XDICTIONARY
360
72A
102
}
102
{ACAD_REACTORS
330
2A
102
}
330
2A
100
AcDbVisualStyle
  2

 70
    12
 71
     2
 72
     2
 73
     0
 90
        0
 40
-0.6
 41
-30.0
 62
     5
 63
     7
 74
     1
 91
        4
 64
     7
 65
   257
 75
     1
175
     1
 42
1.0
 92
        8
 66
     7
 43
1.0
 76
     1
 77
     6
 78
     2
 67
     7
 79
     5
170
     0
171
     0
290
     0
174
     0
 93
        1
 44
50.0
173
     0
291
     1
 45
0.0
1001
ACAD
1000
AcDbSavedByObjectVersion
1070
     0
  0
VISUALSTYLE
  5
3A
102
{ACAD_XDICTIONARY
360
732
102
}
102
{ACAD_REACTORS
330
2A
102
}
330
2A
100
AcDbVisualStyle
  2

 70
    16
 71
     2
 72
     2
 73
     3
 90
        0
 40
-0.6
 41
-30.0
 62
     5
 63
     8
 74
     1
 91
        4
 64
     7
 65
   257
 75
     1
175
     1
 42
1.0
 92
        8
 66
     8
 43
1.0
 76
     1
 77
     6
 78
     2
 67
     7
 79
     5
170
     0
171
     0
290
     0
174
     0
 93
        1
 44
0.0
173
     0
291
     1
 45
0.0
1001
ACAD
1000
AcDbSavedByObjectVersion
1070
     0
  0
VISUALSTYLE
  5
34
102
{ACAD_XDICTIONARY
360
726
102
}
102
{ACAD_REACTORS
330
2A
102
}
330
2A
100
AcDbVisualStyle
  2

 70
     9
 71
     3
 72
     2
 73
     0
 90
        0
 40
-0.6
 41
-30.0
 62
     5
 63
     7
 74
     2
 91
        2
 64
     7
 65
   257
 75
     1
175
     1
 42
179.0
 92
        8
 66
     7
 43
1.0
 76
     1
 77
     6
 78
     2
 67
     7
 79
     3
170
     0
171
     0
290
     0
174
     0
 93
        1
 44
0.0
173
     0
291
     0
 45
0.0
1001
ACAD
1000
AcDbSavedByObjectVersion
1070
     0
  0
VISUALSTYLE
  5
35
102
{ACAD_XDICTIONARY
360
728
102
}
102
{ACAD_REACTORS
330
2A
102
}
330
2A
100
AcDbVisualStyle
  2

 70
    11
 71
     2
 72
     2
 73
     0
 90
        0
 40
-0.6
 41
-30.0
 62
     5
 63
     7
 74
     1
 91
        4
 64
     7
 65
   257
 75
     1
175
     1
 42
1.0
 92
        8
 66
     7
 43
1.0
 76
     1
 77
     6
 78
     2
 67
     7
 79
     5
170
     0
171
     0
290
     0
174
     0
 93
        1
 44
-50.0
173
     0
291
     1
 45
0.0
1001
ACAD
1000
AcDbSavedByObjectVersion
1070
     0
  0
VISUALSTYLE
  5
3D
102
{ACAD_XDICTIONARY
360
738
102
}
102
{ACAD_REACTORS
330
2A
102
}
330
2A
100
AcDbVisualStyle
  2

 70
    22
 71
     2
 72
     2
 73
     0
 90
        0
 40
-0.6
 41
-30.0
 62
     5
 63
     7
 74
     1
 91
        4
 64
     7
 65
   257
 75
     1
175
     1
 42
1.0
 92
        8
 66
     7
 43
1.0
 76
     1
 77
     6
 78
     2
 67
     7
 79
     5
170
     0
171
     0
290
     0
174
     0
 93
        1
 44
0.0
173
     0
291
     1
 45
0.0
1001
ACAD
1000
AcDbSavedByObjectVersion
1070
     0
  0
VISUALSTYLE
  5
39
102
{ACAD_XDICTIONARY
360
730
102
}
102
{ACAD_REACTORS
330
2A
102
}
330
2A
100
AcDbVisualStyle
  2

 70
    15
 71
     2
 72
     2
 73
     0
 90
        0
 40
-0.6
 41
-30.0
 62
     5
 63
     7
 74
     1
 91
        4
 64
     7
 65
   257
 75
     1
175
     1
 42
1.0
 92
        8
 66
     7
 43
1.0
 76
     1
 77
     6
 78
     2
 67
     7
 79
     5
170
     0
171
     0
290
     0
174
     0
 93
        1
 44
0.0
173
     0
291
     1
 45
0.0
1001
ACAD
1000
AcDbSavedByObjectVersion
1070
     0
  0
VISUALSTYLE
  5
2B
102
{ACAD_XDICTIONARY
360
714
102
}
102
{ACAD_REACTORS
330
2A
102
}
330
2A
100
AcDbVisualStyle
  2

 70
     0
 71
     2
 72
     1
 73
     1
 90
        2
 40
-0.6
 41
30.0
 62
     5
 63
     7
 74
     0
 91
        0
 64
     7
 65
   257
 75
     1
175
     1
 42
1.0
 92
        8
 66
     7
 43
1.0
 76
     1
 77
     6
 78
     2
 67
     7
 79
     5
170
     0
171
     0
290
     0
174
     0
 93
       13
 44
0.0
173
     0
291
     1
 45
0.0
1001
ACAD
1000
AcDbSavedByObjectVersion
1070
     0
  0
VISUALSTYLE
  5
2C
102
{ACAD_XDICTIONARY
360
716
102
}
102
{ACAD_REACTORS
330
2A
102
}
330
2A
100
AcDbVisualStyle
  2

 70
     1
 71
     2
 72
     1
 73
     1
 90
        2
 40
-0.6
 41
30.0
 62
     5
 63
     7
 74
     1
 91
        0
 64
     7
 65
   257
 75
     1
175
     1
 42
1.0
 92
        0
 66
   257
 43
1.0
 76
     1
 77
     6
 78
     2
 67
     7
 79
     5
170
     0
171
     0
290
     0
174
     0
 93
       13
 44
0.0
173
     0
291
     1
 45
0.0
1001
ACAD
1000
AcDbSavedByObjectVersion
1070
     0
  0
VISUALSTYLE
  5
2D
102
{ACAD_XDICTIONARY
360
718
102
}
102
{ACAD_REACTORS
330
2A
102
}
330
2A
100
AcDbVisualStyle
  2

 70
     2
 71
     2
 72
     2
 73
     1
 90
        2
 40
-0.6
 41
30.0
 62
     5
 63
     7
 74
     0
 91
        0
 64
     7
 65
   257
 75
     1
175
     1
 42
1.0
 92
        0
 66
     7
 43
1.0
 76
     1
 77
     6
 78
     2
 67
     7
 79
     5
170
     0
171
     0
290
     0
174
     0
 93
       13
 44
0.0
173
     0
291
     1
 45
0.0
1001
ACAD
1000
AcDbSavedByObjectVersion
1070
     0
  0
VISUALSTYLE
  5
2E
102
{ACAD_XDICTIONARY
360
71A
102
}
102
{ACAD_REACTORS
330
2A
102
}
330
2A
100
AcDbVisualStyle
  2

 70
     3
 71
     2
 72
     2
 73
     1
 90
        2
 40
-0.6
 41
30.0
 62
     5
 63
     7
 74
     1
 91
        0
 64
     7
 65
   257
 75
     1
175
     1
 42
1.0
 92
        0
 66
   257
 43
1.0
 76
     1
 77
     6
 78
     2
 67
     7
 79
     5
170
     0
171
     0
290
     0
174
     0
 93
       13
 44
0.0
173
     0
291
     1
 45
0.0
1001
ACAD
1000
AcDbSavedByObjectVersion
1070
     0
  0
VISUALSTYLE
  5
31
102
{ACAD_XDICTIONARY
360
720
102
}
102
{ACAD_REACTORS
330
2A
102
}
330
2A
100
AcDbVisualStyle
  2

 70
     6
 71
     1
 72
     2
 73
     2
 90
        0
 40
-0.6
 41
-30.0
 62
     5
 63
     7
 74
     2
 91
        2
 64
     7
 65
   257
 75
     2
175
     1
 42
40.0
 92
        0
 66
   257
 43
1.0
 76
     1
 77
     6
 78
     2
 67
     7
 79
     3
170
     0
171
     0
290
     0
174
     0
 93
        1
 44
0.0
173
     0
291
     0
 45
0.0
1001
ACAD
1000
AcDbSavedByObjectVersion
1070
     0
  0
VISUALSTYLE
  5
3B
102
{ACAD_XDICTIONARY
360
734
102
}
102
{ACAD_REACTORS
330
2A
102
}
330
2A
100
AcDbVisualStyle
  2

 70
    20
 71
     2
 72
     2
 73
     0
 90
        0
 40
-0.6
 41
-30.0
 62
     5
 63
     7
 74
     1
 91
        4
 64
     7
 65
   257
 75
     1
175
     1
 42
1.0
 92
       10
 66
     7
 43
1.0
 76
     1
 77
     6
 78
     2
 67
     7
 79
     5
170
     0
171
     0
290
     0
174
     0
 93
        1
 44
0.0
173
     0
291
     1
 45
0.0
1001
ACAD
1000
AcDbSavedByObjectVersion
1070
     0
  0
VISUALSTYLE
  5
38
102
{ACAD_XDICTIONARY
360
72E
102
}
102
{ACAD_REACTORS
330
2A
102
}
330
2A
100
AcDbVisualStyle
  2

 70
    14
 71
     2
 72
     2
 73
     0
 90
        0
 40
-0.6
 41
-30.0
 62
     5
 63
     7
 74
     1
 91
        4
 64
     7
 65
   257
 75
     7
175
     7
 42
1.0
 92
        8
 66
     7
 43
1.0
 76
     1
 77
     6
 78
     2
 67
     7
 79
     5
170
     0
171
     0
290
     0
174
     0
 93
        1
 44
0.0
173
     0
291
     1
 45
0.0
1001
ACAD
1000
AcDbSavedByObjectVersion
1070
     0
  0
VISUALSTYLE
  5
3C
102
{ACAD_XDICTIONARY
360
736
102
}
102
{ACAD_REACTORS
330
2A
102
}
330
2A
100
AcDbVisualStyle
  2

 70
    21
 71
     2
 72
     2
 73
     0
 90
        0
 40
-0.6
 41
-30.0
 62
     5
 63
     7
 74
     1
 91
        4
 64
     7
 65
   257
 75
     1
175
     1
 42
1.0
 92
        9
 66
     7
 43
1.0
 76
     1
 77
     6
 78
     2
 67
     7
 79
     5
170
     0
171
     0
290
     0
174
     0
 93
        1
 44
0.0
173
     0
291
     1
 45
0.0
1001
ACAD
1000
AcDbSavedByObjectVersion
1070
     0
  0
VISUALSTYLE
  5
33
102
{ACAD_XDICTIONARY
360
724
102
}
102
{ACAD_REACTORS
330
2A
102
}
330
2A
100
AcDbVisualStyle
  2

 70
     8
 71
     2
 72
     3
 73
     0
 90
        2
 40
-0.6
 41
30.0
 62
     5
 63
     7
 74
     0
 91
        0
 64
     7
 65
   257
 75
     1
175
     1
 42
1.0
 92
        8
 66
   257
 43
1.0
 76
     1
 77
     6
 78
     2
 67
     7
 79
     3
170
     0
171
     0
290
     0
174
     0
 93
       13
 44
0.0
173
     0
291
     0
 45
0.0
1001
ACAD
1000
AcDbSavedByObjectVersion
1070
     0
  0
VISUALSTYLE
  5
42
102
{ACAD_XDICTIONARY
360
742
102
}
102
{ACAD_REACTORS
330
2A
102
}
330
2A
100
AcDbVisualStyle
  2

 70
    27
 71
     2
 72
     2
 73
     1
 90
        2
 40
-0.6
 41
30.0
 62
     5
 63
     7
 74
     0
 91
        4
 64
     7
 65
   257
 75
     1
175
     1
 42
1.0
 92
        8
 66
   257
 43
1.0
 76
     1
 77
     6
 78
     2
 67
     8
 79
     3
170
     0
171
     0
290
     0
174
     0
 93
        5
 44
0.0
173
     0
291
     0
 45
0.0
1001
ACAD
1000
AcDbSavedByObjectVersion
1070
     0
  0
VISUALSTYLE
  5
41
102
{ACAD_XDICTIONARY
360
740
102
}
102
{ACAD_REACTORS
330
2A
102
}
330
2A
100
AcDbVisualStyle
  2

 70
    26
 71
     2
 72
     2
 73
     1
 90
        2
 40
-0.6
 41
30.0
 62
     5
 63
     7
 74
     1
 91
       10
 64
     7
 65
   257
 75
     2
175
     1
 42
1.0
 92
        8
 66
   257
 43
1.0
 76
     1
 77
     6
 78
     2
 67
     7
 79
     3
170
     0
171
     0
290
     0
174
     0
 93
        5
 44
0.0
173
     0
291
     0
 45
0.0
1001
ACAD
1000
AcDbSavedByObjectVersion
1070
     0
  0
VISUALSTYLE
  5
3E
102
{ACAD_XDICTIONARY
360
73A
102
}
102
{ACAD_REACTORS
330
2A
102
}
330
2A
100
AcDbVisualStyle
  2

 70
    23
 71
     2
 72
     2
 73
     3
 90
        0
 40
-0.6
 41
-30.0
 62
     5
 63
     7
 74
     2
 91
        2
 64
     7
 65
     7
 75
     1
175
     1
 42
40.0
 92
        8
 66
     7
 43
1.0
 76
     1
 77
     6
 78
     2
 67
     7
 79
     3
170
     0
171
     0
290
     0
174
     0
 93
        1
 44
0.0
173
     0
291
     0
 45
0.0
1001
ACAD
1000
AcDbSavedByObjectVersion
1070
     0
  0
VISUALSTYLE
  5
3F
102
{ACAD_XDICTIONARY
360
73C
102
}
102
{ACAD_REACTORS
330
2A
102
}
330
2A
100
AcDbVisualStyle
  2

 70
    24
 71
     1
 72
     2
 73
     2
 90
        0
 40
-0.6
 41
-30.0
 62
     5
 63
     7
 74
     2
 91
        2
 64
     7
 65
     7
 75
     1
175
     1
 42
40.0
 92
       11
 66
     7
 43
1.0
 76
     1
 77
     6
 78
     2
 67
     7
 79
     6
170
     0
171
     0
290
     0
174
     0
 93
        1
 44
0.0
173
     0
291
     0
 45
0.0
1001
ACAD
1000
AcDbSavedByObjectVersion
1070
     0
  0
VISUALSTYLE
  5
37
102
{ACAD_XDICTIONARY
360
72C
102
}
102
{ACAD_REACTORS
330
2A
102
}
330
2A
100
AcDbVisualStyle
  2

 70
    13
 71
     2
 72
     2
 73
     0
 90
        0
 40
-0.6
 41
-30.0
 62
     5
 63
     7
 74
     1
 91
        4
 64
     7
 65
   257
 75
     1
175
     1
 42
1.0
 92
       12
 66
     7
 43
1.0
 76
     1
 77
     6
 78
     2
 67
     7
 79
     5
170
     0
171
     0
290
     0
174
     0
 93
        1
 44
0.0
173
     0
291
     1
 45
0.0
1001
ACAD
1000
AcDbSavedByObjectVersion
1070
     0
  0
VISUALSTYLE
  5
30
102
{ACAD_XDICTIONARY
360
71E
102
}
102
{ACAD_REACTORS
330
2A
102
}
330
2A
100
AcDbVisualStyle
  2

 70
     5
 71
     0
 72
     2
 73
     0
 90
        0
 40
-0.6
 41
-30.0
 62
     5
 63
     7
 74
     1
 91
        4
 64
     7
 65
   257
 75
     1
175
     1
 42
1.0
 92
        0
 66
   257
 43
1.0
 76
     1
 77
     6
 78
     2
 67
     7
 79
     3
170
     0
171
     0
290
     0
174
     0
 93
        1
 44
0.0
173
     0
291
     0
 45
0.0
1001
ACAD
1000
AcDbSavedByObjectVersion
1070
     0
  0
VISUALSTYLE
  5
40
102
{ACAD_XDICTIONARY
360
73E
102
}
102
{ACAD_REACTORS
330
2A
102
}
330
2A
100
AcDbVisualStyle
  2

 70
    25
 71
     2
 72
     2
 73
     1
 90
        1
 40
0.5
 41
-30.0
 62
     5
 63
     7
 74
     1
 91
        0
 64
     7
 65
   257
 75
     1
175
     1
 42
1.0
 92
        8
 66
     7
 43
1.0
 76
     1
 77
     6
 78
     2
 67
     7
 79
     3
170
     0
171
     0
290
     0
174
     0
 93
       13
 44
0.0
173
     0
291
     0
 45
0.0
1001
ACAD
1000
AcDbSavedByObjectVersion
1070
     0
  0
DICTIONARYVAR
  5
224
102
{ACAD_REACTORS
330
216
102
}
330
216
100
DictionaryVariables
280
     0
  1
1:1
  0
DICTIONARYVAR
  5
21D
102
{ACAD_REACTORS
330
216
102
}
330
216
100
DictionaryVariables
280
     0
  1
3.500000
  0
DICTIONARYVAR
  5
21E
102
{ACAD_REACTORS
330
216
102
}
330
216
100
DictionaryVariables
280
     0
  1
acadiso.lin
  0
DICTIONARYVAR
  5
218
102
{ACAD_REACTORS
330
216
102
}
330
216
100
DictionaryVariables
280
     0
  1
STANDARD
  0
DICTIONARYVAR
  5
217
102
{ACAD_REACTORS
330
216
102
}
330
216
100
DictionaryVariables
280
     0
  1
STANDARD
  0
DICTIONARYVAR
  5
673
102
{ACAD_REACTORS
330
216
102
}
330
216
100
DictionaryVariables
280
     0
  1
Metric50
  0
DICTIONARYVAR
  5
674
102
{ACAD_REACTORS
330
216
102
}
330
216
100
DictionaryVariables
280
     0
  1
Metric50
  0
DICTIONARYVAR
  5
21F
102
{ACAD_REACTORS
330
216
102
}
330
216
100
DictionaryVariables
280
     0
  1
2
  0
DICTIONARYVAR
  5
220
102
{ACAD_REACTORS
330
216
102
}
330
216
100
DictionaryVariables
280
     0
  1
1
  0
DICTIONARYVAR
  5
6BE
102
{ACAD_REACTORS
330
216
102
}
330
216
100
DictionaryVariables
280
     0
  1
0
  0
DICTIONARYVAR
  5
676
102
{ACAD_REACTORS
330
216
102
}
330
216
100
DictionaryVariables
280
     0
  1
1
  0
DICTIONARYVAR
  5
677
102
{ACAD_REACTORS
330
216
102
}
330
216
100
DictionaryVariables
280
     0
  1
15
  0
DICTIONARYVAR
  5
675
102
{ACAD_REACTORS
330
216
102
}
330
216
100
DictionaryVariables
280
     0
  1
0
  0
DICTIONARYVAR
  5
70A
102
{ACAD_REACTORS
330
216
102
}
330
216
100
DictionaryVariables
280
     0
  1
1.570796
  0
DICTIONARYVAR
  5
70B
102
{ACAD_REACTORS
330
216
102
}
330
216
100
DictionaryVariables
280
     0
  1
1.570796
  0
DICTIONARYVAR
  5
225
102
{ACAD_REACTORS
330
216
102
}
330
216
100
DictionaryVariables
280
     0
  1
1
  0
DICTIONARYVAR
  5
709
102
{ACAD_REACTORS
330
216
102
}
330
216
100
DictionaryVariables
280
     0
  1
80.000000
  0
DICTIONARYVAR
  5
708
102
{ACAD_REACTORS
330
216
102
}
330
216
100
DictionaryVariables
280
     0
  1
5.000000
  0
DICTIONARYVAR
  5
6BD
102
{ACAD_REACTORS
330
216
102
}
330
216
100
DictionaryVariables
280
     0
  1
127
  0
DICTIONARYVAR
  5
70C
102
{ACAD_REACTORS
330
216
102
}
330
216
100
DictionaryVariables
280
     0
  1
2
  0
DICTIONARY
  5
747
330
265
100
AcDbDictionary
280
     1
281
     1
  3
ACAD_XREC_ROUNDTRIP
360
748
  0
DICTIONARY
  5
710
330
1E
100
AcDbDictionary
280
     1
281
     1
  3
ACAD_XREC_ROUNDTRIP
360
711
  0
DICTIONARY
  5
712
330
22
100
AcDbDictionary
280
     1
281
     1
  3
ACAD_XREC_ROUNDTRIP
360
713
  0
DICTIONARY
  5
749
330
266
100
AcDbDictionary
280
     1
281
     1
  3
ACAD_XREC_ROUNDTRIP
360
74A
  0
DICTIONARY
  5
258
330
45
100
AcDbDictionary
280
     1
281
     1
  3
ACAD_XREC_ROUNDTRIP
360
259
  0
DICTIONARY
  5
256
330
44
100
AcDbDictionary
280
     1
281
     1
  3
ACAD_XREC_ROUNDTRIP
360
257
  0
DICTIONARY
  5
25A
330
46
100
AcDbDictionary
280
     1
281
     1
  3
ACAD_XREC_ROUNDTRIP
360
25B
  0
DICTIONARY
  5
745
330
263
100
AcDbDictionary
280
     1
281
     1
  3
ACAD_XREC_ROUNDTRIP
360
746
  0
DICTIONARY
  5
678
330
5A
100
AcDbDictionary
280
     1
281
     1
  3
ACAD_ROUNDTRIP_2008_TABLESTYLE_CELLSTYLEMAP
360
70D
  3
ACAD_XREC_ROUNDTRIP
360
744
  0
DICTIONARY
  5
71C
330
2F
100
AcDbDictionary
280
     1
281
     1
  3
ACAD_XREC_ROUNDTRIP
360
71D
  0
DICTIONARY
  5
722
330
32
100
AcDbDictionary
280
     1
281
     1
  3
ACAD_XREC_ROUNDTRIP
360
723
  0
DICTIONARY
  5
72A
330
36
100
AcDbDictionary
280
     1
281
     1
  3
ACAD_XREC_ROUNDTRIP
360
72B
  0
DICTIONARY
  5
732
330
3A
100
AcDbDictionary
280
     1
281
     1
  3
ACAD_XREC_ROUNDTRIP
360
733
  0
DICTIONARY
  5
726
330
34
100
AcDbDictionary
280
     1
281
     1
  3
ACAD_XREC_ROUNDTRIP
360
727
  0
DICTIONARY
  5
728
330
35
100
AcDbDictionary
280
     1
281
     1
  3
ACAD_XREC_ROUNDTRIP
360
729
  0
DICTIONARY
  5
738
330
3D
100
AcDbDictionary
280
     1
281
     1
  3
ACAD_XREC_ROUNDTRIP
360
739
  0
DICTIONARY
  5
730
330
39
100
AcDbDictionary
280
     1
281
     1
  3
ACAD_XREC_ROUNDTRIP
360
731
  0
DICTIONARY
  5
714
330
2B
100
AcDbDictionary
280
     1
281
     1
  3
ACAD_XREC_ROUNDTRIP
360
715
  0
DICTIONARY
  5
716
330
2C
100
AcDbDictionary
280
     1
281
     1
  3
ACAD_XREC_ROUNDTRIP
360
717
  0
DICTIONARY
  5
718
330
2D
100
AcDbDictionary
280
     1
281
     1
  3
ACAD_XREC_ROUNDTRIP
360
719
  0
DICTIONARY
  5
71A
330
2E
100
AcDbDictionary
280
     1
281
     1
  3
ACAD_XREC_ROUNDTRIP
360
71B
  0
DICTIONARY
  5
720
330
31
100
AcDbDictionary
280
     1
281
     1
  3
ACAD_XREC_ROUNDTRIP
360
721
  0
DICTIONARY
  5
734
330
3B
100
AcDbDictionary
280
     1
281
     1
  3
ACAD_XREC_ROUNDTRIP
360
735
  0
DICTIONARY
  5
72E
330
38
100
AcDbDictionary
280
     1
281
     1
  3
ACAD_XREC_ROUNDTRIP
360
72F
  0
DICTIONARY
  5
736
330
3C
100
AcDbDictionary
280
     1
281
     1
  3
ACAD_XREC_ROUNDTRIP
360
737
  0
DICTIONARY
  5
724
330
33
100
AcDbDictionary
280
     1
281
     1
  3
ACAD_XREC_ROUNDTRIP
360
725
  0
DICTIONARY
  5
742
330
42
100
AcDbDictionary
280
     1
281
     1
  3
ACAD_XREC_ROUNDTRIP
360
743
  0
DICTIONARY
  5
740
330
41
100
AcDbDictionary
280
     1
281
     1
  3
ACAD_XREC_ROUNDTRIP
360
741
  0
DICTIONARY
  5
73A
330
3E
100
AcDbDictionary
280
     1
281
     1
  3
ACAD_XREC_ROUNDTRIP
360
73B
  0
DICTIONARY
  5
73C
330
3F
100
AcDbDictionary
280
     1
281
     1
  3
ACAD_XREC_ROUNDTRIP
360
73D
  0
DICTIONARY
  5
72C
330
37
100
AcDbDictionary
280
     1
281
     1
  3
ACAD_XREC_ROUNDTRIP
360
72D
  0
DICTIONARY
  5
71E
330
30
100
AcDbDictionary
280
     1
281
     1
  3
ACAD_XREC_ROUNDTRIP
360
71F
  0
DICTIONARY
  5
73E
330
40
100
AcDbDictionary
280
     1
281
     1
  3
ACAD_XREC_ROUNDTRIP
360
73F
  0
XRECORD
  5
748
102
{ACAD_REACTORS
330
747
102
}
330
747
100
AcDbXrecord
280
     1
102
DISPLAYNAME
  1
Metric50
102
FLAGS
 90
        0
  0
XRECORD
  5
711
102
{ACAD_REACTORS
330
710
102
}
330
710
100
AcDbXrecord
280
     1
102
SHADEPLOT
 70
     0
102
SHADEPLOTRESLEVEL
 70
     2
102
SHADEPLOTCUSTOMDPI
 70
   300
  0
XRECORD
  5
713
102
{ACAD_REACTORS
330
712
102
}
330
712
100
AcDbXrecord
280
     1
102
SHADEPLOT
 70
     0
102
SHADEPLOTRESLEVEL
 70
     2
102
SHADEPLOTCUSTOMDPI
 70
   300
  0
XRECORD
  5
74A
102
{ACAD_REACTORS
330
749
102
}
330
749
100
AcDbXrecord
280
     1
102
SHADEPLOT
 70
     0
102
SHADEPLOTRESLEVEL
 70
     2
102
SHADEPLOTCUSTOMDPI
 70
   300
  0
XRECORD
  5
259
102
{ACAD_REACTORS
330
258
102
}
330
258
100
AcDbXrecord
280
     1
102
MATERIAL
148
0.0
149
0.0
149
0.0
 93
        0
 94
      127
282
     0
 72
     1
 77
     1
171
     1
175
     1
179
     1
273
     0
  0
XRECORD
  5
257
102
{ACAD_REACTORS
330
256
102
}
330
256
100
AcDbXrecord
280
     1
102
MATERIAL
148
0.0
149
0.0
149
0.0
 93
        0
 94
      127
282
     0
 72
     1
 77
     1
171
     1
175
     1
179
     1
273
     0
  0
XRECORD
  5
25B
102
{ACAD_REACTORS
330
25A
102
}
330
25A
100
AcDbXrecord
280
     1
102
MATERIAL
148
0.0
149
0.0
149
0.0
 93
        0
 94
      127
282
     0
 72
     1
 77
     1
171
     1
175
     1
179
     1
273
     0
  0
XRECORD
  5
746
102
{ACAD_REACTORS
330
745
102
}
330
745
100
AcDbXrecord
280
     1
102
DISPLAYNAME
  1
Metric50
102
FLAGS
 90
        0
  0
CELLSTYLEMAP
  5
70D
102
{ACAD_REACTORS
330
678
102
}
330
678
100
AcDbCellStyleMap
 90
        3
300
CELLSTYLE
  1
TABLEFORMAT_BEGIN
 90
        5
170
     1
 91
        0
 92
    32768
 62
   257
 93
        1
300
CONTENTFORMAT
  1
CONTENTFORMAT_BEGIN
 90
        0
 91
        0
 92
        4
 93
        0
300

 40
0.0
140
1.0
 94
        5
 62
     0
340
11
144
6.0
309
CONTENTFORMAT_END
171
     1
301
MARGIN
  1
CELLMARGIN_BEGIN
 40
1.5
 40
1.5
 40
1.5
 40
1.5
 40
0.18
 40
0.18
309
CELLMARGIN_END
 94
        6
 95
        1
302
GRIDFORMAT
  1
GRIDFORMAT_BEGIN
 90
        0
 91
        1
 62
     0
 92
       -2
340
0
 93
        0
 40
0.045
309
GRIDFORMAT_END
 95
        2
302
GRIDFORMAT
  1
GRIDFORMAT_BEGIN
 90
        0
 91
        1
 62
     0
 92
       -2
340
0
 93
        0
 40
0.045
309
GRIDFORMAT_END
 95
        4
302
GRIDFORMAT
  1
GRIDFORMAT_BEGIN
 90
        0
 91
        1
 62
     0
 92
       -2
340
0
 93
        0
 40
0.045
309
GRIDFORMAT_END
 95
        8
302
GRIDFORMAT
  1
GRIDFORMAT_BEGIN
 90
        0
 91
        1
 62
     0
 92
       -2
340
0
 93
        0
 40
0.045
309
GRIDFORMAT_END
 95
       16
302
GRIDFORMAT
  1
GRIDFORMAT_BEGIN
 90
        0
 91
        1
 62
     0
 92
       -2
340
0
 93
        0
 40
0.045
309
GRIDFORMAT_END
 95
       32
302
GRIDFORMAT
  1
GRIDFORMAT_BEGIN
 90
        0
 91
        1
 62
     0
 92
       -2
340
0
 93
        0
 40
0.045
309
GRIDFORMAT_END
309
TABLEFORMAT_END
  1
CELLSTYLE_BEGIN
 90
        1
 91
        1
300
_TITLE
309
CELLSTYLE_END
300
CELLSTYLE
  1
TABLEFORMAT_BEGIN
 90
        5
170
     1
 91
        0
 92
        0
 62
   257
 93
        1
300
CONTENTFORMAT
  1
CONTENTFORMAT_BEGIN
 90
        0
 91
        0
 92
        4
 93
        0
300

 40
0.0
140
1.0
 94
        5
 62
     0
340
11
144
4.5
309
CONTENTFORMAT_END
171
     1
301
MARGIN
  1
CELLMARGIN_BEGIN
 40
1.5
 40
1.5
 40
1.5
 40
1.5
 40
0.18
 40
0.18
309
CELLMARGIN_END
 94
        6
 95
        1
302
GRIDFORMAT
  1
GRIDFORMAT_BEGIN
 90
        0
 91
        1
 62
     0
 92
       -2
340
0
 93
        0
 40
0.045
309
GRIDFORMAT_END
 95
        2
302
GRIDFORMAT
  1
GRIDFORMAT_BEGIN
 90
        0
 91
        1
 62
     0
 92
       -2
340
0
 93
        0
 40
0.045
309
GRIDFORMAT_END
 95
        4
302
GRIDFORMAT
  1
GRIDFORMAT_BEGIN
 90
        0
 91
        1
 62
     0
 92
       -2
340
0
 93
        0
 40
0.045
309
GRIDFORMAT_END
 95
        8
302
GRIDFORMAT
  1
GRIDFORMAT_BEGIN
 90
        0
 91
        1
 62
     0
 92
       -2
340
0
 93
        0
 40
0.045
309
GRIDFORMAT_END
 95
       16
302
GRIDFORMAT
  1
GRIDFORMAT_BEGIN
 90
        0
 91
        1
 62
     0
 92
       -2
340
0
 93
        0
 40
0.045
309
GRIDFORMAT_END
 95
       32
302
GRIDFORMAT
  1
GRIDFORMAT_BEGIN
 90
        0
 91
        1
 62
     0
 92
       -2
340
0
 93
        0
 40
0.045
309
GRIDFORMAT_END
309
TABLEFORMAT_END
  1
CELLSTYLE_BEGIN
 90
        2
 91
        1
300
_HEADER
309
CELLSTYLE_END
300
CELLSTYLE
  1
TABLEFORMAT_BEGIN
 90
        5
170
     1
 91
        0
 92
        0
 62
   257
 93
        1
300
CONTENTFORMAT
  1
CONTENTFORMAT_BEGIN
 90
        0
 91
        0
 92
        4
 93
        0
300

 40
0.0
140
1.0
 94
        2
 62
     0
340
11
144
4.5
309
CONTENTFORMAT_END
171
     1
301
MARGIN
  1
CELLMARGIN_BEGIN
 40
1.5
 40
1.5
 40
1.5
 40
1.5
 40
0.18
 40
0.18
309
CELLMARGIN_END
 94
        6
 95
        1
302
GRIDFORMAT
  1
GRIDFORMAT_BEGIN
 90
        0
 91
        1
 62
     0
 92
       -2
340
0
 93
        0
 40
0.045
309
GRIDFORMAT_END
 95
        2
302
GRIDFORMAT
  1
GRIDFORMAT_BEGIN
 90
        0
 91
        1
 62
     0
 92
       -2
340
0
 93
        0
 40
0.045
309
GRIDFORMAT_END
 95
        4
302
GRIDFORMAT
  1
GRIDFORMAT_BEGIN
 90
        0
 91
        1
 62
     0
 92
       -2
340
0
 93
        0
 40
0.045
309
GRIDFORMAT_END
 95
        8
302
GRIDFORMAT
  1
GRIDFORMAT_BEGIN
 90
        0
 91
        1
 62
     0
 92
       -2
340
0
 93
        0
 40
0.045
309
GRIDFORMAT_END
 95
       16
302
GRIDFORMAT
  1
GRIDFORMAT_BEGIN
 90
        0
 91
        1
 62
     0
 92
       -2
340
0
 93
        0
 40
0.045
309
GRIDFORMAT_END
 95
       32
302
GRIDFORMAT
  1
GRIDFORMAT_BEGIN
 90
        0
 91
        1
 62
     0
 92
       -2
340
0
 93
        0
 40
0.045
309
GRIDFORMAT_END
309
TABLEFORMAT_END
  1
CELLSTYLE_BEGIN
 90
        3
 91
        2
300
_DATA
309
CELLSTYLE_END
  0
XRECORD
  5
744
102
{ACAD_REACTORS
330
678
102
}
330
678
100
AcDbXrecord
280
     1
102
ACAD_ROUNDTRIP_PRE2007_TABLESTYLE
 90
        4
 91
        0
  1

 92
        4
 93
        0
  2

 94
        4
 95
        0
  3

  0
XRECORD
  5
71D
102
{ACAD_REACTORS
330
71C
102
}
330
71C
100
AcDbXrecord
280
     1
102
RTVSPost2010Prop28
280
     1
102
RTVSPost2010PropOp28
 70
     1
102
RTVSPost2010Prop29
280
     1
102
RTVSPost2010PropOp29
 70
     1
102
RTVSPost2010Prop30
280
     0
102
RTVSPost2010PropOp30
 70
     1
102
RTVSPost2010Prop31
280
     0
102
RTVSPost2010PropOp31
 70
     1
102
RTVSPost2010Prop32
280
     0
102
RTVSPost2010PropOp32
 70
     1
102
RTVSPost2010Prop33
280
     0
102
RTVSPost2010PropOp33
 70
     1
102
RTVSPost2010Prop34
280
     0
102
RTVSPost2010PropOp34
 70
     1
102
RTVSPost2010Prop35
280
     0
102
RTVSPost2010PropOp35
 70
     1
102
RTVSPost2010Prop36
280
     0
102
RTVSPost2010PropOp36
 70
     1
102
RTVSPost2010Prop37
 90
       50
102
RTVSPost2010PropOp37
 70
     1
102
RTVSPost2010Prop38
140
0.0
102
RTVSPost2010PropOp38
 70
     1
102
RTVSPost2010Prop39
140
1.0
102
RTVSPost2010PropOp39
 70
     1
102
RTVSPost2010Prop40
 90
        0
102
RTVSPost2010PropOp40
 70
     1
102
RTVSPost2010Prop41ColorIndex
 90
       18
102
RTVSPost2010Prop41ColorRGB
 90
        0
102
RTVSPost2010PropOp41
 70
     1
102
RTVSPost2010Prop42
 90
       50
102
RTVSPost2010PropOp42
 70
     1
102
RTVSPost2010Prop43
 90
        3
102
RTVSPost2010PropOp43
 70
     1
102
RTVSPost2010Prop44ColorIndex
 90
        5
102
RTVSPost2010Prop44ColorRGB
 90
      255
102
RTVSPost2010PropOp44
 70
     1
102
RTVSPost2010Prop45
280
     0
102
RTVSPost2010PropOp45
 70
     1
102
RTVSPost2010Prop46
 90
       50
102
RTVSPost2010PropOp46
 70
     1
102
RTVSPost2010Prop47
 90
       50
102
RTVSPost2010PropOp47
 70
     1
102
RTVSPost2010Prop48
 90
       50
102
RTVSPost2010PropOp48
 70
     1
102
RTVSPost2010Prop49
280
     0
102
RTVSPost2010PropOp49
 70
     1
102
RTVSPost2010Prop50
 90
       50
102
RTVSPost2010PropOp50
 70
     1
102
RTVSPost2010Prop51ColorIndex
 90
      256
102
RTVSPost2010Prop51ColorRGB
 90
-16777216
102
RTVSPost2010PropOp51
 70
     0
102
RTVSPost2010Prop52
140
1.0
102
RTVSPost2010PropOp52
 70
     0
102
RTVSPost2010Prop53
 90
        2
102
RTVSPost2010PropOp53
 70
     1
102
RTVSPost2010Prop54
  1
strokes_ogs.tif
102
RTVSPost2010PropOp54
 70
     1
102
RTVSPost2010Prop55
280
     0
102
RTVSPost2010PropOp55
 70
     1
102
RTVSPost2010Prop56
140
1.0
102
RTVSPost2010PropOp56
 70
     1
102
RTVSPost2010Prop57
140
1.0
102
RTVSPost2010PropOp57
 70
     1
102
RTVSPropertyOp0
 70
     1
102
RTVSPropertyOp1
 70
     1
102
RTVSPropertyOp2
 70
     1
102
RTVSPropertyOp3
 70
     1
102
RTVSPropertyOp4
 70
     1
102
RTVSPropertyOp5
 70
     1
102
RTVSPropertyOp6
 70
     1
102
RTVSPropertyOp7
 70
     1
102
RTVSPropertyOp8
 70
     1
102
RTVSPropertyOp9
 70
     1
102
RTVSPropertyOp10
 70
     1
102
RTVSPropertyOp11
 70
     1
102
RTVSPropertyOp12
 70
     1
102
RTVSPropertyOp13
 70
     1
102
RTVSPropertyOp14
 70
     1
102
RTVSPropertyOp15
 70
     1
102
RTVSPropertyOp16
 70
     1
102
RTVSPropertyOp17
 70
     1
102
RTVSPropertyOp18
 70
     1
102
RTVSPropertyOp19
 70
     1
102
RTVSPropertyOp20
 70
     1
102
RTVSPropertyOp21
 70
     1
102
RTVSPropertyOp22
 70
     1
102
RTVSPropertyOp23
 70
     1
102
RTVSPropertyOp24
 70
     1
102
RTVSPropertyOp25
 70
     1
102
RTVSPropertyOp26
 70
     1
102
RTVSPropertyOp27
 70
     1
102
RTVSPropertyOp28
 70
     1
102
RTVSPropertyOp29
 70
     1
102
RTVSPropertyOp30
 70
     1
102
RTVSPropertyOp31
 70
     1
102
RTVSPropertyOp32
 70
     1
102
RTVSPropertyOp33
 70
     1
102
RTVSPropertyOp34
 70
     1
102
RTVSPropertyOp35
 70
     1
102
RTVSPropertyOp36
 70
     1
102
RTVSPropertyOp37
 70
     1
102
RTVSPropertyOp38
 70
     1
102
RTVSPropertyOp39
 70
     1
102
RTVSPropertyOp40
 70
     1
102
RTVSPropertyOp41
 70
     1
102
RTVSPropertyOp42
 70
     1
102
RTVSPropertyOp43
 70
     1
102
RTVSPropertyOp44
 70
     1
102
RTVSPropertyOp45
 70
     1
102
RTVSPropertyOp46
 70
     1
102
RTVSPropertyOp47
 70
     1
102
RTVSPropertyOp48
 70
     1
102
RTVSPropertyOp49
 70
     1
102
RTVSPropertyOp50
 70
     1
102
RTVSPropertyOp51
 70
     0
102
RTVSPropertyOp52
 70
     0
102
RTVSPropertyOp53
 70
     1
102
RTVSPropertyOp54
 70
     1
102
RTVSPropertyOp55
 70
     1
102
RTVSPropertyOp56
 70
     1
102
RTVSPropertyOp57
 70
     1
102
RTVSPropertyOp58
 70
     1
102
RTVSPropertyOp59
 70
     1
102
RTVSPropertyOp60
 70
     1
102
RTVSPropertyOp61
 70
     1
102
RTVSPropertyOp62
 70
     1
  0
XRECORD
  5
723
102
{ACAD_REACTORS
330
722
102
}
330
722
100
AcDbXrecord
280
     1
102
RTVSPost2010Prop28
280
     0
102
RTVSPost2010PropOp28
 70
     1
102
RTVSPost2010Prop29
280
     1
102
RTVSPost2010PropOp29
 70
     1
102
RTVSPost2010Prop30
280
     1
102
RTVSPost2010PropOp30
 70
     1
102
RTVSPost2010Prop31
280
     0
102
RTVSPost2010PropOp31
 70
     1
102
RTVSPost2010Prop32
280
     0
102
RTVSPost2010PropOp32
 70
     1
102
RTVSPost2010Prop33
280
     0
102
RTVSPost2010PropOp33
 70
     1
102
RTVSPost2010Prop34
280
     0
102
RTVSPost2010PropOp34
 70
     1
102
RTVSPost2010Prop35
280
     0
102
RTVSPost2010PropOp35
 70
     1
102
RTVSPost2010Prop36
280
     0
102
RTVSPost2010PropOp36
 70
     1
102
RTVSPost2010Prop37
 90
       50
102
RTVSPost2010PropOp37
 70
     1
102
RTVSPost2010Prop38
140
0.0
102
RTVSPost2010PropOp38
 70
     1
102
RTVSPost2010Prop39
140
1.0
102
RTVSPost2010PropOp39
 70
     1
102
RTVSPost2010Prop40
 90
        0
102
RTVSPost2010PropOp40
 70
     1
102
RTVSPost2010Prop41ColorIndex
 90
       18
102
RTVSPost2010Prop41ColorRGB
 90
        0
102
RTVSPost2010PropOp41
 70
     1
102
RTVSPost2010Prop42
 90
       50
102
RTVSPost2010PropOp42
 70
     1
102
RTVSPost2010Prop43
 90
        3
102
RTVSPost2010PropOp43
 70
     1
102
RTVSPost2010Prop44ColorIndex
 90
        5
102
RTVSPost2010Prop44ColorRGB
 90
      255
102
RTVSPost2010PropOp44
 70
     1
102
RTVSPost2010Prop45
280
     0
102
RTVSPost2010PropOp45
 70
     1
102
RTVSPost2010Prop46
 90
       50
102
RTVSPost2010PropOp46
 70
     1
102
RTVSPost2010Prop47
 90
       50
102
RTVSPost2010PropOp47
 70
     1
102
RTVSPost2010Prop48
 90
       50
102
RTVSPost2010PropOp48
 70
     1
102
RTVSPost2010Prop49
280
     0
102
RTVSPost2010PropOp49
 70
     1
102
RTVSPost2010Prop50
 90
       50
102
RTVSPost2010PropOp50
 70
     1
102
RTVSPost2010Prop51ColorIndex
 90
      256
102
RTVSPost2010Prop51ColorRGB
 90
-16777216
102
RTVSPost2010PropOp51
 70
     0
102
RTVSPost2010Prop52
140
1.0
102
RTVSPost2010PropOp52
 70
     0
102
RTVSPost2010Prop53
 90
        2
102
RTVSPost2010PropOp53
 70
     1
102
RTVSPost2010Prop54
  1
strokes_ogs.tif
102
RTVSPost2010PropOp54
 70
     1
102
RTVSPost2010Prop55
280
     0
102
RTVSPost2010PropOp55
 70
     1
102
RTVSPost2010Prop56
140
1.0
102
RTVSPost2010PropOp56
 70
     1
102
RTVSPost2010Prop57
140
1.0
102
RTVSPost2010PropOp57
 70
     1
102
RTVSPropertyOp0
 70
     1
102
RTVSPropertyOp1
 70
     1
102
RTVSPropertyOp2
 70
     1
102
RTVSPropertyOp3
 70
     1
102
RTVSPropertyOp4
 70
     1
102
RTVSPropertyOp5
 70
     1
102
RTVSPropertyOp6
 70
     1
102
RTVSPropertyOp7
 70
     1
102
RTVSPropertyOp8
 70
     1
102
RTVSPropertyOp9
 70
     1
102
RTVSPropertyOp10
 70
     1
102
RTVSPropertyOp11
 70
     1
102
RTVSPropertyOp12
 70
     1
102
RTVSPropertyOp13
 70
     1
102
RTVSPropertyOp14
 70
     1
102
RTVSPropertyOp15
 70
     1
102
RTVSPropertyOp16
 70
     1
102
RTVSPropertyOp17
 70
     1
102
RTVSPropertyOp18
 70
     1
102
RTVSPropertyOp19
 70
     1
102
RTVSPropertyOp20
 70
     1
102
RTVSPropertyOp21
 70
     1
102
RTVSPropertyOp22
 70
     1
102
RTVSPropertyOp23
 70
     1
102
RTVSPropertyOp24
 70
     1
102
RTVSPropertyOp25
 70
     1
102
RTVSPropertyOp26
 70
     1
102
RTVSPropertyOp27
 70
     1
102
RTVSPropertyOp28
 70
     1
102
RTVSPropertyOp29
 70
     1
102
RTVSPropertyOp30
 70
     1
102
RTVSPropertyOp31
 70
     1
102
RTVSPropertyOp32
 70
     1
102
RTVSPropertyOp33
 70
     1
102
RTVSPropertyOp34
 70
     1
102
RTVSPropertyOp35
 70
     1
102
RTVSPropertyOp36
 70
     1
102
RTVSPropertyOp37
 70
     1
102
RTVSPropertyOp38
 70
     1
102
RTVSPropertyOp39
 70
     1
102
RTVSPropertyOp40
 70
     1
102
RTVSPropertyOp41
 70
     1
102
RTVSPropertyOp42
 70
     1
102
RTVSPropertyOp43
 70
     1
102
RTVSPropertyOp44
 70
     1
102
RTVSPropertyOp45
 70
     1
102
RTVSPropertyOp46
 70
     1
102
RTVSPropertyOp47
 70
     1
102
RTVSPropertyOp48
 70
     1
102
RTVSPropertyOp49
 70
     1
102
RTVSPropertyOp50
 70
     1
102
RTVSPropertyOp51
 70
     0
102
RTVSPropertyOp52
 70
     0
102
RTVSPropertyOp53
 70
     1
102
RTVSPropertyOp54
 70
     1
102
RTVSPropertyOp55
 70
     1
102
RTVSPropertyOp56
 70
     1
102
RTVSPropertyOp57
 70
     1
102
RTVSPropertyOp58
 70
     1
102
RTVSPropertyOp59
 70
     1
102
RTVSPropertyOp60
 70
     1
102
RTVSPropertyOp61
 70
     1
102
RTVSPropertyOp62
 70
     1
  0
XRECORD
  5
72B
102
{ACAD_REACTORS
330
72A
102
}
330
72A
100
AcDbXrecord
280
     1
102
RTVSPost2010Prop28
280
     0
102
RTVSPost2010PropOp28
 70
     1
102
RTVSPost2010Prop29
280
     1
102
RTVSPost2010PropOp29
 70
     1
102
RTVSPost2010Prop30
280
     1
102
RTVSPost2010PropOp30
 70
     1
102
RTVSPost2010Prop31
280
     0
102
RTVSPost2010PropOp31
 70
     1
102
RTVSPost2010Prop32
280
     0
102
RTVSPost2010PropOp32
 70
     1
102
RTVSPost2010Prop33
280
     0
102
RTVSPost2010PropOp33
 70
     1
102
RTVSPost2010Prop34
280
     0
102
RTVSPost2010PropOp34
 70
     1
102
RTVSPost2010Prop35
280
     0
102
RTVSPost2010PropOp35
 70
     1
102
RTVSPost2010Prop36
280
     0
102
RTVSPost2010PropOp36
 70
     1
102
RTVSPost2010Prop37
 90
       50
102
RTVSPost2010PropOp37
 70
     1
102
RTVSPost2010Prop38
140
0.0
102
RTVSPost2010PropOp38
 70
     1
102
RTVSPost2010Prop39
140
1.0
102
RTVSPost2010PropOp39
 70
     1
102
RTVSPost2010Prop40
 90
        0
102
RTVSPost2010PropOp40
 70
     1
102
RTVSPost2010Prop41ColorIndex
 90
       18
102
RTVSPost2010Prop41ColorRGB
 90
        0
102
RTVSPost2010PropOp41
 70
     1
102
RTVSPost2010Prop42
 90
       50
102
RTVSPost2010PropOp42
 70
     1
102
RTVSPost2010Prop43
 90
        3
102
RTVSPost2010PropOp43
 70
     1
102
RTVSPost2010Prop44ColorIndex
 90
        5
102
RTVSPost2010Prop44ColorRGB
 90
      255
102
RTVSPost2010PropOp44
 70
     1
102
RTVSPost2010Prop45
280
     0
102
RTVSPost2010PropOp45
 70
     1
102
RTVSPost2010Prop46
 90
       50
102
RTVSPost2010PropOp46
 70
     1
102
RTVSPost2010Prop47
 90
       50
102
RTVSPost2010PropOp47
 70
     1
102
RTVSPost2010Prop48
 90
       50
102
RTVSPost2010PropOp48
 70
     1
102
RTVSPost2010Prop49
280
     0
102
RTVSPost2010PropOp49
 70
     1
102
RTVSPost2010Prop50
 90
       50
102
RTVSPost2010PropOp50
 70
     1
102
RTVSPost2010Prop51ColorIndex
 90
      256
102
RTVSPost2010Prop51ColorRGB
 90
-16777216
102
RTVSPost2010PropOp51
 70
     0
102
RTVSPost2010Prop52
140
1.0
102
RTVSPost2010PropOp52
 70
     0
102
RTVSPost2010Prop53
 90
        2
102
RTVSPost2010PropOp53
 70
     1
102
RTVSPost2010Prop54
  1
strokes_ogs.tif
102
RTVSPost2010PropOp54
 70
     1
102
RTVSPost2010Prop55
280
     0
102
RTVSPost2010PropOp55
 70
     1
102
RTVSPost2010Prop56
140
1.0
102
RTVSPost2010PropOp56
 70
     1
102
RTVSPost2010Prop57
140
1.0
102
RTVSPost2010PropOp57
 70
     1
102
RTVSPropertyOp0
 70
     1
102
RTVSPropertyOp1
 70
     1
102
RTVSPropertyOp2
 70
     1
102
RTVSPropertyOp3
 70
     1
102
RTVSPropertyOp4
 70
     1
102
RTVSPropertyOp5
 70
     1
102
RTVSPropertyOp6
 70
     1
102
RTVSPropertyOp7
 70
     1
102
RTVSPropertyOp8
 70
     1
102
RTVSPropertyOp9
 70
     1
102
RTVSPropertyOp10
 70
     1
102
RTVSPropertyOp11
 70
     1
102
RTVSPropertyOp12
 70
     1
102
RTVSPropertyOp13
 70
     1
102
RTVSPropertyOp14
 70
     1
102
RTVSPropertyOp15
 70
     1
102
RTVSPropertyOp16
 70
     1
102
RTVSPropertyOp17
 70
     1
102
RTVSPropertyOp18
 70
     1
102
RTVSPropertyOp19
 70
     1
102
RTVSPropertyOp20
 70
     1
102
RTVSPropertyOp21
 70
     1
102
RTVSPropertyOp22
 70
     1
102
RTVSPropertyOp23
 70
     1
102
RTVSPropertyOp24
 70
     1
102
RTVSPropertyOp25
 70
     1
102
RTVSPropertyOp26
 70
     1
102
RTVSPropertyOp27
 70
     1
102
RTVSPropertyOp28
 70
     1
102
RTVSPropertyOp29
 70
     1
102
RTVSPropertyOp30
 70
     1
102
RTVSPropertyOp31
 70
     1
102
RTVSPropertyOp32
 70
     1
102
RTVSPropertyOp33
 70
     1
102
RTVSPropertyOp34
 70
     1
102
RTVSPropertyOp35
 70
     1
102
RTVSPropertyOp36
 70
     1
102
RTVSPropertyOp37
 70
     1
102
RTVSPropertyOp38
 70
     1
102
RTVSPropertyOp39
 70
     1
102
RTVSPropertyOp40
 70
     1
102
RTVSPropertyOp41
 70
     1
102
RTVSPropertyOp42
 70
     1
102
RTVSPropertyOp43
 70
     1
102
RTVSPropertyOp44
 70
     1
102
RTVSPropertyOp45
 70
     1
102
RTVSPropertyOp46
 70
     1
102
RTVSPropertyOp47
 70
     1
102
RTVSPropertyOp48
 70
     1
102
RTVSPropertyOp49
 70
     1
102
RTVSPropertyOp50
 70
     1
102
RTVSPropertyOp51
 70
     0
102
RTVSPropertyOp52
 70
     0
102
RTVSPropertyOp53
 70
     1
102
RTVSPropertyOp54
 70
     1
102
RTVSPropertyOp55
 70
     1
102
RTVSPropertyOp56
 70
     1
102
RTVSPropertyOp57
 70
     1
102
RTVSPropertyOp58
 70
     1
102
RTVSPropertyOp59
 70
     1
102
RTVSPropertyOp60
 70
     1
102
RTVSPropertyOp61
 70
     1
102
RTVSPropertyOp62
 70
     1
  0
XRECORD
  5
733
102
{ACAD_REACTORS
330
732
102
}
330
732
100
AcDbXrecord
280
     1
102
RTVSPost2010Prop28
280
     0
102
RTVSPost2010PropOp28
 70
     1
102
RTVSPost2010Prop29
280
     1
102
RTVSPost2010PropOp29
 70
     1
102
RTVSPost2010Prop30
280
     1
102
RTVSPost2010PropOp30
 70
     1
102
RTVSPost2010Prop31
280
     0
102
RTVSPost2010PropOp31
 70
     1
102
RTVSPost2010Prop32
280
     0
102
RTVSPost2010PropOp32
 70
     1
102
RTVSPost2010Prop33
280
     0
102
RTVSPost2010PropOp33
 70
     1
102
RTVSPost2010Prop34
280
     0
102
RTVSPost2010PropOp34
 70
     1
102
RTVSPost2010Prop35
280
     0
102
RTVSPost2010PropOp35
 70
     1
102
RTVSPost2010Prop36
280
     0
102
RTVSPost2010PropOp36
 70
     1
102
RTVSPost2010Prop37
 90
       50
102
RTVSPost2010PropOp37
 70
     1
102
RTVSPost2010Prop38
140
0.0
102
RTVSPost2010PropOp38
 70
     1
102
RTVSPost2010Prop39
140
1.0
102
RTVSPost2010PropOp39
 70
     1
102
RTVSPost2010Prop40
 90
        0
102
RTVSPost2010PropOp40
 70
     1
102
RTVSPost2010Prop41ColorIndex
 90
       18
102
RTVSPost2010Prop41ColorRGB
 90
        0
102
RTVSPost2010PropOp41
 70
     1
102
RTVSPost2010Prop42
 90
       50
102
RTVSPost2010PropOp42
 70
     1
102
RTVSPost2010Prop43
 90
        3
102
RTVSPost2010PropOp43
 70
     1
102
RTVSPost2010Prop44ColorIndex
 90
        5
102
RTVSPost2010Prop44ColorRGB
 90
      255
102
RTVSPost2010PropOp44
 70
     1
102
RTVSPost2010Prop45
280
     0
102
RTVSPost2010PropOp45
 70
     1
102
RTVSPost2010Prop46
 90
       50
102
RTVSPost2010PropOp46
 70
     1
102
RTVSPost2010Prop47
 90
       50
102
RTVSPost2010PropOp47
 70
     1
102
RTVSPost2010Prop48
 90
       50
102
RTVSPost2010PropOp48
 70
     1
102
RTVSPost2010Prop49
280
     0
102
RTVSPost2010PropOp49
 70
     1
102
RTVSPost2010Prop50
 90
       50
102
RTVSPost2010PropOp50
 70
     1
102
RTVSPost2010Prop51ColorIndex
 90
      256
102
RTVSPost2010Prop51ColorRGB
 90
-16777216
102
RTVSPost2010PropOp51
 70
     0
102
RTVSPost2010Prop52
140
1.0
102
RTVSPost2010PropOp52
 70
     0
102
RTVSPost2010Prop53
 90
        2
102
RTVSPost2010PropOp53
 70
     1
102
RTVSPost2010Prop54
  1
strokes_ogs.tif
102
RTVSPost2010PropOp54
 70
     1
102
RTVSPost2010Prop55
280
     0
102
RTVSPost2010PropOp55
 70
     1
102
RTVSPost2010Prop56
140
1.0
102
RTVSPost2010PropOp56
 70
     1
102
RTVSPost2010Prop57
140
1.0
102
RTVSPost2010PropOp57
 70
     1
102
RTVSPropertyOp0
 70
     1
102
RTVSPropertyOp1
 70
     1
102
RTVSPropertyOp2
 70
     1
102
RTVSPropertyOp3
 70
     1
102
RTVSPropertyOp4
 70
     1
102
RTVSPropertyOp5
 70
     1
102
RTVSPropertyOp6
 70
     1
102
RTVSPropertyOp7
 70
     1
102
RTVSPropertyOp8
 70
     1
102
RTVSPropertyOp9
 70
     1
102
RTVSPropertyOp10
 70
     1
102
RTVSPropertyOp11
 70
     1
102
RTVSPropertyOp12
 70
     1
102
RTVSPropertyOp13
 70
     1
102
RTVSPropertyOp14
 70
     1
102
RTVSPropertyOp15
 70
     1
102
RTVSPropertyOp16
 70
     1
102
RTVSPropertyOp17
 70
     1
102
RTVSPropertyOp18
 70
     1
102
RTVSPropertyOp19
 70
     1
102
RTVSPropertyOp20
 70
     1
102
RTVSPropertyOp21
 70
     1
102
RTVSPropertyOp22
 70
     1
102
RTVSPropertyOp23
 70
     1
102
RTVSPropertyOp24
 70
     1
102
RTVSPropertyOp25
 70
     1
102
RTVSPropertyOp26
 70
     1
102
RTVSPropertyOp27
 70
     1
102
RTVSPropertyOp28
 70
     1
102
RTVSPropertyOp29
 70
     1
102
RTVSPropertyOp30
 70
     1
102
RTVSPropertyOp31
 70
     1
102
RTVSPropertyOp32
 70
     1
102
RTVSPropertyOp33
 70
     1
102
RTVSPropertyOp34
 70
     1
102
RTVSPropertyOp35
 70
     1
102
RTVSPropertyOp36
 70
     1
102
RTVSPropertyOp37
 70
     1
102
RTVSPropertyOp38
 70
     1
102
RTVSPropertyOp39
 70
     1
102
RTVSPropertyOp40
 70
     1
102
RTVSPropertyOp41
 70
     1
102
RTVSPropertyOp42
 70
     1
102
RTVSPropertyOp43
 70
     1
102
RTVSPropertyOp44
 70
     1
102
RTVSPropertyOp45
 70
     1
102
RTVSPropertyOp46
 70
     1
102
RTVSPropertyOp47
 70
     1
102
RTVSPropertyOp48
 70
     1
102
RTVSPropertyOp49
 70
     1
102
RTVSPropertyOp50
 70
     1
102
RTVSPropertyOp51
 70
     0
102
RTVSPropertyOp52
 70
     0
102
RTVSPropertyOp53
 70
     1
102
RTVSPropertyOp54
 70
     1
102
RTVSPropertyOp55
 70
     1
102
RTVSPropertyOp56
 70
     1
102
RTVSPropertyOp57
 70
     1
102
RTVSPropertyOp58
 70
     1
102
RTVSPropertyOp59
 70
     1
102
RTVSPropertyOp60
 70
     1
102
RTVSPropertyOp61
 70
     1
102
RTVSPropertyOp62
 70
     1
  0
XRECORD
  5
727
102
{ACAD_REACTORS
330
726
102
}
330
726
100
AcDbXrecord
280
     1
102
RTVSPost2010Prop28
280
     0
102
RTVSPost2010PropOp28
 70
     1
102
RTVSPost2010Prop29
280
     1
102
RTVSPost2010PropOp29
 70
     1
102
RTVSPost2010Prop30
280
     1
102
RTVSPost2010PropOp30
 70
     1
102
RTVSPost2010Prop31
280
     0
102
RTVSPost2010PropOp31
 70
     1
102
RTVSPost2010Prop32
280
     0
102
RTVSPost2010PropOp32
 70
     1
102
RTVSPost2010Prop33
280
     0
102
RTVSPost2010PropOp33
 70
     1
102
RTVSPost2010Prop34
280
     0
102
RTVSPost2010PropOp34
 70
     1
102
RTVSPost2010Prop35
280
     0
102
RTVSPost2010PropOp35
 70
     1
102
RTVSPost2010Prop36
280
     0
102
RTVSPost2010PropOp36
 70
     1
102
RTVSPost2010Prop37
 90
       50
102
RTVSPost2010PropOp37
 70
     1
102
RTVSPost2010Prop38
140
0.0
102
RTVSPost2010PropOp38
 70
     1
102
RTVSPost2010Prop39
140
1.0
102
RTVSPost2010PropOp39
 70
     1
102
RTVSPost2010Prop40
 90
        0
102
RTVSPost2010PropOp40
 70
     1
102
RTVSPost2010Prop41ColorIndex
 90
       18
102
RTVSPost2010Prop41ColorRGB
 90
        0
102
RTVSPost2010PropOp41
 70
     1
102
RTVSPost2010Prop42
 90
       50
102
RTVSPost2010PropOp42
 70
     1
102
RTVSPost2010Prop43
 90
        3
102
RTVSPost2010PropOp43
 70
     1
102
RTVSPost2010Prop44ColorIndex
 90
        5
102
RTVSPost2010Prop44ColorRGB
 90
      255
102
RTVSPost2010PropOp44
 70
     1
102
RTVSPost2010Prop45
280
     0
102
RTVSPost2010PropOp45
 70
     1
102
RTVSPost2010Prop46
 90
       50
102
RTVSPost2010PropOp46
 70
     1
102
RTVSPost2010Prop47
 90
       50
102
RTVSPost2010PropOp47
 70
     1
102
RTVSPost2010Prop48
 90
       50
102
RTVSPost2010PropOp48
 70
     1
102
RTVSPost2010Prop49
280
     0
102
RTVSPost2010PropOp49
 70
     1
102
RTVSPost2010Prop50
 90
       50
102
RTVSPost2010PropOp50
 70
     1
102
RTVSPost2010Prop51ColorIndex
 90
      256
102
RTVSPost2010Prop51ColorRGB
 90
-16777216
102
RTVSPost2010PropOp51
 70
     0
102
RTVSPost2010Prop52
140
1.0
102
RTVSPost2010PropOp52
 70
     0
102
RTVSPost2010Prop53
 90
        2
102
RTVSPost2010PropOp53
 70
     1
102
RTVSPost2010Prop54
  1
strokes_ogs.tif
102
RTVSPost2010PropOp54
 70
     1
102
RTVSPost2010Prop55
280
     0
102
RTVSPost2010PropOp55
 70
     1
102
RTVSPost2010Prop56
140
1.0
102
RTVSPost2010PropOp56
 70
     1
102
RTVSPost2010Prop57
140
1.0
102
RTVSPost2010PropOp57
 70
     1
102
RTVSPropertyOp0
 70
     1
102
RTVSPropertyOp1
 70
     1
102
RTVSPropertyOp2
 70
     1
102
RTVSPropertyOp3
 70
     1
102
RTVSPropertyOp4
 70
     1
102
RTVSPropertyOp5
 70
     1
102
RTVSPropertyOp6
 70
     1
102
RTVSPropertyOp7
 70
     1
102
RTVSPropertyOp8
 70
     1
102
RTVSPropertyOp9
 70
     1
102
RTVSPropertyOp10
 70
     1
102
RTVSPropertyOp11
 70
     1
102
RTVSPropertyOp12
 70
     1
102
RTVSPropertyOp13
 70
     1
102
RTVSPropertyOp14
 70
     1
102
RTVSPropertyOp15
 70
     1
102
RTVSPropertyOp16
 70
     1
102
RTVSPropertyOp17
 70
     1
102
RTVSPropertyOp18
 70
     1
102
RTVSPropertyOp19
 70
     1
102
RTVSPropertyOp20
 70
     1
102
RTVSPropertyOp21
 70
     1
102
RTVSPropertyOp22
 70
     1
102
RTVSPropertyOp23
 70
     1
102
RTVSPropertyOp24
 70
     1
102
RTVSPropertyOp25
 70
     1
102
RTVSPropertyOp26
 70
     1
102
RTVSPropertyOp27
 70
     1
102
RTVSPropertyOp28
 70
     1
102
RTVSPropertyOp29
 70
     1
102
RTVSPropertyOp30
 70
     1
102
RTVSPropertyOp31
 70
     1
102
RTVSPropertyOp32
 70
     1
102
RTVSPropertyOp33
 70
     1
102
RTVSPropertyOp34
 70
     1
102
RTVSPropertyOp35
 70
     1
102
RTVSPropertyOp36
 70
     1
102
RTVSPropertyOp37
 70
     1
102
RTVSPropertyOp38
 70
     1
102
RTVSPropertyOp39
 70
     1
102
RTVSPropertyOp40
 70
     1
102
RTVSPropertyOp41
 70
     1
102
RTVSPropertyOp42
 70
     1
102
RTVSPropertyOp43
 70
     1
102
RTVSPropertyOp44
 70
     1
102
RTVSPropertyOp45
 70
     1
102
RTVSPropertyOp46
 70
     1
102
RTVSPropertyOp47
 70
     1
102
RTVSPropertyOp48
 70
     1
102
RTVSPropertyOp49
 70
     1
102
RTVSPropertyOp50
 70
     1
102
RTVSPropertyOp51
 70
     0
102
RTVSPropertyOp52
 70
     0
102
RTVSPropertyOp53
 70
     1
102
RTVSPropertyOp54
 70
     1
102
RTVSPropertyOp55
 70
     1
102
RTVSPropertyOp56
 70
     1
102
RTVSPropertyOp57
 70
     1
102
RTVSPropertyOp58
 70
     1
102
RTVSPropertyOp59
 70
     1
102
RTVSPropertyOp60
 70
     1
102
RTVSPropertyOp61
 70
     1
102
RTVSPropertyOp62
 70
     1
  0
XRECORD
  5
729
102
{ACAD_REACTORS
330
728
102
}
330
728
100
AcDbXrecord
280
     1
102
RTVSPost2010Prop28
280
     0
102
RTVSPost2010PropOp28
 70
     1
102
RTVSPost2010Prop29
280
     1
102
RTVSPost2010PropOp29
 70
     1
102
RTVSPost2010Prop30
280
     1
102
RTVSPost2010PropOp30
 70
     1
102
RTVSPost2010Prop31
280
     0
102
RTVSPost2010PropOp31
 70
     1
102
RTVSPost2010Prop32
280
     0
102
RTVSPost2010PropOp32
 70
     1
102
RTVSPost2010Prop33
280
     0
102
RTVSPost2010PropOp33
 70
     1
102
RTVSPost2010Prop34
280
     0
102
RTVSPost2010PropOp34
 70
     1
102
RTVSPost2010Prop35
280
     0
102
RTVSPost2010PropOp35
 70
     1
102
RTVSPost2010Prop36
280
     0
102
RTVSPost2010PropOp36
 70
     1
102
RTVSPost2010Prop37
 90
       50
102
RTVSPost2010PropOp37
 70
     1
102
RTVSPost2010Prop38
140
0.0
102
RTVSPost2010PropOp38
 70
     1
102
RTVSPost2010Prop39
140
1.0
102
RTVSPost2010PropOp39
 70
     1
102
RTVSPost2010Prop40
 90
        0
102
RTVSPost2010PropOp40
 70
     1
102
RTVSPost2010Prop41ColorIndex
 90
       18
102
RTVSPost2010Prop41ColorRGB
 90
        0
102
RTVSPost2010PropOp41
 70
     1
102
RTVSPost2010Prop42
 90
       50
102
RTVSPost2010PropOp42
 70
     1
102
RTVSPost2010Prop43
 90
        3
102
RTVSPost2010PropOp43
 70
     1
102
RTVSPost2010Prop44ColorIndex
 90
        5
102
RTVSPost2010Prop44ColorRGB
 90
      255
102
RTVSPost2010PropOp44
 70
     1
102
RTVSPost2010Prop45
280
     0
102
RTVSPost2010PropOp45
 70
     1
102
RTVSPost2010Prop46
 90
       50
102
RTVSPost2010PropOp46
 70
     1
102
RTVSPost2010Prop47
 90
       50
102
RTVSPost2010PropOp47
 70
     1
102
RTVSPost2010Prop48
 90
       50
102
RTVSPost2010PropOp48
 70
     1
102
RTVSPost2010Prop49
280
     0
102
RTVSPost2010PropOp49
 70
     1
102
RTVSPost2010Prop50
 90
       50
102
RTVSPost2010PropOp50
 70
     1
102
RTVSPost2010Prop51ColorIndex
 90
      256
102
RTVSPost2010Prop51ColorRGB
 90
-16777216
102
RTVSPost2010PropOp51
 70
     0
102
RTVSPost2010Prop52
140
1.0
102
RTVSPost2010PropOp52
 70
     0
102
RTVSPost2010Prop53
 90
        2
102
RTVSPost2010PropOp53
 70
     1
102
RTVSPost2010Prop54
  1
strokes_ogs.tif
102
RTVSPost2010PropOp54
 70
     1
102
RTVSPost2010Prop55
280
     0
102
RTVSPost2010PropOp55
 70
     1
102
RTVSPost2010Prop56
140
1.0
102
RTVSPost2010PropOp56
 70
     1
102
RTVSPost2010Prop57
140
1.0
102
RTVSPost2010PropOp57
 70
     1
102
RTVSPropertyOp0
 70
     1
102
RTVSPropertyOp1
 70
     1
102
RTVSPropertyOp2
 70
     1
102
RTVSPropertyOp3
 70
     1
102
RTVSPropertyOp4
 70
     1
102
RTVSPropertyOp5
 70
     1
102
RTVSPropertyOp6
 70
     1
102
RTVSPropertyOp7
 70
     1
102
RTVSPropertyOp8
 70
     1
102
RTVSPropertyOp9
 70
     1
102
RTVSPropertyOp10
 70
     1
102
RTVSPropertyOp11
 70
     1
102
RTVSPropertyOp12
 70
     1
102
RTVSPropertyOp13
 70
     1
102
RTVSPropertyOp14
 70
     1
102
RTVSPropertyOp15
 70
     1
102
RTVSPropertyOp16
 70
     1
102
RTVSPropertyOp17
 70
     1
102
RTVSPropertyOp18
 70
     1
102
RTVSPropertyOp19
 70
     1
102
RTVSPropertyOp20
 70
     1
102
RTVSPropertyOp21
 70
     1
102
RTVSPropertyOp22
 70
     1
102
RTVSPropertyOp23
 70
     1
102
RTVSPropertyOp24
 70
     1
102
RTVSPropertyOp25
 70
     1
102
RTVSPropertyOp26
 70
     1
102
RTVSPropertyOp27
 70
     1
102
RTVSPropertyOp28
 70
     1
102
RTVSPropertyOp29
 70
     1
102
RTVSPropertyOp30
 70
     1
102
RTVSPropertyOp31
 70
     1
102
RTVSPropertyOp32
 70
     1
102
RTVSPropertyOp33
 70
     1
102
RTVSPropertyOp34
 70
     1
102
RTVSPropertyOp35
 70
     1
102
RTVSPropertyOp36
 70
     1
102
RTVSPropertyOp37
 70
     1
102
RTVSPropertyOp38
 70
     1
102
RTVSPropertyOp39
 70
     1
102
RTVSPropertyOp40
 70
     1
102
RTVSPropertyOp41
 70
     1
102
RTVSPropertyOp42
 70
     1
102
RTVSPropertyOp43
 70
     1
102
RTVSPropertyOp44
 70
     1
102
RTVSPropertyOp45
 70
     1
102
RTVSPropertyOp46
 70
     1
102
RTVSPropertyOp47
 70
     1
102
RTVSPropertyOp48
 70
     1
102
RTVSPropertyOp49
 70
     1
102
RTVSPropertyOp50
 70
     1
102
RTVSPropertyOp51
 70
     0
102
RTVSPropertyOp52
 70
     0
102
RTVSPropertyOp53
 70
     1
102
RTVSPropertyOp54
 70
     1
102
RTVSPropertyOp55
 70
     1
102
RTVSPropertyOp56
 70
     1
102
RTVSPropertyOp57
 70
     1
102
RTVSPropertyOp58
 70
     1
102
RTVSPropertyOp59
 70
     1
102
RTVSPropertyOp60
 70
     1
102
RTVSPropertyOp61
 70
     1
102
RTVSPropertyOp62
 70
     1
  0
XRECORD
  5
739
102
{ACAD_REACTORS
330
738
102
}
330
738
100
AcDbXrecord
280
     1
102
RTVSPost2010Prop28
280
     0
102
RTVSPost2010PropOp28
 70
     0
102
RTVSPost2010Prop29
280
     1
102
RTVSPost2010PropOp29
 70
     0
102
RTVSPost2010Prop30
280
     1
102
RTVSPost2010PropOp30
 70
     0
102
RTVSPost2010Prop31
280
     0
102
RTVSPost2010PropOp31
 70
     0
102
RTVSPost2010Prop32
280
     0
102
RTVSPost2010PropOp32
 70
     0
102
RTVSPost2010Prop33
280
     0
102
RTVSPost2010PropOp33
 70
     0
102
RTVSPost2010Prop34
280
     0
102
RTVSPost2010PropOp34
 70
     0
102
RTVSPost2010Prop35
280
     0
102
RTVSPost2010PropOp35
 70
     0
102
RTVSPost2010Prop36
280
     0
102
RTVSPost2010PropOp36
 70
     0
102
RTVSPost2010Prop37
 90
       50
102
RTVSPost2010PropOp37
 70
     0
102
RTVSPost2010Prop38
140
0.0
102
RTVSPost2010PropOp38
 70
     0
102
RTVSPost2010Prop39
140
1.0
102
RTVSPost2010PropOp39
 70
     0
102
RTVSPost2010Prop40
 90
        0
102
RTVSPost2010PropOp40
 70
     0
102
RTVSPost2010Prop41ColorIndex
 90
       18
102
RTVSPost2010Prop41ColorRGB
 90
        0
102
RTVSPost2010PropOp41
 70
     0
102
RTVSPost2010Prop42
 90
       50
102
RTVSPost2010PropOp42
 70
     0
102
RTVSPost2010Prop43
 90
        3
102
RTVSPost2010PropOp43
 70
     0
102
RTVSPost2010Prop44ColorIndex
 90
        5
102
RTVSPost2010Prop44ColorRGB
 90
      255
102
RTVSPost2010PropOp44
 70
     0
102
RTVSPost2010Prop45
280
     0
102
RTVSPost2010PropOp45
 70
     0
102
RTVSPost2010Prop46
 90
       50
102
RTVSPost2010PropOp46
 70
     0
102
RTVSPost2010Prop47
 90
       50
102
RTVSPost2010PropOp47
 70
     0
102
RTVSPost2010Prop48
 90
       50
102
RTVSPost2010PropOp48
 70
     0
102
RTVSPost2010Prop49
280
     0
102
RTVSPost2010PropOp49
 70
     0
102
RTVSPost2010Prop50
 90
       50
102
RTVSPost2010PropOp50
 70
     0
102
RTVSPost2010Prop51ColorIndex
 90
      256
102
RTVSPost2010Prop51ColorRGB
 90
-16777216
102
RTVSPost2010PropOp51
 70
     0
102
RTVSPost2010Prop52
140
1.0
102
RTVSPost2010PropOp52
 70
     0
102
RTVSPost2010Prop53
 90
        2
102
RTVSPost2010PropOp53
 70
     0
102
RTVSPost2010Prop54
  1
strokes_ogs.tif
102
RTVSPost2010PropOp54
 70
     0
102
RTVSPost2010Prop55
280
     0
102
RTVSPost2010PropOp55
 70
     0
102
RTVSPost2010Prop56
140
1.0
102
RTVSPost2010PropOp56
 70
     0
102
RTVSPost2010Prop57
140
1.0
102
RTVSPost2010PropOp57
 70
     0
102
RTVSPropertyOp0
 70
     0
102
RTVSPropertyOp1
 70
     0
102
RTVSPropertyOp2
 70
     0
102
RTVSPropertyOp3
 70
     0
102
RTVSPropertyOp4
 70
     0
102
RTVSPropertyOp5
 70
     0
102
RTVSPropertyOp6
 70
     0
102
RTVSPropertyOp7
 70
     0
102
RTVSPropertyOp8
 70
     0
102
RTVSPropertyOp9
 70
     0
102
RTVSPropertyOp10
 70
     0
102
RTVSPropertyOp11
 70
     0
102
RTVSPropertyOp12
 70
     0
102
RTVSPropertyOp13
 70
     0
102
RTVSPropertyOp14
 70
     2
102
RTVSPropertyOp15
 70
     0
102
RTVSPropertyOp16
 70
     0
102
RTVSPropertyOp17
 70
     0
102
RTVSPropertyOp18
 70
     0
102
RTVSPropertyOp19
 70
     0
102
RTVSPropertyOp20
 70
     0
102
RTVSPropertyOp21
 70
     0
102
RTVSPropertyOp22
 70
     0
102
RTVSPropertyOp23
 70
     0
102
RTVSPropertyOp24
 70
     0
102
RTVSPropertyOp25
 70
     0
102
RTVSPropertyOp26
 70
     0
102
RTVSPropertyOp27
 70
     0
102
RTVSPropertyOp28
 70
     0
102
RTVSPropertyOp29
 70
     0
102
RTVSPropertyOp30
 70
     0
102
RTVSPropertyOp31
 70
     0
102
RTVSPropertyOp32
 70
     0
102
RTVSPropertyOp33
 70
     0
102
RTVSPropertyOp34
 70
     0
102
RTVSPropertyOp35
 70
     0
102
RTVSPropertyOp36
 70
     0
102
RTVSPropertyOp37
 70
     0
102
RTVSPropertyOp38
 70
     0
102
RTVSPropertyOp39
 70
     0
102
RTVSPropertyOp40
 70
     0
102
RTVSPropertyOp41
 70
     0
102
RTVSPropertyOp42
 70
     0
102
RTVSPropertyOp43
 70
     0
102
RTVSPropertyOp44
 70
     0
102
RTVSPropertyOp45
 70
     0
102
RTVSPropertyOp46
 70
     0
102
RTVSPropertyOp47
 70
     0
102
RTVSPropertyOp48
 70
     0
102
RTVSPropertyOp49
 70
     0
102
RTVSPropertyOp50
 70
     0
102
RTVSPropertyOp51
 70
     0
102
RTVSPropertyOp52
 70
     0
102
RTVSPropertyOp53
 70
     0
102
RTVSPropertyOp54
 70
     0
102
RTVSPropertyOp55
 70
     0
102
RTVSPropertyOp56
 70
     0
102
RTVSPropertyOp57
 70
     0
102
RTVSPropertyOp58
 70
     1
102
RTVSPropertyOp59
 70
     1
102
RTVSPropertyOp60
 70
     1
102
RTVSPropertyOp61
 70
     1
102
RTVSPropertyOp62
 70
     1
  0
XRECORD
  5
731
102
{ACAD_REACTORS
330
730
102
}
330
730
100
AcDbXrecord
280
     1
102
RTVSPost2010Prop28
280
     0
102
RTVSPost2010PropOp28
 70
     1
102
RTVSPost2010Prop29
280
     1
102
RTVSPost2010PropOp29
 70
     1
102
RTVSPost2010Prop30
280
     1
102
RTVSPost2010PropOp30
 70
     1
102
RTVSPost2010Prop31
280
     0
102
RTVSPost2010PropOp31
 70
     1
102
RTVSPost2010Prop32
280
     0
102
RTVSPost2010PropOp32
 70
     1
102
RTVSPost2010Prop33
280
     0
102
RTVSPost2010PropOp33
 70
     1
102
RTVSPost2010Prop34
280
     0
102
RTVSPost2010PropOp34
 70
     1
102
RTVSPost2010Prop35
280
     0
102
RTVSPost2010PropOp35
 70
     1
102
RTVSPost2010Prop36
280
     0
102
RTVSPost2010PropOp36
 70
     1
102
RTVSPost2010Prop37
 90
       50
102
RTVSPost2010PropOp37
 70
     1
102
RTVSPost2010Prop38
140
0.0
102
RTVSPost2010PropOp38
 70
     1
102
RTVSPost2010Prop39
140
1.0
102
RTVSPost2010PropOp39
 70
     1
102
RTVSPost2010Prop40
 90
        0
102
RTVSPost2010PropOp40
 70
     1
102
RTVSPost2010Prop41ColorIndex
 90
       18
102
RTVSPost2010Prop41ColorRGB
 90
        0
102
RTVSPost2010PropOp41
 70
     1
102
RTVSPost2010Prop42
 90
       50
102
RTVSPost2010PropOp42
 70
     1
102
RTVSPost2010Prop43
 90
        3
102
RTVSPost2010PropOp43
 70
     1
102
RTVSPost2010Prop44ColorIndex
 90
        5
102
RTVSPost2010Prop44ColorRGB
 90
      255
102
RTVSPost2010PropOp44
 70
     1
102
RTVSPost2010Prop45
280
     0
102
RTVSPost2010PropOp45
 70
     1
102
RTVSPost2010Prop46
 90
       50
102
RTVSPost2010PropOp46
 70
     1
102
RTVSPost2010Prop47
 90
       50
102
RTVSPost2010PropOp47
 70
     1
102
RTVSPost2010Prop48
 90
       50
102
RTVSPost2010PropOp48
 70
     1
102
RTVSPost2010Prop49
280
     0
102
RTVSPost2010PropOp49
 70
     1
102
RTVSPost2010Prop50
 90
       50
102
RTVSPost2010PropOp50
 70
     1
102
RTVSPost2010Prop51ColorIndex
 90
      256
102
RTVSPost2010Prop51ColorRGB
 90
-16777216
102
RTVSPost2010PropOp51
 70
     0
102
RTVSPost2010Prop52
140
1.0
102
RTVSPost2010PropOp52
 70
     0
102
RTVSPost2010Prop53
 90
        2
102
RTVSPost2010PropOp53
 70
     1
102
RTVSPost2010Prop54
  1
strokes_ogs.tif
102
RTVSPost2010PropOp54
 70
     1
102
RTVSPost2010Prop55
280
     0
102
RTVSPost2010PropOp55
 70
     1
102
RTVSPost2010Prop56
140
1.0
102
RTVSPost2010PropOp56
 70
     1
102
RTVSPost2010Prop57
140
1.0
102
RTVSPost2010PropOp57
 70
     1
102
RTVSPropertyOp0
 70
     1
102
RTVSPropertyOp1
 70
     1
102
RTVSPropertyOp2
 70
     1
102
RTVSPropertyOp3
 70
     1
102
RTVSPropertyOp4
 70
     1
102
RTVSPropertyOp5
 70
     1
102
RTVSPropertyOp6
 70
     1
102
RTVSPropertyOp7
 70
     1
102
RTVSPropertyOp8
 70
     1
102
RTVSPropertyOp9
 70
     1
102
RTVSPropertyOp10
 70
     1
102
RTVSPropertyOp11
 70
     1
102
RTVSPropertyOp12
 70
     1
102
RTVSPropertyOp13
 70
     1
102
RTVSPropertyOp14
 70
     1
102
RTVSPropertyOp15
 70
     1
102
RTVSPropertyOp16
 70
     1
102
RTVSPropertyOp17
 70
     1
102
RTVSPropertyOp18
 70
     1
102
RTVSPropertyOp19
 70
     1
102
RTVSPropertyOp20
 70
     1
102
RTVSPropertyOp21
 70
     1
102
RTVSPropertyOp22
 70
     1
102
RTVSPropertyOp23
 70
     1
102
RTVSPropertyOp24
 70
     1
102
RTVSPropertyOp25
 70
     1
102
RTVSPropertyOp26
 70
     1
102
RTVSPropertyOp27
 70
     1
102
RTVSPropertyOp28
 70
     1
102
RTVSPropertyOp29
 70
     1
102
RTVSPropertyOp30
 70
     1
102
RTVSPropertyOp31
 70
     1
102
RTVSPropertyOp32
 70
     1
102
RTVSPropertyOp33
 70
     1
102
RTVSPropertyOp34
 70
     1
102
RTVSPropertyOp35
 70
     1
102
RTVSPropertyOp36
 70
     1
102
RTVSPropertyOp37
 70
     1
102
RTVSPropertyOp38
 70
     1
102
RTVSPropertyOp39
 70
     1
102
RTVSPropertyOp40
 70
     1
102
RTVSPropertyOp41
 70
     1
102
RTVSPropertyOp42
 70
     1
102
RTVSPropertyOp43
 70
     1
102
RTVSPropertyOp44
 70
     1
102
RTVSPropertyOp45
 70
     1
102
RTVSPropertyOp46
 70
     1
102
RTVSPropertyOp47
 70
     1
102
RTVSPropertyOp48
 70
     1
102
RTVSPropertyOp49
 70
     1
102
RTVSPropertyOp50
 70
     1
102
RTVSPropertyOp51
 70
     0
102
RTVSPropertyOp52
 70
     0
102
RTVSPropertyOp53
 70
     1
102
RTVSPropertyOp54
 70
     1
102
RTVSPropertyOp55
 70
     1
102
RTVSPropertyOp56
 70
     1
102
RTVSPropertyOp57
 70
     1
102
RTVSPropertyOp58
 70
     1
102
RTVSPropertyOp59
 70
     1
102
RTVSPropertyOp60
 70
     1
102
RTVSPropertyOp61
 70
     1
102
RTVSPropertyOp62
 70
     1
  0
XRECORD
  5
715
102
{ACAD_REACTORS
330
714
102
}
330
714
100
AcDbXrecord
280
     1
102
RTVSPost2010Prop28
280
     0
102
RTVSPost2010PropOp28
 70
     1
102
RTVSPost2010Prop29
280
     1
102
RTVSPost2010PropOp29
 70
     1
102
RTVSPost2010Prop30
280
     1
102
RTVSPost2010PropOp30
 70
     1
102
RTVSPost2010Prop31
280
     0
102
RTVSPost2010PropOp31
 70
     1
102
RTVSPost2010Prop32
280
     0
102
RTVSPost2010PropOp32
 70
     1
102
RTVSPost2010Prop33
280
     0
102
RTVSPost2010PropOp33
 70
     1
102
RTVSPost2010Prop34
280
     0
102
RTVSPost2010PropOp34
 70
     1
102
RTVSPost2010Prop35
280
     0
102
RTVSPost2010PropOp35
 70
     1
102
RTVSPost2010Prop36
280
     0
102
RTVSPost2010PropOp36
 70
     1
102
RTVSPost2010Prop37
 90
       50
102
RTVSPost2010PropOp37
 70
     1
102
RTVSPost2010Prop38
140
0.0
102
RTVSPost2010PropOp38
 70
     1
102
RTVSPost2010Prop39
140
1.0
102
RTVSPost2010PropOp39
 70
     1
102
RTVSPost2010Prop40
 90
        0
102
RTVSPost2010PropOp40
 70
     1
102
RTVSPost2010Prop41ColorIndex
 90
       18
102
RTVSPost2010Prop41ColorRGB
 90
        0
102
RTVSPost2010PropOp41
 70
     1
102
RTVSPost2010Prop42
 90
       50
102
RTVSPost2010PropOp42
 70
     1
102
RTVSPost2010Prop43
 90
        3
102
RTVSPost2010PropOp43
 70
     1
102
RTVSPost2010Prop44ColorIndex
 90
        5
102
RTVSPost2010Prop44ColorRGB
 90
      255
102
RTVSPost2010PropOp44
 70
     1
102
RTVSPost2010Prop45
280
     0
102
RTVSPost2010PropOp45
 70
     1
102
RTVSPost2010Prop46
 90
       50
102
RTVSPost2010PropOp46
 70
     1
102
RTVSPost2010Prop47
 90
       50
102
RTVSPost2010PropOp47
 70
     1
102
RTVSPost2010Prop48
 90
       50
102
RTVSPost2010PropOp48
 70
     1
102
RTVSPost2010Prop49
280
     0
102
RTVSPost2010PropOp49
 70
     1
102
RTVSPost2010Prop50
 90
       50
102
RTVSPost2010PropOp50
 70
     1
102
RTVSPost2010Prop51ColorIndex
 90
      256
102
RTVSPost2010Prop51ColorRGB
 90
-16777216
102
RTVSPost2010PropOp51
 70
     0
102
RTVSPost2010Prop52
140
1.0
102
RTVSPost2010PropOp52
 70
     0
102
RTVSPost2010Prop53
 90
        2
102
RTVSPost2010PropOp53
 70
     1
102
RTVSPost2010Prop54
  1
strokes_ogs.tif
102
RTVSPost2010PropOp54
 70
     1
102
RTVSPost2010Prop55
280
     0
102
RTVSPost2010PropOp55
 70
     1
102
RTVSPost2010Prop56
140
1.0
102
RTVSPost2010PropOp56
 70
     1
102
RTVSPost2010Prop57
140
1.0
102
RTVSPost2010PropOp57
 70
     1
102
RTVSPropertyOp0
 70
     1
102
RTVSPropertyOp1
 70
     1
102
RTVSPropertyOp2
 70
     1
102
RTVSPropertyOp3
 70
     1
102
RTVSPropertyOp4
 70
     1
102
RTVSPropertyOp5
 70
     1
102
RTVSPropertyOp6
 70
     1
102
RTVSPropertyOp7
 70
     1
102
RTVSPropertyOp8
 70
     1
102
RTVSPropertyOp9
 70
     1
102
RTVSPropertyOp10
 70
     1
102
RTVSPropertyOp11
 70
     1
102
RTVSPropertyOp12
 70
     1
102
RTVSPropertyOp13
 70
     1
102
RTVSPropertyOp14
 70
     1
102
RTVSPropertyOp15
 70
     1
102
RTVSPropertyOp16
 70
     1
102
RTVSPropertyOp17
 70
     1
102
RTVSPropertyOp18
 70
     1
102
RTVSPropertyOp19
 70
     1
102
RTVSPropertyOp20
 70
     1
102
RTVSPropertyOp21
 70
     1
102
RTVSPropertyOp22
 70
     1
102
RTVSPropertyOp23
 70
     1
102
RTVSPropertyOp24
 70
     1
102
RTVSPropertyOp25
 70
     1
102
RTVSPropertyOp26
 70
     1
102
RTVSPropertyOp27
 70
     1
102
RTVSPropertyOp28
 70
     1
102
RTVSPropertyOp29
 70
     1
102
RTVSPropertyOp30
 70
     1
102
RTVSPropertyOp31
 70
     1
102
RTVSPropertyOp32
 70
     1
102
RTVSPropertyOp33
 70
     1
102
RTVSPropertyOp34
 70
     1
102
RTVSPropertyOp35
 70
     1
102
RTVSPropertyOp36
 70
     1
102
RTVSPropertyOp37
 70
     1
102
RTVSPropertyOp38
 70
     1
102
RTVSPropertyOp39
 70
     1
102
RTVSPropertyOp40
 70
     1
102
RTVSPropertyOp41
 70
     1
102
RTVSPropertyOp42
 70
     1
102
RTVSPropertyOp43
 70
     1
102
RTVSPropertyOp44
 70
     1
102
RTVSPropertyOp45
 70
     1
102
RTVSPropertyOp46
 70
     1
102
RTVSPropertyOp47
 70
     1
102
RTVSPropertyOp48
 70
     1
102
RTVSPropertyOp49
 70
     1
102
RTVSPropertyOp50
 70
     1
102
RTVSPropertyOp51
 70
     0
102
RTVSPropertyOp52
 70
     0
102
RTVSPropertyOp53
 70
     1
102
RTVSPropertyOp54
 70
     1
102
RTVSPropertyOp55
 70
     1
102
RTVSPropertyOp56
 70
     1
102
RTVSPropertyOp57
 70
     1
102
RTVSPropertyOp58
 70
     1
102
RTVSPropertyOp59
 70
     1
102
RTVSPropertyOp60
 70
     1
102
RTVSPropertyOp61
 70
     1
102
RTVSPropertyOp62
 70
     1
  0
XRECORD
  5
717
102
{ACAD_REACTORS
330
716
102
}
330
716
100
AcDbXrecord
280
     1
102
RTVSPost2010Prop28
280
     0
102
RTVSPost2010PropOp28
 70
     1
102
RTVSPost2010Prop29
280
     1
102
RTVSPost2010PropOp29
 70
     1
102
RTVSPost2010Prop30
280
     1
102
RTVSPost2010PropOp30
 70
     1
102
RTVSPost2010Prop31
280
     0
102
RTVSPost2010PropOp31
 70
     1
102
RTVSPost2010Prop32
280
     0
102
RTVSPost2010PropOp32
 70
     1
102
RTVSPost2010Prop33
280
     0
102
RTVSPost2010PropOp33
 70
     1
102
RTVSPost2010Prop34
280
     0
102
RTVSPost2010PropOp34
 70
     1
102
RTVSPost2010Prop35
280
     0
102
RTVSPost2010PropOp35
 70
     1
102
RTVSPost2010Prop36
280
     0
102
RTVSPost2010PropOp36
 70
     1
102
RTVSPost2010Prop37
 90
       50
102
RTVSPost2010PropOp37
 70
     1
102
RTVSPost2010Prop38
140
0.0
102
RTVSPost2010PropOp38
 70
     1
102
RTVSPost2010Prop39
140
1.0
102
RTVSPost2010PropOp39
 70
     1
102
RTVSPost2010Prop40
 90
        0
102
RTVSPost2010PropOp40
 70
     1
102
RTVSPost2010Prop41ColorIndex
 90
       18
102
RTVSPost2010Prop41ColorRGB
 90
        0
102
RTVSPost2010PropOp41
 70
     1
102
RTVSPost2010Prop42
 90
       50
102
RTVSPost2010PropOp42
 70
     1
102
RTVSPost2010Prop43
 90
        3
102
RTVSPost2010PropOp43
 70
     1
102
RTVSPost2010Prop44ColorIndex
 90
        5
102
RTVSPost2010Prop44ColorRGB
 90
      255
102
RTVSPost2010PropOp44
 70
     1
102
RTVSPost2010Prop45
280
     0
102
RTVSPost2010PropOp45
 70
     1
102
RTVSPost2010Prop46
 90
       50
102
RTVSPost2010PropOp46
 70
     1
102
RTVSPost2010Prop47
 90
       50
102
RTVSPost2010PropOp47
 70
     1
102
RTVSPost2010Prop48
 90
       50
102
RTVSPost2010PropOp48
 70
     1
102
RTVSPost2010Prop49
280
     0
102
RTVSPost2010PropOp49
 70
     1
102
RTVSPost2010Prop50
 90
       50
102
RTVSPost2010PropOp50
 70
     1
102
RTVSPost2010Prop51ColorIndex
 90
      256
102
RTVSPost2010Prop51ColorRGB
 90
-16777216
102
RTVSPost2010PropOp51
 70
     0
102
RTVSPost2010Prop52
140
1.0
102
RTVSPost2010PropOp52
 70
     0
102
RTVSPost2010Prop53
 90
        2
102
RTVSPost2010PropOp53
 70
     1
102
RTVSPost2010Prop54
  1
strokes_ogs.tif
102
RTVSPost2010PropOp54
 70
     1
102
RTVSPost2010Prop55
280
     0
102
RTVSPost2010PropOp55
 70
     1
102
RTVSPost2010Prop56
140
1.0
102
RTVSPost2010PropOp56
 70
     1
102
RTVSPost2010Prop57
140
1.0
102
RTVSPost2010PropOp57
 70
     1
102
RTVSPropertyOp0
 70
     1
102
RTVSPropertyOp1
 70
     1
102
RTVSPropertyOp2
 70
     1
102
RTVSPropertyOp3
 70
     1
102
RTVSPropertyOp4
 70
     1
102
RTVSPropertyOp5
 70
     1
102
RTVSPropertyOp6
 70
     1
102
RTVSPropertyOp7
 70
     1
102
RTVSPropertyOp8
 70
     1
102
RTVSPropertyOp9
 70
     1
102
RTVSPropertyOp10
 70
     1
102
RTVSPropertyOp11
 70
     1
102
RTVSPropertyOp12
 70
     1
102
RTVSPropertyOp13
 70
     1
102
RTVSPropertyOp14
 70
     1
102
RTVSPropertyOp15
 70
     1
102
RTVSPropertyOp16
 70
     1
102
RTVSPropertyOp17
 70
     1
102
RTVSPropertyOp18
 70
     1
102
RTVSPropertyOp19
 70
     1
102
RTVSPropertyOp20
 70
     1
102
RTVSPropertyOp21
 70
     1
102
RTVSPropertyOp22
 70
     1
102
RTVSPropertyOp23
 70
     1
102
RTVSPropertyOp24
 70
     1
102
RTVSPropertyOp25
 70
     1
102
RTVSPropertyOp26
 70
     1
102
RTVSPropertyOp27
 70
     1
102
RTVSPropertyOp28
 70
     1
102
RTVSPropertyOp29
 70
     1
102
RTVSPropertyOp30
 70
     1
102
RTVSPropertyOp31
 70
     1
102
RTVSPropertyOp32
 70
     1
102
RTVSPropertyOp33
 70
     1
102
RTVSPropertyOp34
 70
     1
102
RTVSPropertyOp35
 70
     1
102
RTVSPropertyOp36
 70
     1
102
RTVSPropertyOp37
 70
     1
102
RTVSPropertyOp38
 70
     1
102
RTVSPropertyOp39
 70
     1
102
RTVSPropertyOp40
 70
     1
102
RTVSPropertyOp41
 70
     1
102
RTVSPropertyOp42
 70
     1
102
RTVSPropertyOp43
 70
     1
102
RTVSPropertyOp44
 70
     1
102
RTVSPropertyOp45
 70
     1
102
RTVSPropertyOp46
 70
     1
102
RTVSPropertyOp47
 70
     1
102
RTVSPropertyOp48
 70
     1
102
RTVSPropertyOp49
 70
     1
102
RTVSPropertyOp50
 70
     1
102
RTVSPropertyOp51
 70
     0
102
RTVSPropertyOp52
 70
     0
102
RTVSPropertyOp53
 70
     1
102
RTVSPropertyOp54
 70
     1
102
RTVSPropertyOp55
 70
     1
102
RTVSPropertyOp56
 70
     1
102
RTVSPropertyOp57
 70
     1
102
RTVSPropertyOp58
 70
     1
102
RTVSPropertyOp59
 70
     1
102
RTVSPropertyOp60
 70
     1
102
RTVSPropertyOp61
 70
     1
102
RTVSPropertyOp62
 70
     1
  0
XRECORD
  5
719
102
{ACAD_REACTORS
330
718
102
}
330
718
100
AcDbXrecord
280
     1
102
RTVSPost2010Prop28
280
     0
102
RTVSPost2010PropOp28
 70
     1
102
RTVSPost2010Prop29
280
     1
102
RTVSPost2010PropOp29
 70
     1
102
RTVSPost2010Prop30
280
     1
102
RTVSPost2010PropOp30
 70
     1
102
RTVSPost2010Prop31
280
     0
102
RTVSPost2010PropOp31
 70
     1
102
RTVSPost2010Prop32
280
     0
102
RTVSPost2010PropOp32
 70
     1
102
RTVSPost2010Prop33
280
     0
102
RTVSPost2010PropOp33
 70
     1
102
RTVSPost2010Prop34
280
     0
102
RTVSPost2010PropOp34
 70
     1
102
RTVSPost2010Prop35
280
     0
102
RTVSPost2010PropOp35
 70
     1
102
RTVSPost2010Prop36
280
     0
102
RTVSPost2010PropOp36
 70
     1
102
RTVSPost2010Prop37
 90
       50
102
RTVSPost2010PropOp37
 70
     1
102
RTVSPost2010Prop38
140
0.0
102
RTVSPost2010PropOp38
 70
     1
102
RTVSPost2010Prop39
140
1.0
102
RTVSPost2010PropOp39
 70
     1
102
RTVSPost2010Prop40
 90
        0
102
RTVSPost2010PropOp40
 70
     1
102
RTVSPost2010Prop41ColorIndex
 90
       18
102
RTVSPost2010Prop41ColorRGB
 90
        0
102
RTVSPost2010PropOp41
 70
     1
102
RTVSPost2010Prop42
 90
       50
102
RTVSPost2010PropOp42
 70
     1
102
RTVSPost2010Prop43
 90
        3
102
RTVSPost2010PropOp43
 70
     1
102
RTVSPost2010Prop44ColorIndex
 90
        5
102
RTVSPost2010Prop44ColorRGB
 90
      255
102
RTVSPost2010PropOp44
 70
     1
102
RTVSPost2010Prop45
280
     0
102
RTVSPost2010PropOp45
 70
     1
102
RTVSPost2010Prop46
 90
       50
102
RTVSPost2010PropOp46
 70
     1
102
RTVSPost2010Prop47
 90
       50
102
RTVSPost2010PropOp47
 70
     1
102
RTVSPost2010Prop48
 90
       50
102
RTVSPost2010PropOp48
 70
     1
102
RTVSPost2010Prop49
280
     0
102
RTVSPost2010PropOp49
 70
     1
102
RTVSPost2010Prop50
 90
       50
102
RTVSPost2010PropOp50
 70
     1
102
RTVSPost2010Prop51ColorIndex
 90
      256
102
RTVSPost2010Prop51ColorRGB
 90
-16777216
102
RTVSPost2010PropOp51
 70
     0
102
RTVSPost2010Prop52
140
1.0
102
RTVSPost2010PropOp52
 70
     0
102
RTVSPost2010Prop53
 90
        2
102
RTVSPost2010PropOp53
 70
     1
102
RTVSPost2010Prop54
  1
strokes_ogs.tif
102
RTVSPost2010PropOp54
 70
     1
102
RTVSPost2010Prop55
280
     0
102
RTVSPost2010PropOp55
 70
     1
102
RTVSPost2010Prop56
140
1.0
102
RTVSPost2010PropOp56
 70
     1
102
RTVSPost2010Prop57
140
1.0
102
RTVSPost2010PropOp57
 70
     1
102
RTVSPropertyOp0
 70
     1
102
RTVSPropertyOp1
 70
     1
102
RTVSPropertyOp2
 70
     1
102
RTVSPropertyOp3
 70
     1
102
RTVSPropertyOp4
 70
     1
102
RTVSPropertyOp5
 70
     1
102
RTVSPropertyOp6
 70
     1
102
RTVSPropertyOp7
 70
     1
102
RTVSPropertyOp8
 70
     1
102
RTVSPropertyOp9
 70
     1
102
RTVSPropertyOp10
 70
     1
102
RTVSPropertyOp11
 70
     1
102
RTVSPropertyOp12
 70
     1
102
RTVSPropertyOp13
 70
     1
102
RTVSPropertyOp14
 70
     1
102
RTVSPropertyOp15
 70
     1
102
RTVSPropertyOp16
 70
     1
102
RTVSPropertyOp17
 70
     1
102
RTVSPropertyOp18
 70
     1
102
RTVSPropertyOp19
 70
     1
102
RTVSPropertyOp20
 70
     1
102
RTVSPropertyOp21
 70
     1
102
RTVSPropertyOp22
 70
     1
102
RTVSPropertyOp23
 70
     1
102
RTVSPropertyOp24
 70
     1
102
RTVSPropertyOp25
 70
     1
102
RTVSPropertyOp26
 70
     1
102
RTVSPropertyOp27
 70
     1
102
RTVSPropertyOp28
 70
     1
102
RTVSPropertyOp29
 70
     1
102
RTVSPropertyOp30
 70
     1
102
RTVSPropertyOp31
 70
     1
102
RTVSPropertyOp32
 70
     1
102
RTVSPropertyOp33
 70
     1
102
RTVSPropertyOp34
 70
     1
102
RTVSPropertyOp35
 70
     1
102
RTVSPropertyOp36
 70
     1
102
RTVSPropertyOp37
 70
     1
102
RTVSPropertyOp38
 70
     1
102
RTVSPropertyOp39
 70
     1
102
RTVSPropertyOp40
 70
     1
102
RTVSPropertyOp41
 70
     1
102
RTVSPropertyOp42
 70
     1
102
RTVSPropertyOp43
 70
     1
102
RTVSPropertyOp44
 70
     1
102
RTVSPropertyOp45
 70
     1
102
RTVSPropertyOp46
 70
     1
102
RTVSPropertyOp47
 70
     1
102
RTVSPropertyOp48
 70
     1
102
RTVSPropertyOp49
 70
     1
102
RTVSPropertyOp50
 70
     1
102
RTVSPropertyOp51
 70
     0
102
RTVSPropertyOp52
 70
     0
102
RTVSPropertyOp53
 70
     1
102
RTVSPropertyOp54
 70
     1
102
RTVSPropertyOp55
 70
     1
102
RTVSPropertyOp56
 70
     1
102
RTVSPropertyOp57
 70
     1
102
RTVSPropertyOp58
 70
     1
102
RTVSPropertyOp59
 70
     1
102
RTVSPropertyOp60
 70
     1
102
RTVSPropertyOp61
 70
     1
102
RTVSPropertyOp62
 70
     1
  0
XRECORD
  5
71B
102
{ACAD_REACTORS
330
71A
102
}
330
71A
100
AcDbXrecord
280
     1
102
RTVSPost2010Prop28
280
     0
102
RTVSPost2010PropOp28
 70
     1
102
RTVSPost2010Prop29
280
     1
102
RTVSPost2010PropOp29
 70
     1
102
RTVSPost2010Prop30
280
     1
102
RTVSPost2010PropOp30
 70
     1
102
RTVSPost2010Prop31
280
     0
102
RTVSPost2010PropOp31
 70
     1
102
RTVSPost2010Prop32
280
     0
102
RTVSPost2010PropOp32
 70
     1
102
RTVSPost2010Prop33
280
     0
102
RTVSPost2010PropOp33
 70
     1
102
RTVSPost2010Prop34
280
     0
102
RTVSPost2010PropOp34
 70
     1
102
RTVSPost2010Prop35
280
     0
102
RTVSPost2010PropOp35
 70
     1
102
RTVSPost2010Prop36
280
     0
102
RTVSPost2010PropOp36
 70
     1
102
RTVSPost2010Prop37
 90
       50
102
RTVSPost2010PropOp37
 70
     1
102
RTVSPost2010Prop38
140
0.0
102
RTVSPost2010PropOp38
 70
     1
102
RTVSPost2010Prop39
140
1.0
102
RTVSPost2010PropOp39
 70
     1
102
RTVSPost2010Prop40
 90
        0
102
RTVSPost2010PropOp40
 70
     1
102
RTVSPost2010Prop41ColorIndex
 90
       18
102
RTVSPost2010Prop41ColorRGB
 90
        0
102
RTVSPost2010PropOp41
 70
     1
102
RTVSPost2010Prop42
 90
       50
102
RTVSPost2010PropOp42
 70
     1
102
RTVSPost2010Prop43
 90
        3
102
RTVSPost2010PropOp43
 70
     1
102
RTVSPost2010Prop44ColorIndex
 90
        5
102
RTVSPost2010Prop44ColorRGB
 90
      255
102
RTVSPost2010PropOp44
 70
     1
102
RTVSPost2010Prop45
280
     0
102
RTVSPost2010PropOp45
 70
     1
102
RTVSPost2010Prop46
 90
       50
102
RTVSPost2010PropOp46
 70
     1
102
RTVSPost2010Prop47
 90
       50
102
RTVSPost2010PropOp47
 70
     1
102
RTVSPost2010Prop48
 90
       50
102
RTVSPost2010PropOp48
 70
     1
102
RTVSPost2010Prop49
280
     0
102
RTVSPost2010PropOp49
 70
     1
102
RTVSPost2010Prop50
 90
       50
102
RTVSPost2010PropOp50
 70
     1
102
RTVSPost2010Prop51ColorIndex
 90
      256
102
RTVSPost2010Prop51ColorRGB
 90
-16777216
102
RTVSPost2010PropOp51
 70
     0
102
RTVSPost2010Prop52
140
1.0
102
RTVSPost2010PropOp52
 70
     0
102
RTVSPost2010Prop53
 90
        2
102
RTVSPost2010PropOp53
 70
     1
102
RTVSPost2010Prop54
  1
strokes_ogs.tif
102
RTVSPost2010PropOp54
 70
     1
102
RTVSPost2010Prop55
280
     0
102
RTVSPost2010PropOp55
 70
     1
102
RTVSPost2010Prop56
140
1.0
102
RTVSPost2010PropOp56
 70
     1
102
RTVSPost2010Prop57
140
1.0
102
RTVSPost2010PropOp57
 70
     1
102
RTVSPropertyOp0
 70
     1
102
RTVSPropertyOp1
 70
     1
102
RTVSPropertyOp2
 70
     1
102
RTVSPropertyOp3
 70
     1
102
RTVSPropertyOp4
 70
     1
102
RTVSPropertyOp5
 70
     1
102
RTVSPropertyOp6
 70
     1
102
RTVSPropertyOp7
 70
     1
102
RTVSPropertyOp8
 70
     1
102
RTVSPropertyOp9
 70
     1
102
RTVSPropertyOp10
 70
     1
102
RTVSPropertyOp11
 70
     1
102
RTVSPropertyOp12
 70
     1
102
RTVSPropertyOp13
 70
     1
102
RTVSPropertyOp14
 70
     1
102
RTVSPropertyOp15
 70
     1
102
RTVSPropertyOp16
 70
     1
102
RTVSPropertyOp17
 70
     1
102
RTVSPropertyOp18
 70
     1
102
RTVSPropertyOp19
 70
     1
102
RTVSPropertyOp20
 70
     1
102
RTVSPropertyOp21
 70
     1
102
RTVSPropertyOp22
 70
     1
102
RTVSPropertyOp23
 70
     1
102
RTVSPropertyOp24
 70
     1
102
RTVSPropertyOp25
 70
     1
102
RTVSPropertyOp26
 70
     1
102
RTVSPropertyOp27
 70
     1
102
RTVSPropertyOp28
 70
     1
102
RTVSPropertyOp29
 70
     1
102
RTVSPropertyOp30
 70
     1
102
RTVSPropertyOp31
 70
     1
102
RTVSPropertyOp32
 70
     1
102
RTVSPropertyOp33
 70
     1
102
RTVSPropertyOp34
 70
     1
102
RTVSPropertyOp35
 70
     1
102
RTVSPropertyOp36
 70
     1
102
RTVSPropertyOp37
 70
     1
102
RTVSPropertyOp38
 70
     1
102
RTVSPropertyOp39
 70
     1
102
RTVSPropertyOp40
 70
     1
102
RTVSPropertyOp41
 70
     1
102
RTVSPropertyOp42
 70
     1
102
RTVSPropertyOp43
 70
     1
102
RTVSPropertyOp44
 70
     1
102
RTVSPropertyOp45
 70
     1
102
RTVSPropertyOp46
 70
     1
102
RTVSPropertyOp47
 70
     1
102
RTVSPropertyOp48
 70
     1
102
RTVSPropertyOp49
 70
     1
102
RTVSPropertyOp50
 70
     1
102
RTVSPropertyOp51
 70
     0
102
RTVSPropertyOp52
 70
     0
102
RTVSPropertyOp53
 70
     1
102
RTVSPropertyOp54
 70
     1
102
RTVSPropertyOp55
 70
     1
102
RTVSPropertyOp56
 70
     1
102
RTVSPropertyOp57
 70
     1
102
RTVSPropertyOp58
 70
     1
102
RTVSPropertyOp59
 70
     1
102
RTVSPropertyOp60
 70
     1
102
RTVSPropertyOp61
 70
     1
102
RTVSPropertyOp62
 70
     1
  0
XRECORD
  5
721
102
{ACAD_REACTORS
330
720
102
}
330
720
100
AcDbXrecord
280
     1
102
RTVSPost2010Prop28
280
     0
102
RTVSPost2010PropOp28
 70
     1
102
RTVSPost2010Prop29
280
     1
102
RTVSPost2010PropOp29
 70
     1
102
RTVSPost2010Prop30
280
     1
102
RTVSPost2010PropOp30
 70
     1
102
RTVSPost2010Prop31
280
     0
102
RTVSPost2010PropOp31
 70
     1
102
RTVSPost2010Prop32
280
     0
102
RTVSPost2010PropOp32
 70
     1
102
RTVSPost2010Prop33
280
     0
102
RTVSPost2010PropOp33
 70
     1
102
RTVSPost2010Prop34
280
     0
102
RTVSPost2010PropOp34
 70
     1
102
RTVSPost2010Prop35
280
     0
102
RTVSPost2010PropOp35
 70
     1
102
RTVSPost2010Prop36
280
     0
102
RTVSPost2010PropOp36
 70
     1
102
RTVSPost2010Prop37
 90
       50
102
RTVSPost2010PropOp37
 70
     1
102
RTVSPost2010Prop38
140
0.0
102
RTVSPost2010PropOp38
 70
     1
102
RTVSPost2010Prop39
140
1.0
102
RTVSPost2010PropOp39
 70
     1
102
RTVSPost2010Prop40
 90
        0
102
RTVSPost2010PropOp40
 70
     1
102
RTVSPost2010Prop41ColorIndex
 90
       18
102
RTVSPost2010Prop41ColorRGB
 90
        0
102
RTVSPost2010PropOp41
 70
     1
102
RTVSPost2010Prop42
 90
       50
102
RTVSPost2010PropOp42
 70
     1
102
RTVSPost2010Prop43
 90
        3
102
RTVSPost2010PropOp43
 70
     1
102
RTVSPost2010Prop44ColorIndex
 90
        5
102
RTVSPost2010Prop44ColorRGB
 90
      255
102
RTVSPost2010PropOp44
 70
     1
102
RTVSPost2010Prop45
280
     0
102
RTVSPost2010PropOp45
 70
     1
102
RTVSPost2010Prop46
 90
       50
102
RTVSPost2010PropOp46
 70
     1
102
RTVSPost2010Prop47
 90
       50
102
RTVSPost2010PropOp47
 70
     1
102
RTVSPost2010Prop48
 90
       50
102
RTVSPost2010PropOp48
 70
     1
102
RTVSPost2010Prop49
280
     0
102
RTVSPost2010PropOp49
 70
     1
102
RTVSPost2010Prop50
 90
       50
102
RTVSPost2010PropOp50
 70
     1
102
RTVSPost2010Prop51ColorIndex
 90
      256
102
RTVSPost2010Prop51ColorRGB
 90
-16777216
102
RTVSPost2010PropOp51
 70
     0
102
RTVSPost2010Prop52
140
1.0
102
RTVSPost2010PropOp52
 70
     0
102
RTVSPost2010Prop53
 90
        2
102
RTVSPost2010PropOp53
 70
     1
102
RTVSPost2010Prop54
  1
strokes_ogs.tif
102
RTVSPost2010PropOp54
 70
     1
102
RTVSPost2010Prop55
280
     0
102
RTVSPost2010PropOp55
 70
     1
102
RTVSPost2010Prop56
140
1.0
102
RTVSPost2010PropOp56
 70
     1
102
RTVSPost2010Prop57
140
1.0
102
RTVSPost2010PropOp57
 70
     1
102
RTVSPropertyOp0
 70
     1
102
RTVSPropertyOp1
 70
     1
102
RTVSPropertyOp2
 70
     1
102
RTVSPropertyOp3
 70
     1
102
RTVSPropertyOp4
 70
     1
102
RTVSPropertyOp5
 70
     1
102
RTVSPropertyOp6
 70
     1
102
RTVSPropertyOp7
 70
     1
102
RTVSPropertyOp8
 70
     1
102
RTVSPropertyOp9
 70
     1
102
RTVSPropertyOp10
 70
     1
102
RTVSPropertyOp11
 70
     1
102
RTVSPropertyOp12
 70
     1
102
RTVSPropertyOp13
 70
     1
102
RTVSPropertyOp14
 70
     1
102
RTVSPropertyOp15
 70
     1
102
RTVSPropertyOp16
 70
     1
102
RTVSPropertyOp17
 70
     1
102
RTVSPropertyOp18
 70
     1
102
RTVSPropertyOp19
 70
     1
102
RTVSPropertyOp20
 70
     1
102
RTVSPropertyOp21
 70
     1
102
RTVSPropertyOp22
 70
     1
102
RTVSPropertyOp23
 70
     1
102
RTVSPropertyOp24
 70
     1
102
RTVSPropertyOp25
 70
     1
102
RTVSPropertyOp26
 70
     1
102
RTVSPropertyOp27
 70
     1
102
RTVSPropertyOp28
 70
     1
102
RTVSPropertyOp29
 70
     1
102
RTVSPropertyOp30
 70
     1
102
RTVSPropertyOp31
 70
     1
102
RTVSPropertyOp32
 70
     1
102
RTVSPropertyOp33
 70
     1
102
RTVSPropertyOp34
 70
     1
102
RTVSPropertyOp35
 70
     1
102
RTVSPropertyOp36
 70
     1
102
RTVSPropertyOp37
 70
     1
102
RTVSPropertyOp38
 70
     1
102
RTVSPropertyOp39
 70
     1
102
RTVSPropertyOp40
 70
     1
102
RTVSPropertyOp41
 70
     1
102
RTVSPropertyOp42
 70
     1
102
RTVSPropertyOp43
 70
     1
102
RTVSPropertyOp44
 70
     1
102
RTVSPropertyOp45
 70
     1
102
RTVSPropertyOp46
 70
     1
102
RTVSPropertyOp47
 70
     1
102
RTVSPropertyOp48
 70
     1
102
RTVSPropertyOp49
 70
     1
102
RTVSPropertyOp50
 70
     1
102
RTVSPropertyOp51
 70
     0
102
RTVSPropertyOp52
 70
     0
102
RTVSPropertyOp53
 70
     1
102
RTVSPropertyOp54
 70
     1
102
RTVSPropertyOp55
 70
     1
102
RTVSPropertyOp56
 70
     1
102
RTVSPropertyOp57
 70
     1
102
RTVSPropertyOp58
 70
     1
102
RTVSPropertyOp59
 70
     1
102
RTVSPropertyOp60
 70
     1
102
RTVSPropertyOp61
 70
     1
102
RTVSPropertyOp62
 70
     1
  0
XRECORD
  5
735
102
{ACAD_REACTORS
330
734
102
}
330
734
100
AcDbXrecord
280
     1
102
RTVSPost2010Prop28
280
     0
102
RTVSPost2010PropOp28
 70
     0
102
RTVSPost2010Prop29
280
     1
102
RTVSPost2010PropOp29
 70
     0
102
RTVSPost2010Prop30
280
     1
102
RTVSPost2010PropOp30
 70
     0
102
RTVSPost2010Prop31
280
     0
102
RTVSPost2010PropOp31
 70
     0
102
RTVSPost2010Prop32
280
     0
102
RTVSPost2010PropOp32
 70
     0
102
RTVSPost2010Prop33
280
     0
102
RTVSPost2010PropOp33
 70
     0
102
RTVSPost2010Prop34
280
     0
102
RTVSPost2010PropOp34
 70
     0
102
RTVSPost2010Prop35
280
     0
102
RTVSPost2010PropOp35
 70
     0
102
RTVSPost2010Prop36
280
     0
102
RTVSPost2010PropOp36
 70
     0
102
RTVSPost2010Prop37
 90
       50
102
RTVSPost2010PropOp37
 70
     0
102
RTVSPost2010Prop38
140
0.0
102
RTVSPost2010PropOp38
 70
     0
102
RTVSPost2010Prop39
140
1.0
102
RTVSPost2010PropOp39
 70
     0
102
RTVSPost2010Prop40
 90
        0
102
RTVSPost2010PropOp40
 70
     0
102
RTVSPost2010Prop41ColorIndex
 90
       18
102
RTVSPost2010Prop41ColorRGB
 90
        0
102
RTVSPost2010PropOp41
 70
     0
102
RTVSPost2010Prop42
 90
       50
102
RTVSPost2010PropOp42
 70
     0
102
RTVSPost2010Prop43
 90
        3
102
RTVSPost2010PropOp43
 70
     0
102
RTVSPost2010Prop44ColorIndex
 90
        5
102
RTVSPost2010Prop44ColorRGB
 90
      255
102
RTVSPost2010PropOp44
 70
     0
102
RTVSPost2010Prop45
280
     0
102
RTVSPost2010PropOp45
 70
     0
102
RTVSPost2010Prop46
 90
       50
102
RTVSPost2010PropOp46
 70
     0
102
RTVSPost2010Prop47
 90
       50
102
RTVSPost2010PropOp47
 70
     0
102
RTVSPost2010Prop48
 90
       50
102
RTVSPost2010PropOp48
 70
     0
102
RTVSPost2010Prop49
280
     0
102
RTVSPost2010PropOp49
 70
     0
102
RTVSPost2010Prop50
 90
       50
102
RTVSPost2010PropOp50
 70
     0
102
RTVSPost2010Prop51ColorIndex
 90
      256
102
RTVSPost2010Prop51ColorRGB
 90
-16777216
102
RTVSPost2010PropOp51
 70
     0
102
RTVSPost2010Prop52
140
1.0
102
RTVSPost2010PropOp52
 70
     0
102
RTVSPost2010Prop53
 90
        2
102
RTVSPost2010PropOp53
 70
     0
102
RTVSPost2010Prop54
  1
strokes_ogs.tif
102
RTVSPost2010PropOp54
 70
     0
102
RTVSPost2010Prop55
280
     0
102
RTVSPost2010PropOp55
 70
     0
102
RTVSPost2010Prop56
140
1.0
102
RTVSPost2010PropOp56
 70
     0
102
RTVSPost2010Prop57
140
1.0
102
RTVSPost2010PropOp57
 70
     0
102
RTVSPropertyOp0
 70
     0
102
RTVSPropertyOp1
 70
     0
102
RTVSPropertyOp2
 70
     0
102
RTVSPropertyOp3
 70
     0
102
RTVSPropertyOp4
 70
     0
102
RTVSPropertyOp5
 70
     0
102
RTVSPropertyOp6
 70
     0
102
RTVSPropertyOp7
 70
     0
102
RTVSPropertyOp8
 70
     0
102
RTVSPropertyOp9
 70
     0
102
RTVSPropertyOp10
 70
     0
102
RTVSPropertyOp11
 70
     0
102
RTVSPropertyOp12
 70
     0
102
RTVSPropertyOp13
 70
     0
102
RTVSPropertyOp14
 70
     2
102
RTVSPropertyOp15
 70
     0
102
RTVSPropertyOp16
 70
     0
102
RTVSPropertyOp17
 70
     0
102
RTVSPropertyOp18
 70
     0
102
RTVSPropertyOp19
 70
     0
102
RTVSPropertyOp20
 70
     0
102
RTVSPropertyOp21
 70
     0
102
RTVSPropertyOp22
 70
     0
102
RTVSPropertyOp23
 70
     0
102
RTVSPropertyOp24
 70
     0
102
RTVSPropertyOp25
 70
     0
102
RTVSPropertyOp26
 70
     0
102
RTVSPropertyOp27
 70
     0
102
RTVSPropertyOp28
 70
     0
102
RTVSPropertyOp29
 70
     0
102
RTVSPropertyOp30
 70
     0
102
RTVSPropertyOp31
 70
     0
102
RTVSPropertyOp32
 70
     0
102
RTVSPropertyOp33
 70
     0
102
RTVSPropertyOp34
 70
     0
102
RTVSPropertyOp35
 70
     0
102
RTVSPropertyOp36
 70
     0
102
RTVSPropertyOp37
 70
     0
102
RTVSPropertyOp38
 70
     0
102
RTVSPropertyOp39
 70
     0
102
RTVSPropertyOp40
 70
     0
102
RTVSPropertyOp41
 70
     0
102
RTVSPropertyOp42
 70
     0
102
RTVSPropertyOp43
 70
     0
102
RTVSPropertyOp44
 70
     0
102
RTVSPropertyOp45
 70
     0
102
RTVSPropertyOp46
 70
     0
102
RTVSPropertyOp47
 70
     0
102
RTVSPropertyOp48
 70
     0
102
RTVSPropertyOp49
 70
     0
102
RTVSPropertyOp50
 70
     0
102
RTVSPropertyOp51
 70
     0
102
RTVSPropertyOp52
 70
     0
102
RTVSPropertyOp53
 70
     0
102
RTVSPropertyOp54
 70
     0
102
RTVSPropertyOp55
 70
     0
102
RTVSPropertyOp56
 70
     0
102
RTVSPropertyOp57
 70
     0
102
RTVSPropertyOp58
 70
     1
102
RTVSPropertyOp59
 70
     1
102
RTVSPropertyOp60
 70
     1
102
RTVSPropertyOp61
 70
     1
102
RTVSPropertyOp62
 70
     1
  0
XRECORD
  5
72F
102
{ACAD_REACTORS
330
72E
102
}
330
72E
100
AcDbXrecord
280
     1
102
RTVSPost2010Prop28
280
     0
102
RTVSPost2010PropOp28
 70
     1
102
RTVSPost2010Prop29
280
     1
102
RTVSPost2010PropOp29
 70
     1
102
RTVSPost2010Prop30
280
     1
102
RTVSPost2010PropOp30
 70
     1
102
RTVSPost2010Prop31
280
     0
102
RTVSPost2010PropOp31
 70
     1
102
RTVSPost2010Prop32
280
     0
102
RTVSPost2010PropOp32
 70
     1
102
RTVSPost2010Prop33
280
     0
102
RTVSPost2010PropOp33
 70
     1
102
RTVSPost2010Prop34
280
     0
102
RTVSPost2010PropOp34
 70
     1
102
RTVSPost2010Prop35
280
     0
102
RTVSPost2010PropOp35
 70
     1
102
RTVSPost2010Prop36
280
     0
102
RTVSPost2010PropOp36
 70
     1
102
RTVSPost2010Prop37
 90
       50
102
RTVSPost2010PropOp37
 70
     1
102
RTVSPost2010Prop38
140
0.0
102
RTVSPost2010PropOp38
 70
     1
102
RTVSPost2010Prop39
140
1.0
102
RTVSPost2010PropOp39
 70
     1
102
RTVSPost2010Prop40
 90
        0
102
RTVSPost2010PropOp40
 70
     1
102
RTVSPost2010Prop41ColorIndex
 90
       18
102
RTVSPost2010Prop41ColorRGB
 90
        0
102
RTVSPost2010PropOp41
 70
     1
102
RTVSPost2010Prop42
 90
       50
102
RTVSPost2010PropOp42
 70
     1
102
RTVSPost2010Prop43
 90
        3
102
RTVSPost2010PropOp43
 70
     1
102
RTVSPost2010Prop44ColorIndex
 90
        5
102
RTVSPost2010Prop44ColorRGB
 90
      255
102
RTVSPost2010PropOp44
 70
     1
102
RTVSPost2010Prop45
280
     0
102
RTVSPost2010PropOp45
 70
     1
102
RTVSPost2010Prop46
 90
       50
102
RTVSPost2010PropOp46
 70
     1
102
RTVSPost2010Prop47
 90
       50
102
RTVSPost2010PropOp47
 70
     1
102
RTVSPost2010Prop48
 90
       50
102
RTVSPost2010PropOp48
 70
     1
102
RTVSPost2010Prop49
280
     0
102
RTVSPost2010PropOp49
 70
     1
102
RTVSPost2010Prop50
 90
       50
102
RTVSPost2010PropOp50
 70
     1
102
RTVSPost2010Prop51ColorIndex
 90
      256
102
RTVSPost2010Prop51ColorRGB
 90
-16777216
102
RTVSPost2010PropOp51
 70
     0
102
RTVSPost2010Prop52
140
1.0
102
RTVSPost2010PropOp52
 70
     0
102
RTVSPost2010Prop53
 90
        2
102
RTVSPost2010PropOp53
 70
     1
102
RTVSPost2010Prop54
  1
strokes_ogs.tif
102
RTVSPost2010PropOp54
 70
     1
102
RTVSPost2010Prop55
280
     0
102
RTVSPost2010PropOp55
 70
     1
102
RTVSPost2010Prop56
140
1.0
102
RTVSPost2010PropOp56
 70
     1
102
RTVSPost2010Prop57
140
1.0
102
RTVSPost2010PropOp57
 70
     1
102
RTVSPropertyOp0
 70
     1
102
RTVSPropertyOp1
 70
     1
102
RTVSPropertyOp2
 70
     1
102
RTVSPropertyOp3
 70
     1
102
RTVSPropertyOp4
 70
     1
102
RTVSPropertyOp5
 70
     1
102
RTVSPropertyOp6
 70
     1
102
RTVSPropertyOp7
 70
     1
102
RTVSPropertyOp8
 70
     1
102
RTVSPropertyOp9
 70
     1
102
RTVSPropertyOp10
 70
     1
102
RTVSPropertyOp11
 70
     1
102
RTVSPropertyOp12
 70
     1
102
RTVSPropertyOp13
 70
     1
102
RTVSPropertyOp14
 70
     1
102
RTVSPropertyOp15
 70
     1
102
RTVSPropertyOp16
 70
     1
102
RTVSPropertyOp17
 70
     1
102
RTVSPropertyOp18
 70
     1
102
RTVSPropertyOp19
 70
     1
102
RTVSPropertyOp20
 70
     1
102
RTVSPropertyOp21
 70
     1
102
RTVSPropertyOp22
 70
     1
102
RTVSPropertyOp23
 70
     1
102
RTVSPropertyOp24
 70
     1
102
RTVSPropertyOp25
 70
     1
102
RTVSPropertyOp26
 70
     1
102
RTVSPropertyOp27
 70
     1
102
RTVSPropertyOp28
 70
     1
102
RTVSPropertyOp29
 70
     1
102
RTVSPropertyOp30
 70
     1
102
RTVSPropertyOp31
 70
     1
102
RTVSPropertyOp32
 70
     1
102
RTVSPropertyOp33
 70
     1
102
RTVSPropertyOp34
 70
     1
102
RTVSPropertyOp35
 70
     1
102
RTVSPropertyOp36
 70
     1
102
RTVSPropertyOp37
 70
     1
102
RTVSPropertyOp38
 70
     1
102
RTVSPropertyOp39
 70
     1
102
RTVSPropertyOp40
 70
     1
102
RTVSPropertyOp41
 70
     1
102
RTVSPropertyOp42
 70
     1
102
RTVSPropertyOp43
 70
     1
102
RTVSPropertyOp44
 70
     1
102
RTVSPropertyOp45
 70
     1
102
RTVSPropertyOp46
 70
     1
102
RTVSPropertyOp47
 70
     1
102
RTVSPropertyOp48
 70
     1
102
RTVSPropertyOp49
 70
     1
102
RTVSPropertyOp50
 70
     1
102
RTVSPropertyOp51
 70
     0
102
RTVSPropertyOp52
 70
     0
102
RTVSPropertyOp53
 70
     1
102
RTVSPropertyOp54
 70
     1
102
RTVSPropertyOp55
 70
     1
102
RTVSPropertyOp56
 70
     1
102
RTVSPropertyOp57
 70
     1
102
RTVSPropertyOp58
 70
     1
102
RTVSPropertyOp59
 70
     1
102
RTVSPropertyOp60
 70
     1
102
RTVSPropertyOp61
 70
     1
102
RTVSPropertyOp62
 70
     1
  0
XRECORD
  5
737
102
{ACAD_REACTORS
330
736
102
}
330
736
100
AcDbXrecord
280
     1
102
RTVSPost2010Prop28
280
     0
102
RTVSPost2010PropOp28
 70
     0
102
RTVSPost2010Prop29
280
     1
102
RTVSPost2010PropOp29
 70
     0
102
RTVSPost2010Prop30
280
     1
102
RTVSPost2010PropOp30
 70
     0
102
RTVSPost2010Prop31
280
     0
102
RTVSPost2010PropOp31
 70
     0
102
RTVSPost2010Prop32
280
     0
102
RTVSPost2010PropOp32
 70
     0
102
RTVSPost2010Prop33
280
     0
102
RTVSPost2010PropOp33
 70
     0
102
RTVSPost2010Prop34
280
     0
102
RTVSPost2010PropOp34
 70
     0
102
RTVSPost2010Prop35
280
     0
102
RTVSPost2010PropOp35
 70
     0
102
RTVSPost2010Prop36
280
     0
102
RTVSPost2010PropOp36
 70
     0
102
RTVSPost2010Prop37
 90
       50
102
RTVSPost2010PropOp37
 70
     0
102
RTVSPost2010Prop38
140
0.0
102
RTVSPost2010PropOp38
 70
     0
102
RTVSPost2010Prop39
140
1.0
102
RTVSPost2010PropOp39
 70
     0
102
RTVSPost2010Prop40
 90
        0
102
RTVSPost2010PropOp40
 70
     0
102
RTVSPost2010Prop41ColorIndex
 90
       18
102
RTVSPost2010Prop41ColorRGB
 90
        0
102
RTVSPost2010PropOp41
 70
     0
102
RTVSPost2010Prop42
 90
       50
102
RTVSPost2010PropOp42
 70
     0
102
RTVSPost2010Prop43
 90
        3
102
RTVSPost2010PropOp43
 70
     0
102
RTVSPost2010Prop44ColorIndex
 90
        5
102
RTVSPost2010Prop44ColorRGB
 90
      255
102
RTVSPost2010PropOp44
 70
     0
102
RTVSPost2010Prop45
280
     0
102
RTVSPost2010PropOp45
 70
     0
102
RTVSPost2010Prop46
 90
       50
102
RTVSPost2010PropOp46
 70
     0
102
RTVSPost2010Prop47
 90
       50
102
RTVSPost2010PropOp47
 70
     0
102
RTVSPost2010Prop48
 90
       50
102
RTVSPost2010PropOp48
 70
     0
102
RTVSPost2010Prop49
280
     0
102
RTVSPost2010PropOp49
 70
     0
102
RTVSPost2010Prop50
 90
       50
102
RTVSPost2010PropOp50
 70
     0
102
RTVSPost2010Prop51ColorIndex
 90
      256
102
RTVSPost2010Prop51ColorRGB
 90
-16777216
102
RTVSPost2010PropOp51
 70
     0
102
RTVSPost2010Prop52
140
1.0
102
RTVSPost2010PropOp52
 70
     0
102
RTVSPost2010Prop53
 90
        2
102
RTVSPost2010PropOp53
 70
     0
102
RTVSPost2010Prop54
  1
strokes_ogs.tif
102
RTVSPost2010PropOp54
 70
     0
102
RTVSPost2010Prop55
280
     0
102
RTVSPost2010PropOp55
 70
     0
102
RTVSPost2010Prop56
140
1.0
102
RTVSPost2010PropOp56
 70
     0
102
RTVSPost2010Prop57
140
1.0
102
RTVSPost2010PropOp57
 70
     0
102
RTVSPropertyOp0
 70
     0
102
RTVSPropertyOp1
 70
     0
102
RTVSPropertyOp2
 70
     0
102
RTVSPropertyOp3
 70
     0
102
RTVSPropertyOp4
 70
     0
102
RTVSPropertyOp5
 70
     0
102
RTVSPropertyOp6
 70
     0
102
RTVSPropertyOp7
 70
     0
102
RTVSPropertyOp8
 70
     0
102
RTVSPropertyOp9
 70
     0
102
RTVSPropertyOp10
 70
     0
102
RTVSPropertyOp11
 70
     0
102
RTVSPropertyOp12
 70
     0
102
RTVSPropertyOp13
 70
     0
102
RTVSPropertyOp14
 70
     2
102
RTVSPropertyOp15
 70
     0
102
RTVSPropertyOp16
 70
     0
102
RTVSPropertyOp17
 70
     0
102
RTVSPropertyOp18
 70
     0
102
RTVSPropertyOp19
 70
     0
102
RTVSPropertyOp20
 70
     0
102
RTVSPropertyOp21
 70
     0
102
RTVSPropertyOp22
 70
     0
102
RTVSPropertyOp23
 70
     0
102
RTVSPropertyOp24
 70
     0
102
RTVSPropertyOp25
 70
     0
102
RTVSPropertyOp26
 70
     0
102
RTVSPropertyOp27
 70
     0
102
RTVSPropertyOp28
 70
     0
102
RTVSPropertyOp29
 70
     0
102
RTVSPropertyOp30
 70
     0
102
RTVSPropertyOp31
 70
     0
102
RTVSPropertyOp32
 70
     0
102
RTVSPropertyOp33
 70
     0
102
RTVSPropertyOp34
 70
     0
102
RTVSPropertyOp35
 70
     0
102
RTVSPropertyOp36
 70
     0
102
RTVSPropertyOp37
 70
     0
102
RTVSPropertyOp38
 70
     0
102
RTVSPropertyOp39
 70
     0
102
RTVSPropertyOp40
 70
     0
102
RTVSPropertyOp41
 70
     0
102
RTVSPropertyOp42
 70
     0
102
RTVSPropertyOp43
 70
     0
102
RTVSPropertyOp44
 70
     0
102
RTVSPropertyOp45
 70
     0
102
RTVSPropertyOp46
 70
     0
102
RTVSPropertyOp47
 70
     0
102
RTVSPropertyOp48
 70
     0
102
RTVSPropertyOp49
 70
     0
102
RTVSPropertyOp50
 70
     0
102
RTVSPropertyOp51
 70
     0
102
RTVSPropertyOp52
 70
     0
102
RTVSPropertyOp53
 70
     0
102
RTVSPropertyOp54
 70
     0
102
RTVSPropertyOp55
 70
     0
102
RTVSPropertyOp56
 70
     0
102
RTVSPropertyOp57
 70
     0
102
RTVSPropertyOp58
 70
     1
102
RTVSPropertyOp59
 70
     1
102
RTVSPropertyOp60
 70
     1
102
RTVSPropertyOp61
 70
     1
102
RTVSPropertyOp62
 70
     1
  0
XRECORD
  5
725
102
{ACAD_REACTORS
330
724
102
}
330
724
100
AcDbXrecord
280
     1
102
RTVSPost2010Prop28
280
     0
102
RTVSPost2010PropOp28
 70
     1
102
RTVSPost2010Prop29
280
     1
102
RTVSPost2010PropOp29
 70
     1
102
RTVSPost2010Prop30
280
     1
102
RTVSPost2010PropOp30
 70
     1
102
RTVSPost2010Prop31
280
     0
102
RTVSPost2010PropOp31
 70
     1
102
RTVSPost2010Prop32
280
     0
102
RTVSPost2010PropOp32
 70
     1
102
RTVSPost2010Prop33
280
     0
102
RTVSPost2010PropOp33
 70
     1
102
RTVSPost2010Prop34
280
     0
102
RTVSPost2010PropOp34
 70
     1
102
RTVSPost2010Prop35
280
     0
102
RTVSPost2010PropOp35
 70
     1
102
RTVSPost2010Prop36
280
     0
102
RTVSPost2010PropOp36
 70
     1
102
RTVSPost2010Prop37
 90
       50
102
RTVSPost2010PropOp37
 70
     1
102
RTVSPost2010Prop38
140
0.0
102
RTVSPost2010PropOp38
 70
     1
102
RTVSPost2010Prop39
140
1.0
102
RTVSPost2010PropOp39
 70
     1
102
RTVSPost2010Prop40
 90
        0
102
RTVSPost2010PropOp40
 70
     1
102
RTVSPost2010Prop41ColorIndex
 90
       18
102
RTVSPost2010Prop41ColorRGB
 90
        0
102
RTVSPost2010PropOp41
 70
     1
102
RTVSPost2010Prop42
 90
       50
102
RTVSPost2010PropOp42
 70
     1
102
RTVSPost2010Prop43
 90
        3
102
RTVSPost2010PropOp43
 70
     1
102
RTVSPost2010Prop44ColorIndex
 90
        5
102
RTVSPost2010Prop44ColorRGB
 90
      255
102
RTVSPost2010PropOp44
 70
     1
102
RTVSPost2010Prop45
280
     0
102
RTVSPost2010PropOp45
 70
     1
102
RTVSPost2010Prop46
 90
       50
102
RTVSPost2010PropOp46
 70
     1
102
RTVSPost2010Prop47
 90
       50
102
RTVSPost2010PropOp47
 70
     1
102
RTVSPost2010Prop48
 90
       50
102
RTVSPost2010PropOp48
 70
     1
102
RTVSPost2010Prop49
280
     0
102
RTVSPost2010PropOp49
 70
     1
102
RTVSPost2010Prop50
 90
       50
102
RTVSPost2010PropOp50
 70
     1
102
RTVSPost2010Prop51ColorIndex
 90
      256
102
RTVSPost2010Prop51ColorRGB
 90
-16777216
102
RTVSPost2010PropOp51
 70
     0
102
RTVSPost2010Prop52
140
1.0
102
RTVSPost2010PropOp52
 70
     0
102
RTVSPost2010Prop53
 90
        2
102
RTVSPost2010PropOp53
 70
     1
102
RTVSPost2010Prop54
  1
strokes_ogs.tif
102
RTVSPost2010PropOp54
 70
     1
102
RTVSPost2010Prop55
280
     0
102
RTVSPost2010PropOp55
 70
     1
102
RTVSPost2010Prop56
140
1.0
102
RTVSPost2010PropOp56
 70
     1
102
RTVSPost2010Prop57
140
1.0
102
RTVSPost2010PropOp57
 70
     1
102
RTVSPropertyOp0
 70
     1
102
RTVSPropertyOp1
 70
     1
102
RTVSPropertyOp2
 70
     1
102
RTVSPropertyOp3
 70
     1
102
RTVSPropertyOp4
 70
     1
102
RTVSPropertyOp5
 70
     1
102
RTVSPropertyOp6
 70
     1
102
RTVSPropertyOp7
 70
     1
102
RTVSPropertyOp8
 70
     1
102
RTVSPropertyOp9
 70
     1
102
RTVSPropertyOp10
 70
     1
102
RTVSPropertyOp11
 70
     1
102
RTVSPropertyOp12
 70
     1
102
RTVSPropertyOp13
 70
     1
102
RTVSPropertyOp14
 70
     1
102
RTVSPropertyOp15
 70
     1
102
RTVSPropertyOp16
 70
     1
102
RTVSPropertyOp17
 70
     1
102
RTVSPropertyOp18
 70
     1
102
RTVSPropertyOp19
 70
     1
102
RTVSPropertyOp20
 70
     1
102
RTVSPropertyOp21
 70
     1
102
RTVSPropertyOp22
 70
     1
102
RTVSPropertyOp23
 70
     1
102
RTVSPropertyOp24
 70
     1
102
RTVSPropertyOp25
 70
     1
102
RTVSPropertyOp26
 70
     1
102
RTVSPropertyOp27
 70
     1
102
RTVSPropertyOp28
 70
     1
102
RTVSPropertyOp29
 70
     1
102
RTVSPropertyOp30
 70
     1
102
RTVSPropertyOp31
 70
     1
102
RTVSPropertyOp32
 70
     1
102
RTVSPropertyOp33
 70
     1
102
RTVSPropertyOp34
 70
     1
102
RTVSPropertyOp35
 70
     1
102
RTVSPropertyOp36
 70
     1
102
RTVSPropertyOp37
 70
     1
102
RTVSPropertyOp38
 70
     1
102
RTVSPropertyOp39
 70
     1
102
RTVSPropertyOp40
 70
     1
102
RTVSPropertyOp41
 70
     1
102
RTVSPropertyOp42
 70
     1
102
RTVSPropertyOp43
 70
     1
102
RTVSPropertyOp44
 70
     1
102
RTVSPropertyOp45
 70
     1
102
RTVSPropertyOp46
 70
     1
102
RTVSPropertyOp47
 70
     1
102
RTVSPropertyOp48
 70
     1
102
RTVSPropertyOp49
 70
     1
102
RTVSPropertyOp50
 70
     1
102
RTVSPropertyOp51
 70
     0
102
RTVSPropertyOp52
 70
     0
102
RTVSPropertyOp53
 70
     1
102
RTVSPropertyOp54
 70
     1
102
RTVSPropertyOp55
 70
     1
102
RTVSPropertyOp56
 70
     1
102
RTVSPropertyOp57
 70
     1
102
RTVSPropertyOp58
 70
     1
102
RTVSPropertyOp59
 70
     1
102
RTVSPropertyOp60
 70
     1
102
RTVSPropertyOp61
 70
     1
102
RTVSPropertyOp62
 70
     1
  0
XRECORD
  5
743
102
{ACAD_REACTORS
330
742
102
}
330
742
100
AcDbXrecord
280
     1
102
RTVSPost2010Prop28
280
     0
102
RTVSPost2010PropOp28
 70
     1
102
RTVSPost2010Prop29
280
     1
102
RTVSPost2010PropOp29
 70
     1
102
RTVSPost2010Prop30
280
     1
102
RTVSPost2010PropOp30
 70
     1
102
RTVSPost2010Prop31
280
     0
102
RTVSPost2010PropOp31
 70
     1
102
RTVSPost2010Prop32
280
     0
102
RTVSPost2010PropOp32
 70
     1
102
RTVSPost2010Prop33
280
     0
102
RTVSPost2010PropOp33
 70
     1
102
RTVSPost2010Prop34
280
     0
102
RTVSPost2010PropOp34
 70
     1
102
RTVSPost2010Prop35
280
     0
102
RTVSPost2010PropOp35
 70
     1
102
RTVSPost2010Prop36
280
     0
102
RTVSPost2010PropOp36
 70
     1
102
RTVSPost2010Prop37
 90
       50
102
RTVSPost2010PropOp37
 70
     1
102
RTVSPost2010Prop38
140
0.0
102
RTVSPost2010PropOp38
 70
     1
102
RTVSPost2010Prop39
140
1.0
102
RTVSPost2010PropOp39
 70
     1
102
RTVSPost2010Prop40
 90
        0
102
RTVSPost2010PropOp40
 70
     1
102
RTVSPost2010Prop41ColorIndex
 90
       18
102
RTVSPost2010Prop41ColorRGB
 90
        0
102
RTVSPost2010PropOp41
 70
     1
102
RTVSPost2010Prop42
 90
       50
102
RTVSPost2010PropOp42
 70
     1
102
RTVSPost2010Prop43
 90
        3
102
RTVSPost2010PropOp43
 70
     1
102
RTVSPost2010Prop44ColorIndex
 90
        5
102
RTVSPost2010Prop44ColorRGB
 90
      255
102
RTVSPost2010PropOp44
 70
     1
102
RTVSPost2010Prop45
280
     0
102
RTVSPost2010PropOp45
 70
     1
102
RTVSPost2010Prop46
 90
       50
102
RTVSPost2010PropOp46
 70
     1
102
RTVSPost2010Prop47
 90
       50
102
RTVSPost2010PropOp47
 70
     1
102
RTVSPost2010Prop48
 90
       50
102
RTVSPost2010PropOp48
 70
     1
102
RTVSPost2010Prop49
280
     0
102
RTVSPost2010PropOp49
 70
     1
102
RTVSPost2010Prop50
 90
       50
102
RTVSPost2010PropOp50
 70
     1
102
RTVSPost2010Prop51ColorIndex
 90
      256
102
RTVSPost2010Prop51ColorRGB
 90
-16777216
102
RTVSPost2010PropOp51
 70
     0
102
RTVSPost2010Prop52
140
1.0
102
RTVSPost2010PropOp52
 70
     0
102
RTVSPost2010Prop53
 90
        2
102
RTVSPost2010PropOp53
 70
     1
102
RTVSPost2010Prop54
  1
strokes_ogs.tif
102
RTVSPost2010PropOp54
 70
     1
102
RTVSPost2010Prop55
280
     0
102
RTVSPost2010PropOp55
 70
     1
102
RTVSPost2010Prop56
140
1.0
102
RTVSPost2010PropOp56
 70
     1
102
RTVSPost2010Prop57
140
1.0
102
RTVSPost2010PropOp57
 70
     1
102
RTVSPropertyOp0
 70
     1
102
RTVSPropertyOp1
 70
     1
102
RTVSPropertyOp2
 70
     1
102
RTVSPropertyOp3
 70
     1
102
RTVSPropertyOp4
 70
     1
102
RTVSPropertyOp5
 70
     1
102
RTVSPropertyOp6
 70
     1
102
RTVSPropertyOp7
 70
     1
102
RTVSPropertyOp8
 70
     1
102
RTVSPropertyOp9
 70
     1
102
RTVSPropertyOp10
 70
     1
102
RTVSPropertyOp11
 70
     1
102
RTVSPropertyOp12
 70
     1
102
RTVSPropertyOp13
 70
     1
102
RTVSPropertyOp14
 70
     1
102
RTVSPropertyOp15
 70
     1
102
RTVSPropertyOp16
 70
     1
102
RTVSPropertyOp17
 70
     1
102
RTVSPropertyOp18
 70
     1
102
RTVSPropertyOp19
 70
     1
102
RTVSPropertyOp20
 70
     1
102
RTVSPropertyOp21
 70
     1
102
RTVSPropertyOp22
 70
     1
102
RTVSPropertyOp23
 70
     1
102
RTVSPropertyOp24
 70
     1
102
RTVSPropertyOp25
 70
     1
102
RTVSPropertyOp26
 70
     1
102
RTVSPropertyOp27
 70
     1
102
RTVSPropertyOp28
 70
     1
102
RTVSPropertyOp29
 70
     1
102
RTVSPropertyOp30
 70
     1
102
RTVSPropertyOp31
 70
     1
102
RTVSPropertyOp32
 70
     1
102
RTVSPropertyOp33
 70
     1
102
RTVSPropertyOp34
 70
     1
102
RTVSPropertyOp35
 70
     1
102
RTVSPropertyOp36
 70
     1
102
RTVSPropertyOp37
 70
     1
102
RTVSPropertyOp38
 70
     1
102
RTVSPropertyOp39
 70
     1
102
RTVSPropertyOp40
 70
     1
102
RTVSPropertyOp41
 70
     1
102
RTVSPropertyOp42
 70
     1
102
RTVSPropertyOp43
 70
     1
102
RTVSPropertyOp44
 70
     1
102
RTVSPropertyOp45
 70
     1
102
RTVSPropertyOp46
 70
     1
102
RTVSPropertyOp47
 70
     1
102
RTVSPropertyOp48
 70
     1
102
RTVSPropertyOp49
 70
     1
102
RTVSPropertyOp50
 70
     1
102
RTVSPropertyOp51
 70
     0
102
RTVSPropertyOp52
 70
     0
102
RTVSPropertyOp53
 70
     1
102
RTVSPropertyOp54
 70
     1
102
RTVSPropertyOp55
 70
     1
102
RTVSPropertyOp56
 70
     1
102
RTVSPropertyOp57
 70
     1
102
RTVSPropertyOp58
 70
     1
102
RTVSPropertyOp59
 70
     1
102
RTVSPropertyOp60
 70
     1
102
RTVSPropertyOp61
 70
     1
102
RTVSPropertyOp62
 70
     1
  0
XRECORD
  5
741
102
{ACAD_REACTORS
330
740
102
}
330
740
100
AcDbXrecord
280
     1
102
RTVSPost2010Prop28
280
     0
102
RTVSPost2010PropOp28
 70
     1
102
RTVSPost2010Prop29
280
     1
102
RTVSPost2010PropOp29
 70
     1
102
RTVSPost2010Prop30
280
     1
102
RTVSPost2010PropOp30
 70
     1
102
RTVSPost2010Prop31
280
     0
102
RTVSPost2010PropOp31
 70
     1
102
RTVSPost2010Prop32
280
     0
102
RTVSPost2010PropOp32
 70
     1
102
RTVSPost2010Prop33
280
     0
102
RTVSPost2010PropOp33
 70
     1
102
RTVSPost2010Prop34
280
     0
102
RTVSPost2010PropOp34
 70
     1
102
RTVSPost2010Prop35
280
     0
102
RTVSPost2010PropOp35
 70
     1
102
RTVSPost2010Prop36
280
     0
102
RTVSPost2010PropOp36
 70
     1
102
RTVSPost2010Prop37
 90
       50
102
RTVSPost2010PropOp37
 70
     1
102
RTVSPost2010Prop38
140
0.0
102
RTVSPost2010PropOp38
 70
     1
102
RTVSPost2010Prop39
140
1.0
102
RTVSPost2010PropOp39
 70
     1
102
RTVSPost2010Prop40
 90
        0
102
RTVSPost2010PropOp40
 70
     1
102
RTVSPost2010Prop41ColorIndex
 90
       18
102
RTVSPost2010Prop41ColorRGB
 90
        0
102
RTVSPost2010PropOp41
 70
     1
102
RTVSPost2010Prop42
 90
       50
102
RTVSPost2010PropOp42
 70
     1
102
RTVSPost2010Prop43
 90
        3
102
RTVSPost2010PropOp43
 70
     1
102
RTVSPost2010Prop44ColorIndex
 90
        5
102
RTVSPost2010Prop44ColorRGB
 90
      255
102
RTVSPost2010PropOp44
 70
     1
102
RTVSPost2010Prop45
280
     0
102
RTVSPost2010PropOp45
 70
     1
102
RTVSPost2010Prop46
 90
       50
102
RTVSPost2010PropOp46
 70
     1
102
RTVSPost2010Prop47
 90
       50
102
RTVSPost2010PropOp47
 70
     1
102
RTVSPost2010Prop48
 90
       50
102
RTVSPost2010PropOp48
 70
     1
102
RTVSPost2010Prop49
280
     0
102
RTVSPost2010PropOp49
 70
     1
102
RTVSPost2010Prop50
 90
       50
102
RTVSPost2010PropOp50
 70
     1
102
RTVSPost2010Prop51ColorIndex
 90
      256
102
RTVSPost2010Prop51ColorRGB
 90
-16777216
102
RTVSPost2010PropOp51
 70
     0
102
RTVSPost2010Prop52
140
1.0
102
RTVSPost2010PropOp52
 70
     0
102
RTVSPost2010Prop53
 90
        2
102
RTVSPost2010PropOp53
 70
     1
102
RTVSPost2010Prop54
  1
strokes_ogs.tif
102
RTVSPost2010PropOp54
 70
     1
102
RTVSPost2010Prop55
280
     0
102
RTVSPost2010PropOp55
 70
     1
102
RTVSPost2010Prop56
140
1.0
102
RTVSPost2010PropOp56
 70
     1
102
RTVSPost2010Prop57
140
1.0
102
RTVSPost2010PropOp57
 70
     1
102
RTVSPropertyOp0
 70
     1
102
RTVSPropertyOp1
 70
     1
102
RTVSPropertyOp2
 70
     1
102
RTVSPropertyOp3
 70
     1
102
RTVSPropertyOp4
 70
     1
102
RTVSPropertyOp5
 70
     1
102
RTVSPropertyOp6
 70
     1
102
RTVSPropertyOp7
 70
     1
102
RTVSPropertyOp8
 70
     1
102
RTVSPropertyOp9
 70
     1
102
RTVSPropertyOp10
 70
     1
102
RTVSPropertyOp11
 70
     1
102
RTVSPropertyOp12
 70
     1
102
RTVSPropertyOp13
 70
     1
102
RTVSPropertyOp14
 70
     1
102
RTVSPropertyOp15
 70
     1
102
RTVSPropertyOp16
 70
     1
102
RTVSPropertyOp17
 70
     1
102
RTVSPropertyOp18
 70
     1
102
RTVSPropertyOp19
 70
     1
102
RTVSPropertyOp20
 70
     1
102
RTVSPropertyOp21
 70
     1
102
RTVSPropertyOp22
 70
     1
102
RTVSPropertyOp23
 70
     1
102
RTVSPropertyOp24
 70
     1
102
RTVSPropertyOp25
 70
     1
102
RTVSPropertyOp26
 70
     1
102
RTVSPropertyOp27
 70
     1
102
RTVSPropertyOp28
 70
     1
102
RTVSPropertyOp29
 70
     1
102
RTVSPropertyOp30
 70
     1
102
RTVSPropertyOp31
 70
     1
102
RTVSPropertyOp32
 70
     1
102
RTVSPropertyOp33
 70
     1
102
RTVSPropertyOp34
 70
     1
102
RTVSPropertyOp35
 70
     1
102
RTVSPropertyOp36
 70
     1
102
RTVSPropertyOp37
 70
     1
102
RTVSPropertyOp38
 70
     1
102
RTVSPropertyOp39
 70
     1
102
RTVSPropertyOp40
 70
     1
102
RTVSPropertyOp41
 70
     1
102
RTVSPropertyOp42
 70
     1
102
RTVSPropertyOp43
 70
     1
102
RTVSPropertyOp44
 70
     1
102
RTVSPropertyOp45
 70
     1
102
RTVSPropertyOp46
 70
     1
102
RTVSPropertyOp47
 70
     1
102
RTVSPropertyOp48
 70
     1
102
RTVSPropertyOp49
 70
     1
102
RTVSPropertyOp50
 70
     1
102
RTVSPropertyOp51
 70
     0
102
RTVSPropertyOp52
 70
     0
102
RTVSPropertyOp53
 70
     1
102
RTVSPropertyOp54
 70
     1
102
RTVSPropertyOp55
 70
     1
102
RTVSPropertyOp56
 70
     1
102
RTVSPropertyOp57
 70
     1
102
RTVSPropertyOp58
 70
     1
102
RTVSPropertyOp59
 70
     1
102
RTVSPropertyOp60
 70
     1
102
RTVSPropertyOp61
 70
     1
102
RTVSPropertyOp62
 70
     1
  0
XRECORD
  5
73B
102
{ACAD_REACTORS
330
73A
102
}
330
73A
100
AcDbXrecord
280
     1
102
RTVSPost2010Prop28
280
     0
102
RTVSPost2010PropOp28
 70
     1
102
RTVSPost2010Prop29
280
     1
102
RTVSPost2010PropOp29
 70
     1
102
RTVSPost2010Prop30
280
     1
102
RTVSPost2010PropOp30
 70
     1
102
RTVSPost2010Prop31
280
     0
102
RTVSPost2010PropOp31
 70
     1
102
RTVSPost2010Prop32
280
     0
102
RTVSPost2010PropOp32
 70
     1
102
RTVSPost2010Prop33
280
     0
102
RTVSPost2010PropOp33
 70
     1
102
RTVSPost2010Prop34
280
     0
102
RTVSPost2010PropOp34
 70
     1
102
RTVSPost2010Prop35
280
     0
102
RTVSPost2010PropOp35
 70
     1
102
RTVSPost2010Prop36
280
     0
102
RTVSPost2010PropOp36
 70
     1
102
RTVSPost2010Prop37
 90
       50
102
RTVSPost2010PropOp37
 70
     1
102
RTVSPost2010Prop38
140
0.0
102
RTVSPost2010PropOp38
 70
     1
102
RTVSPost2010Prop39
140
1.0
102
RTVSPost2010PropOp39
 70
     1
102
RTVSPost2010Prop40
 90
        0
102
RTVSPost2010PropOp40
 70
     1
102
RTVSPost2010Prop41ColorIndex
 90
       18
102
RTVSPost2010Prop41ColorRGB
 90
        0
102
RTVSPost2010PropOp41
 70
     1
102
RTVSPost2010Prop42
 90
       50
102
RTVSPost2010PropOp42
 70
     1
102
RTVSPost2010Prop43
 90
        3
102
RTVSPost2010PropOp43
 70
     1
102
RTVSPost2010Prop44ColorIndex
 90
        5
102
RTVSPost2010Prop44ColorRGB
 90
      255
102
RTVSPost2010PropOp44
 70
     1
102
RTVSPost2010Prop45
280
     0
102
RTVSPost2010PropOp45
 70
     1
102
RTVSPost2010Prop46
 90
       50
102
RTVSPost2010PropOp46
 70
     1
102
RTVSPost2010Prop47
 90
       50
102
RTVSPost2010PropOp47
 70
     1
102
RTVSPost2010Prop48
 90
       50
102
RTVSPost2010PropOp48
 70
     1
102
RTVSPost2010Prop49
280
     0
102
RTVSPost2010PropOp49
 70
     1
102
RTVSPost2010Prop50
 90
       50
102
RTVSPost2010PropOp50
 70
     1
102
RTVSPost2010Prop51ColorIndex
 90
      256
102
RTVSPost2010Prop51ColorRGB
 90
-16777216
102
RTVSPost2010PropOp51
 70
     0
102
RTVSPost2010Prop52
140
1.0
102
RTVSPost2010PropOp52
 70
     0
102
RTVSPost2010Prop53
 90
        2
102
RTVSPost2010PropOp53
 70
     1
102
RTVSPost2010Prop54
  1
strokes_ogs.tif
102
RTVSPost2010PropOp54
 70
     1
102
RTVSPost2010Prop55
280
     0
102
RTVSPost2010PropOp55
 70
     1
102
RTVSPost2010Prop56
140
1.0
102
RTVSPost2010PropOp56
 70
     1
102
RTVSPost2010Prop57
140
1.0
102
RTVSPost2010PropOp57
 70
     1
102
RTVSPropertyOp0
 70
     1
102
RTVSPropertyOp1
 70
     1
102
RTVSPropertyOp2
 70
     1
102
RTVSPropertyOp3
 70
     1
102
RTVSPropertyOp4
 70
     1
102
RTVSPropertyOp5
 70
     1
102
RTVSPropertyOp6
 70
     1
102
RTVSPropertyOp7
 70
     1
102
RTVSPropertyOp8
 70
     1
102
RTVSPropertyOp9
 70
     1
102
RTVSPropertyOp10
 70
     1
102
RTVSPropertyOp11
 70
     1
102
RTVSPropertyOp12
 70
     1
102
RTVSPropertyOp13
 70
     1
102
RTVSPropertyOp14
 70
     1
102
RTVSPropertyOp15
 70
     1
102
RTVSPropertyOp16
 70
     1
102
RTVSPropertyOp17
 70
     1
102
RTVSPropertyOp18
 70
     1
102
RTVSPropertyOp19
 70
     1
102
RTVSPropertyOp20
 70
     1
102
RTVSPropertyOp21
 70
     1
102
RTVSPropertyOp22
 70
     1
102
RTVSPropertyOp23
 70
     1
102
RTVSPropertyOp24
 70
     1
102
RTVSPropertyOp25
 70
     1
102
RTVSPropertyOp26
 70
     1
102
RTVSPropertyOp27
 70
     1
102
RTVSPropertyOp28
 70
     1
102
RTVSPropertyOp29
 70
     1
102
RTVSPropertyOp30
 70
     1
102
RTVSPropertyOp31
 70
     1
102
RTVSPropertyOp32
 70
     1
102
RTVSPropertyOp33
 70
     1
102
RTVSPropertyOp34
 70
     1
102
RTVSPropertyOp35
 70
     1
102
RTVSPropertyOp36
 70
     1
102
RTVSPropertyOp37
 70
     1
102
RTVSPropertyOp38
 70
     1
102
RTVSPropertyOp39
 70
     1
102
RTVSPropertyOp40
 70
     1
102
RTVSPropertyOp41
 70
     1
102
RTVSPropertyOp42
 70
     1
102
RTVSPropertyOp43
 70
     1
102
RTVSPropertyOp44
 70
     1
102
RTVSPropertyOp45
 70
     1
102
RTVSPropertyOp46
 70
     1
102
RTVSPropertyOp47
 70
     1
102
RTVSPropertyOp48
 70
     1
102
RTVSPropertyOp49
 70
     1
102
RTVSPropertyOp50
 70
     1
102
RTVSPropertyOp51
 70
     0
102
RTVSPropertyOp52
 70
     0
102
RTVSPropertyOp53
 70
     1
102
RTVSPropertyOp54
 70
     1
102
RTVSPropertyOp55
 70
     1
102
RTVSPropertyOp56
 70
     1
102
RTVSPropertyOp57
 70
     1
102
RTVSPropertyOp58
 70
     1
102
RTVSPropertyOp59
 70
     1
102
RTVSPropertyOp60
 70
     1
102
RTVSPropertyOp61
 70
     1
102
RTVSPropertyOp62
 70
     1
  0
XRECORD
  5
73D
102
{ACAD_REACTORS
330
73C
102
}
330
73C
100
AcDbXrecord
280
     1
102
RTVSPost2010Prop28
280
     0
102
RTVSPost2010PropOp28
 70
     1
102
RTVSPost2010Prop29
280
     1
102
RTVSPost2010PropOp29
 70
     1
102
RTVSPost2010Prop30
280
     1
102
RTVSPost2010PropOp30
 70
     1
102
RTVSPost2010Prop31
280
     0
102
RTVSPost2010PropOp31
 70
     1
102
RTVSPost2010Prop32
280
     0
102
RTVSPost2010PropOp32
 70
     1
102
RTVSPost2010Prop33
280
     0
102
RTVSPost2010PropOp33
 70
     1
102
RTVSPost2010Prop34
280
     0
102
RTVSPost2010PropOp34
 70
     1
102
RTVSPost2010Prop35
280
     0
102
RTVSPost2010PropOp35
 70
     1
102
RTVSPost2010Prop36
280
     0
102
RTVSPost2010PropOp36
 70
     1
102
RTVSPost2010Prop37
 90
       50
102
RTVSPost2010PropOp37
 70
     1
102
RTVSPost2010Prop38
140
0.0
102
RTVSPost2010PropOp38
 70
     1
102
RTVSPost2010Prop39
140
1.0
102
RTVSPost2010PropOp39
 70
     1
102
RTVSPost2010Prop40
 90
        0
102
RTVSPost2010PropOp40
 70
     1
102
RTVSPost2010Prop41ColorIndex
 90
       18
102
RTVSPost2010Prop41ColorRGB
 90
        0
102
RTVSPost2010PropOp41
 70
     1
102
RTVSPost2010Prop42
 90
       50
102
RTVSPost2010PropOp42
 70
     1
102
RTVSPost2010Prop43
 90
        3
102
RTVSPost2010PropOp43
 70
     1
102
RTVSPost2010Prop44ColorIndex
 90
        5
102
RTVSPost2010Prop44ColorRGB
 90
      255
102
RTVSPost2010PropOp44
 70
     1
102
RTVSPost2010Prop45
280
     0
102
RTVSPost2010PropOp45
 70
     1
102
RTVSPost2010Prop46
 90
       50
102
RTVSPost2010PropOp46
 70
     1
102
RTVSPost2010Prop47
 90
       50
102
RTVSPost2010PropOp47
 70
     1
102
RTVSPost2010Prop48
 90
       50
102
RTVSPost2010PropOp48
 70
     1
102
RTVSPost2010Prop49
280
     0
102
RTVSPost2010PropOp49
 70
     1
102
RTVSPost2010Prop50
 90
       50
102
RTVSPost2010PropOp50
 70
     1
102
RTVSPost2010Prop51ColorIndex
 90
      256
102
RTVSPost2010Prop51ColorRGB
 90
-16777216
102
RTVSPost2010PropOp51
 70
     0
102
RTVSPost2010Prop52
140
1.0
102
RTVSPost2010PropOp52
 70
     0
102
RTVSPost2010Prop53
 90
        2
102
RTVSPost2010PropOp53
 70
     1
102
RTVSPost2010Prop54
  1
strokes_ogs.tif
102
RTVSPost2010PropOp54
 70
     1
102
RTVSPost2010Prop55
280
     0
102
RTVSPost2010PropOp55
 70
     1
102
RTVSPost2010Prop56
140
1.0
102
RTVSPost2010PropOp56
 70
     1
102
RTVSPost2010Prop57
140
1.0
102
RTVSPost2010PropOp57
 70
     1
102
RTVSPropertyOp0
 70
     1
102
RTVSPropertyOp1
 70
     1
102
RTVSPropertyOp2
 70
     1
102
RTVSPropertyOp3
 70
     1
102
RTVSPropertyOp4
 70
     1
102
RTVSPropertyOp5
 70
     1
102
RTVSPropertyOp6
 70
     1
102
RTVSPropertyOp7
 70
     1
102
RTVSPropertyOp8
 70
     1
102
RTVSPropertyOp9
 70
     1
102
RTVSPropertyOp10
 70
     1
102
RTVSPropertyOp11
 70
     1
102
RTVSPropertyOp12
 70
     1
102
RTVSPropertyOp13
 70
     1
102
RTVSPropertyOp14
 70
     1
102
RTVSPropertyOp15
 70
     1
102
RTVSPropertyOp16
 70
     1
102
RTVSPropertyOp17
 70
     1
102
RTVSPropertyOp18
 70
     1
102
RTVSPropertyOp19
 70
     1
102
RTVSPropertyOp20
 70
     1
102
RTVSPropertyOp21
 70
     1
102
RTVSPropertyOp22
 70
     1
102
RTVSPropertyOp23
 70
     1
102
RTVSPropertyOp24
 70
     1
102
RTVSPropertyOp25
 70
     1
102
RTVSPropertyOp26
 70
     1
102
RTVSPropertyOp27
 70
     1
102
RTVSPropertyOp28
 70
     1
102
RTVSPropertyOp29
 70
     1
102
RTVSPropertyOp30
 70
     1
102
RTVSPropertyOp31
 70
     1
102
RTVSPropertyOp32
 70
     1
102
RTVSPropertyOp33
 70
     1
102
RTVSPropertyOp34
 70
     1
102
RTVSPropertyOp35
 70
     1
102
RTVSPropertyOp36
 70
     1
102
RTVSPropertyOp37
 70
     1
102
RTVSPropertyOp38
 70
     1
102
RTVSPropertyOp39
 70
     1
102
RTVSPropertyOp40
 70
     1
102
RTVSPropertyOp41
 70
     1
102
RTVSPropertyOp42
 70
     1
102
RTVSPropertyOp43
 70
     1
102
RTVSPropertyOp44
 70
     1
102
RTVSPropertyOp45
 70
     1
102
RTVSPropertyOp46
 70
     1
102
RTVSPropertyOp47
 70
     1
102
RTVSPropertyOp48
 70
     1
102
RTVSPropertyOp49
 70
     1
102
RTVSPropertyOp50
 70
     1
102
RTVSPropertyOp51
 70
     0
102
RTVSPropertyOp52
 70
     0
102
RTVSPropertyOp53
 70
     1
102
RTVSPropertyOp54
 70
     1
102
RTVSPropertyOp55
 70
     1
102
RTVSPropertyOp56
 70
     1
102
RTVSPropertyOp57
 70
     1
102
RTVSPropertyOp58
 70
     1
102
RTVSPropertyOp59
 70
     1
102
RTVSPropertyOp60
 70
     1
102
RTVSPropertyOp61
 70
     1
102
RTVSPropertyOp62
 70
     1
  0
XRECORD
  5
72D
102
{ACAD_REACTORS
330
72C
102
}
330
72C
100
AcDbXrecord
280
     1
102
RTVSPost2010Prop28
280
     0
102
RTVSPost2010PropOp28
 70
     1
102
RTVSPost2010Prop29
280
     1
102
RTVSPost2010PropOp29
 70
     1
102
RTVSPost2010Prop30
280
     1
102
RTVSPost2010PropOp30
 70
     1
102
RTVSPost2010Prop31
280
     0
102
RTVSPost2010PropOp31
 70
     1
102
RTVSPost2010Prop32
280
     0
102
RTVSPost2010PropOp32
 70
     1
102
RTVSPost2010Prop33
280
     0
102
RTVSPost2010PropOp33
 70
     1
102
RTVSPost2010Prop34
280
     0
102
RTVSPost2010PropOp34
 70
     1
102
RTVSPost2010Prop35
280
     0
102
RTVSPost2010PropOp35
 70
     1
102
RTVSPost2010Prop36
280
     0
102
RTVSPost2010PropOp36
 70
     1
102
RTVSPost2010Prop37
 90
       50
102
RTVSPost2010PropOp37
 70
     1
102
RTVSPost2010Prop38
140
0.0
102
RTVSPost2010PropOp38
 70
     1
102
RTVSPost2010Prop39
140
1.0
102
RTVSPost2010PropOp39
 70
     1
102
RTVSPost2010Prop40
 90
        0
102
RTVSPost2010PropOp40
 70
     1
102
RTVSPost2010Prop41ColorIndex
 90
       18
102
RTVSPost2010Prop41ColorRGB
 90
        0
102
RTVSPost2010PropOp41
 70
     1
102
RTVSPost2010Prop42
 90
       50
102
RTVSPost2010PropOp42
 70
     1
102
RTVSPost2010Prop43
 90
        3
102
RTVSPost2010PropOp43
 70
     1
102
RTVSPost2010Prop44ColorIndex
 90
        5
102
RTVSPost2010Prop44ColorRGB
 90
      255
102
RTVSPost2010PropOp44
 70
     1
102
RTVSPost2010Prop45
280
     0
102
RTVSPost2010PropOp45
 70
     1
102
RTVSPost2010Prop46
 90
       50
102
RTVSPost2010PropOp46
 70
     1
102
RTVSPost2010Prop47
 90
       50
102
RTVSPost2010PropOp47
 70
     1
102
RTVSPost2010Prop48
 90
       50
102
RTVSPost2010PropOp48
 70
     1
102
RTVSPost2010Prop49
280
     0
102
RTVSPost2010PropOp49
 70
     1
102
RTVSPost2010Prop50
 90
       50
102
RTVSPost2010PropOp50
 70
     1
102
RTVSPost2010Prop51ColorIndex
 90
      256
102
RTVSPost2010Prop51ColorRGB
 90
-16777216
102
RTVSPost2010PropOp51
 70
     0
102
RTVSPost2010Prop52
140
1.0
102
RTVSPost2010PropOp52
 70
     0
102
RTVSPost2010Prop53
 90
        2
102
RTVSPost2010PropOp53
 70
     1
102
RTVSPost2010Prop54
  1
strokes_ogs.tif
102
RTVSPost2010PropOp54
 70
     1
102
RTVSPost2010Prop55
280
     0
102
RTVSPost2010PropOp55
 70
     1
102
RTVSPost2010Prop56
140
1.0
102
RTVSPost2010PropOp56
 70
     1
102
RTVSPost2010Prop57
140
1.0
102
RTVSPost2010PropOp57
 70
     1
102
RTVSPropertyOp0
 70
     1
102
RTVSPropertyOp1
 70
     1
102
RTVSPropertyOp2
 70
     1
102
RTVSPropertyOp3
 70
     1
102
RTVSPropertyOp4
 70
     1
102
RTVSPropertyOp5
 70
     1
102
RTVSPropertyOp6
 70
     1
102
RTVSPropertyOp7
 70
     1
102
RTVSPropertyOp8
 70
     1
102
RTVSPropertyOp9
 70
     1
102
RTVSPropertyOp10
 70
     1
102
RTVSPropertyOp11
 70
     1
102
RTVSPropertyOp12
 70
     1
102
RTVSPropertyOp13
 70
     1
102
RTVSPropertyOp14
 70
     1
102
RTVSPropertyOp15
 70
     1
102
RTVSPropertyOp16
 70
     1
102
RTVSPropertyOp17
 70
     1
102
RTVSPropertyOp18
 70
     1
102
RTVSPropertyOp19
 70
     1
102
RTVSPropertyOp20
 70
     1
102
RTVSPropertyOp21
 70
     1
102
RTVSPropertyOp22
 70
     1
102
RTVSPropertyOp23
 70
     1
102
RTVSPropertyOp24
 70
     1
102
RTVSPropertyOp25
 70
     1
102
RTVSPropertyOp26
 70
     1
102
RTVSPropertyOp27
 70
     1
102
RTVSPropertyOp28
 70
     1
102
RTVSPropertyOp29
 70
     1
102
RTVSPropertyOp30
 70
     1
102
RTVSPropertyOp31
 70
     1
102
RTVSPropertyOp32
 70
     1
102
RTVSPropertyOp33
 70
     1
102
RTVSPropertyOp34
 70
     1
102
RTVSPropertyOp35
 70
     1
102
RTVSPropertyOp36
 70
     1
102
RTVSPropertyOp37
 70
     1
102
RTVSPropertyOp38
 70
     1
102
RTVSPropertyOp39
 70
     1
102
RTVSPropertyOp40
 70
     1
102
RTVSPropertyOp41
 70
     1
102
RTVSPropertyOp42
 70
     1
102
RTVSPropertyOp43
 70
     1
102
RTVSPropertyOp44
 70
     1
102
RTVSPropertyOp45
 70
     1
102
RTVSPropertyOp46
 70
     1
102
RTVSPropertyOp47
 70
     1
102
RTVSPropertyOp48
 70
     1
102
RTVSPropertyOp49
 70
     1
102
RTVSPropertyOp50
 70
     1
102
RTVSPropertyOp51
 70
     0
102
RTVSPropertyOp52
 70
     0
102
RTVSPropertyOp53
 70
     1
102
RTVSPropertyOp54
 70
     1
102
RTVSPropertyOp55
 70
     1
102
RTVSPropertyOp56
 70
     1
102
RTVSPropertyOp57
 70
     1
102
RTVSPropertyOp58
 70
     1
102
RTVSPropertyOp59
 70
     1
102
RTVSPropertyOp60
 70
     1
102
RTVSPropertyOp61
 70
     1
102
RTVSPropertyOp62
 70
     1
  0
XRECORD
  5
71F
102
{ACAD_REACTORS
330
71E
102
}
330
71E
100
AcDbXrecord
280
     1
102
RTVSPost2010Prop28
280
     0
102
RTVSPost2010PropOp28
 70
     1
102
RTVSPost2010Prop29
280
     1
102
RTVSPost2010PropOp29
 70
     1
102
RTVSPost2010Prop30
280
     1
102
RTVSPost2010PropOp30
 70
     1
102
RTVSPost2010Prop31
280
     0
102
RTVSPost2010PropOp31
 70
     1
102
RTVSPost2010Prop32
280
     0
102
RTVSPost2010PropOp32
 70
     1
102
RTVSPost2010Prop33
280
     0
102
RTVSPost2010PropOp33
 70
     1
102
RTVSPost2010Prop34
280
     0
102
RTVSPost2010PropOp34
 70
     1
102
RTVSPost2010Prop35
280
     0
102
RTVSPost2010PropOp35
 70
     1
102
RTVSPost2010Prop36
280
     0
102
RTVSPost2010PropOp36
 70
     1
102
RTVSPost2010Prop37
 90
       50
102
RTVSPost2010PropOp37
 70
     1
102
RTVSPost2010Prop38
140
0.0
102
RTVSPost2010PropOp38
 70
     1
102
RTVSPost2010Prop39
140
1.0
102
RTVSPost2010PropOp39
 70
     1
102
RTVSPost2010Prop40
 90
        0
102
RTVSPost2010PropOp40
 70
     1
102
RTVSPost2010Prop41ColorIndex
 90
       18
102
RTVSPost2010Prop41ColorRGB
 90
        0
102
RTVSPost2010PropOp41
 70
     1
102
RTVSPost2010Prop42
 90
       50
102
RTVSPost2010PropOp42
 70
     1
102
RTVSPost2010Prop43
 90
        3
102
RTVSPost2010PropOp43
 70
     1
102
RTVSPost2010Prop44ColorIndex
 90
        5
102
RTVSPost2010Prop44ColorRGB
 90
      255
102
RTVSPost2010PropOp44
 70
     1
102
RTVSPost2010Prop45
280
     0
102
RTVSPost2010PropOp45
 70
     1
102
RTVSPost2010Prop46
 90
       50
102
RTVSPost2010PropOp46
 70
     1
102
RTVSPost2010Prop47
 90
       50
102
RTVSPost2010PropOp47
 70
     1
102
RTVSPost2010Prop48
 90
       50
102
RTVSPost2010PropOp48
 70
     1
102
RTVSPost2010Prop49
280
     0
102
RTVSPost2010PropOp49
 70
     1
102
RTVSPost2010Prop50
 90
       50
102
RTVSPost2010PropOp50
 70
     1
102
RTVSPost2010Prop51ColorIndex
 90
      256
102
RTVSPost2010Prop51ColorRGB
 90
-16777216
102
RTVSPost2010PropOp51
 70
     0
102
RTVSPost2010Prop52
140
1.0
102
RTVSPost2010PropOp52
 70
     0
102
RTVSPost2010Prop53
 90
        2
102
RTVSPost2010PropOp53
 70
     1
102
RTVSPost2010Prop54
  1
strokes_ogs.tif
102
RTVSPost2010PropOp54
 70
     1
102
RTVSPost2010Prop55
280
     0
102
RTVSPost2010PropOp55
 70
     1
102
RTVSPost2010Prop56
140
1.0
102
RTVSPost2010PropOp56
 70
     1
102
RTVSPost2010Prop57
140
1.0
102
RTVSPost2010PropOp57
 70
     1
102
RTVSPropertyOp0
 70
     1
102
RTVSPropertyOp1
 70
     1
102
RTVSPropertyOp2
 70
     1
102
RTVSPropertyOp3
 70
     1
102
RTVSPropertyOp4
 70
     1
102
RTVSPropertyOp5
 70
     1
102
RTVSPropertyOp6
 70
     1
102
RTVSPropertyOp7
 70
     1
102
RTVSPropertyOp8
 70
     1
102
RTVSPropertyOp9
 70
     1
102
RTVSPropertyOp10
 70
     1
102
RTVSPropertyOp11
 70
     1
102
RTVSPropertyOp12
 70
     1
102
RTVSPropertyOp13
 70
     1
102
RTVSPropertyOp14
 70
     1
102
RTVSPropertyOp15
 70
     1
102
RTVSPropertyOp16
 70
     1
102
RTVSPropertyOp17
 70
     1
102
RTVSPropertyOp18
 70
     1
102
RTVSPropertyOp19
 70
     1
102
RTVSPropertyOp20
 70
     1
102
RTVSPropertyOp21
 70
     1
102
RTVSPropertyOp22
 70
     1
102
RTVSPropertyOp23
 70
     1
102
RTVSPropertyOp24
 70
     1
102
RTVSPropertyOp25
 70
     1
102
RTVSPropertyOp26
 70
     1
102
RTVSPropertyOp27
 70
     1
102
RTVSPropertyOp28
 70
     1
102
RTVSPropertyOp29
 70
     1
102
RTVSPropertyOp30
 70
     1
102
RTVSPropertyOp31
 70
     1
102
RTVSPropertyOp32
 70
     1
102
RTVSPropertyOp33
 70
     1
102
RTVSPropertyOp34
 70
     1
102
RTVSPropertyOp35
 70
     1
102
RTVSPropertyOp36
 70
     1
102
RTVSPropertyOp37
 70
     1
102
RTVSPropertyOp38
 70
     1
102
RTVSPropertyOp39
 70
     1
102
RTVSPropertyOp40
 70
     1
102
RTVSPropertyOp41
 70
     1
102
RTVSPropertyOp42
 70
     1
102
RTVSPropertyOp43
 70
     1
102
RTVSPropertyOp44
 70
     1
102
RTVSPropertyOp45
 70
     1
102
RTVSPropertyOp46
 70
     1
102
RTVSPropertyOp47
 70
     1
102
RTVSPropertyOp48
 70
     1
102
RTVSPropertyOp49
 70
     1
102
RTVSPropertyOp50
 70
     1
102
RTVSPropertyOp51
 70
     0
102
RTVSPropertyOp52
 70
     0
102
RTVSPropertyOp53
 70
     1
102
RTVSPropertyOp54
 70
     1
102
RTVSPropertyOp55
 70
     1
102
RTVSPropertyOp56
 70
     1
102
RTVSPropertyOp57
 70
     1
102
RTVSPropertyOp58
 70
     1
102
RTVSPropertyOp59
 70
     1
102
RTVSPropertyOp60
 70
     1
102
RTVSPropertyOp61
 70
     1
102
RTVSPropertyOp62
 70
     1
  0
XRECORD
  5
73F
102
{ACAD_REACTORS
330
73E
102
}
330
73E
100
AcDbXrecord
280
     1
102
RTVSPost2010Prop28
280
     0
102
RTVSPost2010PropOp28
 70
     1
102
RTVSPost2010Prop29
280
     1
102
RTVSPost2010PropOp29
 70
     1
102
RTVSPost2010Prop30
280
     1
102
RTVSPost2010PropOp30
 70
     1
102
RTVSPost2010Prop31
280
     0
102
RTVSPost2010PropOp31
 70
     1
102
RTVSPost2010Prop32
280
     0
102
RTVSPost2010PropOp32
 70
     1
102
RTVSPost2010Prop33
280
     0
102
RTVSPost2010PropOp33
 70
     1
102
RTVSPost2010Prop34
280
     0
102
RTVSPost2010PropOp34
 70
     1
102
RTVSPost2010Prop35
280
     0
102
RTVSPost2010PropOp35
 70
     1
102
RTVSPost2010Prop36
280
     0
102
RTVSPost2010PropOp36
 70
     1
102
RTVSPost2010Prop37
 90
       50
102
RTVSPost2010PropOp37
 70
     1
102
RTVSPost2010Prop38
140
0.0
102
RTVSPost2010PropOp38
 70
     1
102
RTVSPost2010Prop39
140
1.0
102
RTVSPost2010PropOp39
 70
     1
102
RTVSPost2010Prop40
 90
        0
102
RTVSPost2010PropOp40
 70
     1
102
RTVSPost2010Prop41ColorIndex
 90
       18
102
RTVSPost2010Prop41ColorRGB
 90
        0
102
RTVSPost2010PropOp41
 70
     1
102
RTVSPost2010Prop42
 90
       50
102
RTVSPost2010PropOp42
 70
     1
102
RTVSPost2010Prop43
 90
        3
102
RTVSPost2010PropOp43
 70
     1
102
RTVSPost2010Prop44ColorIndex
 90
        5
102
RTVSPost2010Prop44ColorRGB
 90
      255
102
RTVSPost2010PropOp44
 70
     1
102
RTVSPost2010Prop45
280
     0
102
RTVSPost2010PropOp45
 70
     1
102
RTVSPost2010Prop46
 90
       50
102
RTVSPost2010PropOp46
 70
     1
102
RTVSPost2010Prop47
 90
       50
102
RTVSPost2010PropOp47
 70
     1
102
RTVSPost2010Prop48
 90
       50
102
RTVSPost2010PropOp48
 70
     1
102
RTVSPost2010Prop49
280
     0
102
RTVSPost2010PropOp49
 70
     1
102
RTVSPost2010Prop50
 90
       50
102
RTVSPost2010PropOp50
 70
     1
102
RTVSPost2010Prop51ColorIndex
 90
      256
102
RTVSPost2010Prop51ColorRGB
 90
-16777216
102
RTVSPost2010PropOp51
 70
     0
102
RTVSPost2010Prop52
140
1.0
102
RTVSPost2010PropOp52
 70
     0
102
RTVSPost2010Prop53
 90
        2
102
RTVSPost2010PropOp53
 70
     1
102
RTVSPost2010Prop54
  1
strokes_ogs.tif
102
RTVSPost2010PropOp54
 70
     1
102
RTVSPost2010Prop55
280
     0
102
RTVSPost2010PropOp55
 70
     1
102
RTVSPost2010Prop56
140
1.0
102
RTVSPost2010PropOp56
 70
     1
102
RTVSPost2010Prop57
140
1.0
102
RTVSPost2010PropOp57
 70
     1
102
RTVSPropertyOp0
 70
     1
102
RTVSPropertyOp1
 70
     1
102
RTVSPropertyOp2
 70
     1
102
RTVSPropertyOp3
 70
     1
102
RTVSPropertyOp4
 70
     1
102
RTVSPropertyOp5
 70
     1
102
RTVSPropertyOp6
 70
     1
102
RTVSPropertyOp7
 70
     1
102
RTVSPropertyOp8
 70
     1
102
RTVSPropertyOp9
 70
     1
102
RTVSPropertyOp10
 70
     1
102
RTVSPropertyOp11
 70
     1
102
RTVSPropertyOp12
 70
     1
102
RTVSPropertyOp13
 70
     1
102
RTVSPropertyOp14
 70
     1
102
RTVSPropertyOp15
 70
     1
102
RTVSPropertyOp16
 70
     1
102
RTVSPropertyOp17
 70
     1
102
RTVSPropertyOp18
 70
     1
102
RTVSPropertyOp19
 70
     1
102
RTVSPropertyOp20
 70
     1
102
RTVSPropertyOp21
 70
     1
102
RTVSPropertyOp22
 70
     1
102
RTVSPropertyOp23
 70
     1
102
RTVSPropertyOp24
 70
     1
102
RTVSPropertyOp25
 70
     1
102
RTVSPropertyOp26
 70
     1
102
RTVSPropertyOp27
 70
     1
102
RTVSPropertyOp28
 70
     1
102
RTVSPropertyOp29
 70
     1
102
RTVSPropertyOp30
 70
     1
102
RTVSPropertyOp31
 70
     1
102
RTVSPropertyOp32
 70
     1
102
RTVSPropertyOp33
 70
     1
102
RTVSPropertyOp34
 70
     1
102
RTVSPropertyOp35
 70
     1
102
RTVSPropertyOp36
 70
     1
102
RTVSPropertyOp37
 70
     1
102
RTVSPropertyOp38
 70
     1
102
RTVSPropertyOp39
 70
     1
102
RTVSPropertyOp40
 70
     1
102
RTVSPropertyOp41
 70
     1
102
RTVSPropertyOp42
 70
     1
102
RTVSPropertyOp43
 70
     1
102
RTVSPropertyOp44
 70
     1
102
RTVSPropertyOp45
 70
     1
102
RTVSPropertyOp46
 70
     1
102
RTVSPropertyOp47
 70
     1
102
RTVSPropertyOp48
 70
     1
102
RTVSPropertyOp49
 70
     1
102
RTVSPropertyOp50
 70
     1
102
RTVSPropertyOp51
 70
     0
102
RTVSPropertyOp52
 70
     0
102
RTVSPropertyOp53
 70
     1
102
RTVSPropertyOp54
 70
     1
102
RTVSPropertyOp55
 70
     1
102
RTVSPropertyOp56
 70
     1
102
RTVSPropertyOp57
 70
     1
102
RTVSPropertyOp58
 70
     1
102
RTVSPropertyOp59
 70
     1
102
RTVSPropertyOp60
 70
     1
102
RTVSPropertyOp61
 70
     1
102
RTVSPropertyOp62
 70
     1
  0
ENDSEC
  0
EOF
