  0
SECTION
  2
HEADER
  9
$ACADVER
  1
AC1015
  9
$ACADMAINTVER
 70
    20
  9
$DWGCODEPAGE
  3
ANSI_932
  9
$INSBASE
 10
0.0
 20
0.0
 30
0.0
  9
$EXTMIN
 10
23.78420618696953
 20
-0.6780632475413313
 30
0.0
  9
$EXTMAX
 10
1244.829111287121
 20
891.4064359846086
 30
0.0
  9
$LIMMIN
 10
-672.5873928070067
 20
-428.9997596740723
  9
$LIMMAX
 10
640.3267936706542
 20
653.3323936462402
  9
$ORTHOMODE
 70
     1
  9
$REGENMODE
 70
     1
  9
$FILLMODE
 70
     1
  9
$QTEXTMODE
 70
     0
  9
$MIRRTEXT
 70
     1
  9
$LTSCALE
 40
0.6249686974552985
  9
$ATTMODE
 70
     1
  9
$TEXTSIZE
 40
2.5
  9
$TRACEWID
 40
1.0
  9
$TEXTSTYLE
  7
Standard
  9
$CLAYER
  8
実線
  9
$CELTYPE
  6
ByLayer
  9
$CECOLOR
 62
   256
  9
$CELTSCALE
 40
1.0
  9
$DISPSILH
 70
     0
  9
$DIMSCALE
 40
1.0
  9
$DIMASZ
 40
2.5
  9
$DIMEXO
 40
0.625
  9
$DIMDLI
 40
3.75
  9
$DIMRND
 40
0.0
  9
$DIMDLE
 40
0.0
  9
$DIMEXE
 40
1.25
  9
$DIMTP
 40
0.0
  9
$DIMTM
 40
0.0
  9
$DIMTXT
 40
2.5
  9
$DIMCEN
 40
2.5
  9
$DIMTSZ
 40
0.0
  9
$DIMTOL
 70
     0
  9
$DIMLIM
 70
     0
  9
$DIMTIH
 70
     0
  9
$DIMTOH
 70
     0
  9
$DIMSE1
 70
     0
  9
$DIMSE2
 70
     0
  9
$DIMTAD
 70
     1
  9
$DIMZIN
 70
     0
  9
$DIMBLK
  1

  9
$DIMASO
 70
     1
  9
$DIMSHO
 70
     1
  9
$DIMPOST
  1

  9
$DIMAPOST
  1

  9
$DIMALT
 70
     0
  9
$DIMALTD
 70
     3
  9
$DIMALTF
 40
0.03937007874016
  9
$DIMLFAC
 40
1.0
  9
$DIMTOFL
 70
     1
  9
$DIMTVP
 40
0.0
  9
$DIMTIX
 70
     0
  9
$DIMSOXD
 70
     0
  9
$DIMSAH
 70
     0
  9
$DIMBLK1
  1

  9
$DIMBLK2
  1

  9
$DIMSTYLE
  2
Standard
  9
$DIMCLRD
 70
     0
  9
$DIMCLRE
 70
     0
  9
$DIMCLRT
 70
     0
  9
$DIMTFAC
 40
0.75
  9
$DIMGAP
 40
0.625
  9
$DIMJUST
 70
     0
  9
$DIMSD1
 70
     0
  9
$DIMSD2
 70
     0
  9
$DIMTOLJ
 70
     0
  9
$DIMTZIN
 70
     8
  9
$DIMALTZ
 70
     0
  9
$DIMALTTZ
 70
     0
  9
$DIMUPT
 70
     0
  9
$DIMDEC
 70
     2
  9
$DIMTDEC
 70
     2
  9
$DIMALTU
 70
     2
  9
$DIMALTTD
 70
     3
  9
$DIMTXSTY
  7
Standard
  9
$DIMAUNIT
 70
     0
  9
$DIMADEC
 70
     0
  9
$DIMALTRND
 40
0.0
  9
$DIMAZIN
 70
     0
  9
$DIMDSEP
 70
    46
  9
$DIMATFIT
 70
     3
  9
$DIMFRAC
 70
     0
  9
$DIMLDRBLK
  1

  9
$DIMLUNIT
 70
     2
  9
$DIMLWD
 70
    -2
  9
$DIMLWE
 70
    -2
  9
$DIMTMOVE
 70
     0
  9
$LUNITS
 70
     2
  9
$LUPREC
 70
     4
  9
$SKETCHINC
 40
1.0
  9
$FILLETRAD
 40
0.0
  9
$AUNITS
 70
     0
  9
$AUPREC
 70
     0
  9
$MENU
  1
.
  9
$ELEVATION
 40
0.0
  9
$PELEVATION
 40
0.0
  9
$THICKNESS
 40
0.0
  9
$LIMCHECK
 70
     0
  9
$CHAMFERA
 40
10.0
  9
$CHAMFERB
 40
10.0
  9
$CHAMFERC
 40
20.0
  9
$CHAMFERD
 40
0.0
  9
$SKPOLY
 70
     0
  9
$TDCREATE
 40
2455188.750000000
  9
$TDUCREATE
 40
2455188.375000000
  9
$TDUPDATE
 40
2459747.398697003
  9
$TDUUPDATE
 40
2459747.023697003
  9
$TDINDWG
 40
0.0070538657
  9
$TDUSRTIMER
 40
0.0070534838
  9
$USRTIMER
 70
     1
  9
$ANGBASE
 50
0.0
  9
$ANGDIR
 70
     0
  9
$PDMODE
 70
     0
  9
$PDSIZE
 40
0.0
  9
$PLINEWID
 40
0.0
  9
$SPLFRAME
 70
     0
  9
$SPLINETYPE
 70
     6
  9
$SPLINESEGS
 70
     8
  9
$HANDSEED
  5
704
  9
$SURFTAB1
 70
     6
  9
$SURFTAB2
 70
     6
  9
$SURFTYPE
 70
     6
  9
$SURFU
 70
     6
  9
$SURFV
 70
     6
  9
$UCSBASE
  2

  9
$UCSNAME
  2

  9
$UCSORG
 10
0.0
 20
0.0
 30
0.0
  9
$UCSXDIR
 10
1.0
 20
0.0
 30
0.0
  9
$UCSYDIR
 10
0.0
 20
1.0
 30
0.0
  9
$UCSORTHOREF
  2

  9
$UCSORTHOVIEW
 70
     0
  9
$UCSORGTOP
 10
0.0
 20
0.0
 30
0.0
  9
$UCSORGBOTTOM
 10
0.0
 20
0.0
 30
0.0
  9
$UCSORGLEFT
 10
0.0
 20
0.0
 30
0.0
  9
$UCSORGRIGHT
 10
0.0
 20
0.0
 30
0.0
  9
$UCSORGFRONT
 10
0.0
 20
0.0
 30
0.0
  9
$UCSORGBACK
 10
0.0
 20
0.0
 30
0.0
  9
$PUCSBASE
  2

  9
$PUCSNAME
  2

  9
$PUCSORG
 10
0.0
 20
0.0
 30
0.0
  9
$PUCSXDIR
 10
1.0
 20
0.0
 30
0.0
  9
$PUCSYDIR
 10
0.0
 20
1.0
 30
0.0
  9
$PUCSORTHOREF
  2

  9
$PUCSORTHOVIEW
 70
     0
  9
$PUCSORGTOP
 10
0.0
 20
0.0
 30
0.0
  9
$PUCSORGBOTTOM
 10
0.0
 20
0.0
 30
0.0
  9
$PUCSORGLEFT
 10
0.0
 20
0.0
 30
0.0
  9
$PUCSORGRIGHT
 10
0.0
 20
0.0
 30
0.0
  9
$PUCSORGFRONT
 10
0.0
 20
0.0
 30
0.0
  9
$PUCSORGBACK
 10
0.0
 20
0.0
 30
0.0
  9
$USERI1
 70
     0
  9
$USERI2
 70
     0
  9
$USERI3
 70
     0
  9
$USERI4
 70
     0
  9
$USERI5
 70
     0
  9
$USERR1
 40
0.0
  9
$USERR2
 40
0.0
  9
$USERR3
 40
0.0
  9
$USERR4
 40
0.0
  9
$USERR5
 40
0.0
  9
$WORLDVIEW
 70
     1
  9
$SHADEDGE
 70
     3
  9
$SHADEDIF
 70
    70
  9
$TILEMODE
 70
     1
  9
$MAXACTVP
 70
    64
  9
$PINSBASE
 10
0.0
 20
0.0
 30
0.0
  9
$PLIMCHECK
 70
     0
  9
$PEXTMIN
 10
1.000000000000000E+20
 20
1.000000000000000E+20
 30
1.000000000000000E+20
  9
$PEXTMAX
 10
-1.000000000000000E+20
 20
-1.000000000000000E+20
 30
-1.000000000000000E+20
  9
$PLIMMIN
 10
0.0
 20
0.0
  9
$PLIMMAX
 10
420.0
 20
297.0
  9
$UNITMODE
 70
     0
  9
$VISRETAIN
 70
     1
  9
$PLINEGEN
 70
     0
  9
$PSLTSCALE
 70
     1
  9
$TREEDEPTH
 70
  3020
  9
$CMLSTYLE
  2
Standard
  9
$CMLJUST
 70
     0
  9
$CMLSCALE
 40
20.0
  9
$PROXYGRAPHICS
 70
     1
  9
$MEASUREMENT
 70
     1
  9
$CELWEIGHT
370
    -1
  9
$ENDCAPS
280
     0
  9
$JOINSTYLE
280
     0
  9
$LWDISPLAY
290
     0
  9
$INSUNITS
 70
     4
  9
$HYPERLINKBASE
  1

  9
$STYLESHEET
  1

  9
$XEDIT
290
     1
  9
$CEPSNTYPE
380
     0
  9
$PSTYLEMODE
290
     1
  9
$FINGERPRINTGUID
  2
{CEE5D4A5-C57E-4E27-AA51-AEE99E1FB102}
  9
$VERSIONGUID
  2
{3C83D167-E142-42D2-B993-BE755EFFCFA4}
  9
$EXTNAMES
290
     1
  9
$PSVPSCALE
 40
0.0
  9
$OLESTARTUP
290
     0
  0
ENDSEC
  0
SECTION
  2
CLASSES
  0
CLASS
  1
ACDBDICTIONARYWDFLT
  2
AcDbDictionaryWithDefault
  3
ObjectDBX Classes
 90
        0
280
     0
281
     0
  0
CLASS
  1
VISUALSTYLE
  2
AcDbVisualStyle
  3
ObjectDBX Classes
 90
     4095
280
     0
281
     0
  0
CLASS
  1
MATERIAL
  2
AcDbMaterial
  3
ObjectDBX Classes
 90
     1153
280
     0
281
     0
  0
CLASS
  1
SCALE
  2
AcDbScale
  3
ObjectDBX Classes
 90
     1153
280
     0
281
     0
  0
CLASS
  1
TABLESTYLE
  2
AcDbTableStyle
  3
ObjectDBX Classes
 90
     4095
280
     0
281
     0
  0
CLASS
  1
MLEADERSTYLE
  2
AcDbMLeaderStyle
  3
ACDB_MLEADERSTYLE_CLASS
 90
     4095
280
     0
281
     0
  0
CLASS
  1
SUN
  2
AcDbSun
  3
SCENEOE
 90
    33921
280
     0
281
     0
  0
CLASS
  1
DICTIONARYVAR
  2
AcDbDictionaryVar
  3
ObjectDBX Classes
 90
        0
280
     0
281
     0
  0
CLASS
  1
ACDBSECTIONVIEWSTYLE
  2
AcDbSectionViewStyle
  3
ObjectDBX Classes
 90
     1025
280
     0
281
     0
  0
CLASS
  1
ACDBDETAILVIEWSTYLE
  2
AcDbDetailViewStyle
  3
ObjectDBX Classes
 90
     1025
280
     0
281
     0
  0
CLASS
  1
SORTENTSTABLE
  2
AcDbSortentsTable
  3
ObjectDBX Classes
 90
        0
280
     0
281
     0
  0
CLASS
  1
CELLSTYLEMAP
  2
AcDbCellStyleMap
  3
ObjectDBX Classes
 90
     1152
280
     0
281
     0
  0
CLASS
  1
ACDBPLACEHOLDER
  2
AcDbPlaceHolder
  3
ObjectDBX Classes
 90
        0
280
     0
281
     0
  0
CLASS
  1
LAYOUT
  2
AcDbLayout
  3
ObjectDBX Classes
 90
        0
280
     0
281
     0
  0
ENDSEC
  0
SECTION
  2
TABLES
  0
TABLE
  2
VPORT
  5
8
330
0
100
AcDbSymbolTable
 70
     1
  0
VPORT
  5
29
330
8
100
AcDbSymbolTableRecord
100
AcDbViewportTableRecord
  2
*Active
 70
     0
 10
0.0
 20
0.0
 11
1.0
 21
1.0
 12
1477.399023321534
 22
166.7838033942798
 13
0.0
 23
0.0
 14
10.0
 24
10.0
 15
10.0
 25
10.0
 16
0.0
 26
0.0
 36
1.0
 17
0.0
 27
0.0
 37
0.0
 40
1926.626219624619
 41
2.204301075268817
 42
50.0
 43
0.0
 44
0.0
 50
0.0
 51
0.0
 71
     0
 72
 20000
 73
     1
 74
     3
 75
     0
 76
     0
 77
     0
 78
     0
281
     0
 65
     1
110
0.0
120
0.0
130
0.0
111
1.0
121
0.0
131
0.0
112
0.0
122
1.0
132
0.0
 79
     0
146
0.0
1001
ACAD_NAV_VCDISPLAY
1070
     3
  0
ENDTAB
  0
TABLE
  2
LTYPE
  5
5
330
0
100
AcDbSymbolTable
 70
     2
  0
LTYPE
  5
14
330
5
100
AcDbSymbolTableRecord
100
AcDbLinetypeTableRecord
  2
ByBlock
 70
     0
  3

 72
    65
 73
     0
 40
0.0
  0
LTYPE
  5
15
330
5
100
AcDbSymbolTableRecord
100
AcDbLinetypeTableRecord
  2
ByLayer
 70
     0
  3

 72
    65
 73
     0
 40
0.0
  0
LTYPE
  5
16
330
5
100
AcDbSymbolTableRecord
100
AcDbLinetypeTableRecord
  2
Continuous
 70
     0
  3
Solid line
 72
    65
 73
     0
 40
0.0
  0
LTYPE
  5
226
330
5
100
AcDbSymbolTableRecord
100
AcDbLinetypeTableRecord
  2
CENTER2
 70
     0
  3
Center (.5x) ___ _ ___ _ ___ _ ___ _ ___ _ ___
 72
    65
 73
     4
 40
28.575
 49
19.05
 74
     0
 49
-3.174999999999998
 74
     0
 49
3.174999999999998
 74
     0
 49
-3.174999999999998
 74
     0
  0
ENDTAB
  0
TABLE
  2
LAYER
  5
2
102
{ACAD_XDICTIONARY
360
22C
102
}
330
0
100
AcDbSymbolTable
 70
     4
  0
LAYER
  5
10
102
{ACAD_XDICTIONARY
360
5ED
102
}
330
2
100
AcDbSymbolTableRecord
100
AcDbLayerTableRecord
  2
0
 70
     0
 62
     7
  6
Continuous
370
    -3
390
F
  0
LAYER
  5
66
330
2
100
AcDbSymbolTableRecord
100
AcDbLayerTableRecord
  2
Defpoints
 70
     0
 62
     7
  6
Continuous
290
     0
370
    -3
390
F
  0
LAYER
  5
227
102
{ACAD_XDICTIONARY
360
228
102
}
330
2
100
AcDbSymbolTableRecord
100
AcDbLayerTableRecord
  2
中心線
 70
     0
 62
     3
  6
CENTER2
370
    -3
390
F
  0
LAYER
  5
229
102
{ACAD_XDICTIONARY
360
22A
102
}
330
2
100
AcDbSymbolTableRecord
100
AcDbLayerTableRecord
  2
実線
 70
     0
 62
     7
  6
Continuous
370
    -3
390
F
  0
ENDTAB
  0
TABLE
  2
STYLE
  5
3
330
0
100
AcDbSymbolTable
 70
     1
  0
STYLE
  5
11
330
3
100
AcDbSymbolTableRecord
100
AcDbTextStyleTableRecord
  2
Standard
 70
     0
 40
0.0
 41
1.0
 50
0.0
 71
     0
 42
2.5
  3
txt
  4
extfont2
  0
ENDTAB
  0
TABLE
  2
VIEW
  5
6
330
0
100
AcDbSymbolTable
 70
     0
  0
ENDTAB
  0
TABLE
  2
UCS
  5
7
330
0
100
AcDbSymbolTable
 70
     0
  0
ENDTAB
  0
TABLE
  2
APPID
  5
9
330
0
100
AcDbSymbolTable
 70
     4
  0
APPID
  5
12
330
9
100
AcDbSymbolTableRecord
100
AcDbRegAppTableRecord
  2
ACAD
 70
     0
  0
APPID
  5
216
330
9
100
AcDbSymbolTableRecord
100
AcDbRegAppTableRecord
  2
ACAD_MLEADERVER
 70
     0
  0
APPID
  5
22B
330
9
100
AcDbSymbolTableRecord
100
AcDbRegAppTableRecord
  2
ACAD_NAV_VCDISPLAY
 70
     0
  0
APPID
  5
5DD
330
9
100
AcDbSymbolTableRecord
100
AcDbRegAppTableRecord
  2
ACAD_EXEMPT_FROM_CAD_STANDARDS
 70
     0
  0
ENDTAB
  0
TABLE
  2
DIMSTYLE
  5
A
330
0
100
AcDbSymbolTable
 70
     1
100
AcDbDimStyleTable
 71
     1
340
27
  0
DIMSTYLE
105
27
330
A
100
AcDbSymbolTableRecord
100
AcDbDimStyleTableRecord
  2
Standard
 70
     0
 41
2.5
 42
0.625
 43
3.75
 44
1.25
 73
     0
 74
     0
 77
     1
140
2.5
141
2.5
143
0.03937007874016
146
0.75
147
0.625
171
     3
172
     1
271
     2
272
     2
274
     3
283
     0
284
     8
340
11
  0
ENDTAB
  0
TABLE
  2
BLOCK_RECORD
  5
1
330
0
100
AcDbSymbolTable
 70
     1
  0
BLOCK_RECORD
  5
1F
102
{ACAD_XDICTIONARY
360
4AC
102
}
330
1
100
AcDbSymbolTableRecord
100
AcDbBlockTableRecord
  2
*Model_Space
340
22
  0
BLOCK_RECORD
  5
1B
330
1
100
AcDbSymbolTableRecord
100
AcDbBlockTableRecord
  2
*Paper_Space
340
1E
  0
BLOCK_RECORD
  5
23
330
1
100
AcDbSymbolTableRecord
100
AcDbBlockTableRecord
  2
*Paper_Space0
340
220
  0
ENDTAB
  0
ENDSEC
  0
SECTION
  2
BLOCKS
  0
BLOCK
  5
20
330
1F
100
AcDbEntity
  8
0
100
AcDbBlockBegin
  2
*Model_Space
 70
     0
 10
0.0
 20
0.0
 30
0.0
  3
*Model_Space
  1

  0
ENDBLK
  5
21
330
1F
100
AcDbEntity
  8
0
100
AcDbBlockEnd
  0
BLOCK
  5
1C
330
1B
100
AcDbEntity
 67
     1
  8
0
100
AcDbBlockBegin
  2
*Paper_Space
 70
     0
 10
0.0
 20
0.0
 30
0.0
  3
*Paper_Space
  1

  0
ENDBLK
  5
1D
330
1B
100
AcDbEntity
 67
     1
  8
0
100
AcDbBlockEnd
  0
BLOCK
  5
24
330
23
100
AcDbEntity
 67
     1
  8
0
100
AcDbBlockBegin
  2
*Paper_Space0
 70
     0
 10
0.0
 20
0.0
 30
0.0
  3
*Paper_Space0
  1

  0
ENDBLK
  5
25
330
23
100
AcDbEntity
 67
     1
  8
0
100
AcDbBlockEnd
  0
ENDSEC
  0
SECTION
  2
ENTITIES
  0
LINE
  5
47E
102
{ACAD_REACTORS
330
5EB
102
}
330
1F
100
AcDbEntity
  8
中心線
100
AcDbLine
 10
78.78420618696953
 20
194.0419328261881
 30
0.0
 11
78.78420618696953
 21
608.5091639083534
 31
0.0
  0
LINE
  5
482
102
{ACAD_REACTORS
330
5EC
102
}
330
1F
100
AcDbEntity
  8
中心線
100
AcDbLine
 10
246.7842061869695
 20
729.0419328261882
 30
0.0
 11
390.7842061869695
 21
729.0419328261882
 31
0.0
  0
LINE
  5
483
102
{ACAD_REACTORS
330
5EC
102
}
330
1F
100
AcDbEntity
  8
中心線
100
AcDbLine
 10
318.7842061869695
 20
674.0419328261882
 30
0.0
 11
318.7842061869695
 21
784.0419328261882
 31
0.0
  0
LINE
  5
484
102
{ACAD_REACTORS
330
5E9
102
}
330
1F
100
AcDbEntity
  8
中心線
100
AcDbLine
 10
246.7842061869695
 20
69.04193282618826
 30
0.0
 11
390.7842061869695
 21
69.04193282618826
 31
0.0
  0
LINE
  5
485
102
{ACAD_REACTORS
330
5E9
102
}
330
1F
100
AcDbEntity
  8
中心線
100
AcDbLine
 10
318.7842061869695
 20
14.04193282618826
 30
0.0
 11
318.7842061869695
 21
124.0419328261882
 31
0.0
  0
LINE
  5
486
102
{ACAD_REACTORS
330
5EB
102
}
330
1F
100
AcDbEntity
  8
中心線
100
AcDbLine
 10
23.78420618696953
 20
249.041932826188
 30
0.0
 11
133.7842061869695
 21
249.041932826188
 31
0.0
  0
LINE
  5
487
102
{ACAD_REACTORS
330
5EA
102
}
330
1F
100
AcDbEntity
  8
中心線
100
AcDbLine
 10
246.7842061869697
 20
249.0419328261882
 30
0.0
 11
390.7842061869698
 21
249.0419328261882
 31
0.0
  0
LINE
  5
488
102
{ACAD_REACTORS
330
5E8
102
}
330
1F
100
AcDbEntity
  8
中心線
100
AcDbLine
 10
503.7842061869694
 20
249.0419328261882
 30
0.0
 11
613.7842061869694
 21
249.0419328261882
 31
0.0
  0
LINE
  5
489
102
{ACAD_REACTORS
330
5E7
102
}
330
1F
100
AcDbEntity
  8
中心線
100
AcDbLine
 10
726.7842061869696
 20
249.041932826188
 30
0.0
 11
870.7842061869696
 21
249.041932826188
 31
0.0
  0
CIRCLE
  5
48A
102
{ACAD_REACTORS
330
5EC
102
}
330
1F
100
AcDbEntity
  8
実線
100
AcDbCircle
 10
318.7842061869695
 20
729.0419328261882
 30
0.0
 40
44.0
  0
CIRCLE
  5
48B
102
{ACAD_REACTORS
330
5EC
102
}
330
1F
100
AcDbEntity
  8
実線
100
AcDbCircle
 10
318.7842061869695
 20
729.0419328261882
 30
0.0
 40
16.5
  0
CIRCLE
  5
48C
102
{ACAD_REACTORS
330
5EC
102
}
330
1F
100
AcDbEntity
  8
実線
100
AcDbCircle
 10
318.7842061869695
 20
729.0419328261882
 30
0.0
 40
42.5
  0
CIRCLE
  5
48D
102
{ACAD_REACTORS
330
5EC
102
}
330
1F
100
AcDbEntity
  8
実線
100
AcDbCircle
 10
318.7842061869695
 20
729.0419328261882
 30
0.0
 40
43.3
  0
LINE
  5
48E
102
{ACAD_REACTORS
330
5EC
102
}
330
1F
100
AcDbEntity
  8
実線
100
AcDbLine
 10
253.8842061869697
 20
709.9919328261882
 30
0.0
 11
272.5554543111079
 21
709.9919328261882
 31
0.0
  0
LINE
  5
48F
102
{ACAD_REACTORS
330
5EC
102
}
330
1F
100
AcDbEntity
  8
実線
100
AcDbLine
 10
272.5554543111079
 20
748.0919328261882
 30
0.0
 11
253.8842061869697
 21
748.0919328261882
 31
0.0
  0
LINE
  5
490
102
{ACAD_REACTORS
330
5EC
102
}
330
1F
100
AcDbEntity
  8
実線
100
AcDbLine
 10
253.8842061869697
 20
748.0919328261882
 30
0.0
 11
251.5342061869695
 21
754.2919328261882
 31
0.0
  0
LINE
  5
491
102
{ACAD_REACTORS
330
5EC
102
}
330
1F
100
AcDbEntity
  8
実線
100
AcDbLine
 10
251.5342061869695
 20
703.7919328261883
 30
0.0
 11
253.8842061869697
 21
709.9919328261882
 31
0.0
  0
LINE
  5
492
102
{ACAD_REACTORS
330
5EC
102
}
330
1F
100
AcDbEntity
  8
実線
100
AcDbLine
 10
253.8842061869697
 20
748.0919328261882
 30
0.0
 11
253.8842061869697
 21
709.9919328261882
 31
0.0
  0
LINE
  5
493
102
{ACAD_REACTORS
330
5EC
102
}
330
1F
100
AcDbEntity
  8
実線
100
AcDbLine
 10
248.7842061869697
 20
703.7919328261883
 30
0.0
 11
251.5342061869695
 21
703.7919328261883
 31
0.0
  0
LINE
  5
494
102
{ACAD_REACTORS
330
5EC
102
}
330
1F
100
AcDbEntity
  8
実線
100
AcDbLine
 10
251.5342061869695
 20
754.2919328261882
 30
0.0
 11
248.7842061869697
 21
754.2919328261882
 31
0.0
  0
LINE
  5
495
102
{ACAD_REACTORS
330
5EC
102
}
330
1F
100
AcDbEntity
  8
実線
100
AcDbLine
 10
248.7842061869697
 20
754.2919328261882
 30
0.0
 11
248.7842061869697
 21
703.7919328261883
 31
0.0
  0
LINE
  5
496
102
{ACAD_REACTORS
330
5EC
102
}
330
1F
100
AcDbEntity
  8
実線
100
AcDbLine
 10
251.5342061869695
 20
754.2919328261882
 30
0.0
 11
251.5342061869695
 21
703.7919328261883
 31
0.0
  0
ARC
  5
497
102
{ACAD_REACTORS
330
5EC
102
}
330
1F
100
AcDbEntity
  8
実線
100
AcDbCircle
 10
318.7842061869705
 20
729.0419328261874
 30
0.0
 40
61.50000000000114
100
AcDbArc
 50
133.2354262571136
 51
136.7645737428892
  0
LINE
  5
498
102
{ACAD_REACTORS
330
5EC
102
}
330
1F
100
AcDbEntity
  8
実線
100
AcDbLine
 10
291.7134305127909
 20
771.079690906256
 30
0.0
 11
286.7254407347058
 21
774.572318949384
 31
0.0
  0
ARC
  5
499
102
{ACAD_REACTORS
330
5EC
102
}
330
1F
100
AcDbEntity
  8
実線
100
AcDbCircle
 10
282.1368292438977
 20
768.019102595072
 30
0.0
 40
8.000000000000008
100
AcDbArc
 50
55.0000000000006
 51
133.2354262571136
  0
ARC
  5
49A
102
{ACAD_REACTORS
330
5EC
102
}
330
1F
100
AcDbEntity
  8
実線
100
AcDbCircle
 10
357.7613759558535
 20
692.3945558831161
 30
0.0
 40
8.000000000000023
100
AcDbArc
 50
316.7645737428844
 51
34.9999999999977
  0
LINE
  5
49B
102
{ACAD_REACTORS
330
5EC
102
}
330
1F
100
AcDbEntity
  8
実線
100
AcDbLine
 10
364.3145923101652
 20
696.9831673739246
 30
0.0
 11
360.8219642670372
 21
701.9711571520095
 31
0.0
  0
LINE
  5
49C
102
{ACAD_REACTORS
330
5EC
102
}
330
1F
100
AcDbEntity
  8
実線
100
AcDbLine
 10
360.8219642670372
 20
756.1127085003668
 30
0.0
 11
364.3145923101655
 21
761.1006982784519
 31
0.0
  0
ARC
  5
49D
102
{ACAD_REACTORS
330
5EC
102
}
330
1F
100
AcDbEntity
  8
実線
100
AcDbCircle
 10
357.7613759558535
 20
765.6893097692601
 30
0.0
 40
7.999999999999995
100
AcDbArc
 50
325.000000000002
 51
43.23542625711076
  0
ARC
  5
49E
102
{ACAD_REACTORS
330
5EC
102
}
330
1F
100
AcDbEntity
  8
実線
100
AcDbCircle
 10
318.7842061869698
 20
729.041932826188
 30
0.0
 40
61.50000000000009
100
AcDbArc
 50
43.23542625711076
 51
46.76457374288636
  0
ARC
  5
49F
102
{ACAD_REACTORS
330
5EC
102
}
330
1F
100
AcDbEntity
  8
実線
100
AcDbCircle
 10
279.8070364180857
 20
765.6893097692601
 30
0.0
 40
8.000000000000008
100
AcDbArc
 50
136.7645737428892
 51
214.9999999999974
  0
LINE
  5
4A0
102
{ACAD_REACTORS
330
5EC
102
}
330
1F
100
AcDbEntity
  8
実線
100
AcDbLine
 10
273.2538200637737
 20
761.1006982784519
 30
0.0
 11
276.7464481069019
 21
756.1127085003668
 31
0.0
  0
LINE
  5
4A1
102
{ACAD_REACTORS
330
5EC
102
}
330
1F
100
AcDbEntity
  8
実線
100
AcDbLine
 10
276.7464481069019
 20
701.9711571520095
 30
0.0
 11
273.2538200637737
 21
696.9831673739246
 31
0.0
  0
ARC
  5
4A2
102
{ACAD_REACTORS
330
5EC
102
}
330
1F
100
AcDbEntity
  8
実線
100
AcDbCircle
 10
279.8070364180857
 20
692.3945558831161
 30
0.0
 40
7.999999999999996
100
AcDbArc
 50
145.0000000000023
 51
223.2354262571104
  0
ARC
  5
4A3
102
{ACAD_REACTORS
330
5EC
102
}
330
1F
100
AcDbEntity
  8
実線
100
AcDbCircle
 10
318.7842061869698
 20
729.0419328261882
 30
0.0
 40
61.50000000000008
100
AcDbArc
 50
223.2354262571104
 51
226.7645737428867
  0
ARC
  5
4A4
102
{ACAD_REACTORS
330
5EC
102
}
330
1F
100
AcDbEntity
  8
実線
100
AcDbCircle
 10
282.1368292438977
 20
690.0647630573043
 30
0.0
 40
8.000000000000021
100
AcDbArc
 50
226.7645737428867
 51
304.9999999999991
  0
LINE
  5
4A5
102
{ACAD_REACTORS
330
5EC
102
}
330
1F
100
AcDbEntity
  8
実線
100
AcDbLine
 10
286.7254407347058
 20
683.5115467029922
 30
0.0
 11
291.7134305127909
 21
687.0041747461205
 31
0.0
  0
LINE
  5
4A6
102
{ACAD_REACTORS
330
5EC
102
}
330
1F
100
AcDbEntity
  8
実線
100
AcDbLine
 10
345.8549818611481
 20
687.0041747461205
 30
0.0
 11
350.8429716392332
 21
683.5115467029922
 31
0.0
  0
ARC
  5
4A7
102
{ACAD_REACTORS
330
5EC
102
}
330
1F
100
AcDbEntity
  8
実線
100
AcDbCircle
 10
355.4315831300416
 20
690.0647630573043
 30
0.0
 40
7.999999999999986
100
AcDbArc
 50
234.999999999999
 51
313.2354262571133
  0
ARC
  5
4A8
102
{ACAD_REACTORS
330
5EC
102
}
330
1F
100
AcDbEntity
  8
実線
100
AcDbCircle
 10
318.7842061869704
 20
729.0419328261874
 30
0.0
 40
61.49999999999885
100
AcDbArc
 50
313.2354262571133
 51
316.764573742889
  0
ARC
  5
4A9
102
{ACAD_REACTORS
330
5EC
102
}
330
1F
100
AcDbEntity
  8
実線
100
AcDbCircle
 10
355.4315831300416
 20
768.019102595072
 30
0.0
 40
8.000000000000008
100
AcDbArc
 50
46.76457374288636
 51
124.9999999999994
  0
LINE
  5
4AA
102
{ACAD_REACTORS
330
5EC
102
}
330
1F
100
AcDbEntity
  8
実線
100
AcDbLine
 10
350.8429716392332
 20
774.572318949384
 30
0.0
 11
345.8549818611481
 21
771.079690906256
 31
0.0
  0
CIRCLE
  5
4AB
102
{ACAD_REACTORS
330
5EC
102
}
330
1F
100
AcDbEntity
  8
実線
100
AcDbCircle
 10
318.7842061869695
 20
729.0419328261882
 30
0.0
 40
50.0
  0
ARC
  5
4AE
102
{ACAD_REACTORS
330
5E9
102
}
330
1F
100
AcDbEntity
  8
実線
100
AcDbCircle
 10
318.7842061869695
 20
69.0419328261882
 30
0.0
 40
50.0
100
AcDbArc
 50
57.21994893713763
 51
122.7800510628624
  0
ARC
  5
4AF
102
{ACAD_REACTORS
330
5E9
102
}
330
1F
100
AcDbEntity
  8
実線
100
AcDbCircle
 10
318.7842061869695
 20
69.0419328261882
 30
0.0
 40
50.0
100
AcDbArc
 50
147.2199489371374
 51
157.6043612805118
  0
ARC
  5
4B0
102
{ACAD_REACTORS
330
5E9
102
}
330
1F
100
AcDbEntity
  8
実線
100
AcDbCircle
 10
318.7842061869695
 20
69.0419328261882
 30
0.0
 40
50.0
100
AcDbArc
 50
202.3956387194878
 51
212.7800510628626
  0
ARC
  5
4B1
102
{ACAD_REACTORS
330
5E9
102
}
330
1F
100
AcDbEntity
  8
実線
100
AcDbCircle
 10
318.7842061869695
 20
69.0419328261882
 30
0.0
 40
50.0
100
AcDbArc
 50
237.2199489371374
 51
302.7800510628626
  0
ARC
  5
4B2
102
{ACAD_REACTORS
330
5E9
102
}
330
1F
100
AcDbEntity
  8
実線
100
AcDbCircle
 10
318.7842061869695
 20
69.0419328261882
 30
0.0
 40
50.0
100
AcDbArc
 50
327.2199489371374
 51
32.78005106286295
  0
LINE
  5
4B3
102
{ACAD_REACTORS
330
5E9
102
}
330
1F
100
AcDbEntity
  8
実線
100
AcDbLine
 10
253.8842061869695
 20
49.99193282618819
 30
0.0
 11
283.6118093394415
 21
49.99193282618819
 31
0.0
  0
LINE
  5
4B4
102
{ACAD_REACTORS
330
5E9
102
}
330
1F
100
AcDbEntity
  8
実線
100
AcDbLine
 10
283.6118093394415
 20
88.09193282618821
 30
0.0
 11
253.8842061869695
 21
88.09193282618821
 31
0.0
  0
LINE
  5
4B5
102
{ACAD_REACTORS
330
5E9
102
}
330
1F
100
AcDbEntity
  8
実線
100
AcDbLine
 10
253.8842061869695
 20
49.99193282618819
 30
0.0
 11
253.8842061869695
 21
88.09193282618821
 31
0.0
  0
LINE
  5
4B6
102
{ACAD_REACTORS
330
5E9
102
}
330
1F
100
AcDbEntity
  8
実線
100
AcDbLine
 10
253.8842061869695
 20
88.09193282618821
 30
0.0
 11
251.5342061869695
 21
94.2919328261882
 31
0.0
  0
LINE
  5
4B7
102
{ACAD_REACTORS
330
5E9
102
}
330
1F
100
AcDbEntity
  8
実線
100
AcDbLine
 10
251.5342061869695
 20
43.7919328261882
 30
0.0
 11
253.8842061869695
 21
49.99193282618819
 31
0.0
  0
LINE
  5
4B8
102
{ACAD_REACTORS
330
5E9
102
}
330
1F
100
AcDbEntity
  8
実線
100
AcDbLine
 10
248.7842061869697
 20
43.7919328261882
 30
0.0
 11
248.7842061869697
 21
94.2919328261882
 31
0.0
  0
LINE
  5
4B9
102
{ACAD_REACTORS
330
5E9
102
}
330
1F
100
AcDbEntity
  8
実線
100
AcDbLine
 10
251.5342061869695
 20
43.7919328261882
 30
0.0
 11
251.5342061869695
 21
94.2919328261882
 31
0.0
  0
LINE
  5
4BA
102
{ACAD_REACTORS
330
5E9
102
}
330
1F
100
AcDbEntity
  8
実線
100
AcDbLine
 10
248.7842061869697
 20
43.7919328261882
 30
0.0
 11
251.5342061869695
 21
43.7919328261882
 31
0.0
  0
LINE
  5
4BB
102
{ACAD_REACTORS
330
5E9
102
}
330
1F
100
AcDbEntity
  8
実線
100
AcDbLine
 10
251.5342061869695
 20
94.2919328261882
 30
0.0
 11
248.7842061869697
 21
94.2919328261882
 31
0.0
  0
CIRCLE
  5
4BC
102
{ACAD_REACTORS
330
5E9
102
}
330
1F
100
AcDbEntity
  8
実線
100
AcDbCircle
 10
318.7842061869695
 20
69.0419328261882
 30
0.0
 40
25.25
  0
LINE
  5
4BD
102
{ACAD_REACTORS
330
5E9
102
}
330
1F
100
AcDbEntity
  8
実線
100
AcDbLine
 10
282.3626556962508
 20
88.09193282618821
 30
0.0
 11
273.2538200637737
 21
101.1006982784518
 31
0.0
  0
ARC
  5
4BE
102
{ACAD_REACTORS
330
5E9
102
}
330
1F
100
AcDbEntity
  8
実線
100
AcDbCircle
 10
279.8070364180857
 20
105.6893097692601
 30
0.0
 40
7.999999999999996
100
AcDbArc
 50
136.7645737428869
 51
214.9999999999996
  0
LINE
  5
4BF
102
{ACAD_REACTORS
330
5E9
102
}
330
1F
100
AcDbEntity
  8
実線
100
AcDbLine
 10
286.7254407347058
 20
114.572318949384
 30
0.0
 11
300.7553093765455
 21
104.7484991662759
 31
0.0
  0
ARC
  5
4C0
102
{ACAD_REACTORS
330
5E9
102
}
330
1F
100
AcDbEntity
  8
実線
100
AcDbCircle
 10
282.1368292438977
 20
108.019102595072
 30
0.0
 40
8.000000000000021
100
AcDbArc
 50
54.99999999999904
 51
133.2354262571136
  0
ARC
  5
4C1
102
{ACAD_REACTORS
330
5E9
102
}
330
1F
100
AcDbEntity
  8
実線
100
AcDbCircle
 10
318.7842061869698
 20
69.04193282618834
 30
0.0
 40
61.50000000000008
100
AcDbArc
 50
133.2354262571136
 51
136.7645737428869
  0
LINE
  5
4C2
102
{ACAD_REACTORS
330
5E9
102
}
330
1F
100
AcDbEntity
  8
実線
100
AcDbLine
 10
354.4907725270573
 20
51.01303601576423
 30
0.0
 11
364.3145923101652
 21
36.98316737392457
 31
0.0
  0
ARC
  5
4C3
102
{ACAD_REACTORS
330
5E9
102
}
330
1F
100
AcDbEntity
  8
実線
100
AcDbCircle
 10
357.7613759558535
 20
32.3945558831162
 30
0.0
 40
7.999999999999995
100
AcDbArc
 50
316.7645737428866
 51
34.99999999999996
  0
LINE
  5
4C4
102
{ACAD_REACTORS
330
5E9
102
}
330
1F
100
AcDbEntity
  8
実線
100
AcDbLine
 10
350.8429716392332
 20
23.51154670299241
 30
0.0
 11
336.8131029973936
 21
33.33536648610053
 31
0.0
  0
ARC
  5
4C5
102
{ACAD_REACTORS
330
5E9
102
}
330
1F
100
AcDbEntity
  8
実線
100
AcDbCircle
 10
355.4315831300416
 20
30.06476305730432
 30
0.0
 40
8.000000000000008
100
AcDbArc
 50
234.999999999999
 51
313.2354262571133
  0
ARC
  5
4C6
102
{ACAD_REACTORS
330
5E9
102
}
330
1F
100
AcDbEntity
  8
実線
100
AcDbCircle
 10
318.7842061869698
 20
69.0419328261884
 30
0.0
 40
61.50000000000009
100
AcDbArc
 50
313.2354262571133
 51
316.7645737428866
  0
LINE
  5
4C7
102
{ACAD_REACTORS
330
5E9
102
}
330
1F
100
AcDbEntity
  8
実線
100
AcDbLine
 10
300.7553093765455
 20
33.33536648610053
 30
0.0
 11
286.7254407347058
 21
23.51154670299238
 31
0.0
  0
ARC
  5
4C8
102
{ACAD_REACTORS
330
5E9
102
}
330
1F
100
AcDbEntity
  8
実線
100
AcDbCircle
 10
282.1368292438977
 20
30.06476305730432
 30
0.0
 40
8.000000000000008
100
AcDbArc
 50
226.7645737428867
 51
305.000000000001
  0
LINE
  5
4C9
102
{ACAD_REACTORS
330
5E9
102
}
330
1F
100
AcDbEntity
  8
実線
100
AcDbLine
 10
273.2538200637737
 20
36.9831673739246
 30
0.0
 11
282.3626556962508
 21
49.99193282618819
 31
0.0
  0
ARC
  5
4CA
102
{ACAD_REACTORS
330
5E9
102
}
330
1F
100
AcDbEntity
  8
実線
100
AcDbCircle
 10
279.8070364180857
 20
32.39455588311626
 30
0.0
 40
8.000000000000008
100
AcDbArc
 50
145.0
 51
223.2354262571128
  0
ARC
  5
4CB
102
{ACAD_REACTORS
330
5E9
102
}
330
1F
100
AcDbEntity
  8
実線
100
AcDbCircle
 10
318.7842061869705
 20
69.04193282618888
 30
0.0
 40
61.50000000000114
100
AcDbArc
 50
223.2354262571128
 51
226.7645737428867
  0
LINE
  5
4CC
102
{ACAD_REACTORS
330
5E9
102
}
330
1F
100
AcDbEntity
  8
実線
100
AcDbLine
 10
364.3145923101652
 20
101.1006982784518
 30
0.0
 11
354.4907725270573
 21
87.07082963661219
 31
0.0
  0
ARC
  5
4CD
102
{ACAD_REACTORS
330
5E9
102
}
330
1F
100
AcDbEntity
  8
実線
100
AcDbCircle
 10
357.7613759558535
 20
105.6893097692601
 30
0.0
 40
8.000000000000023
100
AcDbArc
 50
325.0000000000003
 51
43.23542625711306
  0
ARC
  5
4CE
102
{ACAD_REACTORS
330
5E9
102
}
330
1F
100
AcDbEntity
  8
実線
100
AcDbCircle
 10
318.7842061869702
 20
69.04193282618902
 30
0.0
 40
61.49999999999885
100
AcDbArc
 50
43.23542625711306
 51
46.76457374288636
  0
ARC
  5
4CF
102
{ACAD_REACTORS
330
5E9
102
}
330
1F
100
AcDbEntity
  8
実線
100
AcDbCircle
 10
355.4315831300416
 20
108.0191025950721
 30
0.0
 40
7.999999999999986
100
AcDbArc
 50
46.76457374288636
 51
125.0000000000009
  0
LINE
  5
4D0
102
{ACAD_REACTORS
330
5E9
102
}
330
1F
100
AcDbEntity
  8
実線
100
AcDbLine
 10
336.8131029973936
 20
104.7484991662759
 30
0.0
 11
350.8429716392332
 21
114.572318949384
 31
0.0
  0
ARC
  5
4D1
102
{ACAD_REACTORS
330
5E9
102
}
330
1F
100
AcDbEntity
  8
実線
100
AcDbCircle
 10
318.7842061869695
 20
69.0419328261882
 30
0.0
 40
40.0
100
AcDbArc
 50
204.1042497819163
 51
155.8957502180833
  0
LINE
  5
4D2
102
{ACAD_REACTORS
330
5E9
102
}
330
1F
100
AcDbEntity
  8
実線
100
AcDbLine
 10
363.0842061869695
 20
57.7919328261882
 30
0.0
 11
357.1695875189297
 21
57.7919328261882
 31
0.0
  0
LINE
  5
4D3
102
{ACAD_REACTORS
330
5E9
102
}
330
1F
100
AcDbEntity
  8
実線
100
AcDbLine
 10
363.0842061869695
 20
80.2919328261882
 30
0.0
 11
357.1695875189297
 21
80.2919328261882
 31
0.0
  0
LINE
  5
4D4
102
{ACAD_REACTORS
330
5E9
102
}
330
1F
100
AcDbEntity
  8
実線
100
AcDbLine
 10
363.0842061869695
 20
57.7919328261882
 30
0.0
 11
363.0842061869695
 21
80.2919328261882
 31
0.0
  0
LINE
  5
4D5
102
{ACAD_REACTORS
330
5EB
102
}
330
1F
100
AcDbEntity
  8
実線
100
AcDbLine
 10
35.48420618696952
 20
469.641932826188
 30
0.0
 11
34.7842061869695
 21
465.941932826188
 31
0.0
  0
LINE
  5
4D6
102
{ACAD_REACTORS
330
5EB
102
}
330
1F
100
AcDbEntity
  8
実線
100
AcDbLine
 10
122.7842061869695
 20
465.941932826188
 30
0.0
 11
122.0842061869695
 21
469.641932826188
 31
0.0
  0
LINE
  5
4D7
102
{ACAD_REACTORS
330
5EB
102
}
330
1F
100
AcDbEntity
  8
実線
100
AcDbLine
 10
34.7842061869695
 20
465.941932826188
 30
0.0
 11
122.7842061869695
 21
465.941932826188
 31
0.0
  0
LINE
  5
4D8
102
{ACAD_REACTORS
330
5EB
102
}
330
1F
100
AcDbEntity
  8
実線
100
AcDbLine
 10
62.28420618696953
 20
591.8419328261877
 30
0.0
 11
36.28420618696941
 21
582.6419328261879
 31
0.0
  0
LINE
  5
4D9
102
{ACAD_REACTORS
330
5EB
102
}
330
1F
100
AcDbEntity
  8
実線
100
AcDbLine
 10
121.2842061869696
 20
582.6419328261879
 30
0.0
 11
95.28420618696953
 21
591.8419328261877
 31
0.0
  0
LINE
  5
4DA
102
{ACAD_REACTORS
330
5EB
102
}
330
1F
100
AcDbEntity
  8
実線
100
AcDbLine
 10
36.28420618696941
 20
582.6419328261879
 30
0.0
 11
121.2842061869695
 21
582.6419328261879
 31
0.0
  0
LINE
  5
4DB
102
{ACAD_REACTORS
330
5EB
102
}
330
1F
100
AcDbEntity
  8
実線
100
AcDbLine
 10
95.28420618696953
 20
591.8419328261877
 30
0.0
 11
62.28420618696953
 21
591.8419328261877
 31
0.0
  0
LINE
  5
4DC
102
{ACAD_REACTORS
330
5EB
102
}
330
1F
100
AcDbEntity
  8
実線
100
AcDbLine
 10
121.2842061869695
 20
505.641932826188
 30
0.0
 11
121.2842061869695
 21
582.6419328261882
 31
0.0
  0
LINE
  5
4DD
102
{ACAD_REACTORS
330
5EB
102
}
330
1F
100
AcDbEntity
  8
実線
100
AcDbLine
 10
36.2842061869695
 20
582.6419328261882
 30
0.0
 11
36.2842061869695
 21
505.641932826188
 31
0.0
  0
LINE
  5
4DE
102
{ACAD_REACTORS
330
5EB
102
}
330
1F
100
AcDbEntity
  8
実線
100
AcDbLine
 10
122.0842061869695
 20
469.641932826188
 30
0.0
 11
122.0842061869695
 21
505.641932826188
 31
0.0
  0
LINE
  5
4DF
102
{ACAD_REACTORS
330
5EB
102
}
330
1F
100
AcDbEntity
  8
実線
100
AcDbLine
 10
35.48420618696952
 20
505.641932826188
 30
0.0
 11
35.48420618696952
 21
469.641932826188
 31
0.0
  0
LINE
  5
4E0
102
{ACAD_REACTORS
330
5EB
102
}
330
1F
100
AcDbEntity
  8
実線
100
AcDbLine
 10
122.0842061869695
 20
505.641932826188
 30
0.0
 11
35.48420618696952
 21
505.641932826188
 31
0.0
  0
LINE
  5
4E1
102
{ACAD_REACTORS
330
5EB
102
}
330
1F
100
AcDbEntity
  8
実線
100
AcDbLine
 10
35.48420618696952
 20
469.641932826188
 30
0.0
 11
122.0842061869695
 21
469.641932826188
 31
0.0
  0
LINE
  5
4E2
102
{ACAD_REACTORS
330
5EB
102
}
330
1F
100
AcDbEntity
  8
実線
100
AcDbLine
 10
91.78420618696952
 20
452.9419328261879
 30
0.0
 11
91.78420618696952
 21
465.941932826188
 31
0.0
  0
LINE
  5
4E3
102
{ACAD_REACTORS
330
5EB
102
}
330
1F
100
AcDbEntity
  8
実線
100
AcDbLine
 10
65.78420618696952
 20
465.941932826188
 30
0.0
 11
65.78420618696952
 21
452.9419328261879
 31
0.0
  0
LINE
  5
4E4
102
{ACAD_REACTORS
330
5EB
102
}
330
1F
100
AcDbEntity
  8
実線
100
AcDbLine
 10
113.7842061869695
 20
441.441932826188
 30
0.0
 11
113.7842061869695
 21
452.9419328261879
 31
0.0
  0
LINE
  5
4E5
102
{ACAD_REACTORS
330
5EB
102
}
330
1F
100
AcDbEntity
  8
実線
100
AcDbLine
 10
43.78420618696949
 20
452.9419328261879
 30
0.0
 11
43.78420618696949
 21
441.441932826188
 31
0.0
  0
LINE
  5
4E6
102
{ACAD_REACTORS
330
5EB
102
}
330
1F
100
AcDbEntity
  8
実線
100
AcDbLine
 10
113.7842061869695
 20
452.9419328261879
 30
0.0
 11
43.78420618696949
 21
452.9419328261879
 31
0.0
  0
LINE
  5
4E7
102
{ACAD_REACTORS
330
5EB
102
}
330
1F
100
AcDbEntity
  8
実線
100
AcDbLine
 10
128.7842061869695
 20
360.9419328261881
 30
0.0
 11
128.7842061869695
 21
436.941932826188
 31
0.0
  0
LINE
  5
4E8
102
{ACAD_REACTORS
330
5EB
102
}
330
1F
100
AcDbEntity
  8
実線
100
AcDbLine
 10
28.7842061869695
 20
436.9419328261878
 30
0.0
 11
28.7842061869695
 21
360.9419328261881
 31
0.0
  0
LINE
  5
4E9
102
{ACAD_REACTORS
330
5EB
102
}
330
1F
100
AcDbEntity
  8
実線
100
AcDbLine
 10
128.7842061869695
 20
436.9419328261878
 30
0.0
 11
28.7842061869695
 21
436.9419328261878
 31
0.0
  0
LINE
  5
4EA
102
{ACAD_REACTORS
330
5EB
102
}
330
1F
100
AcDbEntity
  8
実線
100
AcDbLine
 10
28.7842061869695
 20
360.9419328261881
 30
0.0
 11
128.7842061869695
 21
360.9419328261881
 31
0.0
  0
CIRCLE
  5
4EB
102
{ACAD_REACTORS
330
5EB
102
}
330
1F
100
AcDbEntity
  8
実線
100
AcDbCircle
 10
78.78420618696953
 20
249.041932826188
 30
0.0
 40
25.25
  0
LINE
  5
4EC
102
{ACAD_REACTORS
330
5EB
102
}
330
1F
100
AcDbEntity
  8
実線
100
AcDbLine
 10
97.83420618696949
 20
217.141932826188
 30
0.0
 11
97.83420618696949
 21
226.241932826188
 31
0.0
  0
LINE
  5
4ED
102
{ACAD_REACTORS
330
5EB
102
}
330
1F
100
AcDbEntity
  8
実線
100
AcDbLine
 10
59.73420618696952
 20
226.241932826188
 30
0.0
 11
59.73420618696952
 21
217.141932826188
 31
0.0
  0
LINE
  5
4EE
102
{ACAD_REACTORS
330
5EB
102
}
330
1F
100
AcDbEntity
  8
実線
100
AcDbLine
 10
104.0342061869695
 20
212.041932826188
 30
0.0
 11
104.0342061869695
 21
214.791932826188
 31
0.0
  0
LINE
  5
4EF
102
{ACAD_REACTORS
330
5EB
102
}
330
1F
100
AcDbEntity
  8
実線
100
AcDbLine
 10
53.5342061869695
 20
214.791932826188
 30
0.0
 11
53.5342061869695
 21
212.041932826188
 31
0.0
  0
LINE
  5
4F0
102
{ACAD_REACTORS
330
5EB
102
}
330
1F
100
AcDbEntity
  8
実線
100
AcDbLine
 10
53.5342061869695
 20
212.041932826188
 30
0.0
 11
104.0342061869695
 21
212.041932826188
 31
0.0
  0
LINE
  5
4F1
102
{ACAD_REACTORS
330
5EB
102
}
330
1F
100
AcDbEntity
  8
実線
100
AcDbLine
 10
59.73420618696952
 20
217.141932826188
 30
0.0
 11
53.5342061869695
 21
214.791932826188
 31
0.0
  0
LINE
  5
4F2
102
{ACAD_REACTORS
330
5EB
102
}
330
1F
100
AcDbEntity
  8
実線
100
AcDbLine
 10
104.0342061869695
 20
214.791932826188
 30
0.0
 11
97.83420618696949
 21
217.141932826188
 31
0.0
  0
LINE
  5
4F3
102
{ACAD_REACTORS
330
5EB
102
}
330
1F
100
AcDbEntity
  8
実線
100
AcDbLine
 10
53.5342061869695
 20
214.791932826188
 30
0.0
 11
104.0342061869695
 21
214.791932826188
 31
0.0
  0
LINE
  5
4F4
102
{ACAD_REACTORS
330
5EB
102
}
330
1F
100
AcDbEntity
  8
実線
100
AcDbLine
 10
59.73420618696952
 20
217.141932826188
 30
0.0
 11
97.83420618696949
 21
217.141932826188
 31
0.0
  0
LINE
  5
4F5
102
{ACAD_REACTORS
330
5EB
102
}
330
1F
100
AcDbEntity
  8
実線
100
AcDbLine
 10
31.8070364180856
 20
276.941932826188
 30
0.0
 11
31.8070364180856
 21
266.941932826188
 31
0.0
  0
LINE
  5
4F6
102
{ACAD_REACTORS
330
5EB
102
}
330
1F
100
AcDbEntity
  8
実線
100
AcDbLine
 10
31.8070364180856
 20
266.941932826188
 30
0.0
 11
60.75530937654551
 21
266.941932826188
 31
0.0
  0
LINE
  5
4F7
102
{ACAD_REACTORS
330
5EB
102
}
330
1F
100
AcDbEntity
  8
実線
100
AcDbLine
 10
31.8070364180856
 20
276.941932826188
 30
0.0
 11
125.7613759558535
 21
276.941932826188
 31
0.0
  0
LINE
  5
4F8
102
{ACAD_REACTORS
330
5EB
102
}
330
1F
100
AcDbEntity
  8
実線
100
AcDbLine
 10
125.7613759558535
 20
266.941932826188
 30
0.0
 11
96.81310299739351
 21
266.941932826188
 31
0.0
  0
LINE
  5
4F9
102
{ACAD_REACTORS
330
5EB
102
}
330
1F
100
AcDbEntity
  8
実線
100
AcDbLine
 10
125.7613759558535
 20
266.941932826188
 30
0.0
 11
125.7613759558535
 21
276.941932826188
 31
0.0
  0
LINE
  5
4FA
102
{ACAD_REACTORS
330
5EB
102
}
330
1F
100
AcDbEntity
  8
実線
100
AcDbLine
 10
67.9342061869695
 20
226.241932826188
 30
0.0
 11
51.7842061869695
 21
226.241932826188
 31
0.0
  0
LINE
  5
4FB
102
{ACAD_REACTORS
330
5EB
102
}
330
1F
100
AcDbEntity
  8
実線
100
AcDbLine
 10
89.63420618696948
 20
226.241932826188
 30
0.0
 11
105.7842061869695
 21
226.241932826188
 31
0.0
  0
ARC
  5
4FC
102
{ACAD_REACTORS
330
5EB
102
}
330
1F
100
AcDbEntity
  8
実線
100
AcDbCircle
 10
51.7842061869695
 20
239.241932826188
 30
0.0
 40
13.0
100
AcDbArc
 50
180.0
 51
270.0
  0
ARC
  5
4FD
102
{ACAD_REACTORS
330
5EB
102
}
330
1F
100
AcDbEntity
  8
実線
100
AcDbCircle
 10
105.7842061869695
 20
239.241932826188
 30
0.0
 40
13.0
100
AcDbArc
 50
270.0
 51
0.0
  0
LINE
  5
4FE
102
{ACAD_REACTORS
330
5EB
102
}
330
1F
100
AcDbEntity
  8
実線
100
AcDbLine
 10
96.81310299739351
 20
276.941932826188
 30
0.0
 11
96.81310299739351
 21
266.941932826188
 31
0.0
  0
LINE
  5
4FF
102
{ACAD_REACTORS
330
5EB
102
}
330
1F
100
AcDbEntity
  8
実線
100
AcDbLine
 10
60.75530937654551
 20
276.941932826188
 30
0.0
 11
60.75530937654551
 21
266.941932826188
 31
0.0
  0
LINE
  5
500
102
{ACAD_REACTORS
330
5EB
102
}
330
1F
100
AcDbEntity
  8
実線
100
AcDbLine
 10
38.7842061869695
 20
266.941932826188
 30
0.0
 11
38.7842061869695
 21
239.241932826188
 31
0.0
  0
LINE
  5
501
102
{ACAD_REACTORS
330
5EB
102
}
330
1F
100
AcDbEntity
  8
実線
100
AcDbLine
 10
118.7842061869695
 20
239.241932826188
 30
0.0
 11
118.7842061869695
 21
266.941932826188
 31
0.0
  0
LINE
  5
502
102
{ACAD_REACTORS
330
5EB
102
}
330
1F
100
AcDbEntity
  8
実線
100
AcDbLine
 10
38.7842061869695
 20
360.9419328261881
 30
0.0
 11
38.7842061869695
 21
317.4419328261881
 31
0.0
  0
LINE
  5
503
102
{ACAD_REACTORS
330
5EB
102
}
330
1F
100
AcDbEntity
  8
実線
100
AcDbLine
 10
38.7842061869695
 20
317.4419328261881
 30
0.0
 11
67.53420618696953
 21
317.4419328261881
 31
0.0
  0
LINE
  5
504
102
{ACAD_REACTORS
330
5EB
102
}
330
1F
100
AcDbEntity
  8
実線
100
AcDbLine
 10
90.03420618696953
 20
317.4419328261881
 30
0.0
 11
118.7842061869695
 21
317.4419328261881
 31
0.0
  0
LINE
  5
505
102
{ACAD_REACTORS
330
5EB
102
}
330
1F
100
AcDbEntity
  8
実線
100
AcDbLine
 10
118.7842061869695
 20
317.4419328261881
 30
0.0
 11
118.7842061869695
 21
360.9419328261881
 31
0.0
  0
LINE
  5
506
102
{ACAD_REACTORS
330
5EB
102
}
330
1F
100
AcDbEntity
  8
実線
100
AcDbLine
 10
90.03420618696953
 20
360.9419328261881
 30
0.0
 11
90.03420618696953
 21
290.4419328261881
 31
0.0
  0
LINE
  5
507
102
{ACAD_REACTORS
330
5EB
102
}
330
1F
100
AcDbEntity
  8
実線
100
AcDbLine
 10
67.53420618696953
 20
360.9419328261881
 30
0.0
 11
67.53420618696953
 21
290.4419328261881
 31
0.0
  0
LINE
  5
508
102
{ACAD_REACTORS
330
5EB
102
}
330
1F
100
AcDbEntity
  8
実線
100
AcDbLine
 10
125.7613759558535
 20
290.4419328261881
 30
0.0
 11
31.8070364180856
 21
290.4419328261881
 31
0.0
  0
LINE
  5
509
102
{ACAD_REACTORS
330
5EB
102
}
330
1F
100
AcDbEntity
  8
実線
100
AcDbLine
 10
31.8070364180856
 20
290.4419328261881
 30
0.0
 11
31.8070364180856
 21
276.941932826188
 31
0.0
  0
LINE
  5
50A
102
{ACAD_REACTORS
330
5EB
102
}
330
1F
100
AcDbEntity
  8
実線
100
AcDbLine
 10
125.7613759558535
 20
276.941932826188
 30
0.0
 11
125.7613759558535
 21
290.4419328261881
 31
0.0
  0
LINE
  5
50B
102
{ACAD_REACTORS
330
5EB
102
}
330
1F
100
AcDbEntity
  8
実線
100
AcDbLine
 10
60.75530937654551
 20
290.4419328261881
 30
0.0
 11
60.75530937654551
 21
276.941932826188
 31
0.0
  0
LINE
  5
50C
102
{ACAD_REACTORS
330
5EB
102
}
330
1F
100
AcDbEntity
  8
実線
100
AcDbLine
 10
96.81310299739351
 20
290.4419328261881
 30
0.0
 11
96.81310299739351
 21
276.941932826188
 31
0.0
  0
LINE
  5
50D
102
{ACAD_REACTORS
330
5EB
102
}
330
1F
100
AcDbEntity
  8
実線
100
AcDbLine
 10
128.7842061869695
 20
436.941932826188
 30
0.0
 11
128.7842061869695
 21
438.4419328261879
 31
0.0
  0
LINE
  5
50E
102
{ACAD_REACTORS
330
5EB
102
}
330
1F
100
AcDbEntity
  8
実線
100
AcDbLine
 10
28.7842061869695
 20
438.4419328261879
 30
0.0
 11
28.7842061869695
 21
436.941932826188
 31
0.0
  0
LINE
  5
50F
102
{ACAD_REACTORS
330
5EB
102
}
330
1F
100
AcDbEntity
  8
実線
100
AcDbLine
 10
31.7842061869695
 20
441.441932826188
 30
0.0
 11
125.7842061869695
 21
441.441932826188
 31
0.0
  0
ARC
  5
510
102
{ACAD_REACTORS
330
5EB
102
}
330
1F
100
AcDbEntity
  8
実線
100
AcDbCircle
 10
125.7842061869695
 20
438.4419328261879
 30
0.0
 40
3.0
100
AcDbArc
 50
0.0
 51
90.0
  0
ARC
  5
511
102
{ACAD_REACTORS
330
5EB
102
}
330
1F
100
AcDbEntity
  8
実線
100
AcDbCircle
 10
31.7842061869695
 20
438.4419328261879
 30
0.0
 40
3.0
100
AcDbArc
 50
90.0
 51
180.0
  0
LINE
  5
512
102
{ACAD_REACTORS
330
5E7
102
}
330
1F
100
AcDbEntity
  8
実線
100
AcDbLine
 10
755.4842061869693
 20
469.6419328261881
 30
0.0
 11
754.7842061869693
 21
465.941932826188
 31
0.0
  0
LINE
  5
513
102
{ACAD_REACTORS
330
5E7
102
}
330
1F
100
AcDbEntity
  8
実線
100
AcDbLine
 10
842.7842061869693
 20
465.941932826188
 30
0.0
 11
842.0842061869691
 21
469.6419328261881
 31
0.0
  0
LINE
  5
514
102
{ACAD_REACTORS
330
5E7
102
}
330
1F
100
AcDbEntity
  8
実線
100
AcDbLine
 10
754.7842061869693
 20
465.941932826188
 30
0.0
 11
842.7842061869693
 21
465.941932826188
 31
0.0
  0
LINE
  5
515
102
{ACAD_REACTORS
330
5E7
102
}
330
1F
100
AcDbEntity
  8
実線
100
AcDbLine
 10
782.2842061869692
 20
591.841932826188
 30
0.0
 11
815.2842061869693
 21
591.841932826188
 31
0.0
  0
LINE
  5
516
102
{ACAD_REACTORS
330
5E7
102
}
330
1F
100
AcDbEntity
  8
実線
100
AcDbLine
 10
782.2842061869692
 20
591.841932826188
 30
0.0
 11
756.2842061869693
 21
582.6419328261879
 31
0.0
  0
LINE
  5
517
102
{ACAD_REACTORS
330
5E7
102
}
330
1F
100
AcDbEntity
  8
実線
100
AcDbLine
 10
841.2842061869692
 20
582.6419328261879
 30
0.0
 11
815.2842061869693
 21
591.841932826188
 31
0.0
  0
LINE
  5
518
102
{ACAD_REACTORS
330
5E7
102
}
330
1F
100
AcDbEntity
  8
実線
100
AcDbLine
 10
756.2842061869693
 20
582.6419328261879
 30
0.0
 11
841.2842061869692
 21
582.6419328261879
 31
0.0
  0
LINE
  5
519
102
{ACAD_REACTORS
330
5E7
102
}
330
1F
100
AcDbEntity
  8
実線
100
AcDbLine
 10
841.2842061869692
 20
505.6419328261881
 30
0.0
 11
841.2842061869692
 21
582.6419328261882
 31
0.0
  0
LINE
  5
51A
102
{ACAD_REACTORS
330
5E7
102
}
330
1F
100
AcDbEntity
  8
実線
100
AcDbLine
 10
756.2842061869693
 20
582.6419328261882
 30
0.0
 11
756.2842061869693
 21
505.6419328261881
 31
0.0
  0
LINE
  5
51B
102
{ACAD_REACTORS
330
5E7
102
}
330
1F
100
AcDbEntity
  8
実線
100
AcDbLine
 10
755.4842061869693
 20
505.6419328261881
 30
0.0
 11
842.0842061869691
 21
505.6419328261881
 31
0.0
  0
LINE
  5
51C
102
{ACAD_REACTORS
330
5E7
102
}
330
1F
100
AcDbEntity
  8
実線
100
AcDbLine
 10
842.0842061869691
 20
469.6419328261881
 30
0.0
 11
842.0842061869691
 21
505.6419328261881
 31
0.0
  0
LINE
  5
51D
102
{ACAD_REACTORS
330
5E7
102
}
330
1F
100
AcDbEntity
  8
実線
100
AcDbLine
 10
755.4842061869693
 20
505.6419328261881
 30
0.0
 11
755.4842061869693
 21
469.6419328261881
 31
0.0
  0
LINE
  5
51E
102
{ACAD_REACTORS
330
5E7
102
}
330
1F
100
AcDbEntity
  8
実線
100
AcDbLine
 10
755.4842061869693
 20
469.6419328261881
 30
0.0
 11
842.0842061869691
 21
469.6419328261881
 31
0.0
  0
LINE
  5
51F
102
{ACAD_REACTORS
330
5E7
102
}
330
1F
100
AcDbEntity
  8
実線
100
AcDbLine
 10
811.7842061869692
 20
452.9419328261879
 30
0.0
 11
811.7842061869692
 21
465.941932826188
 31
0.0
  0
LINE
  5
520
102
{ACAD_REACTORS
330
5E7
102
}
330
1F
100
AcDbEntity
  8
実線
100
AcDbLine
 10
785.7842061869693
 20
465.941932826188
 30
0.0
 11
785.7842061869693
 21
452.9419328261879
 31
0.0
  0
LINE
  5
521
102
{ACAD_REACTORS
330
5E7
102
}
330
1F
100
AcDbEntity
  8
実線
100
AcDbLine
 10
763.7842061869693
 20
452.9419328261879
 30
0.0
 11
833.7842061869693
 21
452.9419328261879
 31
0.0
  0
LINE
  5
522
102
{ACAD_REACTORS
330
5E7
102
}
330
1F
100
AcDbEntity
  8
実線
100
AcDbLine
 10
833.7842061869693
 20
441.441932826188
 30
0.0
 11
833.7842061869693
 21
452.9419328261879
 31
0.0
  0
LINE
  5
523
102
{ACAD_REACTORS
330
5E7
102
}
330
1F
100
AcDbEntity
  8
実線
100
AcDbLine
 10
763.7842061869693
 20
452.9419328261879
 30
0.0
 11
763.7842061869693
 21
441.441932826188
 31
0.0
  0
LINE
  5
524
102
{ACAD_REACTORS
330
5E7
102
}
330
1F
100
AcDbEntity
  8
実線
100
AcDbLine
 10
748.7842061869693
 20
436.941932826188
 30
0.0
 11
848.7842061869693
 21
436.941932826188
 31
0.0
  0
LINE
  5
525
102
{ACAD_REACTORS
330
5E7
102
}
330
1F
100
AcDbEntity
  8
実線
100
AcDbLine
 10
848.7842061869693
 20
360.9419328261881
 30
0.0
 11
848.7842061869693
 21
436.941932826188
 31
0.0
  0
LINE
  5
526
102
{ACAD_REACTORS
330
5E7
102
}
330
1F
100
AcDbEntity
  8
実線
100
AcDbLine
 10
748.7842061869693
 20
436.941932826188
 30
0.0
 11
748.7842061869693
 21
360.9419328261881
 31
0.0
  0
LINE
  5
527
102
{ACAD_REACTORS
330
5E7
102
}
330
1F
100
AcDbEntity
  8
実線
100
AcDbLine
 10
748.7842061869693
 20
360.9419328261881
 30
0.0
 11
848.7842061869693
 21
360.9419328261881
 31
0.0
  0
LINE
  5
528
102
{ACAD_REACTORS
330
5E7
102
}
330
1F
100
AcDbEntity
  8
実線
100
AcDbLine
 10
804.7842061869692
 20
290.4419328261881
 30
0.0
 11
804.7842061869692
 21
317.4419328261881
 31
0.0
  0
LINE
  5
529
102
{ACAD_REACTORS
330
5E7
102
}
330
1F
100
AcDbEntity
  8
実線
100
AcDbLine
 10
792.7842061869693
 20
317.4419328261881
 30
0.0
 11
792.7842061869693
 21
290.4419328261881
 31
0.0
  0
LINE
  5
52A
102
{ACAD_REACTORS
330
5E7
102
}
330
1F
100
AcDbEntity
  8
実線
100
AcDbLine
 10
863.6842061869693
 20
268.0919328261882
 30
0.0
 11
845.7613759558533
 21
268.0919328261882
 31
0.0
  0
LINE
  5
52B
102
{ACAD_REACTORS
330
5E7
102
}
330
1F
100
AcDbEntity
  8
実線
100
AcDbLine
 10
834.9186191401921
 20
229.9919328261882
 30
0.0
 11
863.6842061869693
 21
229.9919328261882
 31
0.0
  0
LINE
  5
52C
102
{ACAD_REACTORS
330
5E7
102
}
330
1F
100
AcDbEntity
  8
実線
100
AcDbLine
 10
868.7842061869691
 20
223.7919328261881
 30
0.0
 11
868.7842061869691
 21
274.2919328261881
 31
0.0
  0
LINE
  5
52D
102
{ACAD_REACTORS
330
5E7
102
}
330
1F
100
AcDbEntity
  8
実線
100
AcDbLine
 10
868.7842061869691
 20
274.2919328261881
 30
0.0
 11
866.0342061869691
 21
274.2919328261881
 31
0.0
  0
LINE
  5
52E
102
{ACAD_REACTORS
330
5E7
102
}
330
1F
100
AcDbEntity
  8
実線
100
AcDbLine
 10
866.0342061869691
 20
223.7919328261881
 30
0.0
 11
868.7842061869691
 21
223.7919328261881
 31
0.0
  0
LINE
  5
52F
102
{ACAD_REACTORS
330
5E7
102
}
330
1F
100
AcDbEntity
  8
実線
100
AcDbLine
 10
866.0342061869691
 20
223.7919328261881
 30
0.0
 11
866.0342061869691
 21
274.2919328261881
 31
0.0
  0
LINE
  5
530
102
{ACAD_REACTORS
330
5E7
102
}
330
1F
100
AcDbEntity
  8
実線
100
AcDbLine
 10
863.6842061869693
 20
229.9919328261882
 30
0.0
 11
863.6842061869693
 21
268.0919328261882
 31
0.0
  0
LINE
  5
531
102
{ACAD_REACTORS
330
5E7
102
}
330
1F
100
AcDbEntity
  8
実線
100
AcDbLine
 10
863.6842061869693
 20
229.9919328261882
 30
0.0
 11
866.0342061869691
 21
223.7919328261881
 31
0.0
  0
LINE
  5
532
102
{ACAD_REACTORS
330
5E7
102
}
330
1F
100
AcDbEntity
  8
実線
100
AcDbLine
 10
866.0342061869691
 20
274.2919328261881
 30
0.0
 11
863.6842061869693
 21
268.0919328261882
 31
0.0
  0
LINE
  5
533
102
{ACAD_REACTORS
330
5E7
102
}
330
1F
100
AcDbEntity
  8
実線
100
AcDbLine
 10
817.8342061869692
 20
217.1419328261881
 30
0.0
 11
817.8342061869692
 21
226.241932826188
 31
0.0
  0
LINE
  5
534
102
{ACAD_REACTORS
330
5E7
102
}
330
1F
100
AcDbEntity
  8
実線
100
AcDbLine
 10
779.7342061869693
 20
226.241932826188
 30
0.0
 11
779.7342061869693
 21
217.1419328261881
 31
0.0
  0
LINE
  5
535
102
{ACAD_REACTORS
330
5E7
102
}
330
1F
100
AcDbEntity
  8
実線
100
AcDbLine
 10
779.7342061869693
 20
217.1419328261881
 30
0.0
 11
817.8342061869692
 21
217.1419328261881
 31
0.0
  0
LINE
  5
536
102
{ACAD_REACTORS
330
5E7
102
}
330
1F
100
AcDbEntity
  8
実線
100
AcDbLine
 10
779.7342061869693
 20
217.1419328261881
 30
0.0
 11
773.5342061869693
 21
214.7919328261881
 31
0.0
  0
LINE
  5
537
102
{ACAD_REACTORS
330
5E7
102
}
330
1F
100
AcDbEntity
  8
実線
100
AcDbLine
 10
824.0342061869693
 20
214.7919328261881
 30
0.0
 11
817.8342061869692
 21
217.1419328261881
 31
0.0
  0
LINE
  5
538
102
{ACAD_REACTORS
330
5E7
102
}
330
1F
100
AcDbEntity
  8
実線
100
AcDbLine
 10
773.5342061869693
 20
212.0419328261881
 30
0.0
 11
824.0342061869693
 21
212.0419328261881
 31
0.0
  0
LINE
  5
539
102
{ACAD_REACTORS
330
5E7
102
}
330
1F
100
AcDbEntity
  8
実線
100
AcDbLine
 10
773.5342061869693
 20
214.7919328261881
 30
0.0
 11
824.0342061869693
 21
214.7919328261881
 31
0.0
  0
LINE
  5
53A
102
{ACAD_REACTORS
330
5E7
102
}
330
1F
100
AcDbEntity
  8
実線
100
AcDbLine
 10
824.0342061869693
 20
212.0419328261881
 30
0.0
 11
824.0342061869693
 21
214.7919328261881
 31
0.0
  0
LINE
  5
53B
102
{ACAD_REACTORS
330
5E7
102
}
330
1F
100
AcDbEntity
  8
実線
100
AcDbLine
 10
773.5342061869693
 20
214.7919328261881
 30
0.0
 11
773.5342061869693
 21
212.0419328261881
 31
0.0
  0
LINE
  5
53C
102
{ACAD_REACTORS
330
5E7
102
}
330
1F
100
AcDbEntity
  8
実線
100
AcDbLine
 10
845.7613759558533
 20
266.9419328261881
 30
0.0
 11
816.8131029973931
 21
266.9419328261881
 31
0.0
  0
LINE
  5
53D
102
{ACAD_REACTORS
330
5E7
102
}
330
1F
100
AcDbEntity
  8
実線
100
AcDbLine
 10
845.7613759558533
 20
266.9419328261881
 30
0.0
 11
845.7613759558533
 21
276.9419328261881
 31
0.0
  0
LINE
  5
53E
102
{ACAD_REACTORS
330
5E7
102
}
330
1F
100
AcDbEntity
  8
実線
100
AcDbLine
 10
751.8070364180852
 20
276.9419328261881
 30
0.0
 11
751.8070364180852
 21
266.9419328261882
 31
0.0
  0
LINE
  5
53F
102
{ACAD_REACTORS
330
5E7
102
}
330
1F
100
AcDbEntity
  8
実線
100
AcDbLine
 10
751.8070364180852
 20
266.9419328261881
 30
0.0
 11
780.7553093765453
 21
266.9419328261881
 31
0.0
  0
LINE
  5
540
102
{ACAD_REACTORS
330
5E7
102
}
330
1F
100
AcDbEntity
  8
実線
100
AcDbLine
 10
825.7842061869693
 20
226.241932826188
 30
0.0
 11
771.7842061869693
 21
226.241932826188
 31
0.0
  0
ARC
  5
541
102
{ACAD_REACTORS
330
5E7
102
}
330
1F
100
AcDbEntity
  8
実線
100
AcDbCircle
 10
771.7842061869693
 20
239.2419328261881
 30
0.0
 40
13.0
100
AcDbArc
 50
180.0
 51
270.0
  0
ARC
  5
542
102
{ACAD_REACTORS
330
5E7
102
}
330
1F
100
AcDbEntity
  8
実線
100
AcDbCircle
 10
825.7842061869693
 20
239.2419328261881
 30
0.0
 40
13.0
100
AcDbArc
 50
270.0
 51
314.639772958605
  0
LINE
  5
543
102
{ACAD_REACTORS
330
5E7
102
}
330
1F
100
AcDbEntity
  8
実線
100
AcDbLine
 10
816.8131029973931
 20
276.9419328261881
 30
0.0
 11
816.8131029973931
 21
266.9419328261882
 31
0.0
  0
LINE
  5
544
102
{ACAD_REACTORS
330
5E7
102
}
330
1F
100
AcDbEntity
  8
実線
100
AcDbLine
 10
780.7553093765453
 20
276.9419328261881
 30
0.0
 11
780.7553093765453
 21
266.9419328261882
 31
0.0
  0
LINE
  5
545
102
{ACAD_REACTORS
330
5E7
102
}
330
1F
100
AcDbEntity
  8
実線
100
AcDbLine
 10
758.7842061869693
 20
266.9419328261881
 30
0.0
 11
758.7842061869693
 21
239.2419328261881
 31
0.0
  0
LINE
  5
546
102
{ACAD_REACTORS
330
5E7
102
}
330
1F
100
AcDbEntity
  8
実線
100
AcDbLine
 10
754.4842061869693
 20
360.9419328261881
 30
0.0
 11
754.4842061869693
 21
331.4419328261881
 31
0.0
  0
ARC
  5
547
102
{ACAD_REACTORS
330
5E7
102
}
330
1F
100
AcDbEntity
  8
実線
100
AcDbCircle
 10
824.4842061869693
 20
331.4419328261881
 30
0.0
 40
70.00000000000003
100
AcDbArc
 50
180.0
 51
215.8534670634663
  0
ARC
  5
548
102
{ACAD_REACTORS
330
5E7
102
}
330
1F
100
AcDbEntity
  8
実線
100
AcDbCircle
 10
822.4842061869694
 20
331.4419328261881
 30
0.0
 40
57.99999999999997
100
AcDbArc
 50
193.9679626746511
 51
224.9829679599013
  0
ARC
  5
549
102
{ACAD_REACTORS
330
5E7
102
}
330
1F
100
AcDbEntity
  8
実線
100
AcDbCircle
 10
775.0842061869692
 20
331.4419328261881
 30
0.0
 40
57.99999999999997
100
AcDbArc
 50
315.0170320400987
 51
346.0320373253488
  0
ARC
  5
54A
102
{ACAD_REACTORS
330
5E7
102
}
330
1F
100
AcDbEntity
  8
実線
100
AcDbCircle
 10
773.0842061869692
 20
331.4419328261881
 30
0.0
 40
70.00000000000003
100
AcDbArc
 50
324.1465329365337
 51
0.0
  0
LINE
  5
54B
102
{ACAD_REACTORS
330
5E7
102
}
330
1F
100
AcDbEntity
  8
実線
100
AcDbLine
 10
843.0842061869693
 20
360.9419328261881
 30
0.0
 11
843.0842061869693
 21
331.4419328261881
 31
0.0
  0
LINE
  5
54C
102
{ACAD_REACTORS
330
5E7
102
}
330
1F
100
AcDbEntity
  8
実線
100
AcDbLine
 10
837.1695875189292
 20
360.9419328261881
 30
0.0
 11
837.1695875189292
 21
317.4419328261881
 31
0.0
  0
LINE
  5
54D
102
{ACAD_REACTORS
330
5E7
102
}
330
1F
100
AcDbEntity
  8
実線
100
AcDbLine
 10
760.3988248550091
 20
360.9419328261881
 30
0.0
 11
760.3988248550091
 21
317.4419328261881
 31
0.0
  0
LINE
  5
54E
102
{ACAD_REACTORS
330
5E7
102
}
330
1F
100
AcDbEntity
  8
実線
100
AcDbLine
 10
760.3988248550091
 20
317.4419328261881
 30
0.0
 11
837.1695875189292
 21
317.4419328261881
 31
0.0
  0
LINE
  5
54F
102
{ACAD_REACTORS
330
5E7
102
}
330
1F
100
AcDbEntity
  8
実線
100
AcDbLine
 10
751.8070364180852
 20
290.4419328261881
 30
0.0
 11
845.7613759558533
 21
290.4419328261881
 31
0.0
  0
LINE
  5
550
102
{ACAD_REACTORS
330
5E7
102
}
330
1F
100
AcDbEntity
  8
実線
100
AcDbLine
 10
751.8070364180852
 20
276.9419328261881
 30
0.0
 11
845.7613759558533
 21
276.9419328261881
 31
0.0
  0
LINE
  5
551
102
{ACAD_REACTORS
330
5E7
102
}
330
1F
100
AcDbEntity
  8
実線
100
AcDbLine
 10
845.7613759558533
 20
276.9419328261881
 30
0.0
 11
845.7613759558533
 21
290.4419328261881
 31
0.0
  0
LINE
  5
552
102
{ACAD_REACTORS
330
5E7
102
}
330
1F
100
AcDbEntity
  8
実線
100
AcDbLine
 10
751.8070364180852
 20
290.4419328261881
 30
0.0
 11
751.8070364180852
 21
276.9419328261881
 31
0.0
  0
LINE
  5
553
102
{ACAD_REACTORS
330
5E7
102
}
330
1F
100
AcDbEntity
  8
実線
100
AcDbLine
 10
780.7553093765453
 20
290.4419328261881
 30
0.0
 11
780.7553093765453
 21
276.9419328261881
 31
0.0
  0
LINE
  5
554
102
{ACAD_REACTORS
330
5E7
102
}
330
1F
100
AcDbEntity
  8
実線
100
AcDbLine
 10
816.8131029973931
 20
290.4419328261881
 30
0.0
 11
816.8131029973931
 21
276.9419328261881
 31
0.0
  0
LINE
  5
555
102
{ACAD_REACTORS
330
5E7
102
}
330
1F
100
AcDbEntity
  8
実線
100
AcDbLine
 10
751.7842061869693
 20
441.441932826188
 30
0.0
 11
845.7842061869692
 21
441.441932826188
 31
0.0
  0
ARC
  5
556
102
{ACAD_REACTORS
330
5E7
102
}
330
1F
100
AcDbEntity
  8
実線
100
AcDbCircle
 10
845.7842061869692
 20
438.4419328261881
 30
0.0
 40
3.0
100
AcDbArc
 50
0.0
 51
90.0
  0
ARC
  5
557
102
{ACAD_REACTORS
330
5E7
102
}
330
1F
100
AcDbEntity
  8
実線
100
AcDbCircle
 10
751.7842061869693
 20
438.4419328261881
 30
0.0
 40
3.0
100
AcDbArc
 50
90.0
 51
180.0
  0
LINE
  5
558
102
{ACAD_REACTORS
330
5E7
102
}
330
1F
100
AcDbEntity
  8
実線
100
AcDbLine
 10
848.7842061869693
 20
436.941932826188
 30
0.0
 11
848.7842061869693
 21
438.4419328261881
 31
0.0
  0
LINE
  5
559
102
{ACAD_REACTORS
330
5E7
102
}
330
1F
100
AcDbEntity
  8
実線
100
AcDbLine
 10
748.7842061869693
 20
438.4419328261881
 30
0.0
 11
748.7842061869693
 21
436.941932826188
 31
0.0
  0
LINE
  5
55A
102
{ACAD_REACTORS
330
5E8
102
}
330
1F
100
AcDbEntity
  8
実線
100
AcDbLine
 10
514.7842061869694
 20
465.941932826188
 30
0.0
 11
602.7842061869693
 21
465.941932826188
 31
0.0
  0
LINE
  5
55B
102
{ACAD_REACTORS
330
5E8
102
}
330
1F
100
AcDbEntity
  8
実線
100
AcDbLine
 10
515.4842061869692
 20
469.6419328261881
 30
0.0
 11
514.7842061869694
 21
465.941932826188
 31
0.0
  0
LINE
  5
55C
102
{ACAD_REACTORS
330
5E8
102
}
330
1F
100
AcDbEntity
  8
実線
100
AcDbLine
 10
602.7842061869693
 20
465.941932826188
 30
0.0
 11
602.0842061869688
 21
469.6419328261881
 31
0.0
  0
LINE
  5
55D
102
{ACAD_REACTORS
330
5E8
102
}
330
1F
100
AcDbEntity
  8
実線
100
AcDbLine
 10
516.2842061869691
 20
582.6419328261879
 30
0.0
 11
601.2842061869694
 21
582.6419328261879
 31
0.0
  0
LINE
  5
55E
102
{ACAD_REACTORS
330
5E8
102
}
330
1F
100
AcDbEntity
  8
実線
100
AcDbLine
 10
575.284206186969
 20
591.841932826188
 30
0.0
 11
542.2842061869694
 21
591.841932826188
 31
0.0
  0
LINE
  5
55F
102
{ACAD_REACTORS
330
5E8
102
}
330
1F
100
AcDbEntity
  8
実線
100
AcDbLine
 10
542.2842061869694
 20
591.841932826188
 30
0.0
 11
516.2842061869691
 21
582.6419328261879
 31
0.0
  0
LINE
  5
560
102
{ACAD_REACTORS
330
5E8
102
}
330
1F
100
AcDbEntity
  8
実線
100
AcDbLine
 10
601.2842061869694
 20
582.6419328261879
 30
0.0
 11
575.284206186969
 21
591.841932826188
 31
0.0
  0
LINE
  5
561
102
{ACAD_REACTORS
330
5E8
102
}
330
1F
100
AcDbEntity
  8
実線
100
AcDbLine
 10
601.2842061869694
 20
505.6419328261881
 30
0.0
 11
601.2842061869694
 21
582.6419328261882
 31
0.0
  0
LINE
  5
562
102
{ACAD_REACTORS
330
5E8
102
}
330
1F
100
AcDbEntity
  8
実線
100
AcDbLine
 10
516.2842061869691
 20
582.6419328261882
 30
0.0
 11
516.2842061869691
 21
505.6419328261881
 31
0.0
  0
LINE
  5
563
102
{ACAD_REACTORS
330
5E8
102
}
330
1F
100
AcDbEntity
  8
実線
100
AcDbLine
 10
602.0842061869688
 20
505.6419328261881
 30
0.0
 11
515.4842061869691
 21
505.6419328261881
 31
0.0
  0
LINE
  5
564
102
{ACAD_REACTORS
330
5E8
102
}
330
1F
100
AcDbEntity
  8
実線
100
AcDbLine
 10
515.4842061869692
 20
469.6419328261881
 30
0.0
 11
602.0842061869688
 21
469.6419328261881
 31
0.0
  0
LINE
  5
565
102
{ACAD_REACTORS
330
5E8
102
}
330
1F
100
AcDbEntity
  8
実線
100
AcDbLine
 10
602.0842061869688
 20
469.6419328261881
 30
0.0
 11
602.0842061869688
 21
505.6419328261881
 31
0.0
  0
LINE
  5
566
102
{ACAD_REACTORS
330
5E8
102
}
330
1F
100
AcDbEntity
  8
実線
100
AcDbLine
 10
515.4842061869692
 20
505.6419328261881
 30
0.0
 11
515.4842061869692
 21
469.6419328261881
 31
0.0
  0
LINE
  5
567
102
{ACAD_REACTORS
330
5E8
102
}
330
1F
100
AcDbEntity
  8
実線
100
AcDbLine
 10
571.7842061869694
 20
452.9419328261879
 30
0.0
 11
571.7842061869694
 21
465.941932826188
 31
0.0
  0
LINE
  5
568
102
{ACAD_REACTORS
330
5E8
102
}
330
1F
100
AcDbEntity
  8
実線
100
AcDbLine
 10
545.7842061869691
 20
465.941932826188
 30
0.0
 11
545.7842061869691
 21
452.9419328261879
 31
0.0
  0
LINE
  5
569
102
{ACAD_REACTORS
330
5E8
102
}
330
1F
100
AcDbEntity
  8
実線
100
AcDbLine
 10
593.7842061869692
 20
452.9419328261879
 30
0.0
 11
523.7842061869691
 21
452.9419328261879
 31
0.0
  0
LINE
  5
56A
102
{ACAD_REACTORS
330
5E8
102
}
330
1F
100
AcDbEntity
  8
実線
100
AcDbLine
 10
593.7842061869692
 20
441.441932826188
 30
0.0
 11
593.7842061869692
 21
452.9419328261879
 31
0.0
  0
LINE
  5
56B
102
{ACAD_REACTORS
330
5E8
102
}
330
1F
100
AcDbEntity
  8
実線
100
AcDbLine
 10
523.7842061869691
 20
452.9419328261879
 30
0.0
 11
523.7842061869691
 21
441.441932826188
 31
0.0
  0
LINE
  5
56C
102
{ACAD_REACTORS
330
5E8
102
}
330
1F
100
AcDbEntity
  8
実線
100
AcDbLine
 10
608.7842061869694
 20
436.941932826188
 30
0.0
 11
508.7842061869691
 21
436.941932826188
 31
0.0
  0
LINE
  5
56D
102
{ACAD_REACTORS
330
5E8
102
}
330
1F
100
AcDbEntity
  8
実線
100
AcDbLine
 10
508.7842061869691
 20
360.9419328261881
 30
0.0
 11
608.7842061869694
 21
360.9419328261881
 31
0.0
  0
LINE
  5
56E
102
{ACAD_REACTORS
330
5E8
102
}
330
1F
100
AcDbEntity
  8
実線
100
AcDbLine
 10
608.7842061869694
 20
360.9419328261881
 30
0.0
 11
608.7842061869694
 21
436.941932826188
 31
0.0
  0
LINE
  5
56F
102
{ACAD_REACTORS
330
5E8
102
}
330
1F
100
AcDbEntity
  8
実線
100
AcDbLine
 10
508.7842061869691
 20
436.941932826188
 30
0.0
 11
508.7842061869691
 21
360.9419328261881
 31
0.0
  0
LINE
  5
570
102
{ACAD_REACTORS
330
5E8
102
}
330
1F
100
AcDbEntity
  8
実線
100
AcDbLine
 10
577.834206186969
 20
217.1419328261881
 30
0.0
 11
577.834206186969
 21
226.241932826188
 31
0.0
  0
LINE
  5
571
102
{ACAD_REACTORS
330
5E8
102
}
330
1F
100
AcDbEntity
  8
実線
100
AcDbLine
 10
539.7342061869692
 20
226.241932826188
 30
0.0
 11
539.7342061869692
 21
217.1419328261881
 31
0.0
  0
LINE
  5
572
102
{ACAD_REACTORS
330
5E8
102
}
330
1F
100
AcDbEntity
  8
実線
100
AcDbLine
 10
584.0342061869692
 20
212.0419328261881
 30
0.0
 11
533.5342061869694
 21
212.0419328261881
 31
0.0
  0
LINE
  5
573
102
{ACAD_REACTORS
330
5E8
102
}
330
1F
100
AcDbEntity
  8
実線
100
AcDbLine
 10
584.0342061869692
 20
212.0419328261881
 30
0.0
 11
584.0342061869692
 21
214.7919328261881
 31
0.0
  0
LINE
  5
574
102
{ACAD_REACTORS
330
5E8
102
}
330
1F
100
AcDbEntity
  8
実線
100
AcDbLine
 10
533.5342061869694
 20
214.7919328261881
 30
0.0
 11
533.5342061869694
 21
212.0419328261881
 31
0.0
  0
LINE
  5
575
102
{ACAD_REACTORS
330
5E8
102
}
330
1F
100
AcDbEntity
  8
実線
100
AcDbLine
 10
584.0342061869692
 20
214.7919328261881
 30
0.0
 11
533.5342061869694
 21
214.7919328261881
 31
0.0
  0
LINE
  5
576
102
{ACAD_REACTORS
330
5E8
102
}
330
1F
100
AcDbEntity
  8
実線
100
AcDbLine
 10
577.834206186969
 20
217.1419328261881
 30
0.0
 11
539.7342061869692
 21
217.1419328261881
 31
0.0
  0
LINE
  5
577
102
{ACAD_REACTORS
330
5E8
102
}
330
1F
100
AcDbEntity
  8
実線
100
AcDbLine
 10
539.7342061869692
 20
217.1419328261881
 30
0.0
 11
533.5342061869694
 21
214.7919328261881
 31
0.0
  0
LINE
  5
578
102
{ACAD_REACTORS
330
5E8
102
}
330
1F
100
AcDbEntity
  8
実線
100
AcDbLine
 10
584.0342061869692
 20
214.7919328261881
 30
0.0
 11
577.834206186969
 21
217.1419328261881
 31
0.0
  0
LINE
  5
579
102
{ACAD_REACTORS
330
5E8
102
}
330
1F
100
AcDbEntity
  8
実線
100
AcDbLine
 10
511.8070364180854
 20
276.9419328261881
 30
0.0
 11
511.8070364180854
 21
266.9419328261882
 31
0.0
  0
LINE
  5
57A
102
{ACAD_REACTORS
330
5E8
102
}
330
1F
100
AcDbEntity
  8
実線
100
AcDbLine
 10
511.8070364180854
 20
266.9419328261881
 30
0.0
 11
540.7553093765451
 21
266.9419328261881
 31
0.0
  0
LINE
  5
57B
102
{ACAD_REACTORS
330
5E8
102
}
330
1F
100
AcDbEntity
  8
実線
100
AcDbLine
 10
605.7613759558534
 20
266.9419328261881
 30
0.0
 11
576.813102997393
 21
266.9419328261881
 31
0.0
  0
LINE
  5
57C
102
{ACAD_REACTORS
330
5E8
102
}
330
1F
100
AcDbEntity
  8
実線
100
AcDbLine
 10
605.7613759558534
 20
266.9419328261881
 30
0.0
 11
605.7613759558534
 21
276.9419328261881
 31
0.0
  0
LINE
  5
57D
102
{ACAD_REACTORS
330
5E8
102
}
330
1F
100
AcDbEntity
  8
実線
100
AcDbLine
 10
540.7553093765451
 20
276.9419328261881
 30
0.0
 11
540.7553093765451
 21
266.9419328261882
 31
0.0
  0
LINE
  5
57E
102
{ACAD_REACTORS
330
5E8
102
}
330
1F
100
AcDbEntity
  8
実線
100
AcDbLine
 10
576.813102997393
 20
276.9419328261881
 30
0.0
 11
576.813102997393
 21
266.9419328261882
 31
0.0
  0
LINE
  5
57F
102
{ACAD_REACTORS
330
5E8
102
}
330
1F
100
AcDbEntity
  8
実線
100
AcDbLine
 10
518.7842061869692
 20
266.9419328261881
 30
0.0
 11
518.7842061869692
 21
239.2419328261881
 31
0.0
  0
LINE
  5
580
102
{ACAD_REACTORS
330
5E8
102
}
330
1F
100
AcDbEntity
  8
実線
100
AcDbLine
 10
598.7842061869691
 20
239.2419328261881
 30
0.0
 11
598.7842061869691
 21
266.9419328261881
 31
0.0
  0
LINE
  5
581
102
{ACAD_REACTORS
330
5E8
102
}
330
1F
100
AcDbEntity
  8
実線
100
AcDbLine
 10
531.7842061869692
 20
226.241932826188
 30
0.0
 11
585.7842061869692
 21
226.241932826188
 31
0.0
  0
ARC
  5
582
102
{ACAD_REACTORS
330
5E8
102
}
330
1F
100
AcDbEntity
  8
実線
100
AcDbCircle
 10
531.7842061869692
 20
239.2419328261881
 30
0.0
 40
13.0
100
AcDbArc
 50
180.0
 51
270.0
  0
ARC
  5
583
102
{ACAD_REACTORS
330
5E8
102
}
330
1F
100
AcDbEntity
  8
実線
100
AcDbCircle
 10
585.7842061869692
 20
239.2419328261881
 30
0.0
 40
13.0
100
AcDbArc
 50
270.0
 51
0.0
  0
LINE
  5
584
102
{ACAD_REACTORS
330
5E8
102
}
330
1F
100
AcDbEntity
  8
実線
100
AcDbLine
 10
518.7842061869692
 20
360.9419328261881
 30
0.0
 11
518.7842061869692
 21
317.4419328261881
 31
0.0
  0
LINE
  5
585
102
{ACAD_REACTORS
330
5E8
102
}
330
1F
100
AcDbEntity
  8
実線
100
AcDbLine
 10
518.7842061869692
 20
317.4419328261881
 30
0.0
 11
547.5342061869691
 21
317.4419328261881
 31
0.0
  0
LINE
  5
586
102
{ACAD_REACTORS
330
5E8
102
}
330
1F
100
AcDbEntity
  8
実線
100
AcDbLine
 10
570.0342061869694
 20
317.4419328261881
 30
0.0
 11
598.7842061869691
 21
317.4419328261881
 31
0.0
  0
LINE
  5
587
102
{ACAD_REACTORS
330
5E8
102
}
330
1F
100
AcDbEntity
  8
実線
100
AcDbLine
 10
598.7842061869691
 20
317.4419328261881
 30
0.0
 11
598.7842061869691
 21
360.9419328261881
 31
0.0
  0
LINE
  5
588
102
{ACAD_REACTORS
330
5E8
102
}
330
1F
100
AcDbEntity
  8
実線
100
AcDbLine
 10
547.5342061869691
 20
290.4419328261881
 30
0.0
 11
547.5342061869691
 21
360.9419328261881
 31
0.0
  0
LINE
  5
589
102
{ACAD_REACTORS
330
5E8
102
}
330
1F
100
AcDbEntity
  8
実線
100
AcDbLine
 10
570.0342061869694
 20
290.4419328261881
 30
0.0
 11
570.0342061869694
 21
360.9419328261881
 31
0.0
  0
LINE
  5
58A
102
{ACAD_REACTORS
330
5E8
102
}
330
1F
100
AcDbEntity
  8
実線
100
AcDbLine
 10
605.7613759558534
 20
290.4419328261881
 30
0.0
 11
511.8070364180854
 21
290.4419328261881
 31
0.0
  0
LINE
  5
58B
102
{ACAD_REACTORS
330
5E8
102
}
330
1F
100
AcDbEntity
  8
実線
100
AcDbLine
 10
605.7613759558534
 20
276.9419328261881
 30
0.0
 11
511.8070364180854
 21
276.9419328261881
 31
0.0
  0
LINE
  5
58C
102
{ACAD_REACTORS
330
5E8
102
}
330
1F
100
AcDbEntity
  8
実線
100
AcDbLine
 10
511.8070364180854
 20
290.4419328261881
 30
0.0
 11
511.8070364180854
 21
276.9419328261881
 31
0.0
  0
LINE
  5
58D
102
{ACAD_REACTORS
330
5E8
102
}
330
1F
100
AcDbEntity
  8
実線
100
AcDbLine
 10
605.7613759558534
 20
276.9419328261881
 30
0.0
 11
605.7613759558534
 21
290.4419328261881
 31
0.0
  0
LINE
  5
58E
102
{ACAD_REACTORS
330
5E8
102
}
330
1F
100
AcDbEntity
  8
実線
100
AcDbLine
 10
540.7553093765451
 20
290.4419328261881
 30
0.0
 11
540.7553093765451
 21
276.9419328261881
 31
0.0
  0
LINE
  5
58F
102
{ACAD_REACTORS
330
5E8
102
}
330
1F
100
AcDbEntity
  8
実線
100
AcDbLine
 10
576.813102997393
 20
290.4419328261881
 30
0.0
 11
576.813102997393
 21
276.9419328261881
 31
0.0
  0
LINE
  5
590
102
{ACAD_REACTORS
330
5E8
102
}
330
1F
100
AcDbEntity
  8
実線
100
AcDbLine
 10
608.7842061869694
 20
436.941932826188
 30
0.0
 11
608.7842061869694
 21
438.4419328261881
 31
0.0
  0
LINE
  5
591
102
{ACAD_REACTORS
330
5E8
102
}
330
1F
100
AcDbEntity
  8
実線
100
AcDbLine
 10
508.7842061869691
 20
438.4419328261881
 30
0.0
 11
508.7842061869691
 21
436.941932826188
 31
0.0
  0
LINE
  5
592
102
{ACAD_REACTORS
330
5E8
102
}
330
1F
100
AcDbEntity
  8
実線
100
AcDbLine
 10
605.7842061869694
 20
441.441932826188
 30
0.0
 11
511.7842061869691
 21
441.441932826188
 31
0.0
  0
ARC
  5
593
102
{ACAD_REACTORS
330
5E8
102
}
330
1F
100
AcDbEntity
  8
実線
100
AcDbCircle
 10
605.7842061869694
 20
438.4419328261881
 30
0.0
 40
3.0
100
AcDbArc
 50
0.0
 51
90.0
  0
ARC
  5
594
102
{ACAD_REACTORS
330
5E8
102
}
330
1F
100
AcDbEntity
  8
実線
100
AcDbCircle
 10
511.7842061869691
 20
438.4419328261881
 30
0.0
 40
3.0
100
AcDbArc
 50
90.0
 51
180.0
  0
LINE
  5
595
102
{ACAD_REACTORS
330
5EA
102
}
330
1F
100
AcDbEntity
  8
実線
100
AcDbLine
 10
362.7842061869696
 20
465.941932826188
 30
0.0
 11
274.7842061869695
 21
465.941932826188
 31
0.0
  0
LINE
  5
596
102
{ACAD_REACTORS
330
5EA
102
}
330
1F
100
AcDbEntity
  8
実線
100
AcDbLine
 10
275.4842061869695
 20
469.6419328261881
 30
0.0
 11
274.7842061869695
 21
465.941932826188
 31
0.0
  0
LINE
  5
597
102
{ACAD_REACTORS
330
5EA
102
}
330
1F
100
AcDbEntity
  8
実線
100
AcDbLine
 10
362.7842061869696
 20
465.941932826188
 30
0.0
 11
362.0842061869697
 21
469.6419328261881
 31
0.0
  0
LINE
  5
598
102
{ACAD_REACTORS
330
5EA
102
}
330
1F
100
AcDbEntity
  8
実線
100
AcDbLine
 10
362.0842061869697
 20
469.6419328261881
 30
0.0
 11
275.4842061869695
 21
469.6419328261881
 31
0.0
  0
LINE
  5
599
102
{ACAD_REACTORS
330
5EA
102
}
330
1F
100
AcDbEntity
  8
実線
100
AcDbLine
 10
361.2842061869697
 20
582.6419328261879
 30
0.0
 11
276.2842061869695
 21
582.6419328261879
 31
0.0
  0
LINE
  5
59A
102
{ACAD_REACTORS
330
5EA
102
}
330
1F
100
AcDbEntity
  8
実線
100
AcDbLine
 10
302.2842061869695
 20
591.841932826188
 30
0.0
 11
276.2842061869695
 21
582.6419328261879
 31
0.0
  0
LINE
  5
59B
102
{ACAD_REACTORS
330
5EA
102
}
330
1F
100
AcDbEntity
  8
実線
100
AcDbLine
 10
361.2842061869697
 20
582.6419328261879
 30
0.0
 11
335.2842061869698
 21
591.841932826188
 31
0.0
  0
LINE
  5
59C
102
{ACAD_REACTORS
330
5EA
102
}
330
1F
100
AcDbEntity
  8
実線
100
AcDbLine
 10
335.2842061869695
 20
591.841932826188
 30
0.0
 11
302.2842061869695
 21
591.841932826188
 31
0.0
  0
LINE
  5
59D
102
{ACAD_REACTORS
330
5EA
102
}
330
1F
100
AcDbEntity
  8
実線
100
AcDbLine
 10
361.2842061869697
 20
505.6419328261881
 30
0.0
 11
361.2842061869697
 21
582.6419328261882
 31
0.0
  0
LINE
  5
59E
102
{ACAD_REACTORS
330
5EA
102
}
330
1F
100
AcDbEntity
  8
実線
100
AcDbLine
 10
276.2842061869695
 20
582.6419328261882
 30
0.0
 11
276.2842061869695
 21
505.6419328261881
 31
0.0
  0
LINE
  5
59F
102
{ACAD_REACTORS
330
5EA
102
}
330
1F
100
AcDbEntity
  8
実線
100
AcDbLine
 10
362.0842061869697
 20
469.6419328261881
 30
0.0
 11
362.0842061869697
 21
505.6419328261881
 31
0.0
  0
LINE
  5
5A0
102
{ACAD_REACTORS
330
5EA
102
}
330
1F
100
AcDbEntity
  8
実線
100
AcDbLine
 10
275.4842061869695
 20
505.6419328261881
 30
0.0
 11
275.4842061869695
 21
469.6419328261881
 31
0.0
  0
LINE
  5
5A1
102
{ACAD_REACTORS
330
5EA
102
}
330
1F
100
AcDbEntity
  8
実線
100
AcDbLine
 10
362.0842061869697
 20
505.6419328261881
 30
0.0
 11
275.4842061869695
 21
505.6419328261881
 31
0.0
  0
LINE
  5
5A2
102
{ACAD_REACTORS
330
5EA
102
}
330
1F
100
AcDbEntity
  8
実線
100
AcDbLine
 10
331.7842061869695
 20
452.9419328261879
 30
0.0
 11
331.7842061869695
 21
465.941932826188
 31
0.0
  0
LINE
  5
5A3
102
{ACAD_REACTORS
330
5EA
102
}
330
1F
100
AcDbEntity
  8
実線
100
AcDbLine
 10
305.7842061869698
 20
465.941932826188
 30
0.0
 11
305.7842061869698
 21
452.9419328261879
 31
0.0
  0
LINE
  5
5A4
102
{ACAD_REACTORS
330
5EA
102
}
330
1F
100
AcDbEntity
  8
実線
100
AcDbLine
 10
353.7842061869695
 20
441.441932826188
 30
0.0
 11
353.7842061869695
 21
452.9419328261879
 31
0.0
  0
LINE
  5
5A5
102
{ACAD_REACTORS
330
5EA
102
}
330
1F
100
AcDbEntity
  8
実線
100
AcDbLine
 10
283.7842061869695
 20
452.9419328261879
 30
0.0
 11
283.7842061869695
 21
441.441932826188
 31
0.0
  0
LINE
  5
5A6
102
{ACAD_REACTORS
330
5EA
102
}
330
1F
100
AcDbEntity
  8
実線
100
AcDbLine
 10
353.7842061869695
 20
452.9419328261879
 30
0.0
 11
283.7842061869695
 21
452.9419328261879
 31
0.0
  0
LINE
  5
5A7
102
{ACAD_REACTORS
330
5EA
102
}
330
1F
100
AcDbEntity
  8
実線
100
AcDbLine
 10
368.7842061869696
 20
360.9419328261881
 30
0.0
 11
268.7842061869695
 21
360.9419328261881
 31
0.0
  0
LINE
  5
5A8
102
{ACAD_REACTORS
330
5EA
102
}
330
1F
100
AcDbEntity
  8
実線
100
AcDbLine
 10
368.7842061869696
 20
360.9419328261881
 30
0.0
 11
368.7842061869696
 21
436.941932826188
 31
0.0
  0
LINE
  5
5A9
102
{ACAD_REACTORS
330
5EA
102
}
330
1F
100
AcDbEntity
  8
実線
100
AcDbLine
 10
268.7842061869695
 20
436.941932826188
 30
0.0
 11
268.7842061869695
 21
360.9419328261881
 31
0.0
  0
LINE
  5
5AA
102
{ACAD_REACTORS
330
5EA
102
}
330
1F
100
AcDbEntity
  8
実線
100
AcDbLine
 10
368.7842061869696
 20
436.941932826188
 30
0.0
 11
268.7842061869695
 21
436.941932826188
 31
0.0
  0
LINE
  5
5AB
102
{ACAD_REACTORS
330
5EA
102
}
330
1F
100
AcDbEntity
  8
実線
100
AcDbLine
 10
324.7842061869695
 20
290.4419328261881
 30
0.0
 11
324.7842061869695
 21
317.4419328261881
 31
0.0
  0
LINE
  5
5AC
102
{ACAD_REACTORS
330
5EA
102
}
330
1F
100
AcDbEntity
  8
実線
100
AcDbLine
 10
312.7842061869695
 20
317.4419328261881
 30
0.0
 11
312.7842061869695
 21
290.4419328261881
 31
0.0
  0
LINE
  5
5AD
102
{ACAD_REACTORS
330
5EA
102
}
330
1F
100
AcDbEntity
  8
実線
100
AcDbLine
 10
253.8842061869697
 20
229.9919328261882
 30
0.0
 11
282.649793233747
 21
229.9919328261882
 31
0.0
  0
LINE
  5
5AE
102
{ACAD_REACTORS
330
5EA
102
}
330
1F
100
AcDbEntity
  8
実線
100
AcDbLine
 10
271.8070364180857
 20
268.0919328261882
 30
0.0
 11
253.8842061869697
 21
268.0919328261882
 31
0.0
  0
LINE
  5
5AF
102
{ACAD_REACTORS
330
5EA
102
}
330
1F
100
AcDbEntity
  8
実線
100
AcDbLine
 10
248.7842061869697
 20
223.7919328261881
 30
0.0
 11
251.5342061869695
 21
223.7919328261881
 31
0.0
  0
LINE
  5
5B0
102
{ACAD_REACTORS
330
5EA
102
}
330
1F
100
AcDbEntity
  8
実線
100
AcDbLine
 10
251.5342061869695
 20
274.2919328261881
 30
0.0
 11
248.7842061869697
 21
274.2919328261881
 31
0.0
  0
LINE
  5
5B1
102
{ACAD_REACTORS
330
5EA
102
}
330
1F
100
AcDbEntity
  8
実線
100
AcDbLine
 10
248.7842061869697
 20
223.7919328261881
 30
0.0
 11
248.7842061869697
 21
274.2919328261881
 31
0.0
  0
LINE
  5
5B2
102
{ACAD_REACTORS
330
5EA
102
}
330
1F
100
AcDbEntity
  8
実線
100
AcDbLine
 10
253.8842061869697
 20
268.0919328261882
 30
0.0
 11
251.5342061869695
 21
274.2919328261881
 31
0.0
  0
LINE
  5
5B3
102
{ACAD_REACTORS
330
5EA
102
}
330
1F
100
AcDbEntity
  8
実線
100
AcDbLine
 10
251.5342061869695
 20
223.7919328261881
 30
0.0
 11
253.8842061869697
 21
229.9919328261882
 31
0.0
  0
LINE
  5
5B4
102
{ACAD_REACTORS
330
5EA
102
}
330
1F
100
AcDbEntity
  8
実線
100
AcDbLine
 10
251.5342061869695
 20
274.2919328261881
 30
0.0
 11
251.5342061869695
 21
223.7919328261881
 31
0.0
  0
LINE
  5
5B5
102
{ACAD_REACTORS
330
5EA
102
}
330
1F
100
AcDbEntity
  8
実線
100
AcDbLine
 10
253.8842061869697
 20
268.0919328261882
 30
0.0
 11
253.8842061869697
 21
229.9919328261882
 31
0.0
  0
LINE
  5
5B6
102
{ACAD_REACTORS
330
5EA
102
}
330
1F
100
AcDbEntity
  8
実線
100
AcDbLine
 10
337.8342061869695
 20
217.1419328261881
 30
0.0
 11
337.8342061869695
 21
226.241932826188
 31
0.0
  0
LINE
  5
5B7
102
{ACAD_REACTORS
330
5EA
102
}
330
1F
100
AcDbEntity
  8
実線
100
AcDbLine
 10
299.7342061869695
 20
226.241932826188
 30
0.0
 11
299.7342061869695
 21
217.1419328261881
 31
0.0
  0
LINE
  5
5B8
102
{ACAD_REACTORS
330
5EA
102
}
330
1F
100
AcDbEntity
  8
実線
100
AcDbLine
 10
299.7342061869695
 20
217.1419328261881
 30
0.0
 11
293.5342061869695
 21
214.7919328261881
 31
0.0
  0
LINE
  5
5B9
102
{ACAD_REACTORS
330
5EA
102
}
330
1F
100
AcDbEntity
  8
実線
100
AcDbLine
 10
344.0342061869696
 20
214.7919328261881
 30
0.0
 11
337.8342061869695
 21
217.1419328261881
 31
0.0
  0
LINE
  5
5BA
102
{ACAD_REACTORS
330
5EA
102
}
330
1F
100
AcDbEntity
  8
実線
100
AcDbLine
 10
299.7342061869695
 20
217.1419328261881
 30
0.0
 11
337.8342061869694
 21
217.1419328261881
 31
0.0
  0
LINE
  5
5BB
102
{ACAD_REACTORS
330
5EA
102
}
330
1F
100
AcDbEntity
  8
実線
100
AcDbLine
 10
344.0342061869696
 20
212.0419328261881
 30
0.0
 11
344.0342061869696
 21
214.7919328261881
 31
0.0
  0
LINE
  5
5BC
102
{ACAD_REACTORS
330
5EA
102
}
330
1F
100
AcDbEntity
  8
実線
100
AcDbLine
 10
293.5342061869695
 20
214.7919328261881
 30
0.0
 11
293.5342061869695
 21
212.0419328261881
 31
0.0
  0
LINE
  5
5BD
102
{ACAD_REACTORS
330
5EA
102
}
330
1F
100
AcDbEntity
  8
実線
100
AcDbLine
 10
344.0342061869696
 20
212.0419328261881
 30
0.0
 11
293.5342061869695
 21
212.0419328261881
 31
0.0
  0
LINE
  5
5BE
102
{ACAD_REACTORS
330
5EA
102
}
330
1F
100
AcDbEntity
  8
実線
100
AcDbLine
 10
344.0342061869696
 20
214.7919328261881
 30
0.0
 11
293.5342061869695
 21
214.7919328261881
 31
0.0
  0
LINE
  5
5BF
102
{ACAD_REACTORS
330
5EA
102
}
330
1F
100
AcDbEntity
  8
実線
100
AcDbLine
 10
271.8070364180857
 20
276.9419328261881
 30
0.0
 11
271.8070364180857
 21
266.9419328261882
 31
0.0
  0
LINE
  5
5C0
102
{ACAD_REACTORS
330
5EA
102
}
330
1F
100
AcDbEntity
  8
実線
100
AcDbLine
 10
271.8070364180857
 20
266.9419328261881
 30
0.0
 11
300.7553093765455
 21
266.9419328261881
 31
0.0
  0
LINE
  5
5C1
102
{ACAD_REACTORS
330
5EA
102
}
330
1F
100
AcDbEntity
  8
実線
100
AcDbLine
 10
365.7613759558535
 20
266.9419328261881
 30
0.0
 11
336.8131029973936
 21
266.9419328261881
 31
0.0
  0
LINE
  5
5C2
102
{ACAD_REACTORS
330
5EA
102
}
330
1F
100
AcDbEntity
  8
実線
100
AcDbLine
 10
365.7613759558535
 20
266.9419328261881
 30
0.0
 11
365.7613759558535
 21
276.9419328261881
 31
0.0
  0
LINE
  5
5C3
102
{ACAD_REACTORS
330
5EA
102
}
330
1F
100
AcDbEntity
  8
実線
100
AcDbLine
 10
291.7842061869695
 20
226.241932826188
 30
0.0
 11
345.7842061869695
 21
226.241932826188
 31
0.0
  0
ARC
  5
5C4
102
{ACAD_REACTORS
330
5EA
102
}
330
1F
100
AcDbEntity
  8
実線
100
AcDbCircle
 10
291.7842061869695
 20
239.2419328261881
 30
0.0
 40
13.0
100
AcDbArc
 50
225.3602270413949
 51
270.0
  0
ARC
  5
5C5
102
{ACAD_REACTORS
330
5EA
102
}
330
1F
100
AcDbEntity
  8
実線
100
AcDbCircle
 10
345.7842061869695
 20
239.2419328261881
 30
0.0
 40
13.0
100
AcDbArc
 50
270.0
 51
0.0
  0
LINE
  5
5C6
102
{ACAD_REACTORS
330
5EA
102
}
330
1F
100
AcDbEntity
  8
実線
100
AcDbLine
 10
336.8131029973936
 20
276.9419328261881
 30
0.0
 11
336.8131029973936
 21
266.9419328261882
 31
0.0
  0
LINE
  5
5C7
102
{ACAD_REACTORS
330
5EA
102
}
330
1F
100
AcDbEntity
  8
実線
100
AcDbLine
 10
300.7553093765455
 20
276.9419328261881
 30
0.0
 11
300.7553093765455
 21
266.9419328261882
 31
0.0
  0
LINE
  5
5C8
102
{ACAD_REACTORS
330
5EA
102
}
330
1F
100
AcDbEntity
  8
実線
100
AcDbLine
 10
358.7842061869697
 20
239.2419328261881
 30
0.0
 11
358.7842061869697
 21
266.9419328261881
 31
0.0
  0
LINE
  5
5C9
102
{ACAD_REACTORS
330
5EA
102
}
330
1F
100
AcDbEntity
  8
実線
100
AcDbLine
 10
274.4842061869695
 20
360.9419328261881
 30
0.0
 11
274.4842061869695
 21
331.4419328261881
 31
0.0
  0
ARC
  5
5CA
102
{ACAD_REACTORS
330
5EA
102
}
330
1F
100
AcDbEntity
  8
実線
100
AcDbCircle
 10
344.4842061869695
 20
331.4419328261881
 30
0.0
 40
70.00000000000003
100
AcDbArc
 50
180.0
 51
215.8534670634657
  0
ARC
  5
5CB
102
{ACAD_REACTORS
330
5EA
102
}
330
1F
100
AcDbEntity
  8
実線
100
AcDbCircle
 10
342.4842061869695
 20
331.4419328261881
 30
0.0
 40
57.99999999999997
100
AcDbArc
 50
193.9679626746511
 51
224.9829679599013
  0
ARC
  5
5CC
102
{ACAD_REACTORS
330
5EA
102
}
330
1F
100
AcDbEntity
  8
実線
100
AcDbCircle
 10
295.0842061869697
 20
331.4419328261881
 30
0.0
 40
57.99999999999997
100
AcDbArc
 50
315.0170320400987
 51
346.0320373253488
  0
ARC
  5
5CD
102
{ACAD_REACTORS
330
5EA
102
}
330
1F
100
AcDbEntity
  8
実線
100
AcDbCircle
 10
293.0842061869695
 20
331.4419328261881
 30
0.0
 40
70.00000000000003
100
AcDbArc
 50
324.1465329365344
 51
0.0
  0
LINE
  5
5CE
102
{ACAD_REACTORS
330
5EA
102
}
330
1F
100
AcDbEntity
  8
実線
100
AcDbLine
 10
363.0842061869695
 20
360.9419328261881
 30
0.0
 11
363.0842061869695
 21
331.4419328261881
 31
0.0
  0
LINE
  5
5CF
102
{ACAD_REACTORS
330
5EA
102
}
330
1F
100
AcDbEntity
  8
実線
100
AcDbLine
 10
280.3988248550094
 20
317.4419328261881
 30
0.0
 11
357.1695875189297
 21
317.4419328261881
 31
0.0
  0
LINE
  5
5D0
102
{ACAD_REACTORS
330
5EA
102
}
330
1F
100
AcDbEntity
  8
実線
100
AcDbLine
 10
280.3988248550094
 20
360.9419328261881
 30
0.0
 11
280.3988248550094
 21
317.4419328261881
 31
0.0
  0
LINE
  5
5D1
102
{ACAD_REACTORS
330
5EA
102
}
330
1F
100
AcDbEntity
  8
実線
100
AcDbLine
 10
357.1695875189297
 20
360.9419328261881
 30
0.0
 11
357.1695875189297
 21
317.4419328261881
 31
0.0
  0
LINE
  5
5D2
102
{ACAD_REACTORS
330
5EA
102
}
330
1F
100
AcDbEntity
  8
実線
100
AcDbLine
 10
365.7613759558535
 20
290.4419328261881
 30
0.0
 11
271.8070364180857
 21
290.4419328261881
 31
0.0
  0
LINE
  5
5D3
102
{ACAD_REACTORS
330
5EA
102
}
330
1F
100
AcDbEntity
  8
実線
100
AcDbLine
 10
365.7613759558535
 20
276.9419328261881
 30
0.0
 11
271.8070364180857
 21
276.9419328261881
 31
0.0
  0
LINE
  5
5D4
102
{ACAD_REACTORS
330
5EA
102
}
330
1F
100
AcDbEntity
  8
実線
100
AcDbLine
 10
271.8070364180857
 20
290.4419328261881
 30
0.0
 11
271.8070364180857
 21
276.9419328261881
 31
0.0
  0
LINE
  5
5D5
102
{ACAD_REACTORS
330
5EA
102
}
330
1F
100
AcDbEntity
  8
実線
100
AcDbLine
 10
365.7613759558535
 20
276.9419328261881
 30
0.0
 11
365.7613759558535
 21
290.4419328261881
 31
0.0
  0
LINE
  5
5D6
102
{ACAD_REACTORS
330
5EA
102
}
330
1F
100
AcDbEntity
  8
実線
100
AcDbLine
 10
336.8131029973936
 20
290.4419328261881
 30
0.0
 11
336.8131029973936
 21
276.9419328261881
 31
0.0
  0
LINE
  5
5D7
102
{ACAD_REACTORS
330
5EA
102
}
330
1F
100
AcDbEntity
  8
実線
100
AcDbLine
 10
300.7553093765455
 20
290.4419328261881
 30
0.0
 11
300.7553093765455
 21
276.9419328261881
 31
0.0
  0
LINE
  5
5D8
102
{ACAD_REACTORS
330
5EA
102
}
330
1F
100
AcDbEntity
  8
実線
100
AcDbLine
 10
368.7842061869696
 20
436.941932826188
 30
0.0
 11
368.7842061869696
 21
438.4419328261881
 31
0.0
  0
LINE
  5
5D9
102
{ACAD_REACTORS
330
5EA
102
}
330
1F
100
AcDbEntity
  8
実線
100
AcDbLine
 10
268.7842061869695
 20
438.4419328261881
 30
0.0
 11
268.7842061869695
 21
436.941932826188
 31
0.0
  0
LINE
  5
5DA
102
{ACAD_REACTORS
330
5EA
102
}
330
1F
100
AcDbEntity
  8
実線
100
AcDbLine
 10
271.7842061889525
 20
441.441932826188
 30
0.0
 11
365.7842061869696
 21
441.441932826188
 31
0.0
  0
ARC
  5
5DB
102
{ACAD_REACTORS
330
5EA
102
}
330
1F
100
AcDbEntity
  8
実線
100
AcDbCircle
 10
365.7842061869696
 20
438.4419328261881
 30
0.0
 40
3.0
100
AcDbArc
 50
0.0
 51
90.0
  0
ARC
  5
5DC
102
{ACAD_REACTORS
330
5EA
102
}
330
1F
100
AcDbEntity
  8
実線
100
AcDbCircle
 10
271.7842061869695
 20
438.4419328261881
 30
0.0
 40
3.0
100
AcDbArc
 50
90.0
 51
180.0
  0
LINE
  5
5E4
102
{ACAD_REACTORS
330
5EA
102
}
330
1F
100
AcDbEntity
  8
中心線
100
AcDbLine
 10
318.7842061869695
 20
194.0419328261882
 30
0.0
 11
318.7842061869695
 21
608.5091639083534
 31
0.0
  0
LINE
  5
5E5
102
{ACAD_REACTORS
330
5E8
102
}
330
1F
100
AcDbEntity
  8
中心線
100
AcDbLine
 10
558.7842061869694
 20
194.0419328261881
 30
0.0
 11
558.7842061869694
 21
608.5091639083536
 31
0.0
  0
LINE
  5
5E6
102
{ACAD_REACTORS
330
5E7
102
}
330
1F
100
AcDbEntity
  8
中心線
100
AcDbLine
 10
798.7842061869692
 20
194.0419328261879
 30
0.0
 11
798.7842061869693
 21
608.5091639083534
 31
0.0
  0
ENDSEC
  0
SECTION
  2
OBJECTS
  0
DICTIONARY
  5
C
330
0
100
AcDbDictionary
281
     1
  3
ACAD_CIP_PREVIOUS_PRODUCT_INFO
350
225
  3
ACAD_COLOR
350
21B
  3
ACAD_DETAILVIEWSTYLE
350
21E
  3
ACAD_GROUP
350
D
  3
ACAD_LAYOUT
350
1A
  3
ACAD_MATERIAL
350
43
  3
ACAD_MLEADERSTYLE
350
5B
  3
ACAD_MLINESTYLE
350
17
  3
ACAD_PLOTSETTINGS
350
19
  3
ACAD_PLOTSTYLENAME
350
E
  3
ACAD_SCALELIST
350
47
  3
ACAD_SECTIONVIEWSTYLE
350
21C
  3
ACAD_TABLESTYLE
350
59
  3
ACAD_VISUALSTYLE
350
2A
  3
ACDB_RECOMPOSE_DATA
350
6C7
  3
AcDbVariableDictionary
350
1D0
  3
DWGPROPS
350
6C8
  0
DICTIONARY
  5
22C
330
2
100
AcDbDictionary
280
     1
281
     1
  3
ACAD_LAYERSTATES
360
22D
  0
DICTIONARY
  5
5ED
330
10
100
AcDbDictionary
280
     1
281
     1
  3
ADSK_XREC_LAYER_RECONCILED
360
5EE
  0
DICTIONARY
  5
228
330
227
100
AcDbDictionary
280
     1
281
     1
  3
ADSK_XREC_LAYER_RECONCILED
360
5F1
  0
DICTIONARY
  5
22A
330
229
100
AcDbDictionary
280
     1
281
     1
  3
ADSK_XREC_LAYER_RECONCILED
360
5F2
  0
DICTIONARY
  5
4AC
330
1F
100
AcDbDictionary
280
     1
281
     1
  3
ACAD_SORTENTS
360
4AD
  0
XRECORD
  5
225
102
{ACAD_REACTORS
330
C
102
}
330
C
100
AcDbXrecord
280
     1
300
ACDLT
300
2016
300
ACDLT_F_S
  0
DICTIONARY
  5
21B
102
{ACAD_REACTORS
330
C
102
}
330
C
100
AcDbDictionary
281
     1
  0
DICTIONARY
  5
21E
102
{ACAD_REACTORS
330
C
102
}
330
C
100
AcDbDictionary
281
     1
  3
Metric50
350
21F
  0
DICTIONARY
  5
D
102
{ACAD_REACTORS
330
C
102
}
330
C
100
AcDbDictionary
281
     1
  3
*A1
350
5E7
  3
*A2
350
5E8
  3
*A3
350
5E9
  3
*A4
350
5EA
  3
*A5
350
5EB
  3
*A6
350
5EC
  0
DICTIONARY
  5
1A
102
{ACAD_REACTORS
330
C
102
}
330
C
100
AcDbDictionary
281
     1
  3
Layout1
350
1E
  3
Model
350
22
  3
レイアウト1
350
220
  0
DICTIONARY
  5
43
102
{ACAD_REACTORS
330
C
102
}
330
C
100
AcDbDictionary
281
     1
  3
ByBlock
350
45
  3
ByLayer
350
44
  3
Global
350
46
  0
DICTIONARY
  5
5B
102
{ACAD_REACTORS
330
C
102
}
330
C
100
AcDbDictionary
281
     1
  3
Standard
350
5C
  0
DICTIONARY
  5
17
102
{ACAD_REACTORS
330
C
102
}
330
C
100
AcDbDictionary
281
     1
  3
Standard
350
18
  0
DICTIONARY
  5
19
102
{ACAD_REACTORS
330
C
102
}
330
C
100
AcDbDictionary
281
     1
  0
ACDBDICTIONARYWDFLT
  5
E
102
{ACAD_REACTORS
330
C
102
}
330
C
100
AcDbDictionary
281
     1
  3
Normal
350
F
100
AcDbDictionaryWithDefault
340
F
  0
DICTIONARY
  5
47
102
{ACAD_REACTORS
330
C
102
}
330
C
100
AcDbDictionary
281
     1
  3
A0
350
48
  3
A1
350
49
  3
A2
350
4A
  3
A3
350
4B
  3
A4
350
4C
  3
A5
350
4D
  3
A6
350
4E
  3
A7
350
4F
  3
A8
350
50
  3
A9
350
51
  3
B0
350
52
  3
B1
350
53
  3
B2
350
54
  3
B3
350
55
  3
B4
350
56
  3
B5
350
57
  3
B6
350
58
  0
DICTIONARY
  5
21C
102
{ACAD_REACTORS
330
C
102
}
330
C
100
AcDbDictionary
281
     1
  3
Metric50
350
21D
  0
DICTIONARY
  5
59
102
{ACAD_REACTORS
330
C
102
}
330
C
100
AcDbDictionary
281
     1
  3
Standard
350
5A
  0
DICTIONARY
  5
2A
102
{ACAD_REACTORS
330
C
102
}
330
C
100
AcDbDictionary
281
     1
  3
2dWireframe
350
2F
  3
Basic
350
32
  3
Brighten
350
36
  3
ColorChange
350
3A
  3
Conceptual
350
34
  3
Dim
350
35
  3
EdgeColorOff
350
3D
  3
Facepattern
350
39
  3
Flat
350
2B
  3
FlatWithEdges
350
2C
  3
Gouraud
350
2D
  3
GouraudWithEdges
350
2E
  3
Hidden
350
31
  3
JitterOff
350
3B
  3
Linepattern
350
38
  3
OverhangOff
350
3C
  3
Realistic
350
33
  3
Shaded
350
42
  3
Shaded with edges
350
41
  3
Shades of Gray
350
3E
  3
Sketchy
350
3F
  3
Thicken
350
37
  3
Wireframe
350
30
  3
X-Ray
350
40
  0
XRECORD
  5
6C7
102
{ACAD_REACTORS
330
C
102
}
330
C
100
AcDbXrecord
280
     1
 90
        1
330
5A
  0
DICTIONARY
  5
1D0
102
{ACAD_REACTORS
330
C
102
}
330
C
100
AcDbDictionary
281
     1
  3
CANNOSCALE
350
1DE
  3
CENTEREXE
350
1D7
  3
CENTERLTYPEFILE
350
1D8
  3
CMLEADERSTYLE
350
1D2
  3
CTABLESTYLE
350
1D1
  3
CVIEWDETAILSTYLE
350
5F3
  3
CVIEWSECTIONSTYLE
350
5F4
  3
DIMASSOC
350
1D9
  3
HIDETEXT
350
1DA
  3
INDEXCTL
350
6BF
  3
LAYEREVAL
350
5F6
  3
LAYERNOTIFY
350
5F7
  3
LIGHTINGUNITS
350
5F5
  3
LOFTANG1
350
6C2
  3
LOFTANG2
350
6C3
  3
LONGITUDE
350
6C4
  3
MSLTSCALE
350
1DF
  3
PSOLHEIGHT
350
6C1
  3
PSOLWIDTH
350
6C0
  3
SORTENTS
350
6BE
  3
XCLIPFRAME
350
6C5
  0
XRECORD
  5
6C8
102
{ACAD_REACTORS
330
C
102
}
330
C
100
AcDbXrecord
280
     1
  1
DWGPROPS COOKIE
  2

  3

  4

  6
File was created by TR2_DExp
  7

  8
fujino
  9

300
=
301
=
302
=
303
=
304
=
305
=
306
=
307
=
308
=
309
=
 40
0.0070528819444444
 41
2455188.75
 42
2459747.398697003
  1

 90
        0
  0
DICTIONARY
  5
22D
102
{ACAD_REACTORS
330
22C
102
}
330
22C
100
AcDbDictionary
281
     1
  0
XRECORD
  5
5EE
102
{ACAD_REACTORS
330
5ED
102
}
330
5ED
100
AcDbXrecord
280
     1
290
     1
  0
XRECORD
  5
5F1
102
{ACAD_REACTORS
330
228
102
}
330
228
100
AcDbXrecord
280
     1
290
     1
  0
XRECORD
  5
5F2
102
{ACAD_REACTORS
330
22A
102
}
330
22A
100
AcDbXrecord
280
     1
290
     1
  0
SORTENTSTABLE
  5
4AD
102
{ACAD_REACTORS
330
4AC
102
}
330
4AC
100
AcDbSortentsTable
330
1F
331
5D7
  5
3A1
331
594
  5
3E1
331
5D3
  5
39D
331
5CF
  5
399
331
565
  5
3B2
331
590
  5
3DD
331
4F7
  5
44C
331
526
  5
3F6
331
5CB
  5
395
331
522
  5
3F2
331
561
  5
3AE
331
48D
  5
491
331
4B4
  5
46D
331
4F3
  5
448
331
58C
  5
3D9
331
588
  5
3D5
331
4EF
  5
444
331
51E
  5
3EE
331
55D
  5
3AA
331
5DA
  5
3A4
331
489
  5
5DC
331
4B0
  5
469
331
4A4
  5
4A8
331
4EB
  5
440
331
51A
  5
3EA
331
485
  5
5D8
331
559
  5
429
331
4A0
  5
4A4
331
5C7
  5
391
331
584
  5
3D1
331
5C3
  5
38D
331
555
  5
425
331
580
  5
3CD
331
4E7
  5
43C
331
516
  5
3E6
331
5BF
  5
389
331
5BB
  5
385
331
512
  5
3E2
331
551
  5
421
331
49C
  5
4A0
331
4E3
  5
438
331
57C
  5
3C9
331
578
  5
3C5
331
4DF
  5
434
331
50E
  5
463
331
54D
  5
41D
331
498
  5
49C
331
494
  5
498
331
4DB
  5
430
331
50A
  5
45F
331
549
  5
419
331
490
  5
494
331
5B7
  5
381
331
574
  5
3C1
331
5B3
  5
37D
331
545
  5
415
331
570
  5
3BD
331
4D7
  5
42C
331
506
  5
45B
331
5AF
  5
379
331
5AB
  5
375
331
502
  5
457
331
541
  5
411
331
4D3
  5
48C
331
4CF
  5
488
331
4A9
  5
4AF
331
53D
  5
40D
331
4CB
  5
484
331
539
  5
409
331
5A7
  5
371
331
5A3
  5
36D
331
535
  5
405
331
4C7
  5
480
331
59F
  5
369
331
59B
  5
365
331
531
  5
401
331
4C3
  5
47C
331
4FE
  5
453
331
52D
  5
3FD
331
56C
  5
3B9
331
4BF
  5
478
331
568
  5
3B5
331
5E4
  5
5E4
331
4BB
  5
474
331
4FA
  5
44F
331
529
  5
3F9
331
597
  5
361
331
5D6
  5
3A0
331
593
  5
3E0
331
5D2
  5
39C
331
5CE
  5
398
331
525
  5
3F5
331
564
  5
3B1
331
4B7
  5
470
331
4F6
  5
44B
331
58F
  5
3DC
331
58B
  5
3D8
331
5CA
  5
394
331
521
  5
3F1
331
560
  5
3AD
331
48C
  5
490
331
4B3
  5
46C
331
4F2
  5
447
331
4EE
  5
443
331
51D
  5
3ED
331
55C
  5
3A9
331
5D9
  5
3A3
331
488
  5
5DB
331
4A7
  5
4AB
331
558
  5
428
331
4A3
  5
4A7
331
4EA
  5
43F
331
519
  5
3E9
331
484
  5
5D7
331
587
  5
3D4
331
5C6
  5
390
331
583
  5
3D0
331
5C2
  5
38C
331
5BE
  5
388
331
554
  5
424
331
57F
  5
3CC
331
49F
  5
4A3
331
4E6
  5
43B
331
515
  5
3E5
331
5BA
  5
384
331
511
  5
466
331
550
  5
420
331
49B
  5
49F
331
4E2
  5
437
331
57B
  5
3C8
331
4DE
  5
433
331
50D
  5
462
331
54C
  5
41C
331
497
  5
49B
331
493
  5
497
331
4DA
  5
42F
331
509
  5
45E
331
548
  5
418
331
577
  5
3C4
331
5B6
  5
380
331
573
  5
3C0
331
5B2
  5
37C
331
544
  5
414
331
4D6
  5
42B
331
505
  5
45A
331
5AE
  5
378
331
5AA
  5
374
331
501
  5
456
331
540
  5
410
331
4D2
  5
48B
331
4CE
  5
487
331
4A8
  5
4AE
331
53C
  5
40C
331
4CA
  5
483
331
538
  5
408
331
5A6
  5
370
331
5A2
  5
36C
331
534
  5
404
331
4C6
  5
47F
331
59E
  5
368
331
59A
  5
364
331
530
  5
400
331
56F
  5
3BC
331
4C2
  5
47B
331
4BE
  5
477
331
4FD
  5
452
331
52C
  5
3FC
331
56B
  5
3B8
331
4BA
  5
473
331
4F9
  5
44E
331
528
  5
3F8
331
596
  5
360
331
5D5
  5
39F
331
567
  5
3B4
331
592
  5
3DF
331
5D1
  5
39B
331
5CD
  5
397
331
524
  5
3F4
331
563
  5
3B0
331
48F
  5
493
331
4B6
  5
46F
331
4F5
  5
44A
331
58E
  5
3DB
331
58A
  5
3D7
331
5C9
  5
393
331
4F1
  5
446
331
520
  5
3F0
331
55F
  5
3AC
331
5DC
  5
3A6
331
48B
  5
48F
331
4B2
  5
46B
331
4ED
  5
442
331
51C
  5
3EC
331
55B
  5
3A8
331
5D8
  5
3A2
331
487
  5
5DA
331
4A6
  5
4AA
331
4A2
  5
4A6
331
4E9
  5
43E
331
518
  5
3E8
331
483
  5
5D6
331
586
  5
3D3
331
5C5
  5
38F
331
557
  5
427
331
582
  5
3CF
331
5C1
  5
38B
331
5BD
  5
387
331
514
  5
3E4
331
553
  5
423
331
49E
  5
4A2
331
4E5
  5
43A
331
57E
  5
3CB
331
57A
  5
3C7
331
5B9
  5
383
331
510
  5
465
331
54F
  5
41F
331
49A
  5
49E
331
4E1
  5
436
331
4DD
  5
432
331
50C
  5
461
331
54B
  5
41B
331
496
  5
49A
331
492
  5
496
331
4D9
  5
42E
331
508
  5
45D
331
576
  5
3C3
331
5B5
  5
37F
331
547
  5
417
331
572
  5
3BF
331
5B1
  5
37B
331
5AD
  5
377
331
543
  5
413
331
4AF
  5
468
331
4D5
  5
42A
331
504
  5
459
331
5A9
  5
373
331
500
  5
455
331
53F
  5
40F
331
4AB
  5
4B1
331
4D1
  5
48A
331
4CD
  5
486
331
53B
  5
40B
331
4C9
  5
482
331
5A5
  5
36F
331
5A1
  5
36B
331
537
  5
407
331
533
  5
403
331
4C5
  5
47E
331
59D
  5
367
331
599
  5
363
331
52F
  5
3FF
331
56E
  5
3BB
331
4C1
  5
47A
331
5E6
  5
5E6
331
4BD
  5
476
331
4FC
  5
451
331
52B
  5
3FB
331
56A
  5
3B7
331
4B9
  5
472
331
4F8
  5
44D
331
595
  5
35F
331
5D4
  5
39E
331
566
  5
3B3
331
591
  5
3DE
331
527
  5
3F7
331
5D0
  5
39A
331
5CC
  5
396
331
523
  5
3F3
331
562
  5
3AF
331
48E
  5
492
331
4B5
  5
46E
331
4F4
  5
449
331
58D
  5
3DA
331
589
  5
3D6
331
5C8
  5
392
331
4F0
  5
445
331
51F
  5
3EF
331
55E
  5
3AB
331
5DB
  5
3A5
331
48A
  5
48E
331
4B1
  5
46A
331
4A5
  5
4A9
331
4EC
  5
441
331
51B
  5
3EB
331
486
  5
5D9
331
55A
  5
3A7
331
4A1
  5
4A5
331
4E8
  5
43D
331
482
  5
5D5
331
585
  5
3D2
331
5C4
  5
38E
331
556
  5
426
331
581
  5
3CE
331
517
  5
3E7
331
5C0
  5
38A
331
5BC
  5
386
331
513
  5
3E3
331
552
  5
422
331
47E
  5
5D1
331
49D
  5
4A1
331
4E4
  5
439
331
57D
  5
3CA
331
579
  5
3C6
331
5B8
  5
382
331
4E0
  5
435
331
50F
  5
464
331
54E
  5
41E
331
499
  5
49D
331
4DC
  5
431
331
50B
  5
460
331
54A
  5
41A
331
495
  5
499
331
491
  5
495
331
4D8
  5
42D
331
575
  5
3C2
331
5B4
  5
37E
331
546
  5
416
331
571
  5
3BE
331
507
  5
45C
331
5B0
  5
37A
331
5AC
  5
376
331
503
  5
458
331
542
  5
412
331
4AE
  5
467
331
4D4
  5
48D
331
5A8
  5
372
331
53E
  5
40E
331
4AA
  5
4B0
331
4D0
  5
489
331
4CC
  5
485
331
53A
  5
40A
331
4C8
  5
481
331
5A4
  5
36E
331
536
  5
406
331
5A0
  5
36A
331
59C
  5
366
331
532
  5
402
331
4C4
  5
47D
331
598
  5
362
331
4FF
  5
454
331
52E
  5
3FE
331
56D
  5
3BA
331
4C0
  5
479
331
569
  5
3B6
331
5E5
  5
5E5
331
4BC
  5
475
331
4FB
  5
450
331
52A
  5
3FA
331
4B8
  5
471
  0
ACDBDETAILVIEWSTYLE
  5
21F
102
{ACAD_XDICTIONARY
360
700
102
}
102
{ACAD_REACTORS
330
21E
102
}
330
21E
100
AcDbModelDocViewStyle
 70
     0
  3
Metric50
290
     0
100
AcDbDetailViewStyle
 70
     0
 71
     0
 90
        3
 71
     1
340
11
 40
5.0
340
0
 40
5.0
300

 40
0.0
280
     1
 71
     2
340
16
 90
       25
 71
     3
340
11
 40
5.0
 90
        0
 40
15.0
 90
        1
300
%<\AcVar ViewDetailId>% (%<\AcVar ViewScale \f "%sn">%)
 71
     4
340
16
 90
       25
340
16
 90
       25
280
     0
  0
GROUP
  5
5E7
102
{ACAD_REACTORS
330
D
102
}
330
D
100
AcDbGroup
300

 70
     1
 71
     1
340
5E6
340
489
340
559
340
558
340
557
340
556
340
555
340
554
340
553
340
552
340
551
340
550
340
54F
340
54E
340
54D
340
54C
340
54B
340
54A
340
549
340
548
340
547
340
546
340
545
340
544
340
543
340
542
340
541
340
540
340
53F
340
53E
340
53D
340
53C
340
53B
340
53A
340
539
340
538
340
537
340
536
340
535
340
534
340
533
340
532
340
531
340
530
340
52F
340
52E
340
52D
340
52C
340
52B
340
52A
340
529
340
528
340
527
340
526
340
525
340
524
340
523
340
522
340
521
340
520
340
51F
340
51E
340
51D
340
51C
340
51B
340
51A
340
519
340
518
340
517
340
516
340
515
340
514
340
513
340
512
  0
GROUP
  5
5E8
102
{ACAD_REACTORS
330
D
102
}
330
D
100
AcDbGroup
300

 70
     1
 71
     1
340
5E5
340
488
340
594
340
593
340
592
340
591
340
590
340
58F
340
58E
340
58D
340
58C
340
58B
340
58A
340
589
340
588
340
587
340
586
340
585
340
584
340
583
340
582
340
581
340
580
340
57F
340
57E
340
57D
340
57C
340
57B
340
57A
340
579
340
578
340
577
340
576
340
575
340
574
340
573
340
572
340
571
340
570
340
56F
340
56E
340
56D
340
56C
340
56B
340
56A
340
569
340
568
340
567
340
566
340
565
340
564
340
563
340
562
340
561
340
560
340
55F
340
55E
340
55D
340
55C
340
55B
340
55A
  0
GROUP
  5
5E9
102
{ACAD_REACTORS
330
D
102
}
330
D
100
AcDbGroup
300

 70
     1
 71
     1
340
485
340
484
340
4D4
340
4D3
340
4D2
340
4D1
340
4D0
340
4CF
340
4CE
340
4CD
340
4CC
340
4CB
340
4CA
340
4C9
340
4C8
340
4C7
340
4C6
340
4C5
340
4C4
340
4C3
340
4C2
340
4C1
340
4C0
340
4BF
340
4BE
340
4BD
340
4BC
340
4BB
340
4BA
340
4B9
340
4B8
340
4B7
340
4B6
340
4B5
340
4B4
340
4B3
340
4B2
340
4B1
340
4B0
340
4AF
340
4AE
  0
GROUP
  5
5EA
102
{ACAD_REACTORS
330
D
102
}
330
D
100
AcDbGroup
300

 70
     1
 71
     1
340
5E4
340
487
340
5DC
340
5DB
340
5DA
340
5D9
340
5D8
340
5D7
340
5D6
340
5D5
340
5D4
340
5D3
340
5D2
340
5D1
340
5D0
340
5CF
340
5CE
340
5CD
340
5CC
340
5CB
340
5CA
340
5C9
340
5C8
340
5C7
340
5C6
340
5C5
340
5C4
340
5C3
340
5C2
340
5C1
340
5C0
340
5BF
340
5BE
340
5BD
340
5BC
340
5BB
340
5BA
340
5B9
340
5B8
340
5B7
340
5B6
340
5B5
340
5B4
340
5B3
340
5B2
340
5B1
340
5B0
340
5AF
340
5AE
340
5AD
340
5AC
340
5AB
340
5AA
340
5A9
340
5A8
340
5A7
340
5A6
340
5A5
340
5A4
340
5A3
340
5A2
340
5A1
340
5A0
340
59F
340
59E
340
59D
340
59C
340
59B
340
59A
340
599
340
598
340
597
340
596
340
595
  0
GROUP
  5
5EB
102
{ACAD_REACTORS
330
D
102
}
330
D
100
AcDbGroup
300

 70
     1
 71
     1
340
486
340
47E
340
511
340
510
340
50F
340
50E
340
50D
340
50C
340
50B
340
50A
340
509
340
508
340
507
340
506
340
505
340
504
340
503
340
502
340
501
340
500
340
4FF
340
4FE
340
4FD
340
4FC
340
4FB
340
4FA
340
4F9
340
4F8
340
4F7
340
4F6
340
4F5
340
4F4
340
4F3
340
4F2
340
4F1
340
4F0
340
4EF
340
4EE
340
4ED
340
4EC
340
4EB
340
4EA
340
4E9
340
4E8
340
4E7
340
4E6
340
4E5
340
4E4
340
4E3
340
4E2
340
4E1
340
4E0
340
4DF
340
4DE
340
4DD
340
4DC
340
4DB
340
4DA
340
4D9
340
4D8
340
4D7
340
4D6
340
4D5
  0
GROUP
  5
5EC
102
{ACAD_REACTORS
330
D
102
}
330
D
100
AcDbGroup
300

 70
     1
 71
     1
340
483
340
482
340
4AB
340
4AA
340
4A9
340
4A8
340
4A7
340
4A6
340
4A5
340
4A4
340
4A3
340
4A2
340
4A1
340
4A0
340
49F
340
49E
340
49D
340
49C
340
49B
340
49A
340
499
340
498
340
497
340
496
340
495
340
494
340
493
340
492
340
491
340
490
340
48F
340
48E
340
48D
340
48C
340
48B
340
48A
  0
LAYOUT
  5
1E
102
{ACAD_XDICTIONARY
360
6C9
102
}
102
{ACAD_REACTORS
330
1A
102
}
330
1A
100
AcDbPlotSettings
  1

  2
none_device
  4

  6

 40
0.0
 41
0.0
 42
0.0
 43
0.0
 44
0.0
 45
0.0
 46
0.0
 47
0.0
 48
0.0
 49
0.0
140
0.0
141
0.0
142
1.0
143
1.0
 70
   688
 72
     1
 73
     0
 74
     5
  7

 75
    16
147
1.0
148
0.0
149
0.0
100
AcDbLayout
  1
Layout1
 70
     1
 71
     1
 10
0.0
 20
0.0
 11
420.0
 21
297.0
 12
0.0
 22
0.0
 32
0.0
 14
1.000000000000000E+20
 24
1.000000000000000E+20
 34
1.000000000000000E+20
 15
-1.000000000000000E+20
 25
-1.000000000000000E+20
 35
-1.000000000000000E+20
146
0.0
 13
0.0
 23
0.0
 33
0.0
 16
1.0
 26
0.0
 36
0.0
 17
0.0
 27
1.0
 37
0.0
 76
     0
330
1B
  0
LAYOUT
  5
22
102
{ACAD_XDICTIONARY
360
6CB
102
}
102
{ACAD_REACTORS
330
1A
102
}
330
1A
100
AcDbPlotSettings
  1

  2
none_device
  4
Letter_(8.50_x_11.00_Inches)
  6

 40
6.349999999999997
 41
6.349999999999997
 42
6.350005079999997
 43
6.350005079999997
 44
215.9
 45
279.4
 46
0.0
 47
0.0
 48
0.0
 49
0.0
140
0.0
141
0.0
142
1.0
143
1.0
 70
  1712
 72
     1
 73
     0
 74
     0
  7

 75
     0
147
1.0
148
0.0
149
0.0
100
AcDbLayout
  1
Model
 70
     1
 71
     0
 10
-672.5873928070067
 20
-428.9997596740723
 11
640.3267936706542
 21
653.3323936462402
 12
0.0
 22
0.0
 32
0.0
 14
-672.5873928070067
 24
-428.9997596740723
 34
0.0
 15
640.3267936706542
 25
653.3323936462402
 35
0.0
146
0.0
 13
0.0
 23
0.0
 33
0.0
 16
1.0
 26
0.0
 36
0.0
 17
0.0
 27
1.0
 37
0.0
 76
     0
330
1F
331
29
  0
LAYOUT
  5
220
102
{ACAD_XDICTIONARY
360
702
102
}
102
{ACAD_REACTORS
330
1A
102
}
330
1A
100
AcDbPlotSettings
  1

  2
青梅 FX DocuCentre-V C2275 T2
  4

  6

 40
0.0
 41
0.0
 42
0.0
 43
0.0
 44
0.0
 45
0.0
 46
0.0
 47
0.0
 48
0.0
 49
0.0
140
0.0
141
0.0
142
1.0
143
1.0
 70
   688
 72
     0
 73
     0
 74
     5
  7
AutoCAD_PEN.ctb
 75
    16
147
1.0
148
0.0
149
0.0
100
AcDbLayout
  1
レイアウト1
 70
     1
 71
     2
 10
0.0
 20
0.0
 11
12.0
 21
9.0
 12
0.0
 22
0.0
 32
0.0
 14
0.0
 24
0.0
 34
0.0
 15
0.0
 25
0.0
 35
0.0
146
0.0
 13
0.0
 23
0.0
 33
0.0
 16
1.0
 26
0.0
 36
0.0
 17
0.0
 27
1.0
 37
0.0
 76
     0
330
23
  0
MATERIAL
  5
45
102
{ACAD_XDICTIONARY
360
212
102
}
102
{ACAD_REACTORS
330
43
102
}
330
43
100
AcDbMaterial
  1
ByBlock
  0
MATERIAL
  5
44
102
{ACAD_XDICTIONARY
360
210
102
}
102
{ACAD_REACTORS
330
43
102
}
330
43
100
AcDbMaterial
  1
ByLayer
  0
MATERIAL
  5
46
102
{ACAD_XDICTIONARY
360
214
102
}
102
{ACAD_REACTORS
330
43
102
}
330
43
100
AcDbMaterial
  1
Global
  0
MLEADERSTYLE
  5
5C
102
{ACAD_REACTORS
330
5B
102
}
330
5B
100
AcDbMLeaderStyle
170
     2
171
     1
172
     0
 90
        2
 40
0.0
 41
0.0
173
     1
 91
-1056964608
340
14
 92
       -2
290
     1
 42
2.0
291
     1
 43
8.0
  3
Standard
 44
4.0
300

342
11
174
     1
178
     6
175
     1
176
     0
 93
-1056964608
 45
4.0
292
     0
297
     0
 46
4.0
 94
-1056964608
 47
1.0
 49
1.0
140
1.0
293
     1
141
0.0
294
     1
177
     0
142
1.0
295
     0
296
     0
143
3.75
1001
ACAD_MLEADERVER
1070
     2
  0
MLINESTYLE
  5
18
102
{ACAD_REACTORS
330
17
102
}
330
17
100
AcDbMlineStyle
  2
STANDARD
 70
     0
  3

 62
   256
 51
90.0
 52
90.0
 71
     2
 49
0.5
 62
   256
  6
BYLAYER
 49
-0.5
 62
   256
  6
BYLAYER
  0
ACDBPLACEHOLDER
  5
F
102
{ACAD_REACTORS
330
E
102
}
330
E
  0
SCALE
  5
48
102
{ACAD_REACTORS
330
47
102
}
330
47
100
AcDbScale
 70
     0
300
1:1
140
1.0
141
1.0
290
     1
  0
SCALE
  5
49
102
{ACAD_REACTORS
330
47
102
}
330
47
100
AcDbScale
 70
     0
300
1:2
140
1.0
141
2.0
290
     0
  0
SCALE
  5
4A
102
{ACAD_REACTORS
330
47
102
}
330
47
100
AcDbScale
 70
     0
300
1:4
140
1.0
141
4.0
290
     0
  0
SCALE
  5
4B
102
{ACAD_REACTORS
330
47
102
}
330
47
100
AcDbScale
 70
     0
300
1:5
140
1.0
141
5.0
290
     0
  0
SCALE
  5
4C
102
{ACAD_REACTORS
330
47
102
}
330
47
100
AcDbScale
 70
     0
300
1:8
140
1.0
141
8.0
290
     0
  0
SCALE
  5
4D
102
{ACAD_REACTORS
330
47
102
}
330
47
100
AcDbScale
 70
     0
300
1:10
140
1.0
141
10.0
290
     0
  0
SCALE
  5
4E
102
{ACAD_REACTORS
330
47
102
}
330
47
100
AcDbScale
 70
     0
300
1:16
140
1.0
141
16.0
290
     0
  0
SCALE
  5
4F
102
{ACAD_REACTORS
330
47
102
}
330
47
100
AcDbScale
 70
     0
300
1:20
140
1.0
141
20.0
290
     0
  0
SCALE
  5
50
102
{ACAD_REACTORS
330
47
102
}
330
47
100
AcDbScale
 70
     0
300
1:30
140
1.0
141
30.0
290
     0
  0
SCALE
  5
51
102
{ACAD_REACTORS
330
47
102
}
330
47
100
AcDbScale
 70
     0
300
1:40
140
1.0
141
40.0
290
     0
  0
SCALE
  5
52
102
{ACAD_REACTORS
330
47
102
}
330
47
100
AcDbScale
 70
     0
300
1:50
140
1.0
141
50.0
290
     0
  0
SCALE
  5
53
102
{ACAD_REACTORS
330
47
102
}
330
47
100
AcDbScale
 70
     0
300
1:100
140
1.0
141
100.0
290
     0
  0
SCALE
  5
54
102
{ACAD_REACTORS
330
47
102
}
330
47
100
AcDbScale
 70
     0
300
2:1
140
2.0
141
1.0
290
     0
  0
SCALE
  5
55
102
{ACAD_REACTORS
330
47
102
}
330
47
100
AcDbScale
 70
     0
300
4:1
140
4.0
141
1.0
290
     0
  0
SCALE
  5
56
102
{ACAD_REACTORS
330
47
102
}
330
47
100
AcDbScale
 70
     0
300
8:1
140
8.0
141
1.0
290
     0
  0
SCALE
  5
57
102
{ACAD_REACTORS
330
47
102
}
330
47
100
AcDbScale
 70
     0
300
10:1
140
10.0
141
1.0
290
     0
  0
SCALE
  5
58
102
{ACAD_REACTORS
330
47
102
}
330
47
100
AcDbScale
 70
     0
300
100:1
140
100.0
141
1.0
290
     0
  0
ACDBSECTIONVIEWSTYLE
  5
21D
102
{ACAD_XDICTIONARY
360
6FE
102
}
102
{ACAD_REACTORS
330
21C
102
}
330
21C
100
AcDbModelDocViewStyle
 70
     0
  3
Metric50
290
     0
100
AcDbSectionViewStyle
 70
     0
 71
     0
 90
      102
 71
     1
340
11
 40
5.0
340
0
340
0
 40
5.0
300
I, O, Q, S, X, Z
 40
10.0
 90
        0
 40
2.5
 90
        0
 71
     2
340
16
 90
       25
340
16
 90
       50
 40
5.0
 40
2.5
 40
5.0
 71
     3
340
11
 40
5.0
 90
        0
 40
15.0
 90
        1
300
%<\AcVar ViewSectionStartId>%-%<\AcVar ViewSectionEndId>% (%<\AcVar ViewScale \f "%sn">%)
 71
     4
300
ANSI31
 40
1.0
 90
        0
290
     0
290
     0
 90
        6
 40
0.0
 40
1.570796326794896
 40
0.2617993877991494
 40
1.308996938995747
 40
-0.2617993877991494
 40
1.832595714594044
  0
TABLESTYLE
  5
5A
102
{ACAD_XDICTIONARY
360
636
102
}
102
{ACAD_REACTORS
330
59
102
}
330
59
100
AcDbTableStyle
  3
Standard
 70
     0
 71
     0
 40
1.5
 41
1.5
280
     0
281
     0
  7
Standard
140
4.5
170
     2
 62
     0
 63
     7
283
     0
274
    -2
284
     1
 64
     0
275
    -2
285
     1
 65
     0
276
    -2
286
     1
 66
     0
277
    -2
287
     1
 67
     0
278
    -2
288
     1
 68
     0
279
    -2
289
     1
 69
     0
  7
Standard
140
6.0
170
     5
 62
     0
 63
     7
283
     0
274
    -2
284
     1
 64
     0
275
    -2
285
     1
 65
     0
276
    -2
286
     1
 66
     0
277
    -2
287
     1
 67
     0
278
    -2
288
     1
 68
     0
279
    -2
289
     1
 69
     0
  7
Standard
140
4.5
170
     5
 62
     0
 63
     7
283
     0
274
    -2
284
     1
 64
     0
275
    -2
285
     1
 65
     0
276
    -2
286
     1
 66
     0
277
    -2
287
     1
 67
     0
278
    -2
288
     1
 68
     0
279
    -2
289
     1
 69
     0
  0
VISUALSTYLE
  5
2F
102
{ACAD_XDICTIONARY
360
6D5
102
}
102
{ACAD_REACTORS
330
2A
102
}
330
2A
100
AcDbVisualStyle
  2

 70
     4
 71
     0
 72
     2
 73
     0
 90
        0
 40
-0.6
 41
-30.0
 62
     5
 63
     7
 74
     1
 91
        4
 64
     7
 65
   257
 75
     1
175
     1
 42
1.0
 92
        0
 66
   257
 43
1.0
 76
     1
 77
     6
 78
     2
 67
     7
 79
     5
170
     0
171
     0
290
     0
174
     0
 93
        1
 44
0.0
173
     0
291
     0
 45
0.0
1001
ACAD
1000
AcDbSavedByObjectVersion
1070
     0
  0
VISUALSTYLE
  5
32
102
{ACAD_XDICTIONARY
360
6DB
102
}
102
{ACAD_REACTORS
330
2A
102
}
330
2A
100
AcDbVisualStyle
  2

 70
     7
 71
     1
 72
     0
 73
     1
 90
        0
 40
-0.6
 41
-30.0
 62
     5
 63
     7
 74
     0
 91
        4
 64
     7
 65
   257
 75
     1
175
     1
 42
1.0
 92
        8
 66
     7
 43
1.0
 76
     1
 77
     6
 78
     2
 67
     7
 79
     5
170
     0
171
     0
290
     0
174
     0
 93
        1
 44
0.0
173
     0
291
     1
 45
0.0
1001
ACAD
1000
AcDbSavedByObjectVersion
1070
     0
  0
VISUALSTYLE
  5
36
102
{ACAD_XDICTIONARY
360
6E3
102
}
102
{ACAD_REACTORS
330
2A
102
}
330
2A
100
AcDbVisualStyle
  2

 70
    12
 71
     2
 72
     2
 73
     0
 90
        0
 40
-0.6
 41
-30.0
 62
     5
 63
     7
 74
     1
 91
        4
 64
     7
 65
   257
 75
     1
175
     1
 42
1.0
 92
        8
 66
     7
 43
1.0
 76
     1
 77
     6
 78
     2
 67
     7
 79
     5
170
     0
171
     0
290
     0
174
     0
 93
        1
 44
50.0
173
     0
291
     1
 45
0.0
1001
ACAD
1000
AcDbSavedByObjectVersion
1070
     0
  0
VISUALSTYLE
  5
3A
102
{ACAD_XDICTIONARY
360
6EB
102
}
102
{ACAD_REACTORS
330
2A
102
}
330
2A
100
AcDbVisualStyle
  2

 70
    16
 71
     2
 72
     2
 73
     3
 90
        0
 40
-0.6
 41
-30.0
 62
     5
 63
     8
 74
     1
 91
        4
 64
     7
 65
   257
 75
     1
175
     1
 42
1.0
 92
        8
 66
     8
 43
1.0
 76
     1
 77
     6
 78
     2
 67
     7
 79
     5
170
     0
171
     0
290
     0
174
     0
 93
        1
 44
0.0
173
     0
291
     1
 45
0.0
1001
ACAD
1000
AcDbSavedByObjectVersion
1070
     0
  0
VISUALSTYLE
  5
34
102
{ACAD_XDICTIONARY
360
6DF
102
}
102
{ACAD_REACTORS
330
2A
102
}
330
2A
100
AcDbVisualStyle
  2

 70
     9
 71
     3
 72
     2
 73
     0
 90
        0
 40
-0.6
 41
-30.0
 62
     5
 63
     7
 74
     2
 91
        2
 64
     7
 65
   257
 75
     1
175
     1
 42
179.0
 92
        8
 66
     7
 43
1.0
 76
     1
 77
     6
 78
     2
 67
     7
 79
     3
170
     0
171
     0
290
     0
174
     0
 93
        1
 44
0.0
173
     0
291
     0
 45
0.0
1001
ACAD
1000
AcDbSavedByObjectVersion
1070
     0
  0
VISUALSTYLE
  5
35
102
{ACAD_XDICTIONARY
360
6E1
102
}
102
{ACAD_REACTORS
330
2A
102
}
330
2A
100
AcDbVisualStyle
  2

 70
    11
 71
     2
 72
     2
 73
     0
 90
        0
 40
-0.6
 41
-30.0
 62
     5
 63
     7
 74
     1
 91
        4
 64
     7
 65
   257
 75
     1
175
     1
 42
1.0
 92
        8
 66
     7
 43
1.0
 76
     1
 77
     6
 78
     2
 67
     7
 79
     5
170
     0
171
     0
290
     0
174
     0
 93
        1
 44
-50.0
173
     0
291
     1
 45
0.0
1001
ACAD
1000
AcDbSavedByObjectVersion
1070
     0
  0
VISUALSTYLE
  5
3D
102
{ACAD_XDICTIONARY
360
6F1
102
}
102
{ACAD_REACTORS
330
2A
102
}
330
2A
100
AcDbVisualStyle
  2

 70
    22
 71
     2
 72
     2
 73
     0
 90
        0
 40
-0.6
 41
-30.0
 62
     5
 63
     7
 74
     1
 91
        4
 64
     7
 65
   257
 75
     1
175
     1
 42
1.0
 92
        8
 66
     7
 43
1.0
 76
     1
 77
     6
 78
     2
 67
     7
 79
     5
170
     0
171
     0
290
     0
174
     0
 93
        1
 44
0.0
173
     0
291
     1
 45
0.0
1001
ACAD
1000
AcDbSavedByObjectVersion
1070
     0
  0
VISUALSTYLE
  5
39
102
{ACAD_XDICTIONARY
360
6E9
102
}
102
{ACAD_REACTORS
330
2A
102
}
330
2A
100
AcDbVisualStyle
  2

 70
    15
 71
     2
 72
     2
 73
     0
 90
        0
 40
-0.6
 41
-30.0
 62
     5
 63
     7
 74
     1
 91
        4
 64
     7
 65
   257
 75
     1
175
     1
 42
1.0
 92
        8
 66
     7
 43
1.0
 76
     1
 77
     6
 78
     2
 67
     7
 79
     5
170
     0
171
     0
290
     0
174
     0
 93
        1
 44
0.0
173
     0
291
     1
 45
0.0
1001
ACAD
1000
AcDbSavedByObjectVersion
1070
     0
  0
VISUALSTYLE
  5
2B
102
{ACAD_XDICTIONARY
360
6CD
102
}
102
{ACAD_REACTORS
330
2A
102
}
330
2A
100
AcDbVisualStyle
  2

 70
     0
 71
     2
 72
     1
 73
     1
 90
        2
 40
-0.6
 41
30.0
 62
     5
 63
     7
 74
     0
 91
        0
 64
     7
 65
   257
 75
     1
175
     1
 42
1.0
 92
        8
 66
     7
 43
1.0
 76
     1
 77
     6
 78
     2
 67
     7
 79
     5
170
     0
171
     0
290
     0
174
     0
 93
       13
 44
0.0
173
     0
291
     1
 45
0.0
1001
ACAD
1000
AcDbSavedByObjectVersion
1070
     0
  0
VISUALSTYLE
  5
2C
102
{ACAD_XDICTIONARY
360
6CF
102
}
102
{ACAD_REACTORS
330
2A
102
}
330
2A
100
AcDbVisualStyle
  2

 70
     1
 71
     2
 72
     1
 73
     1
 90
        2
 40
-0.6
 41
30.0
 62
     5
 63
     7
 74
     1
 91
        0
 64
     7
 65
   257
 75
     1
175
     1
 42
1.0
 92
        0
 66
   257
 43
1.0
 76
     1
 77
     6
 78
     2
 67
     7
 79
     5
170
     0
171
     0
290
     0
174
     0
 93
       13
 44
0.0
173
     0
291
     1
 45
0.0
1001
ACAD
1000
AcDbSavedByObjectVersion
1070
     0
  0
VISUALSTYLE
  5
2D
102
{ACAD_XDICTIONARY
360
6D1
102
}
102
{ACAD_REACTORS
330
2A
102
}
330
2A
100
AcDbVisualStyle
  2

 70
     2
 71
     2
 72
     2
 73
     1
 90
        2
 40
-0.6
 41
30.0
 62
     5
 63
     7
 74
     0
 91
        0
 64
     7
 65
   257
 75
     1
175
     1
 42
1.0
 92
        0
 66
     7
 43
1.0
 76
     1
 77
     6
 78
     2
 67
     7
 79
     5
170
     0
171
     0
290
     0
174
     0
 93
       13
 44
0.0
173
     0
291
     1
 45
0.0
1001
ACAD
1000
AcDbSavedByObjectVersion
1070
     0
  0
VISUALSTYLE
  5
2E
102
{ACAD_XDICTIONARY
360
6D3
102
}
102
{ACAD_REACTORS
330
2A
102
}
330
2A
100
AcDbVisualStyle
  2

 70
     3
 71
     2
 72
     2
 73
     1
 90
        2
 40
-0.6
 41
30.0
 62
     5
 63
     7
 74
     1
 91
        0
 64
     7
 65
   257
 75
     1
175
     1
 42
1.0
 92
        0
 66
   257
 43
1.0
 76
     1
 77
     6
 78
     2
 67
     7
 79
     5
170
     0
171
     0
290
     0
174
     0
 93
       13
 44
0.0
173
     0
291
     1
 45
0.0
1001
ACAD
1000
AcDbSavedByObjectVersion
1070
     0
  0
VISUALSTYLE
  5
31
102
{ACAD_XDICTIONARY
360
6D9
102
}
102
{ACAD_REACTORS
330
2A
102
}
330
2A
100
AcDbVisualStyle
  2

 70
     6
 71
     1
 72
     2
 73
     2
 90
        0
 40
-0.6
 41
-30.0
 62
     5
 63
     7
 74
     2
 91
        2
 64
     7
 65
   257
 75
     2
175
     1
 42
40.0
 92
        0
 66
   257
 43
1.0
 76
     1
 77
     6
 78
     2
 67
     7
 79
     3
170
     0
171
     0
290
     0
174
     0
 93
        1
 44
0.0
173
     0
291
     0
 45
0.0
1001
ACAD
1000
AcDbSavedByObjectVersion
1070
     0
  0
VISUALSTYLE
  5
3B
102
{ACAD_XDICTIONARY
360
6ED
102
}
102
{ACAD_REACTORS
330
2A
102
}
330
2A
100
AcDbVisualStyle
  2

 70
    20
 71
     2
 72
     2
 73
     0
 90
        0
 40
-0.6
 41
-30.0
 62
     5
 63
     7
 74
     1
 91
        4
 64
     7
 65
   257
 75
     1
175
     1
 42
1.0
 92
       10
 66
     7
 43
1.0
 76
     1
 77
     6
 78
     2
 67
     7
 79
     5
170
     0
171
     0
290
     0
174
     0
 93
        1
 44
0.0
173
     0
291
     1
 45
0.0
1001
ACAD
1000
AcDbSavedByObjectVersion
1070
     0
  0
VISUALSTYLE
  5
38
102
{ACAD_XDICTIONARY
360
6E7
102
}
102
{ACAD_REACTORS
330
2A
102
}
330
2A
100
AcDbVisualStyle
  2

 70
    14
 71
     2
 72
     2
 73
     0
 90
        0
 40
-0.6
 41
-30.0
 62
     5
 63
     7
 74
     1
 91
        4
 64
     7
 65
   257
 75
     7
175
     7
 42
1.0
 92
        8
 66
     7
 43
1.0
 76
     1
 77
     6
 78
     2
 67
     7
 79
     5
170
     0
171
     0
290
     0
174
     0
 93
        1
 44
0.0
173
     0
291
     1
 45
0.0
1001
ACAD
1000
AcDbSavedByObjectVersion
1070
     0
  0
VISUALSTYLE
  5
3C
102
{ACAD_XDICTIONARY
360
6EF
102
}
102
{ACAD_REACTORS
330
2A
102
}
330
2A
100
AcDbVisualStyle
  2

 70
    21
 71
     2
 72
     2
 73
     0
 90
        0
 40
-0.6
 41
-30.0
 62
     5
 63
     7
 74
     1
 91
        4
 64
     7
 65
   257
 75
     1
175
     1
 42
1.0
 92
        9
 66
     7
 43
1.0
 76
     1
 77
     6
 78
     2
 67
     7
 79
     5
170
     0
171
     0
290
     0
174
     0
 93
        1
 44
0.0
173
     0
291
     1
 45
0.0
1001
ACAD
1000
AcDbSavedByObjectVersion
1070
     0
  0
VISUALSTYLE
  5
33
102
{ACAD_XDICTIONARY
360
6DD
102
}
102
{ACAD_REACTORS
330
2A
102
}
330
2A
100
AcDbVisualStyle
  2

 70
     8
 71
     2
 72
     3
 73
     0
 90
        2
 40
-0.6
 41
30.0
 62
     5
 63
     7
 74
     0
 91
        0
 64
     7
 65
   257
 75
     1
175
     1
 42
1.0
 92
        8
 66
   257
 43
1.0
 76
     1
 77
     6
 78
     2
 67
     7
 79
     3
170
     0
171
     0
290
     0
174
     0
 93
       13
 44
0.0
173
     0
291
     0
 45
0.0
1001
ACAD
1000
AcDbSavedByObjectVersion
1070
     0
  0
VISUALSTYLE
  5
42
102
{ACAD_XDICTIONARY
360
6FB
102
}
102
{ACAD_REACTORS
330
2A
102
}
330
2A
100
AcDbVisualStyle
  2

 70
    27
 71
     2
 72
     2
 73
     1
 90
        2
 40
-0.6
 41
30.0
 62
     5
 63
     7
 74
     0
 91
        4
 64
     7
 65
   257
 75
     1
175
     1
 42
1.0
 92
        8
 66
   257
 43
1.0
 76
     1
 77
     6
 78
     2
 67
     8
 79
     3
170
     0
171
     0
290
     0
174
     0
 93
        5
 44
0.0
173
     0
291
     0
 45
0.0
1001
ACAD
1000
AcDbSavedByObjectVersion
1070
     0
  0
VISUALSTYLE
  5
41
102
{ACAD_XDICTIONARY
360
6F9
102
}
102
{ACAD_REACTORS
330
2A
102
}
330
2A
100
AcDbVisualStyle
  2

 70
    26
 71
     2
 72
     2
 73
     1
 90
        2
 40
-0.6
 41
30.0
 62
     5
 63
     7
 74
     1
 91
       10
 64
     7
 65
   257
 75
     2
175
     1
 42
1.0
 92
        8
 66
   257
 43
1.0
 76
     1
 77
     6
 78
     2
 67
     7
 79
     3
170
     0
171
     0
290
     0
174
     0
 93
        5
 44
0.0
173
     0
291
     0
 45
0.0
1001
ACAD
1000
AcDbSavedByObjectVersion
1070
     0
  0
VISUALSTYLE
  5
3E
102
{ACAD_XDICTIONARY
360
6F3
102
}
102
{ACAD_REACTORS
330
2A
102
}
330
2A
100
AcDbVisualStyle
  2

 70
    23
 71
     2
 72
     2
 73
     3
 90
        0
 40
-0.6
 41
-30.0
 62
     5
 63
     7
 74
     2
 91
        2
 64
     7
 65
     7
 75
     1
175
     1
 42
40.0
 92
        8
 66
     7
 43
1.0
 76
     1
 77
     6
 78
     2
 67
     7
 79
     3
170
     0
171
     0
290
     0
174
     0
 93
        1
 44
0.0
173
     0
291
     0
 45
0.0
1001
ACAD
1000
AcDbSavedByObjectVersion
1070
     0
  0
VISUALSTYLE
  5
3F
102
{ACAD_XDICTIONARY
360
6F5
102
}
102
{ACAD_REACTORS
330
2A
102
}
330
2A
100
AcDbVisualStyle
  2

 70
    24
 71
     1
 72
     2
 73
     2
 90
        0
 40
-0.6
 41
-30.0
 62
     5
 63
     7
 74
     2
 91
        2
 64
     7
 65
     7
 75
     1
175
     1
 42
40.0
 92
       11
 66
     7
 43
1.0
 76
     1
 77
     6
 78
     2
 67
     7
 79
     6
170
     0
171
     0
290
     0
174
     0
 93
        1
 44
0.0
173
     0
291
     0
 45
0.0
1001
ACAD
1000
AcDbSavedByObjectVersion
1070
     0
  0
VISUALSTYLE
  5
37
102
{ACAD_XDICTIONARY
360
6E5
102
}
102
{ACAD_REACTORS
330
2A
102
}
330
2A
100
AcDbVisualStyle
  2

 70
    13
 71
     2
 72
     2
 73
     0
 90
        0
 40
-0.6
 41
-30.0
 62
     5
 63
     7
 74
     1
 91
        4
 64
     7
 65
   257
 75
     1
175
     1
 42
1.0
 92
       12
 66
     7
 43
1.0
 76
     1
 77
     6
 78
     2
 67
     7
 79
     5
170
     0
171
     0
290
     0
174
     0
 93
        1
 44
0.0
173
     0
291
     1
 45
0.0
1001
ACAD
1000
AcDbSavedByObjectVersion
1070
     0
  0
VISUALSTYLE
  5
30
102
{ACAD_XDICTIONARY
360
6D7
102
}
102
{ACAD_REACTORS
330
2A
102
}
330
2A
100
AcDbVisualStyle
  2

 70
     5
 71
     0
 72
     2
 73
     0
 90
        0
 40
-0.6
 41
-30.0
 62
     5
 63
     7
 74
     1
 91
        4
 64
     7
 65
   257
 75
     1
175
     1
 42
1.0
 92
        0
 66
   257
 43
1.0
 76
     1
 77
     6
 78
     2
 67
     7
 79
     3
170
     0
171
     0
290
     0
174
     0
 93
        1
 44
0.0
173
     0
291
     0
 45
0.0
1001
ACAD
1000
AcDbSavedByObjectVersion
1070
     0
  0
VISUALSTYLE
  5
40
102
{ACAD_XDICTIONARY
360
6F7
102
}
102
{ACAD_REACTORS
330
2A
102
}
330
2A
100
AcDbVisualStyle
  2

 70
    25
 71
     2
 72
     2
 73
     1
 90
        1
 40
0.5
 41
-30.0
 62
     5
 63
     7
 74
     1
 91
        0
 64
     7
 65
   257
 75
     1
175
     1
 42
1.0
 92
        8
 66
     7
 43
1.0
 76
     1
 77
     6
 78
     2
 67
     7
 79
     3
170
     0
171
     0
290
     0
174
     0
 93
       13
 44
0.0
173
     0
291
     0
 45
0.0
1001
ACAD
1000
AcDbSavedByObjectVersion
1070
     0
  0
DICTIONARYVAR
  5
1DE
102
{ACAD_REACTORS
330
1D0
102
}
330
1D0
100
DictionaryVariables
280
     0
  1
1:1
  0
DICTIONARYVAR
  5
1D7
102
{ACAD_REACTORS
330
1D0
102
}
330
1D0
100
DictionaryVariables
280
     0
  1
3.500000
  0
DICTIONARYVAR
  5
1D8
102
{ACAD_REACTORS
330
1D0
102
}
330
1D0
100
DictionaryVariables
280
     0
  1
acadiso.lin
  0
DICTIONARYVAR
  5
1D2
102
{ACAD_REACTORS
330
1D0
102
}
330
1D0
100
DictionaryVariables
280
     0
  1
STANDARD
  0
DICTIONARYVAR
  5
1D1
102
{ACAD_REACTORS
330
1D0
102
}
330
1D0
100
DictionaryVariables
280
     0
  1
STANDARD
  0
DICTIONARYVAR
  5
5F3
102
{ACAD_REACTORS
330
1D0
102
}
330
1D0
100
DictionaryVariables
280
     0
  1
Metric50
  0
DICTIONARYVAR
  5
5F4
102
{ACAD_REACTORS
330
1D0
102
}
330
1D0
100
DictionaryVariables
280
     0
  1
Metric50
  0
DICTIONARYVAR
  5
1D9
102
{ACAD_REACTORS
330
1D0
102
}
330
1D0
100
DictionaryVariables
280
     0
  1
2
  0
DICTIONARYVAR
  5
1DA
102
{ACAD_REACTORS
330
1D0
102
}
330
1D0
100
DictionaryVariables
280
     0
  1
1
  0
DICTIONARYVAR
  5
6BF
102
{ACAD_REACTORS
330
1D0
102
}
330
1D0
100
DictionaryVariables
280
     0
  1
0
  0
DICTIONARYVAR
  5
5F6
102
{ACAD_REACTORS
330
1D0
102
}
330
1D0
100
DictionaryVariables
280
     0
  1
1
  0
DICTIONARYVAR
  5
5F7
102
{ACAD_REACTORS
330
1D0
102
}
330
1D0
100
DictionaryVariables
280
     0
  1
15
  0
DICTIONARYVAR
  5
5F5
102
{ACAD_REACTORS
330
1D0
102
}
330
1D0
100
DictionaryVariables
280
     0
  1
0
  0
DICTIONARYVAR
  5
6C2
102
{ACAD_REACTORS
330
1D0
102
}
330
1D0
100
DictionaryVariables
280
     0
  1
1.570796
  0
DICTIONARYVAR
  5
6C3
102
{ACAD_REACTORS
330
1D0
102
}
330
1D0
100
DictionaryVariables
280
     0
  1
1.570796
  0
DICTIONARYVAR
  5
6C4
102
{ACAD_REACTORS
330
1D0
102
}
330
1D0
100
DictionaryVariables
280
     0
  1
-122.394000
  0
DICTIONARYVAR
  5
1DF
102
{ACAD_REACTORS
330
1D0
102
}
330
1D0
100
DictionaryVariables
280
     0
  1
1
  0
DICTIONARYVAR
  5
6C1
102
{ACAD_REACTORS
330
1D0
102
}
330
1D0
100
DictionaryVariables
280
     0
  1
80.000000
  0
DICTIONARYVAR
  5
6C0
102
{ACAD_REACTORS
330
1D0
102
}
330
1D0
100
DictionaryVariables
280
     0
  1
5.000000
  0
DICTIONARYVAR
  5
6BE
102
{ACAD_REACTORS
330
1D0
102
}
330
1D0
100
DictionaryVariables
280
     0
  1
127
  0
DICTIONARYVAR
  5
6C5
102
{ACAD_REACTORS
330
1D0
102
}
330
1D0
100
DictionaryVariables
280
     0
  1
2
  0
DICTIONARY
  5
700
330
21F
100
AcDbDictionary
280
     1
281
     1
  3
ACAD_XREC_ROUNDTRIP
360
701
  0
DICTIONARY
  5
6C9
330
1E
100
AcDbDictionary
280
     1
281
     1
  3
ACAD_XREC_ROUNDTRIP
360
6CA
  0
DICTIONARY
  5
6CB
330
22
100
AcDbDictionary
280
     1
281
     1
  3
ACAD_XREC_ROUNDTRIP
360
6CC
  0
DICTIONARY
  5
702
330
220
100
AcDbDictionary
280
     1
281
     1
  3
ACAD_XREC_ROUNDTRIP
360
703
  0
DICTIONARY
  5
212
330
45
100
AcDbDictionary
280
     1
281
     1
  3
ACAD_XREC_ROUNDTRIP
360
213
  0
DICTIONARY
  5
210
330
44
100
AcDbDictionary
280
     1
281
     1
  3
ACAD_XREC_ROUNDTRIP
360
211
  0
DICTIONARY
  5
214
330
46
100
AcDbDictionary
280
     1
281
     1
  3
ACAD_XREC_ROUNDTRIP
360
215
  0
DICTIONARY
  5
6FE
330
21D
100
AcDbDictionary
280
     1
281
     1
  3
ACAD_XREC_ROUNDTRIP
360
6FF
  0
DICTIONARY
  5
636
330
5A
100
AcDbDictionary
280
     1
281
     1
  3
ACAD_ROUNDTRIP_2008_TABLESTYLE_CELLSTYLEMAP
360
6C6
  3
ACAD_XREC_ROUNDTRIP
360
6FD
  0
DICTIONARY
  5
6D5
330
2F
100
AcDbDictionary
280
     1
281
     1
  3
ACAD_XREC_ROUNDTRIP
360
6D6
  0
DICTIONARY
  5
6DB
330
32
100
AcDbDictionary
280
     1
281
     1
  3
ACAD_XREC_ROUNDTRIP
360
6DC
  0
DICTIONARY
  5
6E3
330
36
100
AcDbDictionary
280
     1
281
     1
  3
ACAD_XREC_ROUNDTRIP
360
6E4
  0
DICTIONARY
  5
6EB
330
3A
100
AcDbDictionary
280
     1
281
     1
  3
ACAD_XREC_ROUNDTRIP
360
6EC
  0
DICTIONARY
  5
6DF
330
34
100
AcDbDictionary
280
     1
281
     1
  3
ACAD_XREC_ROUNDTRIP
360
6E0
  0
DICTIONARY
  5
6E1
330
35
100
AcDbDictionary
280
     1
281
     1
  3
ACAD_XREC_ROUNDTRIP
360
6E2
  0
DICTIONARY
  5
6F1
330
3D
100
AcDbDictionary
280
     1
281
     1
  3
ACAD_XREC_ROUNDTRIP
360
6F2
  0
DICTIONARY
  5
6E9
330
39
100
AcDbDictionary
280
     1
281
     1
  3
ACAD_XREC_ROUNDTRIP
360
6EA
  0
DICTIONARY
  5
6CD
330
2B
100
AcDbDictionary
280
     1
281
     1
  3
ACAD_XREC_ROUNDTRIP
360
6CE
  0
DICTIONARY
  5
6CF
330
2C
100
AcDbDictionary
280
     1
281
     1
  3
ACAD_XREC_ROUNDTRIP
360
6D0
  0
DICTIONARY
  5
6D1
330
2D
100
AcDbDictionary
280
     1
281
     1
  3
ACAD_XREC_ROUNDTRIP
360
6D2
  0
DICTIONARY
  5
6D3
330
2E
100
AcDbDictionary
280
     1
281
     1
  3
ACAD_XREC_ROUNDTRIP
360
6D4
  0
DICTIONARY
  5
6D9
330
31
100
AcDbDictionary
280
     1
281
     1
  3
ACAD_XREC_ROUNDTRIP
360
6DA
  0
DICTIONARY
  5
6ED
330
3B
100
AcDbDictionary
280
     1
281
     1
  3
ACAD_XREC_ROUNDTRIP
360
6EE
  0
DICTIONARY
  5
6E7
330
38
100
AcDbDictionary
280
     1
281
     1
  3
ACAD_XREC_ROUNDTRIP
360
6E8
  0
DICTIONARY
  5
6EF
330
3C
100
AcDbDictionary
280
     1
281
     1
  3
ACAD_XREC_ROUNDTRIP
360
6F0
  0
DICTIONARY
  5
6DD
330
33
100
AcDbDictionary
280
     1
281
     1
  3
ACAD_XREC_ROUNDTRIP
360
6DE
  0
DICTIONARY
  5
6FB
330
42
100
AcDbDictionary
280
     1
281
     1
  3
ACAD_XREC_ROUNDTRIP
360
6FC
  0
DICTIONARY
  5
6F9
330
41
100
AcDbDictionary
280
     1
281
     1
  3
ACAD_XREC_ROUNDTRIP
360
6FA
  0
DICTIONARY
  5
6F3
330
3E
100
AcDbDictionary
280
     1
281
     1
  3
ACAD_XREC_ROUNDTRIP
360
6F4
  0
DICTIONARY
  5
6F5
330
3F
100
AcDbDictionary
280
     1
281
     1
  3
ACAD_XREC_ROUNDTRIP
360
6F6
  0
DICTIONARY
  5
6E5
330
37
100
AcDbDictionary
280
     1
281
     1
  3
ACAD_XREC_ROUNDTRIP
360
6E6
  0
DICTIONARY
  5
6D7
330
30
100
AcDbDictionary
280
     1
281
     1
  3
ACAD_XREC_ROUNDTRIP
360
6D8
  0
DICTIONARY
  5
6F7
330
40
100
AcDbDictionary
280
     1
281
     1
  3
ACAD_XREC_ROUNDTRIP
360
6F8
  0
XRECORD
  5
701
102
{ACAD_REACTORS
330
700
102
}
330
700
100
AcDbXrecord
280
     1
102
DISPLAYNAME
  1
Metric50
102
FLAGS
 90
        0
  0
XRECORD
  5
6CA
102
{ACAD_REACTORS
330
6C9
102
}
330
6C9
100
AcDbXrecord
280
     1
102
SHADEPLOT
 70
     0
102
SHADEPLOTRESLEVEL
 70
     2
102
SHADEPLOTCUSTOMDPI
 70
   300
  0
XRECORD
  5
6CC
102
{ACAD_REACTORS
330
6CB
102
}
330
6CB
100
AcDbXrecord
280
     1
102
SHADEPLOT
 70
     0
102
SHADEPLOTRESLEVEL
 70
     2
102
SHADEPLOTCUSTOMDPI
 70
   300
  0
XRECORD
  5
703
102
{ACAD_REACTORS
330
702
102
}
330
702
100
AcDbXrecord
280
     1
102
SHADEPLOT
 70
     0
102
SHADEPLOTRESLEVEL
 70
     2
102
SHADEPLOTCUSTOMDPI
 70
   300
  0
XRECORD
  5
213
102
{ACAD_REACTORS
330
212
102
}
330
212
100
AcDbXrecord
280
     1
102
MATERIAL
148
0.0
149
0.0
149
0.0
 93
        0
 94
      127
282
     0
 72
     1
 77
     1
171
     1
175
     1
179
     1
273
     0
  0
XRECORD
  5
211
102
{ACAD_REACTORS
330
210
102
}
330
210
100
AcDbXrecord
280
     1
102
MATERIAL
148
0.0
149
0.0
149
0.0
 93
        0
 94
      127
282
     0
 72
     1
 77
     1
171
     1
175
     1
179
     1
273
     0
  0
XRECORD
  5
215
102
{ACAD_REACTORS
330
214
102
}
330
214
100
AcDbXrecord
280
     1
102
MATERIAL
148
0.0
149
0.0
149
0.0
 93
        0
 94
      127
282
     0
 72
     1
 77
     1
171
     1
175
     1
179
     1
273
     0
  0
XRECORD
  5
6FF
102
{ACAD_REACTORS
330
6FE
102
}
330
6FE
100
AcDbXrecord
280
     1
102
DISPLAYNAME
  1
Metric50
102
FLAGS
 90
        0
  0
CELLSTYLEMAP
  5
6C6
102
{ACAD_REACTORS
330
636
102
}
330
636
100
AcDbCellStyleMap
 90
        3
300
CELLSTYLE
  1
TABLEFORMAT_BEGIN
 90
        5
170
     1
 91
        0
 92
    32768
 62
   257
 93
        1
300
CONTENTFORMAT
  1
CONTENTFORMAT_BEGIN
 90
        0
 91
        0
 92
        4
 93
        0
300

 40
0.0
140
1.0
 94
        5
 62
     0
340
11
144
6.0
309
CONTENTFORMAT_END
171
     1
301
MARGIN
  1
CELLMARGIN_BEGIN
 40
1.5
 40
1.5
 40
1.5
 40
1.5
 40
0.18
 40
0.18
309
CELLMARGIN_END
 94
        6
 95
        1
302
GRIDFORMAT
  1
GRIDFORMAT_BEGIN
 90
        0
 91
        1
 62
     0
 92
       -2
340
0
 93
        0
 40
0.045
309
GRIDFORMAT_END
 95
        2
302
GRIDFORMAT
  1
GRIDFORMAT_BEGIN
 90
        0
 91
        1
 62
     0
 92
       -2
340
0
 93
        0
 40
0.045
309
GRIDFORMAT_END
 95
        4
302
GRIDFORMAT
  1
GRIDFORMAT_BEGIN
 90
        0
 91
        1
 62
     0
 92
       -2
340
0
 93
        0
 40
0.045
309
GRIDFORMAT_END
 95
        8
302
GRIDFORMAT
  1
GRIDFORMAT_BEGIN
 90
        0
 91
        1
 62
     0
 92
       -2
340
0
 93
        0
 40
0.045
309
GRIDFORMAT_END
 95
       16
302
GRIDFORMAT
  1
GRIDFORMAT_BEGIN
 90
        0
 91
        1
 62
     0
 92
       -2
340
0
 93
        0
 40
0.045
309
GRIDFORMAT_END
 95
       32
302
GRIDFORMAT
  1
GRIDFORMAT_BEGIN
 90
        0
 91
        1
 62
     0
 92
       -2
340
0
 93
        0
 40
0.045
309
GRIDFORMAT_END
309
TABLEFORMAT_END
  1
CELLSTYLE_BEGIN
 90
        1
 91
        1
300
_TITLE
309
CELLSTYLE_END
300
CELLSTYLE
  1
TABLEFORMAT_BEGIN
 90
        5
170
     1
 91
        0
 92
        0
 62
   257
 93
        1
300
CONTENTFORMAT
  1
CONTENTFORMAT_BEGIN
 90
        0
 91
        0
 92
        4
 93
        0
300

 40
0.0
140
1.0
 94
        5
 62
     0
340
11
144
4.5
309
CONTENTFORMAT_END
171
     1
301
MARGIN
  1
CELLMARGIN_BEGIN
 40
1.5
 40
1.5
 40
1.5
 40
1.5
 40
0.18
 40
0.18
309
CELLMARGIN_END
 94
        6
 95
        1
302
GRIDFORMAT
  1
GRIDFORMAT_BEGIN
 90
        0
 91
        1
 62
     0
 92
       -2
340
0
 93
        0
 40
0.045
309
GRIDFORMAT_END
 95
        2
302
GRIDFORMAT
  1
GRIDFORMAT_BEGIN
 90
        0
 91
        1
 62
     0
 92
       -2
340
0
 93
        0
 40
0.045
309
GRIDFORMAT_END
 95
        4
302
GRIDFORMAT
  1
GRIDFORMAT_BEGIN
 90
        0
 91
        1
 62
     0
 92
       -2
340
0
 93
        0
 40
0.045
309
GRIDFORMAT_END
 95
        8
302
GRIDFORMAT
  1
GRIDFORMAT_BEGIN
 90
        0
 91
        1
 62
     0
 92
       -2
340
0
 93
        0
 40
0.045
309
GRIDFORMAT_END
 95
       16
302
GRIDFORMAT
  1
GRIDFORMAT_BEGIN
 90
        0
 91
        1
 62
     0
 92
       -2
340
0
 93
        0
 40
0.045
309
GRIDFORMAT_END
 95
       32
302
GRIDFORMAT
  1
GRIDFORMAT_BEGIN
 90
        0
 91
        1
 62
     0
 92
       -2
340
0
 93
        0
 40
0.045
309
GRIDFORMAT_END
309
TABLEFORMAT_END
  1
CELLSTYLE_BEGIN
 90
        2
 91
        1
300
_HEADER
309
CELLSTYLE_END
300
CELLSTYLE
  1
TABLEFORMAT_BEGIN
 90
        5
170
     1
 91
        0
 92
        0
 62
   257
 93
        1
300
CONTENTFORMAT
  1
CONTENTFORMAT_BEGIN
 90
        0
 91
        0
 92
        4
 93
        0
300

 40
0.0
140
1.0
 94
        2
 62
     0
340
11
144
4.5
309
CONTENTFORMAT_END
171
     1
301
MARGIN
  1
CELLMARGIN_BEGIN
 40
1.5
 40
1.5
 40
1.5
 40
1.5
 40
0.18
 40
0.18
309
CELLMARGIN_END
 94
        6
 95
        1
302
GRIDFORMAT
  1
GRIDFORMAT_BEGIN
 90
        0
 91
        1
 62
     0
 92
       -2
340
0
 93
        0
 40
0.045
309
GRIDFORMAT_END
 95
        2
302
GRIDFORMAT
  1
GRIDFORMAT_BEGIN
 90
        0
 91
        1
 62
     0
 92
       -2
340
0
 93
        0
 40
0.045
309
GRIDFORMAT_END
 95
        4
302
GRIDFORMAT
  1
GRIDFORMAT_BEGIN
 90
        0
 91
        1
 62
     0
 92
       -2
340
0
 93
        0
 40
0.045
309
GRIDFORMAT_END
 95
        8
302
GRIDFORMAT
  1
GRIDFORMAT_BEGIN
 90
        0
 91
        1
 62
     0
 92
       -2
340
0
 93
        0
 40
0.045
309
GRIDFORMAT_END
 95
       16
302
GRIDFORMAT
  1
GRIDFORMAT_BEGIN
 90
        0
 91
        1
 62
     0
 92
       -2
340
0
 93
        0
 40
0.045
309
GRIDFORMAT_END
 95
       32
302
GRIDFORMAT
  1
GRIDFORMAT_BEGIN
 90
        0
 91
        1
 62
     0
 92
       -2
340
0
 93
        0
 40
0.045
309
GRIDFORMAT_END
309
TABLEFORMAT_END
  1
CELLSTYLE_BEGIN
 90
        3
 91
        2
300
_DATA
309
CELLSTYLE_END
  0
XRECORD
  5
6FD
102
{ACAD_REACTORS
330
636
102
}
330
636
100
AcDbXrecord
280
     1
102
ACAD_ROUNDTRIP_PRE2007_TABLESTYLE
 90
        4
 91
        0
  1

 92
        4
 93
        0
  2

 94
        4
 95
        0
  3

  0
XRECORD
  5
6D6
102
{ACAD_REACTORS
330
6D5
102
}
330
6D5
100
AcDbXrecord
280
     1
102
RTVSPost2010Prop28
280
     1
102
RTVSPost2010PropOp28
 70
     1
102
RTVSPost2010Prop29
280
     1
102
RTVSPost2010PropOp29
 70
     1
102
RTVSPost2010Prop30
280
     0
102
RTVSPost2010PropOp30
 70
     1
102
RTVSPost2010Prop31
280
     0
102
RTVSPost2010PropOp31
 70
     1
102
RTVSPost2010Prop32
280
     0
102
RTVSPost2010PropOp32
 70
     1
102
RTVSPost2010Prop33
280
     0
102
RTVSPost2010PropOp33
 70
     1
102
RTVSPost2010Prop34
280
     0
102
RTVSPost2010PropOp34
 70
     1
102
RTVSPost2010Prop35
280
     0
102
RTVSPost2010PropOp35
 70
     1
102
RTVSPost2010Prop36
280
     0
102
RTVSPost2010PropOp36
 70
     1
102
RTVSPost2010Prop37
 90
       50
102
RTVSPost2010PropOp37
 70
     1
102
RTVSPost2010Prop38
140
0.0
102
RTVSPost2010PropOp38
 70
     1
102
RTVSPost2010Prop39
140
1.0
102
RTVSPost2010PropOp39
 70
     1
102
RTVSPost2010Prop40
 90
        0
102
RTVSPost2010PropOp40
 70
     1
102
RTVSPost2010Prop41ColorIndex
 90
       18
102
RTVSPost2010Prop41ColorRGB
 90
        0
102
RTVSPost2010PropOp41
 70
     1
102
RTVSPost2010Prop42
 90
       50
102
RTVSPost2010PropOp42
 70
     1
102
RTVSPost2010Prop43
 90
        3
102
RTVSPost2010PropOp43
 70
     1
102
RTVSPost2010Prop44ColorIndex
 90
        5
102
RTVSPost2010Prop44ColorRGB
 90
      255
102
RTVSPost2010PropOp44
 70
     1
102
RTVSPost2010Prop45
280
     0
102
RTVSPost2010PropOp45
 70
     1
102
RTVSPost2010Prop46
 90
       50
102
RTVSPost2010PropOp46
 70
     1
102
RTVSPost2010Prop47
 90
       50
102
RTVSPost2010PropOp47
 70
     1
102
RTVSPost2010Prop48
 90
       50
102
RTVSPost2010PropOp48
 70
     1
102
RTVSPost2010Prop49
280
     0
102
RTVSPost2010PropOp49
 70
     1
102
RTVSPost2010Prop50
 90
       50
102
RTVSPost2010PropOp50
 70
     1
102
RTVSPost2010Prop51ColorIndex
 90
      256
102
RTVSPost2010Prop51ColorRGB
 90
-16777216
102
RTVSPost2010PropOp51
 70
     0
102
RTVSPost2010Prop52
140
1.0
102
RTVSPost2010PropOp52
 70
     0
102
RTVSPost2010Prop53
 90
        2
102
RTVSPost2010PropOp53
 70
     1
102
RTVSPost2010Prop54
  1
strokes_ogs.tif
102
RTVSPost2010PropOp54
 70
     1
102
RTVSPost2010Prop55
280
     0
102
RTVSPost2010PropOp55
 70
     1
102
RTVSPost2010Prop56
140
1.0
102
RTVSPost2010PropOp56
 70
     1
102
RTVSPost2010Prop57
140
1.0
102
RTVSPost2010PropOp57
 70
     1
102
RTVSPropertyOp0
 70
     1
102
RTVSPropertyOp1
 70
     1
102
RTVSPropertyOp2
 70
     1
102
RTVSPropertyOp3
 70
     1
102
RTVSPropertyOp4
 70
     1
102
RTVSPropertyOp5
 70
     1
102
RTVSPropertyOp6
 70
     1
102
RTVSPropertyOp7
 70
     1
102
RTVSPropertyOp8
 70
     1
102
RTVSPropertyOp9
 70
     1
102
RTVSPropertyOp10
 70
     1
102
RTVSPropertyOp11
 70
     1
102
RTVSPropertyOp12
 70
     1
102
RTVSPropertyOp13
 70
     1
102
RTVSPropertyOp14
 70
     1
102
RTVSPropertyOp15
 70
     1
102
RTVSPropertyOp16
 70
     1
102
RTVSPropertyOp17
 70
     1
102
RTVSPropertyOp18
 70
     1
102
RTVSPropertyOp19
 70
     1
102
RTVSPropertyOp20
 70
     1
102
RTVSPropertyOp21
 70
     1
102
RTVSPropertyOp22
 70
     1
102
RTVSPropertyOp23
 70
     1
102
RTVSPropertyOp24
 70
     1
102
RTVSPropertyOp25
 70
     1
102
RTVSPropertyOp26
 70
     1
102
RTVSPropertyOp27
 70
     1
102
RTVSPropertyOp28
 70
     1
102
RTVSPropertyOp29
 70
     1
102
RTVSPropertyOp30
 70
     1
102
RTVSPropertyOp31
 70
     1
102
RTVSPropertyOp32
 70
     1
102
RTVSPropertyOp33
 70
     1
102
RTVSPropertyOp34
 70
     1
102
RTVSPropertyOp35
 70
     1
102
RTVSPropertyOp36
 70
     1
102
RTVSPropertyOp37
 70
     1
102
RTVSPropertyOp38
 70
     1
102
RTVSPropertyOp39
 70
     1
102
RTVSPropertyOp40
 70
     1
102
RTVSPropertyOp41
 70
     1
102
RTVSPropertyOp42
 70
     1
102
RTVSPropertyOp43
 70
     1
102
RTVSPropertyOp44
 70
     1
102
RTVSPropertyOp45
 70
     1
102
RTVSPropertyOp46
 70
     1
102
RTVSPropertyOp47
 70
     1
102
RTVSPropertyOp48
 70
     1
102
RTVSPropertyOp49
 70
     1
102
RTVSPropertyOp50
 70
     1
102
RTVSPropertyOp51
 70
     0
102
RTVSPropertyOp52
 70
     0
102
RTVSPropertyOp53
 70
     1
102
RTVSPropertyOp54
 70
     1
102
RTVSPropertyOp55
 70
     1
102
RTVSPropertyOp56
 70
     1
102
RTVSPropertyOp57
 70
     1
102
RTVSPropertyOp58
 70
     1
102
RTVSPropertyOp59
 70
     1
102
RTVSPropertyOp60
 70
     1
102
RTVSPropertyOp61
 70
     1
102
RTVSPropertyOp62
 70
     1
  0
XRECORD
  5
6DC
102
{ACAD_REACTORS
330
6DB
102
}
330
6DB
100
AcDbXrecord
280
     1
102
RTVSPost2010Prop28
280
     0
102
RTVSPost2010PropOp28
 70
     1
102
RTVSPost2010Prop29
280
     1
102
RTVSPost2010PropOp29
 70
     1
102
RTVSPost2010Prop30
280
     1
102
RTVSPost2010PropOp30
 70
     1
102
RTVSPost2010Prop31
280
     0
102
RTVSPost2010PropOp31
 70
     1
102
RTVSPost2010Prop32
280
     0
102
RTVSPost2010PropOp32
 70
     1
102
RTVSPost2010Prop33
280
     0
102
RTVSPost2010PropOp33
 70
     1
102
RTVSPost2010Prop34
280
     0
102
RTVSPost2010PropOp34
 70
     1
102
RTVSPost2010Prop35
280
     0
102
RTVSPost2010PropOp35
 70
     1
102
RTVSPost2010Prop36
280
     0
102
RTVSPost2010PropOp36
 70
     1
102
RTVSPost2010Prop37
 90
       50
102
RTVSPost2010PropOp37
 70
     1
102
RTVSPost2010Prop38
140
0.0
102
RTVSPost2010PropOp38
 70
     1
102
RTVSPost2010Prop39
140
1.0
102
RTVSPost2010PropOp39
 70
     1
102
RTVSPost2010Prop40
 90
        0
102
RTVSPost2010PropOp40
 70
     1
102
RTVSPost2010Prop41ColorIndex
 90
       18
102
RTVSPost2010Prop41ColorRGB
 90
        0
102
RTVSPost2010PropOp41
 70
     1
102
RTVSPost2010Prop42
 90
       50
102
RTVSPost2010PropOp42
 70
     1
102
RTVSPost2010Prop43
 90
        3
102
RTVSPost2010PropOp43
 70
     1
102
RTVSPost2010Prop44ColorIndex
 90
        5
102
RTVSPost2010Prop44ColorRGB
 90
      255
102
RTVSPost2010PropOp44
 70
     1
102
RTVSPost2010Prop45
280
     0
102
RTVSPost2010PropOp45
 70
     1
102
RTVSPost2010Prop46
 90
       50
102
RTVSPost2010PropOp46
 70
     1
102
RTVSPost2010Prop47
 90
       50
102
RTVSPost2010PropOp47
 70
     1
102
RTVSPost2010Prop48
 90
       50
102
RTVSPost2010PropOp48
 70
     1
102
RTVSPost2010Prop49
280
     0
102
RTVSPost2010PropOp49
 70
     1
102
RTVSPost2010Prop50
 90
       50
102
RTVSPost2010PropOp50
 70
     1
102
RTVSPost2010Prop51ColorIndex
 90
      256
102
RTVSPost2010Prop51ColorRGB
 90
-16777216
102
RTVSPost2010PropOp51
 70
     0
102
RTVSPost2010Prop52
140
1.0
102
RTVSPost2010PropOp52
 70
     0
102
RTVSPost2010Prop53
 90
        2
102
RTVSPost2010PropOp53
 70
     1
102
RTVSPost2010Prop54
  1
strokes_ogs.tif
102
RTVSPost2010PropOp54
 70
     1
102
RTVSPost2010Prop55
280
     0
102
RTVSPost2010PropOp55
 70
     1
102
RTVSPost2010Prop56
140
1.0
102
RTVSPost2010PropOp56
 70
     1
102
RTVSPost2010Prop57
140
1.0
102
RTVSPost2010PropOp57
 70
     1
102
RTVSPropertyOp0
 70
     1
102
RTVSPropertyOp1
 70
     1
102
RTVSPropertyOp2
 70
     1
102
RTVSPropertyOp3
 70
     1
102
RTVSPropertyOp4
 70
     1
102
RTVSPropertyOp5
 70
     1
102
RTVSPropertyOp6
 70
     1
102
RTVSPropertyOp7
 70
     1
102
RTVSPropertyOp8
 70
     1
102
RTVSPropertyOp9
 70
     1
102
RTVSPropertyOp10
 70
     1
102
RTVSPropertyOp11
 70
     1
102
RTVSPropertyOp12
 70
     1
102
RTVSPropertyOp13
 70
     1
102
RTVSPropertyOp14
 70
     1
102
RTVSPropertyOp15
 70
     1
102
RTVSPropertyOp16
 70
     1
102
RTVSPropertyOp17
 70
     1
102
RTVSPropertyOp18
 70
     1
102
RTVSPropertyOp19
 70
     1
102
RTVSPropertyOp20
 70
     1
102
RTVSPropertyOp21
 70
     1
102
RTVSPropertyOp22
 70
     1
102
RTVSPropertyOp23
 70
     1
102
RTVSPropertyOp24
 70
     1
102
RTVSPropertyOp25
 70
     1
102
RTVSPropertyOp26
 70
     1
102
RTVSPropertyOp27
 70
     1
102
RTVSPropertyOp28
 70
     1
102
RTVSPropertyOp29
 70
     1
102
RTVSPropertyOp30
 70
     1
102
RTVSPropertyOp31
 70
     1
102
RTVSPropertyOp32
 70
     1
102
RTVSPropertyOp33
 70
     1
102
RTVSPropertyOp34
 70
     1
102
RTVSPropertyOp35
 70
     1
102
RTVSPropertyOp36
 70
     1
102
RTVSPropertyOp37
 70
     1
102
RTVSPropertyOp38
 70
     1
102
RTVSPropertyOp39
 70
     1
102
RTVSPropertyOp40
 70
     1
102
RTVSPropertyOp41
 70
     1
102
RTVSPropertyOp42
 70
     1
102
RTVSPropertyOp43
 70
     1
102
RTVSPropertyOp44
 70
     1
102
RTVSPropertyOp45
 70
     1
102
RTVSPropertyOp46
 70
     1
102
RTVSPropertyOp47
 70
     1
102
RTVSPropertyOp48
 70
     1
102
RTVSPropertyOp49
 70
     1
102
RTVSPropertyOp50
 70
     1
102
RTVSPropertyOp51
 70
     0
102
RTVSPropertyOp52
 70
     0
102
RTVSPropertyOp53
 70
     1
102
RTVSPropertyOp54
 70
     1
102
RTVSPropertyOp55
 70
     1
102
RTVSPropertyOp56
 70
     1
102
RTVSPropertyOp57
 70
     1
102
RTVSPropertyOp58
 70
     1
102
RTVSPropertyOp59
 70
     1
102
RTVSPropertyOp60
 70
     1
102
RTVSPropertyOp61
 70
     1
102
RTVSPropertyOp62
 70
     1
  0
XRECORD
  5
6E4
102
{ACAD_REACTORS
330
6E3
102
}
330
6E3
100
AcDbXrecord
280
     1
102
RTVSPost2010Prop28
280
     0
102
RTVSPost2010PropOp28
 70
     1
102
RTVSPost2010Prop29
280
     1
102
RTVSPost2010PropOp29
 70
     1
102
RTVSPost2010Prop30
280
     1
102
RTVSPost2010PropOp30
 70
     1
102
RTVSPost2010Prop31
280
     0
102
RTVSPost2010PropOp31
 70
     1
102
RTVSPost2010Prop32
280
     0
102
RTVSPost2010PropOp32
 70
     1
102
RTVSPost2010Prop33
280
     0
102
RTVSPost2010PropOp33
 70
     1
102
RTVSPost2010Prop34
280
     0
102
RTVSPost2010PropOp34
 70
     1
102
RTVSPost2010Prop35
280
     0
102
RTVSPost2010PropOp35
 70
     1
102
RTVSPost2010Prop36
280
     0
102
RTVSPost2010PropOp36
 70
     1
102
RTVSPost2010Prop37
 90
       50
102
RTVSPost2010PropOp37
 70
     1
102
RTVSPost2010Prop38
140
0.0
102
RTVSPost2010PropOp38
 70
     1
102
RTVSPost2010Prop39
140
1.0
102
RTVSPost2010PropOp39
 70
     1
102
RTVSPost2010Prop40
 90
        0
102
RTVSPost2010PropOp40
 70
     1
102
RTVSPost2010Prop41ColorIndex
 90
       18
102
RTVSPost2010Prop41ColorRGB
 90
        0
102
RTVSPost2010PropOp41
 70
     1
102
RTVSPost2010Prop42
 90
       50
102
RTVSPost2010PropOp42
 70
     1
102
RTVSPost2010Prop43
 90
        3
102
RTVSPost2010PropOp43
 70
     1
102
RTVSPost2010Prop44ColorIndex
 90
        5
102
RTVSPost2010Prop44ColorRGB
 90
      255
102
RTVSPost2010PropOp44
 70
     1
102
RTVSPost2010Prop45
280
     0
102
RTVSPost2010PropOp45
 70
     1
102
RTVSPost2010Prop46
 90
       50
102
RTVSPost2010PropOp46
 70
     1
102
RTVSPost2010Prop47
 90
       50
102
RTVSPost2010PropOp47
 70
     1
102
RTVSPost2010Prop48
 90
       50
102
RTVSPost2010PropOp48
 70
     1
102
RTVSPost2010Prop49
280
     0
102
RTVSPost2010PropOp49
 70
     1
102
RTVSPost2010Prop50
 90
       50
102
RTVSPost2010PropOp50
 70
     1
102
RTVSPost2010Prop51ColorIndex
 90
      256
102
RTVSPost2010Prop51ColorRGB
 90
-16777216
102
RTVSPost2010PropOp51
 70
     0
102
RTVSPost2010Prop52
140
1.0
102
RTVSPost2010PropOp52
 70
     0
102
RTVSPost2010Prop53
 90
        2
102
RTVSPost2010PropOp53
 70
     1
102
RTVSPost2010Prop54
  1
strokes_ogs.tif
102
RTVSPost2010PropOp54
 70
     1
102
RTVSPost2010Prop55
280
     0
102
RTVSPost2010PropOp55
 70
     1
102
RTVSPost2010Prop56
140
1.0
102
RTVSPost2010PropOp56
 70
     1
102
RTVSPost2010Prop57
140
1.0
102
RTVSPost2010PropOp57
 70
     1
102
RTVSPropertyOp0
 70
     1
102
RTVSPropertyOp1
 70
     1
102
RTVSPropertyOp2
 70
     1
102
RTVSPropertyOp3
 70
     1
102
RTVSPropertyOp4
 70
     1
102
RTVSPropertyOp5
 70
     1
102
RTVSPropertyOp6
 70
     1
102
RTVSPropertyOp7
 70
     1
102
RTVSPropertyOp8
 70
     1
102
RTVSPropertyOp9
 70
     1
102
RTVSPropertyOp10
 70
     1
102
RTVSPropertyOp11
 70
     1
102
RTVSPropertyOp12
 70
     1
102
RTVSPropertyOp13
 70
     1
102
RTVSPropertyOp14
 70
     1
102
RTVSPropertyOp15
 70
     1
102
RTVSPropertyOp16
 70
     1
102
RTVSPropertyOp17
 70
     1
102
RTVSPropertyOp18
 70
     1
102
RTVSPropertyOp19
 70
     1
102
RTVSPropertyOp20
 70
     1
102
RTVSPropertyOp21
 70
     1
102
RTVSPropertyOp22
 70
     1
102
RTVSPropertyOp23
 70
     1
102
RTVSPropertyOp24
 70
     1
102
RTVSPropertyOp25
 70
     1
102
RTVSPropertyOp26
 70
     1
102
RTVSPropertyOp27
 70
     1
102
RTVSPropertyOp28
 70
     1
102
RTVSPropertyOp29
 70
     1
102
RTVSPropertyOp30
 70
     1
102
RTVSPropertyOp31
 70
     1
102
RTVSPropertyOp32
 70
     1
102
RTVSPropertyOp33
 70
     1
102
RTVSPropertyOp34
 70
     1
102
RTVSPropertyOp35
 70
     1
102
RTVSPropertyOp36
 70
     1
102
RTVSPropertyOp37
 70
     1
102
RTVSPropertyOp38
 70
     1
102
RTVSPropertyOp39
 70
     1
102
RTVSPropertyOp40
 70
     1
102
RTVSPropertyOp41
 70
     1
102
RTVSPropertyOp42
 70
     1
102
RTVSPropertyOp43
 70
     1
102
RTVSPropertyOp44
 70
     1
102
RTVSPropertyOp45
 70
     1
102
RTVSPropertyOp46
 70
     1
102
RTVSPropertyOp47
 70
     1
102
RTVSPropertyOp48
 70
     1
102
RTVSPropertyOp49
 70
     1
102
RTVSPropertyOp50
 70
     1
102
RTVSPropertyOp51
 70
     0
102
RTVSPropertyOp52
 70
     0
102
RTVSPropertyOp53
 70
     1
102
RTVSPropertyOp54
 70
     1
102
RTVSPropertyOp55
 70
     1
102
RTVSPropertyOp56
 70
     1
102
RTVSPropertyOp57
 70
     1
102
RTVSPropertyOp58
 70
     1
102
RTVSPropertyOp59
 70
     1
102
RTVSPropertyOp60
 70
     1
102
RTVSPropertyOp61
 70
     1
102
RTVSPropertyOp62
 70
     1
  0
XRECORD
  5
6EC
102
{ACAD_REACTORS
330
6EB
102
}
330
6EB
100
AcDbXrecord
280
     1
102
RTVSPost2010Prop28
280
     0
102
RTVSPost2010PropOp28
 70
     1
102
RTVSPost2010Prop29
280
     1
102
RTVSPost2010PropOp29
 70
     1
102
RTVSPost2010Prop30
280
     1
102
RTVSPost2010PropOp30
 70
     1
102
RTVSPost2010Prop31
280
     0
102
RTVSPost2010PropOp31
 70
     1
102
RTVSPost2010Prop32
280
     0
102
RTVSPost2010PropOp32
 70
     1
102
RTVSPost2010Prop33
280
     0
102
RTVSPost2010PropOp33
 70
     1
102
RTVSPost2010Prop34
280
     0
102
RTVSPost2010PropOp34
 70
     1
102
RTVSPost2010Prop35
280
     0
102
RTVSPost2010PropOp35
 70
     1
102
RTVSPost2010Prop36
280
     0
102
RTVSPost2010PropOp36
 70
     1
102
RTVSPost2010Prop37
 90
       50
102
RTVSPost2010PropOp37
 70
     1
102
RTVSPost2010Prop38
140
0.0
102
RTVSPost2010PropOp38
 70
     1
102
RTVSPost2010Prop39
140
1.0
102
RTVSPost2010PropOp39
 70
     1
102
RTVSPost2010Prop40
 90
        0
102
RTVSPost2010PropOp40
 70
     1
102
RTVSPost2010Prop41ColorIndex
 90
       18
102
RTVSPost2010Prop41ColorRGB
 90
        0
102
RTVSPost2010PropOp41
 70
     1
102
RTVSPost2010Prop42
 90
       50
102
RTVSPost2010PropOp42
 70
     1
102
RTVSPost2010Prop43
 90
        3
102
RTVSPost2010PropOp43
 70
     1
102
RTVSPost2010Prop44ColorIndex
 90
        5
102
RTVSPost2010Prop44ColorRGB
 90
      255
102
RTVSPost2010PropOp44
 70
     1
102
RTVSPost2010Prop45
280
     0
102
RTVSPost2010PropOp45
 70
     1
102
RTVSPost2010Prop46
 90
       50
102
RTVSPost2010PropOp46
 70
     1
102
RTVSPost2010Prop47
 90
       50
102
RTVSPost2010PropOp47
 70
     1
102
RTVSPost2010Prop48
 90
       50
102
RTVSPost2010PropOp48
 70
     1
102
RTVSPost2010Prop49
280
     0
102
RTVSPost2010PropOp49
 70
     1
102
RTVSPost2010Prop50
 90
       50
102
RTVSPost2010PropOp50
 70
     1
102
RTVSPost2010Prop51ColorIndex
 90
      256
102
RTVSPost2010Prop51ColorRGB
 90
-16777216
102
RTVSPost2010PropOp51
 70
     0
102
RTVSPost2010Prop52
140
1.0
102
RTVSPost2010PropOp52
 70
     0
102
RTVSPost2010Prop53
 90
        2
102
RTVSPost2010PropOp53
 70
     1
102
RTVSPost2010Prop54
  1
strokes_ogs.tif
102
RTVSPost2010PropOp54
 70
     1
102
RTVSPost2010Prop55
280
     0
102
RTVSPost2010PropOp55
 70
     1
102
RTVSPost2010Prop56
140
1.0
102
RTVSPost2010PropOp56
 70
     1
102
RTVSPost2010Prop57
140
1.0
102
RTVSPost2010PropOp57
 70
     1
102
RTVSPropertyOp0
 70
     1
102
RTVSPropertyOp1
 70
     1
102
RTVSPropertyOp2
 70
     1
102
RTVSPropertyOp3
 70
     1
102
RTVSPropertyOp4
 70
     1
102
RTVSPropertyOp5
 70
     1
102
RTVSPropertyOp6
 70
     1
102
RTVSPropertyOp7
 70
     1
102
RTVSPropertyOp8
 70
     1
102
RTVSPropertyOp9
 70
     1
102
RTVSPropertyOp10
 70
     1
102
RTVSPropertyOp11
 70
     1
102
RTVSPropertyOp12
 70
     1
102
RTVSPropertyOp13
 70
     1
102
RTVSPropertyOp14
 70
     1
102
RTVSPropertyOp15
 70
     1
102
RTVSPropertyOp16
 70
     1
102
RTVSPropertyOp17
 70
     1
102
RTVSPropertyOp18
 70
     1
102
RTVSPropertyOp19
 70
     1
102
RTVSPropertyOp20
 70
     1
102
RTVSPropertyOp21
 70
     1
102
RTVSPropertyOp22
 70
     1
102
RTVSPropertyOp23
 70
     1
102
RTVSPropertyOp24
 70
     1
102
RTVSPropertyOp25
 70
     1
102
RTVSPropertyOp26
 70
     1
102
RTVSPropertyOp27
 70
     1
102
RTVSPropertyOp28
 70
     1
102
RTVSPropertyOp29
 70
     1
102
RTVSPropertyOp30
 70
     1
102
RTVSPropertyOp31
 70
     1
102
RTVSPropertyOp32
 70
     1
102
RTVSPropertyOp33
 70
     1
102
RTVSPropertyOp34
 70
     1
102
RTVSPropertyOp35
 70
     1
102
RTVSPropertyOp36
 70
     1
102
RTVSPropertyOp37
 70
     1
102
RTVSPropertyOp38
 70
     1
102
RTVSPropertyOp39
 70
     1
102
RTVSPropertyOp40
 70
     1
102
RTVSPropertyOp41
 70
     1
102
RTVSPropertyOp42
 70
     1
102
RTVSPropertyOp43
 70
     1
102
RTVSPropertyOp44
 70
     1
102
RTVSPropertyOp45
 70
     1
102
RTVSPropertyOp46
 70
     1
102
RTVSPropertyOp47
 70
     1
102
RTVSPropertyOp48
 70
     1
102
RTVSPropertyOp49
 70
     1
102
RTVSPropertyOp50
 70
     1
102
RTVSPropertyOp51
 70
     0
102
RTVSPropertyOp52
 70
     0
102
RTVSPropertyOp53
 70
     1
102
RTVSPropertyOp54
 70
     1
102
RTVSPropertyOp55
 70
     1
102
RTVSPropertyOp56
 70
     1
102
RTVSPropertyOp57
 70
     1
102
RTVSPropertyOp58
 70
     1
102
RTVSPropertyOp59
 70
     1
102
RTVSPropertyOp60
 70
     1
102
RTVSPropertyOp61
 70
     1
102
RTVSPropertyOp62
 70
     1
  0
XRECORD
  5
6E0
102
{ACAD_REACTORS
330
6DF
102
}
330
6DF
100
AcDbXrecord
280
     1
102
RTVSPost2010Prop28
280
     0
102
RTVSPost2010PropOp28
 70
     1
102
RTVSPost2010Prop29
280
     1
102
RTVSPost2010PropOp29
 70
     1
102
RTVSPost2010Prop30
280
     1
102
RTVSPost2010PropOp30
 70
     1
102
RTVSPost2010Prop31
280
     0
102
RTVSPost2010PropOp31
 70
     1
102
RTVSPost2010Prop32
280
     0
102
RTVSPost2010PropOp32
 70
     1
102
RTVSPost2010Prop33
280
     0
102
RTVSPost2010PropOp33
 70
     1
102
RTVSPost2010Prop34
280
     0
102
RTVSPost2010PropOp34
 70
     1
102
RTVSPost2010Prop35
280
     0
102
RTVSPost2010PropOp35
 70
     1
102
RTVSPost2010Prop36
280
     0
102
RTVSPost2010PropOp36
 70
     1
102
RTVSPost2010Prop37
 90
       50
102
RTVSPost2010PropOp37
 70
     1
102
RTVSPost2010Prop38
140
0.0
102
RTVSPost2010PropOp38
 70
     1
102
RTVSPost2010Prop39
140
1.0
102
RTVSPost2010PropOp39
 70
     1
102
RTVSPost2010Prop40
 90
        0
102
RTVSPost2010PropOp40
 70
     1
102
RTVSPost2010Prop41ColorIndex
 90
       18
102
RTVSPost2010Prop41ColorRGB
 90
        0
102
RTVSPost2010PropOp41
 70
     1
102
RTVSPost2010Prop42
 90
       50
102
RTVSPost2010PropOp42
 70
     1
102
RTVSPost2010Prop43
 90
        3
102
RTVSPost2010PropOp43
 70
     1
102
RTVSPost2010Prop44ColorIndex
 90
        5
102
RTVSPost2010Prop44ColorRGB
 90
      255
102
RTVSPost2010PropOp44
 70
     1
102
RTVSPost2010Prop45
280
     0
102
RTVSPost2010PropOp45
 70
     1
102
RTVSPost2010Prop46
 90
       50
102
RTVSPost2010PropOp46
 70
     1
102
RTVSPost2010Prop47
 90
       50
102
RTVSPost2010PropOp47
 70
     1
102
RTVSPost2010Prop48
 90
       50
102
RTVSPost2010PropOp48
 70
     1
102
RTVSPost2010Prop49
280
     0
102
RTVSPost2010PropOp49
 70
     1
102
RTVSPost2010Prop50
 90
       50
102
RTVSPost2010PropOp50
 70
     1
102
RTVSPost2010Prop51ColorIndex
 90
      256
102
RTVSPost2010Prop51ColorRGB
 90
-16777216
102
RTVSPost2010PropOp51
 70
     0
102
RTVSPost2010Prop52
140
1.0
102
RTVSPost2010PropOp52
 70
     0
102
RTVSPost2010Prop53
 90
        2
102
RTVSPost2010PropOp53
 70
     1
102
RTVSPost2010Prop54
  1
strokes_ogs.tif
102
RTVSPost2010PropOp54
 70
     1
102
RTVSPost2010Prop55
280
     0
102
RTVSPost2010PropOp55
 70
     1
102
RTVSPost2010Prop56
140
1.0
102
RTVSPost2010PropOp56
 70
     1
102
RTVSPost2010Prop57
140
1.0
102
RTVSPost2010PropOp57
 70
     1
102
RTVSPropertyOp0
 70
     1
102
RTVSPropertyOp1
 70
     1
102
RTVSPropertyOp2
 70
     1
102
RTVSPropertyOp3
 70
     1
102
RTVSPropertyOp4
 70
     1
102
RTVSPropertyOp5
 70
     1
102
RTVSPropertyOp6
 70
     1
102
RTVSPropertyOp7
 70
     1
102
RTVSPropertyOp8
 70
     1
102
RTVSPropertyOp9
 70
     1
102
RTVSPropertyOp10
 70
     1
102
RTVSPropertyOp11
 70
     1
102
RTVSPropertyOp12
 70
     1
102
RTVSPropertyOp13
 70
     1
102
RTVSPropertyOp14
 70
     1
102
RTVSPropertyOp15
 70
     1
102
RTVSPropertyOp16
 70
     1
102
RTVSPropertyOp17
 70
     1
102
RTVSPropertyOp18
 70
     1
102
RTVSPropertyOp19
 70
     1
102
RTVSPropertyOp20
 70
     1
102
RTVSPropertyOp21
 70
     1
102
RTVSPropertyOp22
 70
     1
102
RTVSPropertyOp23
 70
     1
102
RTVSPropertyOp24
 70
     1
102
RTVSPropertyOp25
 70
     1
102
RTVSPropertyOp26
 70
     1
102
RTVSPropertyOp27
 70
     1
102
RTVSPropertyOp28
 70
     1
102
RTVSPropertyOp29
 70
     1
102
RTVSPropertyOp30
 70
     1
102
RTVSPropertyOp31
 70
     1
102
RTVSPropertyOp32
 70
     1
102
RTVSPropertyOp33
 70
     1
102
RTVSPropertyOp34
 70
     1
102
RTVSPropertyOp35
 70
     1
102
RTVSPropertyOp36
 70
     1
102
RTVSPropertyOp37
 70
     1
102
RTVSPropertyOp38
 70
     1
102
RTVSPropertyOp39
 70
     1
102
RTVSPropertyOp40
 70
     1
102
RTVSPropertyOp41
 70
     1
102
RTVSPropertyOp42
 70
     1
102
RTVSPropertyOp43
 70
     1
102
RTVSPropertyOp44
 70
     1
102
RTVSPropertyOp45
 70
     1
102
RTVSPropertyOp46
 70
     1
102
RTVSPropertyOp47
 70
     1
102
RTVSPropertyOp48
 70
     1
102
RTVSPropertyOp49
 70
     1
102
RTVSPropertyOp50
 70
     1
102
RTVSPropertyOp51
 70
     0
102
RTVSPropertyOp52
 70
     0
102
RTVSPropertyOp53
 70
     1
102
RTVSPropertyOp54
 70
     1
102
RTVSPropertyOp55
 70
     1
102
RTVSPropertyOp56
 70
     1
102
RTVSPropertyOp57
 70
     1
102
RTVSPropertyOp58
 70
     1
102
RTVSPropertyOp59
 70
     1
102
RTVSPropertyOp60
 70
     1
102
RTVSPropertyOp61
 70
     1
102
RTVSPropertyOp62
 70
     1
  0
XRECORD
  5
6E2
102
{ACAD_REACTORS
330
6E1
102
}
330
6E1
100
AcDbXrecord
280
     1
102
RTVSPost2010Prop28
280
     0
102
RTVSPost2010PropOp28
 70
     1
102
RTVSPost2010Prop29
280
     1
102
RTVSPost2010PropOp29
 70
     1
102
RTVSPost2010Prop30
280
     1
102
RTVSPost2010PropOp30
 70
     1
102
RTVSPost2010Prop31
280
     0
102
RTVSPost2010PropOp31
 70
     1
102
RTVSPost2010Prop32
280
     0
102
RTVSPost2010PropOp32
 70
     1
102
RTVSPost2010Prop33
280
     0
102
RTVSPost2010PropOp33
 70
     1
102
RTVSPost2010Prop34
280
     0
102
RTVSPost2010PropOp34
 70
     1
102
RTVSPost2010Prop35
280
     0
102
RTVSPost2010PropOp35
 70
     1
102
RTVSPost2010Prop36
280
     0
102
RTVSPost2010PropOp36
 70
     1
102
RTVSPost2010Prop37
 90
       50
102
RTVSPost2010PropOp37
 70
     1
102
RTVSPost2010Prop38
140
0.0
102
RTVSPost2010PropOp38
 70
     1
102
RTVSPost2010Prop39
140
1.0
102
RTVSPost2010PropOp39
 70
     1
102
RTVSPost2010Prop40
 90
        0
102
RTVSPost2010PropOp40
 70
     1
102
RTVSPost2010Prop41ColorIndex
 90
       18
102
RTVSPost2010Prop41ColorRGB
 90
        0
102
RTVSPost2010PropOp41
 70
     1
102
RTVSPost2010Prop42
 90
       50
102
RTVSPost2010PropOp42
 70
     1
102
RTVSPost2010Prop43
 90
        3
102
RTVSPost2010PropOp43
 70
     1
102
RTVSPost2010Prop44ColorIndex
 90
        5
102
RTVSPost2010Prop44ColorRGB
 90
      255
102
RTVSPost2010PropOp44
 70
     1
102
RTVSPost2010Prop45
280
     0
102
RTVSPost2010PropOp45
 70
     1
102
RTVSPost2010Prop46
 90
       50
102
RTVSPost2010PropOp46
 70
     1
102
RTVSPost2010Prop47
 90
       50
102
RTVSPost2010PropOp47
 70
     1
102
RTVSPost2010Prop48
 90
       50
102
RTVSPost2010PropOp48
 70
     1
102
RTVSPost2010Prop49
280
     0
102
RTVSPost2010PropOp49
 70
     1
102
RTVSPost2010Prop50
 90
       50
102
RTVSPost2010PropOp50
 70
     1
102
RTVSPost2010Prop51ColorIndex
 90
      256
102
RTVSPost2010Prop51ColorRGB
 90
-16777216
102
RTVSPost2010PropOp51
 70
     0
102
RTVSPost2010Prop52
140
1.0
102
RTVSPost2010PropOp52
 70
     0
102
RTVSPost2010Prop53
 90
        2
102
RTVSPost2010PropOp53
 70
     1
102
RTVSPost2010Prop54
  1
strokes_ogs.tif
102
RTVSPost2010PropOp54
 70
     1
102
RTVSPost2010Prop55
280
     0
102
RTVSPost2010PropOp55
 70
     1
102
RTVSPost2010Prop56
140
1.0
102
RTVSPost2010PropOp56
 70
     1
102
RTVSPost2010Prop57
140
1.0
102
RTVSPost2010PropOp57
 70
     1
102
RTVSPropertyOp0
 70
     1
102
RTVSPropertyOp1
 70
     1
102
RTVSPropertyOp2
 70
     1
102
RTVSPropertyOp3
 70
     1
102
RTVSPropertyOp4
 70
     1
102
RTVSPropertyOp5
 70
     1
102
RTVSPropertyOp6
 70
     1
102
RTVSPropertyOp7
 70
     1
102
RTVSPropertyOp8
 70
     1
102
RTVSPropertyOp9
 70
     1
102
RTVSPropertyOp10
 70
     1
102
RTVSPropertyOp11
 70
     1
102
RTVSPropertyOp12
 70
     1
102
RTVSPropertyOp13
 70
     1
102
RTVSPropertyOp14
 70
     1
102
RTVSPropertyOp15
 70
     1
102
RTVSPropertyOp16
 70
     1
102
RTVSPropertyOp17
 70
     1
102
RTVSPropertyOp18
 70
     1
102
RTVSPropertyOp19
 70
     1
102
RTVSPropertyOp20
 70
     1
102
RTVSPropertyOp21
 70
     1
102
RTVSPropertyOp22
 70
     1
102
RTVSPropertyOp23
 70
     1
102
RTVSPropertyOp24
 70
     1
102
RTVSPropertyOp25
 70
     1
102
RTVSPropertyOp26
 70
     1
102
RTVSPropertyOp27
 70
     1
102
RTVSPropertyOp28
 70
     1
102
RTVSPropertyOp29
 70
     1
102
RTVSPropertyOp30
 70
     1
102
RTVSPropertyOp31
 70
     1
102
RTVSPropertyOp32
 70
     1
102
RTVSPropertyOp33
 70
     1
102
RTVSPropertyOp34
 70
     1
102
RTVSPropertyOp35
 70
     1
102
RTVSPropertyOp36
 70
     1
102
RTVSPropertyOp37
 70
     1
102
RTVSPropertyOp38
 70
     1
102
RTVSPropertyOp39
 70
     1
102
RTVSPropertyOp40
 70
     1
102
RTVSPropertyOp41
 70
     1
102
RTVSPropertyOp42
 70
     1
102
RTVSPropertyOp43
 70
     1
102
RTVSPropertyOp44
 70
     1
102
RTVSPropertyOp45
 70
     1
102
RTVSPropertyOp46
 70
     1
102
RTVSPropertyOp47
 70
     1
102
RTVSPropertyOp48
 70
     1
102
RTVSPropertyOp49
 70
     1
102
RTVSPropertyOp50
 70
     1
102
RTVSPropertyOp51
 70
     0
102
RTVSPropertyOp52
 70
     0
102
RTVSPropertyOp53
 70
     1
102
RTVSPropertyOp54
 70
     1
102
RTVSPropertyOp55
 70
     1
102
RTVSPropertyOp56
 70
     1
102
RTVSPropertyOp57
 70
     1
102
RTVSPropertyOp58
 70
     1
102
RTVSPropertyOp59
 70
     1
102
RTVSPropertyOp60
 70
     1
102
RTVSPropertyOp61
 70
     1
102
RTVSPropertyOp62
 70
     1
  0
XRECORD
  5
6F2
102
{ACAD_REACTORS
330
6F1
102
}
330
6F1
100
AcDbXrecord
280
     1
102
RTVSPost2010Prop28
280
     0
102
RTVSPost2010PropOp28
 70
     0
102
RTVSPost2010Prop29
280
     1
102
RTVSPost2010PropOp29
 70
     0
102
RTVSPost2010Prop30
280
     1
102
RTVSPost2010PropOp30
 70
     0
102
RTVSPost2010Prop31
280
     0
102
RTVSPost2010PropOp31
 70
     0
102
RTVSPost2010Prop32
280
     0
102
RTVSPost2010PropOp32
 70
     0
102
RTVSPost2010Prop33
280
     0
102
RTVSPost2010PropOp33
 70
     0
102
RTVSPost2010Prop34
280
     0
102
RTVSPost2010PropOp34
 70
     0
102
RTVSPost2010Prop35
280
     0
102
RTVSPost2010PropOp35
 70
     0
102
RTVSPost2010Prop36
280
     0
102
RTVSPost2010PropOp36
 70
     0
102
RTVSPost2010Prop37
 90
       50
102
RTVSPost2010PropOp37
 70
     0
102
RTVSPost2010Prop38
140
0.0
102
RTVSPost2010PropOp38
 70
     0
102
RTVSPost2010Prop39
140
1.0
102
RTVSPost2010PropOp39
 70
     0
102
RTVSPost2010Prop40
 90
        0
102
RTVSPost2010PropOp40
 70
     0
102
RTVSPost2010Prop41ColorIndex
 90
       18
102
RTVSPost2010Prop41ColorRGB
 90
        0
102
RTVSPost2010PropOp41
 70
     0
102
RTVSPost2010Prop42
 90
       50
102
RTVSPost2010PropOp42
 70
     0
102
RTVSPost2010Prop43
 90
        3
102
RTVSPost2010PropOp43
 70
     0
102
RTVSPost2010Prop44ColorIndex
 90
        5
102
RTVSPost2010Prop44ColorRGB
 90
      255
102
RTVSPost2010PropOp44
 70
     0
102
RTVSPost2010Prop45
280
     0
102
RTVSPost2010PropOp45
 70
     0
102
RTVSPost2010Prop46
 90
       50
102
RTVSPost2010PropOp46
 70
     0
102
RTVSPost2010Prop47
 90
       50
102
RTVSPost2010PropOp47
 70
     0
102
RTVSPost2010Prop48
 90
       50
102
RTVSPost2010PropOp48
 70
     0
102
RTVSPost2010Prop49
280
     0
102
RTVSPost2010PropOp49
 70
     0
102
RTVSPost2010Prop50
 90
       50
102
RTVSPost2010PropOp50
 70
     0
102
RTVSPost2010Prop51ColorIndex
 90
      256
102
RTVSPost2010Prop51ColorRGB
 90
-16777216
102
RTVSPost2010PropOp51
 70
     0
102
RTVSPost2010Prop52
140
1.0
102
RTVSPost2010PropOp52
 70
     0
102
RTVSPost2010Prop53
 90
        2
102
RTVSPost2010PropOp53
 70
     0
102
RTVSPost2010Prop54
  1
strokes_ogs.tif
102
RTVSPost2010PropOp54
 70
     0
102
RTVSPost2010Prop55
280
     0
102
RTVSPost2010PropOp55
 70
     0
102
RTVSPost2010Prop56
140
1.0
102
RTVSPost2010PropOp56
 70
     0
102
RTVSPost2010Prop57
140
1.0
102
RTVSPost2010PropOp57
 70
     0
102
RTVSPropertyOp0
 70
     0
102
RTVSPropertyOp1
 70
     0
102
RTVSPropertyOp2
 70
     0
102
RTVSPropertyOp3
 70
     0
102
RTVSPropertyOp4
 70
     0
102
RTVSPropertyOp5
 70
     0
102
RTVSPropertyOp6
 70
     0
102
RTVSPropertyOp7
 70
     0
102
RTVSPropertyOp8
 70
     0
102
RTVSPropertyOp9
 70
     0
102
RTVSPropertyOp10
 70
     0
102
RTVSPropertyOp11
 70
     0
102
RTVSPropertyOp12
 70
     0
102
RTVSPropertyOp13
 70
     0
102
RTVSPropertyOp14
 70
     2
102
RTVSPropertyOp15
 70
     0
102
RTVSPropertyOp16
 70
     0
102
RTVSPropertyOp17
 70
     0
102
RTVSPropertyOp18
 70
     0
102
RTVSPropertyOp19
 70
     0
102
RTVSPropertyOp20
 70
     0
102
RTVSPropertyOp21
 70
     0
102
RTVSPropertyOp22
 70
     0
102
RTVSPropertyOp23
 70
     0
102
RTVSPropertyOp24
 70
     0
102
RTVSPropertyOp25
 70
     0
102
RTVSPropertyOp26
 70
     0
102
RTVSPropertyOp27
 70
     0
102
RTVSPropertyOp28
 70
     0
102
RTVSPropertyOp29
 70
     0
102
RTVSPropertyOp30
 70
     0
102
RTVSPropertyOp31
 70
     0
102
RTVSPropertyOp32
 70
     0
102
RTVSPropertyOp33
 70
     0
102
RTVSPropertyOp34
 70
     0
102
RTVSPropertyOp35
 70
     0
102
RTVSPropertyOp36
 70
     0
102
RTVSPropertyOp37
 70
     0
102
RTVSPropertyOp38
 70
     0
102
RTVSPropertyOp39
 70
     0
102
RTVSPropertyOp40
 70
     0
102
RTVSPropertyOp41
 70
     0
102
RTVSPropertyOp42
 70
     0
102
RTVSPropertyOp43
 70
     0
102
RTVSPropertyOp44
 70
     0
102
RTVSPropertyOp45
 70
     0
102
RTVSPropertyOp46
 70
     0
102
RTVSPropertyOp47
 70
     0
102
RTVSPropertyOp48
 70
     0
102
RTVSPropertyOp49
 70
     0
102
RTVSPropertyOp50
 70
     0
102
RTVSPropertyOp51
 70
     0
102
RTVSPropertyOp52
 70
     0
102
RTVSPropertyOp53
 70
     0
102
RTVSPropertyOp54
 70
     0
102
RTVSPropertyOp55
 70
     0
102
RTVSPropertyOp56
 70
     0
102
RTVSPropertyOp57
 70
     0
102
RTVSPropertyOp58
 70
     1
102
RTVSPropertyOp59
 70
     1
102
RTVSPropertyOp60
 70
     1
102
RTVSPropertyOp61
 70
     1
102
RTVSPropertyOp62
 70
     1
  0
XRECORD
  5
6EA
102
{ACAD_REACTORS
330
6E9
102
}
330
6E9
100
AcDbXrecord
280
     1
102
RTVSPost2010Prop28
280
     0
102
RTVSPost2010PropOp28
 70
     1
102
RTVSPost2010Prop29
280
     1
102
RTVSPost2010PropOp29
 70
     1
102
RTVSPost2010Prop30
280
     1
102
RTVSPost2010PropOp30
 70
     1
102
RTVSPost2010Prop31
280
     0
102
RTVSPost2010PropOp31
 70
     1
102
RTVSPost2010Prop32
280
     0
102
RTVSPost2010PropOp32
 70
     1
102
RTVSPost2010Prop33
280
     0
102
RTVSPost2010PropOp33
 70
     1
102
RTVSPost2010Prop34
280
     0
102
RTVSPost2010PropOp34
 70
     1
102
RTVSPost2010Prop35
280
     0
102
RTVSPost2010PropOp35
 70
     1
102
RTVSPost2010Prop36
280
     0
102
RTVSPost2010PropOp36
 70
     1
102
RTVSPost2010Prop37
 90
       50
102
RTVSPost2010PropOp37
 70
     1
102
RTVSPost2010Prop38
140
0.0
102
RTVSPost2010PropOp38
 70
     1
102
RTVSPost2010Prop39
140
1.0
102
RTVSPost2010PropOp39
 70
     1
102
RTVSPost2010Prop40
 90
        0
102
RTVSPost2010PropOp40
 70
     1
102
RTVSPost2010Prop41ColorIndex
 90
       18
102
RTVSPost2010Prop41ColorRGB
 90
        0
102
RTVSPost2010PropOp41
 70
     1
102
RTVSPost2010Prop42
 90
       50
102
RTVSPost2010PropOp42
 70
     1
102
RTVSPost2010Prop43
 90
        3
102
RTVSPost2010PropOp43
 70
     1
102
RTVSPost2010Prop44ColorIndex
 90
        5
102
RTVSPost2010Prop44ColorRGB
 90
      255
102
RTVSPost2010PropOp44
 70
     1
102
RTVSPost2010Prop45
280
     0
102
RTVSPost2010PropOp45
 70
     1
102
RTVSPost2010Prop46
 90
       50
102
RTVSPost2010PropOp46
 70
     1
102
RTVSPost2010Prop47
 90
       50
102
RTVSPost2010PropOp47
 70
     1
102
RTVSPost2010Prop48
 90
       50
102
RTVSPost2010PropOp48
 70
     1
102
RTVSPost2010Prop49
280
     0
102
RTVSPost2010PropOp49
 70
     1
102
RTVSPost2010Prop50
 90
       50
102
RTVSPost2010PropOp50
 70
     1
102
RTVSPost2010Prop51ColorIndex
 90
      256
102
RTVSPost2010Prop51ColorRGB
 90
-16777216
102
RTVSPost2010PropOp51
 70
     0
102
RTVSPost2010Prop52
140
1.0
102
RTVSPost2010PropOp52
 70
     0
102
RTVSPost2010Prop53
 90
        2
102
RTVSPost2010PropOp53
 70
     1
102
RTVSPost2010Prop54
  1
strokes_ogs.tif
102
RTVSPost2010PropOp54
 70
     1
102
RTVSPost2010Prop55
280
     0
102
RTVSPost2010PropOp55
 70
     1
102
RTVSPost2010Prop56
140
1.0
102
RTVSPost2010PropOp56
 70
     1
102
RTVSPost2010Prop57
140
1.0
102
RTVSPost2010PropOp57
 70
     1
102
RTVSPropertyOp0
 70
     1
102
RTVSPropertyOp1
 70
     1
102
RTVSPropertyOp2
 70
     1
102
RTVSPropertyOp3
 70
     1
102
RTVSPropertyOp4
 70
     1
102
RTVSPropertyOp5
 70
     1
102
RTVSPropertyOp6
 70
     1
102
RTVSPropertyOp7
 70
     1
102
RTVSPropertyOp8
 70
     1
102
RTVSPropertyOp9
 70
     1
102
RTVSPropertyOp10
 70
     1
102
RTVSPropertyOp11
 70
     1
102
RTVSPropertyOp12
 70
     1
102
RTVSPropertyOp13
 70
     1
102
RTVSPropertyOp14
 70
     1
102
RTVSPropertyOp15
 70
     1
102
RTVSPropertyOp16
 70
     1
102
RTVSPropertyOp17
 70
     1
102
RTVSPropertyOp18
 70
     1
102
RTVSPropertyOp19
 70
     1
102
RTVSPropertyOp20
 70
     1
102
RTVSPropertyOp21
 70
     1
102
RTVSPropertyOp22
 70
     1
102
RTVSPropertyOp23
 70
     1
102
RTVSPropertyOp24
 70
     1
102
RTVSPropertyOp25
 70
     1
102
RTVSPropertyOp26
 70
     1
102
RTVSPropertyOp27
 70
     1
102
RTVSPropertyOp28
 70
     1
102
RTVSPropertyOp29
 70
     1
102
RTVSPropertyOp30
 70
     1
102
RTVSPropertyOp31
 70
     1
102
RTVSPropertyOp32
 70
     1
102
RTVSPropertyOp33
 70
     1
102
RTVSPropertyOp34
 70
     1
102
RTVSPropertyOp35
 70
     1
102
RTVSPropertyOp36
 70
     1
102
RTVSPropertyOp37
 70
     1
102
RTVSPropertyOp38
 70
     1
102
RTVSPropertyOp39
 70
     1
102
RTVSPropertyOp40
 70
     1
102
RTVSPropertyOp41
 70
     1
102
RTVSPropertyOp42
 70
     1
102
RTVSPropertyOp43
 70
     1
102
RTVSPropertyOp44
 70
     1
102
RTVSPropertyOp45
 70
     1
102
RTVSPropertyOp46
 70
     1
102
RTVSPropertyOp47
 70
     1
102
RTVSPropertyOp48
 70
     1
102
RTVSPropertyOp49
 70
     1
102
RTVSPropertyOp50
 70
     1
102
RTVSPropertyOp51
 70
     0
102
RTVSPropertyOp52
 70
     0
102
RTVSPropertyOp53
 70
     1
102
RTVSPropertyOp54
 70
     1
102
RTVSPropertyOp55
 70
     1
102
RTVSPropertyOp56
 70
     1
102
RTVSPropertyOp57
 70
     1
102
RTVSPropertyOp58
 70
     1
102
RTVSPropertyOp59
 70
     1
102
RTVSPropertyOp60
 70
     1
102
RTVSPropertyOp61
 70
     1
102
RTVSPropertyOp62
 70
     1
  0
XRECORD
  5
6CE
102
{ACAD_REACTORS
330
6CD
102
}
330
6CD
100
AcDbXrecord
280
     1
102
RTVSPost2010Prop28
280
     0
102
RTVSPost2010PropOp28
 70
     1
102
RTVSPost2010Prop29
280
     1
102
RTVSPost2010PropOp29
 70
     1
102
RTVSPost2010Prop30
280
     1
102
RTVSPost2010PropOp30
 70
     1
102
RTVSPost2010Prop31
280
     0
102
RTVSPost2010PropOp31
 70
     1
102
RTVSPost2010Prop32
280
     0
102
RTVSPost2010PropOp32
 70
     1
102
RTVSPost2010Prop33
280
     0
102
RTVSPost2010PropOp33
 70
     1
102
RTVSPost2010Prop34
280
     0
102
RTVSPost2010PropOp34
 70
     1
102
RTVSPost2010Prop35
280
     0
102
RTVSPost2010PropOp35
 70
     1
102
RTVSPost2010Prop36
280
     0
102
RTVSPost2010PropOp36
 70
     1
102
RTVSPost2010Prop37
 90
       50
102
RTVSPost2010PropOp37
 70
     1
102
RTVSPost2010Prop38
140
0.0
102
RTVSPost2010PropOp38
 70
     1
102
RTVSPost2010Prop39
140
1.0
102
RTVSPost2010PropOp39
 70
     1
102
RTVSPost2010Prop40
 90
        0
102
RTVSPost2010PropOp40
 70
     1
102
RTVSPost2010Prop41ColorIndex
 90
       18
102
RTVSPost2010Prop41ColorRGB
 90
        0
102
RTVSPost2010PropOp41
 70
     1
102
RTVSPost2010Prop42
 90
       50
102
RTVSPost2010PropOp42
 70
     1
102
RTVSPost2010Prop43
 90
        3
102
RTVSPost2010PropOp43
 70
     1
102
RTVSPost2010Prop44ColorIndex
 90
        5
102
RTVSPost2010Prop44ColorRGB
 90
      255
102
RTVSPost2010PropOp44
 70
     1
102
RTVSPost2010Prop45
280
     0
102
RTVSPost2010PropOp45
 70
     1
102
RTVSPost2010Prop46
 90
       50
102
RTVSPost2010PropOp46
 70
     1
102
RTVSPost2010Prop47
 90
       50
102
RTVSPost2010PropOp47
 70
     1
102
RTVSPost2010Prop48
 90
       50
102
RTVSPost2010PropOp48
 70
     1
102
RTVSPost2010Prop49
280
     0
102
RTVSPost2010PropOp49
 70
     1
102
RTVSPost2010Prop50
 90
       50
102
RTVSPost2010PropOp50
 70
     1
102
RTVSPost2010Prop51ColorIndex
 90
      256
102
RTVSPost2010Prop51ColorRGB
 90
-16777216
102
RTVSPost2010PropOp51
 70
     0
102
RTVSPost2010Prop52
140
1.0
102
RTVSPost2010PropOp52
 70
     0
102
RTVSPost2010Prop53
 90
        2
102
RTVSPost2010PropOp53
 70
     1
102
RTVSPost2010Prop54
  1
strokes_ogs.tif
102
RTVSPost2010PropOp54
 70
     1
102
RTVSPost2010Prop55
280
     0
102
RTVSPost2010PropOp55
 70
     1
102
RTVSPost2010Prop56
140
1.0
102
RTVSPost2010PropOp56
 70
     1
102
RTVSPost2010Prop57
140
1.0
102
RTVSPost2010PropOp57
 70
     1
102
RTVSPropertyOp0
 70
     1
102
RTVSPropertyOp1
 70
     1
102
RTVSPropertyOp2
 70
     1
102
RTVSPropertyOp3
 70
     1
102
RTVSPropertyOp4
 70
     1
102
RTVSPropertyOp5
 70
     1
102
RTVSPropertyOp6
 70
     1
102
RTVSPropertyOp7
 70
     1
102
RTVSPropertyOp8
 70
     1
102
RTVSPropertyOp9
 70
     1
102
RTVSPropertyOp10
 70
     1
102
RTVSPropertyOp11
 70
     1
102
RTVSPropertyOp12
 70
     1
102
RTVSPropertyOp13
 70
     1
102
RTVSPropertyOp14
 70
     1
102
RTVSPropertyOp15
 70
     1
102
RTVSPropertyOp16
 70
     1
102
RTVSPropertyOp17
 70
     1
102
RTVSPropertyOp18
 70
     1
102
RTVSPropertyOp19
 70
     1
102
RTVSPropertyOp20
 70
     1
102
RTVSPropertyOp21
 70
     1
102
RTVSPropertyOp22
 70
     1
102
RTVSPropertyOp23
 70
     1
102
RTVSPropertyOp24
 70
     1
102
RTVSPropertyOp25
 70
     1
102
RTVSPropertyOp26
 70
     1
102
RTVSPropertyOp27
 70
     1
102
RTVSPropertyOp28
 70
     1
102
RTVSPropertyOp29
 70
     1
102
RTVSPropertyOp30
 70
     1
102
RTVSPropertyOp31
 70
     1
102
RTVSPropertyOp32
 70
     1
102
RTVSPropertyOp33
 70
     1
102
RTVSPropertyOp34
 70
     1
102
RTVSPropertyOp35
 70
     1
102
RTVSPropertyOp36
 70
     1
102
RTVSPropertyOp37
 70
     1
102
RTVSPropertyOp38
 70
     1
102
RTVSPropertyOp39
 70
     1
102
RTVSPropertyOp40
 70
     1
102
RTVSPropertyOp41
 70
     1
102
RTVSPropertyOp42
 70
     1
102
RTVSPropertyOp43
 70
     1
102
RTVSPropertyOp44
 70
     1
102
RTVSPropertyOp45
 70
     1
102
RTVSPropertyOp46
 70
     1
102
RTVSPropertyOp47
 70
     1
102
RTVSPropertyOp48
 70
     1
102
RTVSPropertyOp49
 70
     1
102
RTVSPropertyOp50
 70
     1
102
RTVSPropertyOp51
 70
     0
102
RTVSPropertyOp52
 70
     0
102
RTVSPropertyOp53
 70
     1
102
RTVSPropertyOp54
 70
     1
102
RTVSPropertyOp55
 70
     1
102
RTVSPropertyOp56
 70
     1
102
RTVSPropertyOp57
 70
     1
102
RTVSPropertyOp58
 70
     1
102
RTVSPropertyOp59
 70
     1
102
RTVSPropertyOp60
 70
     1
102
RTVSPropertyOp61
 70
     1
102
RTVSPropertyOp62
 70
     1
  0
XRECORD
  5
6D0
102
{ACAD_REACTORS
330
6CF
102
}
330
6CF
100
AcDbXrecord
280
     1
102
RTVSPost2010Prop28
280
     0
102
RTVSPost2010PropOp28
 70
     1
102
RTVSPost2010Prop29
280
     1
102
RTVSPost2010PropOp29
 70
     1
102
RTVSPost2010Prop30
280
     1
102
RTVSPost2010PropOp30
 70
     1
102
RTVSPost2010Prop31
280
     0
102
RTVSPost2010PropOp31
 70
     1
102
RTVSPost2010Prop32
280
     0
102
RTVSPost2010PropOp32
 70
     1
102
RTVSPost2010Prop33
280
     0
102
RTVSPost2010PropOp33
 70
     1
102
RTVSPost2010Prop34
280
     0
102
RTVSPost2010PropOp34
 70
     1
102
RTVSPost2010Prop35
280
     0
102
RTVSPost2010PropOp35
 70
     1
102
RTVSPost2010Prop36
280
     0
102
RTVSPost2010PropOp36
 70
     1
102
RTVSPost2010Prop37
 90
       50
102
RTVSPost2010PropOp37
 70
     1
102
RTVSPost2010Prop38
140
0.0
102
RTVSPost2010PropOp38
 70
     1
102
RTVSPost2010Prop39
140
1.0
102
RTVSPost2010PropOp39
 70
     1
102
RTVSPost2010Prop40
 90
        0
102
RTVSPost2010PropOp40
 70
     1
102
RTVSPost2010Prop41ColorIndex
 90
       18
102
RTVSPost2010Prop41ColorRGB
 90
        0
102
RTVSPost2010PropOp41
 70
     1
102
RTVSPost2010Prop42
 90
       50
102
RTVSPost2010PropOp42
 70
     1
102
RTVSPost2010Prop43
 90
        3
102
RTVSPost2010PropOp43
 70
     1
102
RTVSPost2010Prop44ColorIndex
 90
        5
102
RTVSPost2010Prop44ColorRGB
 90
      255
102
RTVSPost2010PropOp44
 70
     1
102
RTVSPost2010Prop45
280
     0
102
RTVSPost2010PropOp45
 70
     1
102
RTVSPost2010Prop46
 90
       50
102
RTVSPost2010PropOp46
 70
     1
102
RTVSPost2010Prop47
 90
       50
102
RTVSPost2010PropOp47
 70
     1
102
RTVSPost2010Prop48
 90
       50
102
RTVSPost2010PropOp48
 70
     1
102
RTVSPost2010Prop49
280
     0
102
RTVSPost2010PropOp49
 70
     1
102
RTVSPost2010Prop50
 90
       50
102
RTVSPost2010PropOp50
 70
     1
102
RTVSPost2010Prop51ColorIndex
 90
      256
102
RTVSPost2010Prop51ColorRGB
 90
-16777216
102
RTVSPost2010PropOp51
 70
     0
102
RTVSPost2010Prop52
140
1.0
102
RTVSPost2010PropOp52
 70
     0
102
RTVSPost2010Prop53
 90
        2
102
RTVSPost2010PropOp53
 70
     1
102
RTVSPost2010Prop54
  1
strokes_ogs.tif
102
RTVSPost2010PropOp54
 70
     1
102
RTVSPost2010Prop55
280
     0
102
RTVSPost2010PropOp55
 70
     1
102
RTVSPost2010Prop56
140
1.0
102
RTVSPost2010PropOp56
 70
     1
102
RTVSPost2010Prop57
140
1.0
102
RTVSPost2010PropOp57
 70
     1
102
RTVSPropertyOp0
 70
     1
102
RTVSPropertyOp1
 70
     1
102
RTVSPropertyOp2
 70
     1
102
RTVSPropertyOp3
 70
     1
102
RTVSPropertyOp4
 70
     1
102
RTVSPropertyOp5
 70
     1
102
RTVSPropertyOp6
 70
     1
102
RTVSPropertyOp7
 70
     1
102
RTVSPropertyOp8
 70
     1
102
RTVSPropertyOp9
 70
     1
102
RTVSPropertyOp10
 70
     1
102
RTVSPropertyOp11
 70
     1
102
RTVSPropertyOp12
 70
     1
102
RTVSPropertyOp13
 70
     1
102
RTVSPropertyOp14
 70
     1
102
RTVSPropertyOp15
 70
     1
102
RTVSPropertyOp16
 70
     1
102
RTVSPropertyOp17
 70
     1
102
RTVSPropertyOp18
 70
     1
102
RTVSPropertyOp19
 70
     1
102
RTVSPropertyOp20
 70
     1
102
RTVSPropertyOp21
 70
     1
102
RTVSPropertyOp22
 70
     1
102
RTVSPropertyOp23
 70
     1
102
RTVSPropertyOp24
 70
     1
102
RTVSPropertyOp25
 70
     1
102
RTVSPropertyOp26
 70
     1
102
RTVSPropertyOp27
 70
     1
102
RTVSPropertyOp28
 70
     1
102
RTVSPropertyOp29
 70
     1
102
RTVSPropertyOp30
 70
     1
102
RTVSPropertyOp31
 70
     1
102
RTVSPropertyOp32
 70
     1
102
RTVSPropertyOp33
 70
     1
102
RTVSPropertyOp34
 70
     1
102
RTVSPropertyOp35
 70
     1
102
RTVSPropertyOp36
 70
     1
102
RTVSPropertyOp37
 70
     1
102
RTVSPropertyOp38
 70
     1
102
RTVSPropertyOp39
 70
     1
102
RTVSPropertyOp40
 70
     1
102
RTVSPropertyOp41
 70
     1
102
RTVSPropertyOp42
 70
     1
102
RTVSPropertyOp43
 70
     1
102
RTVSPropertyOp44
 70
     1
102
RTVSPropertyOp45
 70
     1
102
RTVSPropertyOp46
 70
     1
102
RTVSPropertyOp47
 70
     1
102
RTVSPropertyOp48
 70
     1
102
RTVSPropertyOp49
 70
     1
102
RTVSPropertyOp50
 70
     1
102
RTVSPropertyOp51
 70
     0
102
RTVSPropertyOp52
 70
     0
102
RTVSPropertyOp53
 70
     1
102
RTVSPropertyOp54
 70
     1
102
RTVSPropertyOp55
 70
     1
102
RTVSPropertyOp56
 70
     1
102
RTVSPropertyOp57
 70
     1
102
RTVSPropertyOp58
 70
     1
102
RTVSPropertyOp59
 70
     1
102
RTVSPropertyOp60
 70
     1
102
RTVSPropertyOp61
 70
     1
102
RTVSPropertyOp62
 70
     1
  0
XRECORD
  5
6D2
102
{ACAD_REACTORS
330
6D1
102
}
330
6D1
100
AcDbXrecord
280
     1
102
RTVSPost2010Prop28
280
     0
102
RTVSPost2010PropOp28
 70
     1
102
RTVSPost2010Prop29
280
     1
102
RTVSPost2010PropOp29
 70
     1
102
RTVSPost2010Prop30
280
     1
102
RTVSPost2010PropOp30
 70
     1
102
RTVSPost2010Prop31
280
     0
102
RTVSPost2010PropOp31
 70
     1
102
RTVSPost2010Prop32
280
     0
102
RTVSPost2010PropOp32
 70
     1
102
RTVSPost2010Prop33
280
     0
102
RTVSPost2010PropOp33
 70
     1
102
RTVSPost2010Prop34
280
     0
102
RTVSPost2010PropOp34
 70
     1
102
RTVSPost2010Prop35
280
     0
102
RTVSPost2010PropOp35
 70
     1
102
RTVSPost2010Prop36
280
     0
102
RTVSPost2010PropOp36
 70
     1
102
RTVSPost2010Prop37
 90
       50
102
RTVSPost2010PropOp37
 70
     1
102
RTVSPost2010Prop38
140
0.0
102
RTVSPost2010PropOp38
 70
     1
102
RTVSPost2010Prop39
140
1.0
102
RTVSPost2010PropOp39
 70
     1
102
RTVSPost2010Prop40
 90
        0
102
RTVSPost2010PropOp40
 70
     1
102
RTVSPost2010Prop41ColorIndex
 90
       18
102
RTVSPost2010Prop41ColorRGB
 90
        0
102
RTVSPost2010PropOp41
 70
     1
102
RTVSPost2010Prop42
 90
       50
102
RTVSPost2010PropOp42
 70
     1
102
RTVSPost2010Prop43
 90
        3
102
RTVSPost2010PropOp43
 70
     1
102
RTVSPost2010Prop44ColorIndex
 90
        5
102
RTVSPost2010Prop44ColorRGB
 90
      255
102
RTVSPost2010PropOp44
 70
     1
102
RTVSPost2010Prop45
280
     0
102
RTVSPost2010PropOp45
 70
     1
102
RTVSPost2010Prop46
 90
       50
102
RTVSPost2010PropOp46
 70
     1
102
RTVSPost2010Prop47
 90
       50
102
RTVSPost2010PropOp47
 70
     1
102
RTVSPost2010Prop48
 90
       50
102
RTVSPost2010PropOp48
 70
     1
102
RTVSPost2010Prop49
280
     0
102
RTVSPost2010PropOp49
 70
     1
102
RTVSPost2010Prop50
 90
       50
102
RTVSPost2010PropOp50
 70
     1
102
RTVSPost2010Prop51ColorIndex
 90
      256
102
RTVSPost2010Prop51ColorRGB
 90
-16777216
102
RTVSPost2010PropOp51
 70
     0
102
RTVSPost2010Prop52
140
1.0
102
RTVSPost2010PropOp52
 70
     0
102
RTVSPost2010Prop53
 90
        2
102
RTVSPost2010PropOp53
 70
     1
102
RTVSPost2010Prop54
  1
strokes_ogs.tif
102
RTVSPost2010PropOp54
 70
     1
102
RTVSPost2010Prop55
280
     0
102
RTVSPost2010PropOp55
 70
     1
102
RTVSPost2010Prop56
140
1.0
102
RTVSPost2010PropOp56
 70
     1
102
RTVSPost2010Prop57
140
1.0
102
RTVSPost2010PropOp57
 70
     1
102
RTVSPropertyOp0
 70
     1
102
RTVSPropertyOp1
 70
     1
102
RTVSPropertyOp2
 70
     1
102
RTVSPropertyOp3
 70
     1
102
RTVSPropertyOp4
 70
     1
102
RTVSPropertyOp5
 70
     1
102
RTVSPropertyOp6
 70
     1
102
RTVSPropertyOp7
 70
     1
102
RTVSPropertyOp8
 70
     1
102
RTVSPropertyOp9
 70
     1
102
RTVSPropertyOp10
 70
     1
102
RTVSPropertyOp11
 70
     1
102
RTVSPropertyOp12
 70
     1
102
RTVSPropertyOp13
 70
     1
102
RTVSPropertyOp14
 70
     1
102
RTVSPropertyOp15
 70
     1
102
RTVSPropertyOp16
 70
     1
102
RTVSPropertyOp17
 70
     1
102
RTVSPropertyOp18
 70
     1
102
RTVSPropertyOp19
 70
     1
102
RTVSPropertyOp20
 70
     1
102
RTVSPropertyOp21
 70
     1
102
RTVSPropertyOp22
 70
     1
102
RTVSPropertyOp23
 70
     1
102
RTVSPropertyOp24
 70
     1
102
RTVSPropertyOp25
 70
     1
102
RTVSPropertyOp26
 70
     1
102
RTVSPropertyOp27
 70
     1
102
RTVSPropertyOp28
 70
     1
102
RTVSPropertyOp29
 70
     1
102
RTVSPropertyOp30
 70
     1
102
RTVSPropertyOp31
 70
     1
102
RTVSPropertyOp32
 70
     1
102
RTVSPropertyOp33
 70
     1
102
RTVSPropertyOp34
 70
     1
102
RTVSPropertyOp35
 70
     1
102
RTVSPropertyOp36
 70
     1
102
RTVSPropertyOp37
 70
     1
102
RTVSPropertyOp38
 70
     1
102
RTVSPropertyOp39
 70
     1
102
RTVSPropertyOp40
 70
     1
102
RTVSPropertyOp41
 70
     1
102
RTVSPropertyOp42
 70
     1
102
RTVSPropertyOp43
 70
     1
102
RTVSPropertyOp44
 70
     1
102
RTVSPropertyOp45
 70
     1
102
RTVSPropertyOp46
 70
     1
102
RTVSPropertyOp47
 70
     1
102
RTVSPropertyOp48
 70
     1
102
RTVSPropertyOp49
 70
     1
102
RTVSPropertyOp50
 70
     1
102
RTVSPropertyOp51
 70
     0
102
RTVSPropertyOp52
 70
     0
102
RTVSPropertyOp53
 70
     1
102
RTVSPropertyOp54
 70
     1
102
RTVSPropertyOp55
 70
     1
102
RTVSPropertyOp56
 70
     1
102
RTVSPropertyOp57
 70
     1
102
RTVSPropertyOp58
 70
     1
102
RTVSPropertyOp59
 70
     1
102
RTVSPropertyOp60
 70
     1
102
RTVSPropertyOp61
 70
     1
102
RTVSPropertyOp62
 70
     1
  0
XRECORD
  5
6D4
102
{ACAD_REACTORS
330
6D3
102
}
330
6D3
100
AcDbXrecord
280
     1
102
RTVSPost2010Prop28
280
     0
102
RTVSPost2010PropOp28
 70
     1
102
RTVSPost2010Prop29
280
     1
102
RTVSPost2010PropOp29
 70
     1
102
RTVSPost2010Prop30
280
     1
102
RTVSPost2010PropOp30
 70
     1
102
RTVSPost2010Prop31
280
     0
102
RTVSPost2010PropOp31
 70
     1
102
RTVSPost2010Prop32
280
     0
102
RTVSPost2010PropOp32
 70
     1
102
RTVSPost2010Prop33
280
     0
102
RTVSPost2010PropOp33
 70
     1
102
RTVSPost2010Prop34
280
     0
102
RTVSPost2010PropOp34
 70
     1
102
RTVSPost2010Prop35
280
     0
102
RTVSPost2010PropOp35
 70
     1
102
RTVSPost2010Prop36
280
     0
102
RTVSPost2010PropOp36
 70
     1
102
RTVSPost2010Prop37
 90
       50
102
RTVSPost2010PropOp37
 70
     1
102
RTVSPost2010Prop38
140
0.0
102
RTVSPost2010PropOp38
 70
     1
102
RTVSPost2010Prop39
140
1.0
102
RTVSPost2010PropOp39
 70
     1
102
RTVSPost2010Prop40
 90
        0
102
RTVSPost2010PropOp40
 70
     1
102
RTVSPost2010Prop41ColorIndex
 90
       18
102
RTVSPost2010Prop41ColorRGB
 90
        0
102
RTVSPost2010PropOp41
 70
     1
102
RTVSPost2010Prop42
 90
       50
102
RTVSPost2010PropOp42
 70
     1
102
RTVSPost2010Prop43
 90
        3
102
RTVSPost2010PropOp43
 70
     1
102
RTVSPost2010Prop44ColorIndex
 90
        5
102
RTVSPost2010Prop44ColorRGB
 90
      255
102
RTVSPost2010PropOp44
 70
     1
102
RTVSPost2010Prop45
280
     0
102
RTVSPost2010PropOp45
 70
     1
102
RTVSPost2010Prop46
 90
       50
102
RTVSPost2010PropOp46
 70
     1
102
RTVSPost2010Prop47
 90
       50
102
RTVSPost2010PropOp47
 70
     1
102
RTVSPost2010Prop48
 90
       50
102
RTVSPost2010PropOp48
 70
     1
102
RTVSPost2010Prop49
280
     0
102
RTVSPost2010PropOp49
 70
     1
102
RTVSPost2010Prop50
 90
       50
102
RTVSPost2010PropOp50
 70
     1
102
RTVSPost2010Prop51ColorIndex
 90
      256
102
RTVSPost2010Prop51ColorRGB
 90
-16777216
102
RTVSPost2010PropOp51
 70
     0
102
RTVSPost2010Prop52
140
1.0
102
RTVSPost2010PropOp52
 70
     0
102
RTVSPost2010Prop53
 90
        2
102
RTVSPost2010PropOp53
 70
     1
102
RTVSPost2010Prop54
  1
strokes_ogs.tif
102
RTVSPost2010PropOp54
 70
     1
102
RTVSPost2010Prop55
280
     0
102
RTVSPost2010PropOp55
 70
     1
102
RTVSPost2010Prop56
140
1.0
102
RTVSPost2010PropOp56
 70
     1
102
RTVSPost2010Prop57
140
1.0
102
RTVSPost2010PropOp57
 70
     1
102
RTVSPropertyOp0
 70
     1
102
RTVSPropertyOp1
 70
     1
102
RTVSPropertyOp2
 70
     1
102
RTVSPropertyOp3
 70
     1
102
RTVSPropertyOp4
 70
     1
102
RTVSPropertyOp5
 70
     1
102
RTVSPropertyOp6
 70
     1
102
RTVSPropertyOp7
 70
     1
102
RTVSPropertyOp8
 70
     1
102
RTVSPropertyOp9
 70
     1
102
RTVSPropertyOp10
 70
     1
102
RTVSPropertyOp11
 70
     1
102
RTVSPropertyOp12
 70
     1
102
RTVSPropertyOp13
 70
     1
102
RTVSPropertyOp14
 70
     1
102
RTVSPropertyOp15
 70
     1
102
RTVSPropertyOp16
 70
     1
102
RTVSPropertyOp17
 70
     1
102
RTVSPropertyOp18
 70
     1
102
RTVSPropertyOp19
 70
     1
102
RTVSPropertyOp20
 70
     1
102
RTVSPropertyOp21
 70
     1
102
RTVSPropertyOp22
 70
     1
102
RTVSPropertyOp23
 70
     1
102
RTVSPropertyOp24
 70
     1
102
RTVSPropertyOp25
 70
     1
102
RTVSPropertyOp26
 70
     1
102
RTVSPropertyOp27
 70
     1
102
RTVSPropertyOp28
 70
     1
102
RTVSPropertyOp29
 70
     1
102
RTVSPropertyOp30
 70
     1
102
RTVSPropertyOp31
 70
     1
102
RTVSPropertyOp32
 70
     1
102
RTVSPropertyOp33
 70
     1
102
RTVSPropertyOp34
 70
     1
102
RTVSPropertyOp35
 70
     1
102
RTVSPropertyOp36
 70
     1
102
RTVSPropertyOp37
 70
     1
102
RTVSPropertyOp38
 70
     1
102
RTVSPropertyOp39
 70
     1
102
RTVSPropertyOp40
 70
     1
102
RTVSPropertyOp41
 70
     1
102
RTVSPropertyOp42
 70
     1
102
RTVSPropertyOp43
 70
     1
102
RTVSPropertyOp44
 70
     1
102
RTVSPropertyOp45
 70
     1
102
RTVSPropertyOp46
 70
     1
102
RTVSPropertyOp47
 70
     1
102
RTVSPropertyOp48
 70
     1
102
RTVSPropertyOp49
 70
     1
102
RTVSPropertyOp50
 70
     1
102
RTVSPropertyOp51
 70
     0
102
RTVSPropertyOp52
 70
     0
102
RTVSPropertyOp53
 70
     1
102
RTVSPropertyOp54
 70
     1
102
RTVSPropertyOp55
 70
     1
102
RTVSPropertyOp56
 70
     1
102
RTVSPropertyOp57
 70
     1
102
RTVSPropertyOp58
 70
     1
102
RTVSPropertyOp59
 70
     1
102
RTVSPropertyOp60
 70
     1
102
RTVSPropertyOp61
 70
     1
102
RTVSPropertyOp62
 70
     1
  0
XRECORD
  5
6DA
102
{ACAD_REACTORS
330
6D9
102
}
330
6D9
100
AcDbXrecord
280
     1
102
RTVSPost2010Prop28
280
     0
102
RTVSPost2010PropOp28
 70
     1
102
RTVSPost2010Prop29
280
     1
102
RTVSPost2010PropOp29
 70
     1
102
RTVSPost2010Prop30
280
     1
102
RTVSPost2010PropOp30
 70
     1
102
RTVSPost2010Prop31
280
     0
102
RTVSPost2010PropOp31
 70
     1
102
RTVSPost2010Prop32
280
     0
102
RTVSPost2010PropOp32
 70
     1
102
RTVSPost2010Prop33
280
     0
102
RTVSPost2010PropOp33
 70
     1
102
RTVSPost2010Prop34
280
     0
102
RTVSPost2010PropOp34
 70
     1
102
RTVSPost2010Prop35
280
     0
102
RTVSPost2010PropOp35
 70
     1
102
RTVSPost2010Prop36
280
     0
102
RTVSPost2010PropOp36
 70
     1
102
RTVSPost2010Prop37
 90
       50
102
RTVSPost2010PropOp37
 70
     1
102
RTVSPost2010Prop38
140
0.0
102
RTVSPost2010PropOp38
 70
     1
102
RTVSPost2010Prop39
140
1.0
102
RTVSPost2010PropOp39
 70
     1
102
RTVSPost2010Prop40
 90
        0
102
RTVSPost2010PropOp40
 70
     1
102
RTVSPost2010Prop41ColorIndex
 90
       18
102
RTVSPost2010Prop41ColorRGB
 90
        0
102
RTVSPost2010PropOp41
 70
     1
102
RTVSPost2010Prop42
 90
       50
102
RTVSPost2010PropOp42
 70
     1
102
RTVSPost2010Prop43
 90
        3
102
RTVSPost2010PropOp43
 70
     1
102
RTVSPost2010Prop44ColorIndex
 90
        5
102
RTVSPost2010Prop44ColorRGB
 90
      255
102
RTVSPost2010PropOp44
 70
     1
102
RTVSPost2010Prop45
280
     0
102
RTVSPost2010PropOp45
 70
     1
102
RTVSPost2010Prop46
 90
       50
102
RTVSPost2010PropOp46
 70
     1
102
RTVSPost2010Prop47
 90
       50
102
RTVSPost2010PropOp47
 70
     1
102
RTVSPost2010Prop48
 90
       50
102
RTVSPost2010PropOp48
 70
     1
102
RTVSPost2010Prop49
280
     0
102
RTVSPost2010PropOp49
 70
     1
102
RTVSPost2010Prop50
 90
       50
102
RTVSPost2010PropOp50
 70
     1
102
RTVSPost2010Prop51ColorIndex
 90
      256
102
RTVSPost2010Prop51ColorRGB
 90
-16777216
102
RTVSPost2010PropOp51
 70
     0
102
RTVSPost2010Prop52
140
1.0
102
RTVSPost2010PropOp52
 70
     0
102
RTVSPost2010Prop53
 90
        2
102
RTVSPost2010PropOp53
 70
     1
102
RTVSPost2010Prop54
  1
strokes_ogs.tif
102
RTVSPost2010PropOp54
 70
     1
102
RTVSPost2010Prop55
280
     0
102
RTVSPost2010PropOp55
 70
     1
102
RTVSPost2010Prop56
140
1.0
102
RTVSPost2010PropOp56
 70
     1
102
RTVSPost2010Prop57
140
1.0
102
RTVSPost2010PropOp57
 70
     1
102
RTVSPropertyOp0
 70
     1
102
RTVSPropertyOp1
 70
     1
102
RTVSPropertyOp2
 70
     1
102
RTVSPropertyOp3
 70
     1
102
RTVSPropertyOp4
 70
     1
102
RTVSPropertyOp5
 70
     1
102
RTVSPropertyOp6
 70
     1
102
RTVSPropertyOp7
 70
     1
102
RTVSPropertyOp8
 70
     1
102
RTVSPropertyOp9
 70
     1
102
RTVSPropertyOp10
 70
     1
102
RTVSPropertyOp11
 70
     1
102
RTVSPropertyOp12
 70
     1
102
RTVSPropertyOp13
 70
     1
102
RTVSPropertyOp14
 70
     1
102
RTVSPropertyOp15
 70
     1
102
RTVSPropertyOp16
 70
     1
102
RTVSPropertyOp17
 70
     1
102
RTVSPropertyOp18
 70
     1
102
RTVSPropertyOp19
 70
     1
102
RTVSPropertyOp20
 70
     1
102
RTVSPropertyOp21
 70
     1
102
RTVSPropertyOp22
 70
     1
102
RTVSPropertyOp23
 70
     1
102
RTVSPropertyOp24
 70
     1
102
RTVSPropertyOp25
 70
     1
102
RTVSPropertyOp26
 70
     1
102
RTVSPropertyOp27
 70
     1
102
RTVSPropertyOp28
 70
     1
102
RTVSPropertyOp29
 70
     1
102
RTVSPropertyOp30
 70
     1
102
RTVSPropertyOp31
 70
     1
102
RTVSPropertyOp32
 70
     1
102
RTVSPropertyOp33
 70
     1
102
RTVSPropertyOp34
 70
     1
102
RTVSPropertyOp35
 70
     1
102
RTVSPropertyOp36
 70
     1
102
RTVSPropertyOp37
 70
     1
102
RTVSPropertyOp38
 70
     1
102
RTVSPropertyOp39
 70
     1
102
RTVSPropertyOp40
 70
     1
102
RTVSPropertyOp41
 70
     1
102
RTVSPropertyOp42
 70
     1
102
RTVSPropertyOp43
 70
     1
102
RTVSPropertyOp44
 70
     1
102
RTVSPropertyOp45
 70
     1
102
RTVSPropertyOp46
 70
     1
102
RTVSPropertyOp47
 70
     1
102
RTVSPropertyOp48
 70
     1
102
RTVSPropertyOp49
 70
     1
102
RTVSPropertyOp50
 70
     1
102
RTVSPropertyOp51
 70
     0
102
RTVSPropertyOp52
 70
     0
102
RTVSPropertyOp53
 70
     1
102
RTVSPropertyOp54
 70
     1
102
RTVSPropertyOp55
 70
     1
102
RTVSPropertyOp56
 70
     1
102
RTVSPropertyOp57
 70
     1
102
RTVSPropertyOp58
 70
     1
102
RTVSPropertyOp59
 70
     1
102
RTVSPropertyOp60
 70
     1
102
RTVSPropertyOp61
 70
     1
102
RTVSPropertyOp62
 70
     1
  0
XRECORD
  5
6EE
102
{ACAD_REACTORS
330
6ED
102
}
330
6ED
100
AcDbXrecord
280
     1
102
RTVSPost2010Prop28
280
     0
102
RTVSPost2010PropOp28
 70
     0
102
RTVSPost2010Prop29
280
     1
102
RTVSPost2010PropOp29
 70
     0
102
RTVSPost2010Prop30
280
     1
102
RTVSPost2010PropOp30
 70
     0
102
RTVSPost2010Prop31
280
     0
102
RTVSPost2010PropOp31
 70
     0
102
RTVSPost2010Prop32
280
     0
102
RTVSPost2010PropOp32
 70
     0
102
RTVSPost2010Prop33
280
     0
102
RTVSPost2010PropOp33
 70
     0
102
RTVSPost2010Prop34
280
     0
102
RTVSPost2010PropOp34
 70
     0
102
RTVSPost2010Prop35
280
     0
102
RTVSPost2010PropOp35
 70
     0
102
RTVSPost2010Prop36
280
     0
102
RTVSPost2010PropOp36
 70
     0
102
RTVSPost2010Prop37
 90
       50
102
RTVSPost2010PropOp37
 70
     0
102
RTVSPost2010Prop38
140
0.0
102
RTVSPost2010PropOp38
 70
     0
102
RTVSPost2010Prop39
140
1.0
102
RTVSPost2010PropOp39
 70
     0
102
RTVSPost2010Prop40
 90
        0
102
RTVSPost2010PropOp40
 70
     0
102
RTVSPost2010Prop41ColorIndex
 90
       18
102
RTVSPost2010Prop41ColorRGB
 90
        0
102
RTVSPost2010PropOp41
 70
     0
102
RTVSPost2010Prop42
 90
       50
102
RTVSPost2010PropOp42
 70
     0
102
RTVSPost2010Prop43
 90
        3
102
RTVSPost2010PropOp43
 70
     0
102
RTVSPost2010Prop44ColorIndex
 90
        5
102
RTVSPost2010Prop44ColorRGB
 90
      255
102
RTVSPost2010PropOp44
 70
     0
102
RTVSPost2010Prop45
280
     0
102
RTVSPost2010PropOp45
 70
     0
102
RTVSPost2010Prop46
 90
       50
102
RTVSPost2010PropOp46
 70
     0
102
RTVSPost2010Prop47
 90
       50
102
RTVSPost2010PropOp47
 70
     0
102
RTVSPost2010Prop48
 90
       50
102
RTVSPost2010PropOp48
 70
     0
102
RTVSPost2010Prop49
280
     0
102
RTVSPost2010PropOp49
 70
     0
102
RTVSPost2010Prop50
 90
       50
102
RTVSPost2010PropOp50
 70
     0
102
RTVSPost2010Prop51ColorIndex
 90
      256
102
RTVSPost2010Prop51ColorRGB
 90
-16777216
102
RTVSPost2010PropOp51
 70
     0
102
RTVSPost2010Prop52
140
1.0
102
RTVSPost2010PropOp52
 70
     0
102
RTVSPost2010Prop53
 90
        2
102
RTVSPost2010PropOp53
 70
     0
102
RTVSPost2010Prop54
  1
strokes_ogs.tif
102
RTVSPost2010PropOp54
 70
     0
102
RTVSPost2010Prop55
280
     0
102
RTVSPost2010PropOp55
 70
     0
102
RTVSPost2010Prop56
140
1.0
102
RTVSPost2010PropOp56
 70
     0
102
RTVSPost2010Prop57
140
1.0
102
RTVSPost2010PropOp57
 70
     0
102
RTVSPropertyOp0
 70
     0
102
RTVSPropertyOp1
 70
     0
102
RTVSPropertyOp2
 70
     0
102
RTVSPropertyOp3
 70
     0
102
RTVSPropertyOp4
 70
     0
102
RTVSPropertyOp5
 70
     0
102
RTVSPropertyOp6
 70
     0
102
RTVSPropertyOp7
 70
     0
102
RTVSPropertyOp8
 70
     0
102
RTVSPropertyOp9
 70
     0
102
RTVSPropertyOp10
 70
     0
102
RTVSPropertyOp11
 70
     0
102
RTVSPropertyOp12
 70
     0
102
RTVSPropertyOp13
 70
     0
102
RTVSPropertyOp14
 70
     2
102
RTVSPropertyOp15
 70
     0
102
RTVSPropertyOp16
 70
     0
102
RTVSPropertyOp17
 70
     0
102
RTVSPropertyOp18
 70
     0
102
RTVSPropertyOp19
 70
     0
102
RTVSPropertyOp20
 70
     0
102
RTVSPropertyOp21
 70
     0
102
RTVSPropertyOp22
 70
     0
102
RTVSPropertyOp23
 70
     0
102
RTVSPropertyOp24
 70
     0
102
RTVSPropertyOp25
 70
     0
102
RTVSPropertyOp26
 70
     0
102
RTVSPropertyOp27
 70
     0
102
RTVSPropertyOp28
 70
     0
102
RTVSPropertyOp29
 70
     0
102
RTVSPropertyOp30
 70
     0
102
RTVSPropertyOp31
 70
     0
102
RTVSPropertyOp32
 70
     0
102
RTVSPropertyOp33
 70
     0
102
RTVSPropertyOp34
 70
     0
102
RTVSPropertyOp35
 70
     0
102
RTVSPropertyOp36
 70
     0
102
RTVSPropertyOp37
 70
     0
102
RTVSPropertyOp38
 70
     0
102
RTVSPropertyOp39
 70
     0
102
RTVSPropertyOp40
 70
     0
102
RTVSPropertyOp41
 70
     0
102
RTVSPropertyOp42
 70
     0
102
RTVSPropertyOp43
 70
     0
102
RTVSPropertyOp44
 70
     0
102
RTVSPropertyOp45
 70
     0
102
RTVSPropertyOp46
 70
     0
102
RTVSPropertyOp47
 70
     0
102
RTVSPropertyOp48
 70
     0
102
RTVSPropertyOp49
 70
     0
102
RTVSPropertyOp50
 70
     0
102
RTVSPropertyOp51
 70
     0
102
RTVSPropertyOp52
 70
     0
102
RTVSPropertyOp53
 70
     0
102
RTVSPropertyOp54
 70
     0
102
RTVSPropertyOp55
 70
     0
102
RTVSPropertyOp56
 70
     0
102
RTVSPropertyOp57
 70
     0
102
RTVSPropertyOp58
 70
     1
102
RTVSPropertyOp59
 70
     1
102
RTVSPropertyOp60
 70
     1
102
RTVSPropertyOp61
 70
     1
102
RTVSPropertyOp62
 70
     1
  0
XRECORD
  5
6E8
102
{ACAD_REACTORS
330
6E7
102
}
330
6E7
100
AcDbXrecord
280
     1
102
RTVSPost2010Prop28
280
     0
102
RTVSPost2010PropOp28
 70
     1
102
RTVSPost2010Prop29
280
     1
102
RTVSPost2010PropOp29
 70
     1
102
RTVSPost2010Prop30
280
     1
102
RTVSPost2010PropOp30
 70
     1
102
RTVSPost2010Prop31
280
     0
102
RTVSPost2010PropOp31
 70
     1
102
RTVSPost2010Prop32
280
     0
102
RTVSPost2010PropOp32
 70
     1
102
RTVSPost2010Prop33
280
     0
102
RTVSPost2010PropOp33
 70
     1
102
RTVSPost2010Prop34
280
     0
102
RTVSPost2010PropOp34
 70
     1
102
RTVSPost2010Prop35
280
     0
102
RTVSPost2010PropOp35
 70
     1
102
RTVSPost2010Prop36
280
     0
102
RTVSPost2010PropOp36
 70
     1
102
RTVSPost2010Prop37
 90
       50
102
RTVSPost2010PropOp37
 70
     1
102
RTVSPost2010Prop38
140
0.0
102
RTVSPost2010PropOp38
 70
     1
102
RTVSPost2010Prop39
140
1.0
102
RTVSPost2010PropOp39
 70
     1
102
RTVSPost2010Prop40
 90
        0
102
RTVSPost2010PropOp40
 70
     1
102
RTVSPost2010Prop41ColorIndex
 90
       18
102
RTVSPost2010Prop41ColorRGB
 90
        0
102
RTVSPost2010PropOp41
 70
     1
102
RTVSPost2010Prop42
 90
       50
102
RTVSPost2010PropOp42
 70
     1
102
RTVSPost2010Prop43
 90
        3
102
RTVSPost2010PropOp43
 70
     1
102
RTVSPost2010Prop44ColorIndex
 90
        5
102
RTVSPost2010Prop44ColorRGB
 90
      255
102
RTVSPost2010PropOp44
 70
     1
102
RTVSPost2010Prop45
280
     0
102
RTVSPost2010PropOp45
 70
     1
102
RTVSPost2010Prop46
 90
       50
102
RTVSPost2010PropOp46
 70
     1
102
RTVSPost2010Prop47
 90
       50
102
RTVSPost2010PropOp47
 70
     1
102
RTVSPost2010Prop48
 90
       50
102
RTVSPost2010PropOp48
 70
     1
102
RTVSPost2010Prop49
280
     0
102
RTVSPost2010PropOp49
 70
     1
102
RTVSPost2010Prop50
 90
       50
102
RTVSPost2010PropOp50
 70
     1
102
RTVSPost2010Prop51ColorIndex
 90
      256
102
RTVSPost2010Prop51ColorRGB
 90
-16777216
102
RTVSPost2010PropOp51
 70
     0
102
RTVSPost2010Prop52
140
1.0
102
RTVSPost2010PropOp52
 70
     0
102
RTVSPost2010Prop53
 90
        2
102
RTVSPost2010PropOp53
 70
     1
102
RTVSPost2010Prop54
  1
strokes_ogs.tif
102
RTVSPost2010PropOp54
 70
     1
102
RTVSPost2010Prop55
280
     0
102
RTVSPost2010PropOp55
 70
     1
102
RTVSPost2010Prop56
140
1.0
102
RTVSPost2010PropOp56
 70
     1
102
RTVSPost2010Prop57
140
1.0
102
RTVSPost2010PropOp57
 70
     1
102
RTVSPropertyOp0
 70
     1
102
RTVSPropertyOp1
 70
     1
102
RTVSPropertyOp2
 70
     1
102
RTVSPropertyOp3
 70
     1
102
RTVSPropertyOp4
 70
     1
102
RTVSPropertyOp5
 70
     1
102
RTVSPropertyOp6
 70
     1
102
RTVSPropertyOp7
 70
     1
102
RTVSPropertyOp8
 70
     1
102
RTVSPropertyOp9
 70
     1
102
RTVSPropertyOp10
 70
     1
102
RTVSPropertyOp11
 70
     1
102
RTVSPropertyOp12
 70
     1
102
RTVSPropertyOp13
 70
     1
102
RTVSPropertyOp14
 70
     1
102
RTVSPropertyOp15
 70
     1
102
RTVSPropertyOp16
 70
     1
102
RTVSPropertyOp17
 70
     1
102
RTVSPropertyOp18
 70
     1
102
RTVSPropertyOp19
 70
     1
102
RTVSPropertyOp20
 70
     1
102
RTVSPropertyOp21
 70
     1
102
RTVSPropertyOp22
 70
     1
102
RTVSPropertyOp23
 70
     1
102
RTVSPropertyOp24
 70
     1
102
RTVSPropertyOp25
 70
     1
102
RTVSPropertyOp26
 70
     1
102
RTVSPropertyOp27
 70
     1
102
RTVSPropertyOp28
 70
     1
102
RTVSPropertyOp29
 70
     1
102
RTVSPropertyOp30
 70
     1
102
RTVSPropertyOp31
 70
     1
102
RTVSPropertyOp32
 70
     1
102
RTVSPropertyOp33
 70
     1
102
RTVSPropertyOp34
 70
     1
102
RTVSPropertyOp35
 70
     1
102
RTVSPropertyOp36
 70
     1
102
RTVSPropertyOp37
 70
     1
102
RTVSPropertyOp38
 70
     1
102
RTVSPropertyOp39
 70
     1
102
RTVSPropertyOp40
 70
     1
102
RTVSPropertyOp41
 70
     1
102
RTVSPropertyOp42
 70
     1
102
RTVSPropertyOp43
 70
     1
102
RTVSPropertyOp44
 70
     1
102
RTVSPropertyOp45
 70
     1
102
RTVSPropertyOp46
 70
     1
102
RTVSPropertyOp47
 70
     1
102
RTVSPropertyOp48
 70
     1
102
RTVSPropertyOp49
 70
     1
102
RTVSPropertyOp50
 70
     1
102
RTVSPropertyOp51
 70
     0
102
RTVSPropertyOp52
 70
     0
102
RTVSPropertyOp53
 70
     1
102
RTVSPropertyOp54
 70
     1
102
RTVSPropertyOp55
 70
     1
102
RTVSPropertyOp56
 70
     1
102
RTVSPropertyOp57
 70
     1
102
RTVSPropertyOp58
 70
     1
102
RTVSPropertyOp59
 70
     1
102
RTVSPropertyOp60
 70
     1
102
RTVSPropertyOp61
 70
     1
102
RTVSPropertyOp62
 70
     1
  0
XRECORD
  5
6F0
102
{ACAD_REACTORS
330
6EF
102
}
330
6EF
100
AcDbXrecord
280
     1
102
RTVSPost2010Prop28
280
     0
102
RTVSPost2010PropOp28
 70
     0
102
RTVSPost2010Prop29
280
     1
102
RTVSPost2010PropOp29
 70
     0
102
RTVSPost2010Prop30
280
     1
102
RTVSPost2010PropOp30
 70
     0
102
RTVSPost2010Prop31
280
     0
102
RTVSPost2010PropOp31
 70
     0
102
RTVSPost2010Prop32
280
     0
102
RTVSPost2010PropOp32
 70
     0
102
RTVSPost2010Prop33
280
     0
102
RTVSPost2010PropOp33
 70
     0
102
RTVSPost2010Prop34
280
     0
102
RTVSPost2010PropOp34
 70
     0
102
RTVSPost2010Prop35
280
     0
102
RTVSPost2010PropOp35
 70
     0
102
RTVSPost2010Prop36
280
     0
102
RTVSPost2010PropOp36
 70
     0
102
RTVSPost2010Prop37
 90
       50
102
RTVSPost2010PropOp37
 70
     0
102
RTVSPost2010Prop38
140
0.0
102
RTVSPost2010PropOp38
 70
     0
102
RTVSPost2010Prop39
140
1.0
102
RTVSPost2010PropOp39
 70
     0
102
RTVSPost2010Prop40
 90
        0
102
RTVSPost2010PropOp40
 70
     0
102
RTVSPost2010Prop41ColorIndex
 90
       18
102
RTVSPost2010Prop41ColorRGB
 90
        0
102
RTVSPost2010PropOp41
 70
     0
102
RTVSPost2010Prop42
 90
       50
102
RTVSPost2010PropOp42
 70
     0
102
RTVSPost2010Prop43
 90
        3
102
RTVSPost2010PropOp43
 70
     0
102
RTVSPost2010Prop44ColorIndex
 90
        5
102
RTVSPost2010Prop44ColorRGB
 90
      255
102
RTVSPost2010PropOp44
 70
     0
102
RTVSPost2010Prop45
280
     0
102
RTVSPost2010PropOp45
 70
     0
102
RTVSPost2010Prop46
 90
       50
102
RTVSPost2010PropOp46
 70
     0
102
RTVSPost2010Prop47
 90
       50
102
RTVSPost2010PropOp47
 70
     0
102
RTVSPost2010Prop48
 90
       50
102
RTVSPost2010PropOp48
 70
     0
102
RTVSPost2010Prop49
280
     0
102
RTVSPost2010PropOp49
 70
     0
102
RTVSPost2010Prop50
 90
       50
102
RTVSPost2010PropOp50
 70
     0
102
RTVSPost2010Prop51ColorIndex
 90
      256
102
RTVSPost2010Prop51ColorRGB
 90
-16777216
102
RTVSPost2010PropOp51
 70
     0
102
RTVSPost2010Prop52
140
1.0
102
RTVSPost2010PropOp52
 70
     0
102
RTVSPost2010Prop53
 90
        2
102
RTVSPost2010PropOp53
 70
     0
102
RTVSPost2010Prop54
  1
strokes_ogs.tif
102
RTVSPost2010PropOp54
 70
     0
102
RTVSPost2010Prop55
280
     0
102
RTVSPost2010PropOp55
 70
     0
102
RTVSPost2010Prop56
140
1.0
102
RTVSPost2010PropOp56
 70
     0
102
RTVSPost2010Prop57
140
1.0
102
RTVSPost2010PropOp57
 70
     0
102
RTVSPropertyOp0
 70
     0
102
RTVSPropertyOp1
 70
     0
102
RTVSPropertyOp2
 70
     0
102
RTVSPropertyOp3
 70
     0
102
RTVSPropertyOp4
 70
     0
102
RTVSPropertyOp5
 70
     0
102
RTVSPropertyOp6
 70
     0
102
RTVSPropertyOp7
 70
     0
102
RTVSPropertyOp8
 70
     0
102
RTVSPropertyOp9
 70
     0
102
RTVSPropertyOp10
 70
     0
102
RTVSPropertyOp11
 70
     0
102
RTVSPropertyOp12
 70
     0
102
RTVSPropertyOp13
 70
     0
102
RTVSPropertyOp14
 70
     2
102
RTVSPropertyOp15
 70
     0
102
RTVSPropertyOp16
 70
     0
102
RTVSPropertyOp17
 70
     0
102
RTVSPropertyOp18
 70
     0
102
RTVSPropertyOp19
 70
     0
102
RTVSPropertyOp20
 70
     0
102
RTVSPropertyOp21
 70
     0
102
RTVSPropertyOp22
 70
     0
102
RTVSPropertyOp23
 70
     0
102
RTVSPropertyOp24
 70
     0
102
RTVSPropertyOp25
 70
     0
102
RTVSPropertyOp26
 70
     0
102
RTVSPropertyOp27
 70
     0
102
RTVSPropertyOp28
 70
     0
102
RTVSPropertyOp29
 70
     0
102
RTVSPropertyOp30
 70
     0
102
RTVSPropertyOp31
 70
     0
102
RTVSPropertyOp32
 70
     0
102
RTVSPropertyOp33
 70
     0
102
RTVSPropertyOp34
 70
     0
102
RTVSPropertyOp35
 70
     0
102
RTVSPropertyOp36
 70
     0
102
RTVSPropertyOp37
 70
     0
102
RTVSPropertyOp38
 70
     0
102
RTVSPropertyOp39
 70
     0
102
RTVSPropertyOp40
 70
     0
102
RTVSPropertyOp41
 70
     0
102
RTVSPropertyOp42
 70
     0
102
RTVSPropertyOp43
 70
     0
102
RTVSPropertyOp44
 70
     0
102
RTVSPropertyOp45
 70
     0
102
RTVSPropertyOp46
 70
     0
102
RTVSPropertyOp47
 70
     0
102
RTVSPropertyOp48
 70
     0
102
RTVSPropertyOp49
 70
     0
102
RTVSPropertyOp50
 70
     0
102
RTVSPropertyOp51
 70
     0
102
RTVSPropertyOp52
 70
     0
102
RTVSPropertyOp53
 70
     0
102
RTVSPropertyOp54
 70
     0
102
RTVSPropertyOp55
 70
     0
102
RTVSPropertyOp56
 70
     0
102
RTVSPropertyOp57
 70
     0
102
RTVSPropertyOp58
 70
     1
102
RTVSPropertyOp59
 70
     1
102
RTVSPropertyOp60
 70
     1
102
RTVSPropertyOp61
 70
     1
102
RTVSPropertyOp62
 70
     1
  0
XRECORD
  5
6DE
102
{ACAD_REACTORS
330
6DD
102
}
330
6DD
100
AcDbXrecord
280
     1
102
RTVSPost2010Prop28
280
     0
102
RTVSPost2010PropOp28
 70
     1
102
RTVSPost2010Prop29
280
     1
102
RTVSPost2010PropOp29
 70
     1
102
RTVSPost2010Prop30
280
     1
102
RTVSPost2010PropOp30
 70
     1
102
RTVSPost2010Prop31
280
     0
102
RTVSPost2010PropOp31
 70
     1
102
RTVSPost2010Prop32
280
     0
102
RTVSPost2010PropOp32
 70
     1
102
RTVSPost2010Prop33
280
     0
102
RTVSPost2010PropOp33
 70
     1
102
RTVSPost2010Prop34
280
     0
102
RTVSPost2010PropOp34
 70
     1
102
RTVSPost2010Prop35
280
     0
102
RTVSPost2010PropOp35
 70
     1
102
RTVSPost2010Prop36
280
     0
102
RTVSPost2010PropOp36
 70
     1
102
RTVSPost2010Prop37
 90
       50
102
RTVSPost2010PropOp37
 70
     1
102
RTVSPost2010Prop38
140
0.0
102
RTVSPost2010PropOp38
 70
     1
102
RTVSPost2010Prop39
140
1.0
102
RTVSPost2010PropOp39
 70
     1
102
RTVSPost2010Prop40
 90
        0
102
RTVSPost2010PropOp40
 70
     1
102
RTVSPost2010Prop41ColorIndex
 90
       18
102
RTVSPost2010Prop41ColorRGB
 90
        0
102
RTVSPost2010PropOp41
 70
     1
102
RTVSPost2010Prop42
 90
       50
102
RTVSPost2010PropOp42
 70
     1
102
RTVSPost2010Prop43
 90
        3
102
RTVSPost2010PropOp43
 70
     1
102
RTVSPost2010Prop44ColorIndex
 90
        5
102
RTVSPost2010Prop44ColorRGB
 90
      255
102
RTVSPost2010PropOp44
 70
     1
102
RTVSPost2010Prop45
280
     0
102
RTVSPost2010PropOp45
 70
     1
102
RTVSPost2010Prop46
 90
       50
102
RTVSPost2010PropOp46
 70
     1
102
RTVSPost2010Prop47
 90
       50
102
RTVSPost2010PropOp47
 70
     1
102
RTVSPost2010Prop48
 90
       50
102
RTVSPost2010PropOp48
 70
     1
102
RTVSPost2010Prop49
280
     0
102
RTVSPost2010PropOp49
 70
     1
102
RTVSPost2010Prop50
 90
       50
102
RTVSPost2010PropOp50
 70
     1
102
RTVSPost2010Prop51ColorIndex
 90
      256
102
RTVSPost2010Prop51ColorRGB
 90
-16777216
102
RTVSPost2010PropOp51
 70
     0
102
RTVSPost2010Prop52
140
1.0
102
RTVSPost2010PropOp52
 70
     0
102
RTVSPost2010Prop53
 90
        2
102
RTVSPost2010PropOp53
 70
     1
102
RTVSPost2010Prop54
  1
strokes_ogs.tif
102
RTVSPost2010PropOp54
 70
     1
102
RTVSPost2010Prop55
280
     0
102
RTVSPost2010PropOp55
 70
     1
102
RTVSPost2010Prop56
140
1.0
102
RTVSPost2010PropOp56
 70
     1
102
RTVSPost2010Prop57
140
1.0
102
RTVSPost2010PropOp57
 70
     1
102
RTVSPropertyOp0
 70
     1
102
RTVSPropertyOp1
 70
     1
102
RTVSPropertyOp2
 70
     1
102
RTVSPropertyOp3
 70
     1
102
RTVSPropertyOp4
 70
     1
102
RTVSPropertyOp5
 70
     1
102
RTVSPropertyOp6
 70
     1
102
RTVSPropertyOp7
 70
     1
102
RTVSPropertyOp8
 70
     1
102
RTVSPropertyOp9
 70
     1
102
RTVSPropertyOp10
 70
     1
102
RTVSPropertyOp11
 70
     1
102
RTVSPropertyOp12
 70
     1
102
RTVSPropertyOp13
 70
     1
102
RTVSPropertyOp14
 70
     1
102
RTVSPropertyOp15
 70
     1
102
RTVSPropertyOp16
 70
     1
102
RTVSPropertyOp17
 70
     1
102
RTVSPropertyOp18
 70
     1
102
RTVSPropertyOp19
 70
     1
102
RTVSPropertyOp20
 70
     1
102
RTVSPropertyOp21
 70
     1
102
RTVSPropertyOp22
 70
     1
102
RTVSPropertyOp23
 70
     1
102
RTVSPropertyOp24
 70
     1
102
RTVSPropertyOp25
 70
     1
102
RTVSPropertyOp26
 70
     1
102
RTVSPropertyOp27
 70
     1
102
RTVSPropertyOp28
 70
     1
102
RTVSPropertyOp29
 70
     1
102
RTVSPropertyOp30
 70
     1
102
RTVSPropertyOp31
 70
     1
102
RTVSPropertyOp32
 70
     1
102
RTVSPropertyOp33
 70
     1
102
RTVSPropertyOp34
 70
     1
102
RTVSPropertyOp35
 70
     1
102
RTVSPropertyOp36
 70
     1
102
RTVSPropertyOp37
 70
     1
102
RTVSPropertyOp38
 70
     1
102
RTVSPropertyOp39
 70
     1
102
RTVSPropertyOp40
 70
     1
102
RTVSPropertyOp41
 70
     1
102
RTVSPropertyOp42
 70
     1
102
RTVSPropertyOp43
 70
     1
102
RTVSPropertyOp44
 70
     1
102
RTVSPropertyOp45
 70
     1
102
RTVSPropertyOp46
 70
     1
102
RTVSPropertyOp47
 70
     1
102
RTVSPropertyOp48
 70
     1
102
RTVSPropertyOp49
 70
     1
102
RTVSPropertyOp50
 70
     1
102
RTVSPropertyOp51
 70
     0
102
RTVSPropertyOp52
 70
     0
102
RTVSPropertyOp53
 70
     1
102
RTVSPropertyOp54
 70
     1
102
RTVSPropertyOp55
 70
     1
102
RTVSPropertyOp56
 70
     1
102
RTVSPropertyOp57
 70
     1
102
RTVSPropertyOp58
 70
     1
102
RTVSPropertyOp59
 70
     1
102
RTVSPropertyOp60
 70
     1
102
RTVSPropertyOp61
 70
     1
102
RTVSPropertyOp62
 70
     1
  0
XRECORD
  5
6FC
102
{ACAD_REACTORS
330
6FB
102
}
330
6FB
100
AcDbXrecord
280
     1
102
RTVSPost2010Prop28
280
     0
102
RTVSPost2010PropOp28
 70
     1
102
RTVSPost2010Prop29
280
     1
102
RTVSPost2010PropOp29
 70
     1
102
RTVSPost2010Prop30
280
     1
102
RTVSPost2010PropOp30
 70
     1
102
RTVSPost2010Prop31
280
     0
102
RTVSPost2010PropOp31
 70
     1
102
RTVSPost2010Prop32
280
     0
102
RTVSPost2010PropOp32
 70
     1
102
RTVSPost2010Prop33
280
     0
102
RTVSPost2010PropOp33
 70
     1
102
RTVSPost2010Prop34
280
     0
102
RTVSPost2010PropOp34
 70
     1
102
RTVSPost2010Prop35
280
     0
102
RTVSPost2010PropOp35
 70
     1
102
RTVSPost2010Prop36
280
     0
102
RTVSPost2010PropOp36
 70
     1
102
RTVSPost2010Prop37
 90
       50
102
RTVSPost2010PropOp37
 70
     1
102
RTVSPost2010Prop38
140
0.0
102
RTVSPost2010PropOp38
 70
     1
102
RTVSPost2010Prop39
140
1.0
102
RTVSPost2010PropOp39
 70
     1
102
RTVSPost2010Prop40
 90
        0
102
RTVSPost2010PropOp40
 70
     1
102
RTVSPost2010Prop41ColorIndex
 90
       18
102
RTVSPost2010Prop41ColorRGB
 90
        0
102
RTVSPost2010PropOp41
 70
     1
102
RTVSPost2010Prop42
 90
       50
102
RTVSPost2010PropOp42
 70
     1
102
RTVSPost2010Prop43
 90
        3
102
RTVSPost2010PropOp43
 70
     1
102
RTVSPost2010Prop44ColorIndex
 90
        5
102
RTVSPost2010Prop44ColorRGB
 90
      255
102
RTVSPost2010PropOp44
 70
     1
102
RTVSPost2010Prop45
280
     0
102
RTVSPost2010PropOp45
 70
     1
102
RTVSPost2010Prop46
 90
       50
102
RTVSPost2010PropOp46
 70
     1
102
RTVSPost2010Prop47
 90
       50
102
RTVSPost2010PropOp47
 70
     1
102
RTVSPost2010Prop48
 90
       50
102
RTVSPost2010PropOp48
 70
     1
102
RTVSPost2010Prop49
280
     0
102
RTVSPost2010PropOp49
 70
     1
102
RTVSPost2010Prop50
 90
       50
102
RTVSPost2010PropOp50
 70
     1
102
RTVSPost2010Prop51ColorIndex
 90
      256
102
RTVSPost2010Prop51ColorRGB
 90
-16777216
102
RTVSPost2010PropOp51
 70
     0
102
RTVSPost2010Prop52
140
1.0
102
RTVSPost2010PropOp52
 70
     0
102
RTVSPost2010Prop53
 90
        2
102
RTVSPost2010PropOp53
 70
     1
102
RTVSPost2010Prop54
  1
strokes_ogs.tif
102
RTVSPost2010PropOp54
 70
     1
102
RTVSPost2010Prop55
280
     0
102
RTVSPost2010PropOp55
 70
     1
102
RTVSPost2010Prop56
140
1.0
102
RTVSPost2010PropOp56
 70
     1
102
RTVSPost2010Prop57
140
1.0
102
RTVSPost2010PropOp57
 70
     1
102
RTVSPropertyOp0
 70
     1
102
RTVSPropertyOp1
 70
     1
102
RTVSPropertyOp2
 70
     1
102
RTVSPropertyOp3
 70
     1
102
RTVSPropertyOp4
 70
     1
102
RTVSPropertyOp5
 70
     1
102
RTVSPropertyOp6
 70
     1
102
RTVSPropertyOp7
 70
     1
102
RTVSPropertyOp8
 70
     1
102
RTVSPropertyOp9
 70
     1
102
RTVSPropertyOp10
 70
     1
102
RTVSPropertyOp11
 70
     1
102
RTVSPropertyOp12
 70
     1
102
RTVSPropertyOp13
 70
     1
102
RTVSPropertyOp14
 70
     1
102
RTVSPropertyOp15
 70
     1
102
RTVSPropertyOp16
 70
     1
102
RTVSPropertyOp17
 70
     1
102
RTVSPropertyOp18
 70
     1
102
RTVSPropertyOp19
 70
     1
102
RTVSPropertyOp20
 70
     1
102
RTVSPropertyOp21
 70
     1
102
RTVSPropertyOp22
 70
     1
102
RTVSPropertyOp23
 70
     1
102
RTVSPropertyOp24
 70
     1
102
RTVSPropertyOp25
 70
     1
102
RTVSPropertyOp26
 70
     1
102
RTVSPropertyOp27
 70
     1
102
RTVSPropertyOp28
 70
     1
102
RTVSPropertyOp29
 70
     1
102
RTVSPropertyOp30
 70
     1
102
RTVSPropertyOp31
 70
     1
102
RTVSPropertyOp32
 70
     1
102
RTVSPropertyOp33
 70
     1
102
RTVSPropertyOp34
 70
     1
102
RTVSPropertyOp35
 70
     1
102
RTVSPropertyOp36
 70
     1
102
RTVSPropertyOp37
 70
     1
102
RTVSPropertyOp38
 70
     1
102
RTVSPropertyOp39
 70
     1
102
RTVSPropertyOp40
 70
     1
102
RTVSPropertyOp41
 70
     1
102
RTVSPropertyOp42
 70
     1
102
RTVSPropertyOp43
 70
     1
102
RTVSPropertyOp44
 70
     1
102
RTVSPropertyOp45
 70
     1
102
RTVSPropertyOp46
 70
     1
102
RTVSPropertyOp47
 70
     1
102
RTVSPropertyOp48
 70
     1
102
RTVSPropertyOp49
 70
     1
102
RTVSPropertyOp50
 70
     1
102
RTVSPropertyOp51
 70
     0
102
RTVSPropertyOp52
 70
     0
102
RTVSPropertyOp53
 70
     1
102
RTVSPropertyOp54
 70
     1
102
RTVSPropertyOp55
 70
     1
102
RTVSPropertyOp56
 70
     1
102
RTVSPropertyOp57
 70
     1
102
RTVSPropertyOp58
 70
     1
102
RTVSPropertyOp59
 70
     1
102
RTVSPropertyOp60
 70
     1
102
RTVSPropertyOp61
 70
     1
102
RTVSPropertyOp62
 70
     1
  0
XRECORD
  5
6FA
102
{ACAD_REACTORS
330
6F9
102
}
330
6F9
100
AcDbXrecord
280
     1
102
RTVSPost2010Prop28
280
     0
102
RTVSPost2010PropOp28
 70
     1
102
RTVSPost2010Prop29
280
     1
102
RTVSPost2010PropOp29
 70
     1
102
RTVSPost2010Prop30
280
     1
102
RTVSPost2010PropOp30
 70
     1
102
RTVSPost2010Prop31
280
     0
102
RTVSPost2010PropOp31
 70
     1
102
RTVSPost2010Prop32
280
     0
102
RTVSPost2010PropOp32
 70
     1
102
RTVSPost2010Prop33
280
     0
102
RTVSPost2010PropOp33
 70
     1
102
RTVSPost2010Prop34
280
     0
102
RTVSPost2010PropOp34
 70
     1
102
RTVSPost2010Prop35
280
     0
102
RTVSPost2010PropOp35
 70
     1
102
RTVSPost2010Prop36
280
     0
102
RTVSPost2010PropOp36
 70
     1
102
RTVSPost2010Prop37
 90
       50
102
RTVSPost2010PropOp37
 70
     1
102
RTVSPost2010Prop38
140
0.0
102
RTVSPost2010PropOp38
 70
     1
102
RTVSPost2010Prop39
140
1.0
102
RTVSPost2010PropOp39
 70
     1
102
RTVSPost2010Prop40
 90
        0
102
RTVSPost2010PropOp40
 70
     1
102
RTVSPost2010Prop41ColorIndex
 90
       18
102
RTVSPost2010Prop41ColorRGB
 90
        0
102
RTVSPost2010PropOp41
 70
     1
102
RTVSPost2010Prop42
 90
       50
102
RTVSPost2010PropOp42
 70
     1
102
RTVSPost2010Prop43
 90
        3
102
RTVSPost2010PropOp43
 70
     1
102
RTVSPost2010Prop44ColorIndex
 90
        5
102
RTVSPost2010Prop44ColorRGB
 90
      255
102
RTVSPost2010PropOp44
 70
     1
102
RTVSPost2010Prop45
280
     0
102
RTVSPost2010PropOp45
 70
     1
102
RTVSPost2010Prop46
 90
       50
102
RTVSPost2010PropOp46
 70
     1
102
RTVSPost2010Prop47
 90
       50
102
RTVSPost2010PropOp47
 70
     1
102
RTVSPost2010Prop48
 90
       50
102
RTVSPost2010PropOp48
 70
     1
102
RTVSPost2010Prop49
280
     0
102
RTVSPost2010PropOp49
 70
     1
102
RTVSPost2010Prop50
 90
       50
102
RTVSPost2010PropOp50
 70
     1
102
RTVSPost2010Prop51ColorIndex
 90
      256
102
RTVSPost2010Prop51ColorRGB
 90
-16777216
102
RTVSPost2010PropOp51
 70
     0
102
RTVSPost2010Prop52
140
1.0
102
RTVSPost2010PropOp52
 70
     0
102
RTVSPost2010Prop53
 90
        2
102
RTVSPost2010PropOp53
 70
     1
102
RTVSPost2010Prop54
  1
strokes_ogs.tif
102
RTVSPost2010PropOp54
 70
     1
102
RTVSPost2010Prop55
280
     0
102
RTVSPost2010PropOp55
 70
     1
102
RTVSPost2010Prop56
140
1.0
102
RTVSPost2010PropOp56
 70
     1
102
RTVSPost2010Prop57
140
1.0
102
RTVSPost2010PropOp57
 70
     1
102
RTVSPropertyOp0
 70
     1
102
RTVSPropertyOp1
 70
     1
102
RTVSPropertyOp2
 70
     1
102
RTVSPropertyOp3
 70
     1
102
RTVSPropertyOp4
 70
     1
102
RTVSPropertyOp5
 70
     1
102
RTVSPropertyOp6
 70
     1
102
RTVSPropertyOp7
 70
     1
102
RTVSPropertyOp8
 70
     1
102
RTVSPropertyOp9
 70
     1
102
RTVSPropertyOp10
 70
     1
102
RTVSPropertyOp11
 70
     1
102
RTVSPropertyOp12
 70
     1
102
RTVSPropertyOp13
 70
     1
102
RTVSPropertyOp14
 70
     1
102
RTVSPropertyOp15
 70
     1
102
RTVSPropertyOp16
 70
     1
102
RTVSPropertyOp17
 70
     1
102
RTVSPropertyOp18
 70
     1
102
RTVSPropertyOp19
 70
     1
102
RTVSPropertyOp20
 70
     1
102
RTVSPropertyOp21
 70
     1
102
RTVSPropertyOp22
 70
     1
102
RTVSPropertyOp23
 70
     1
102
RTVSPropertyOp24
 70
     1
102
RTVSPropertyOp25
 70
     1
102
RTVSPropertyOp26
 70
     1
102
RTVSPropertyOp27
 70
     1
102
RTVSPropertyOp28
 70
     1
102
RTVSPropertyOp29
 70
     1
102
RTVSPropertyOp30
 70
     1
102
RTVSPropertyOp31
 70
     1
102
RTVSPropertyOp32
 70
     1
102
RTVSPropertyOp33
 70
     1
102
RTVSPropertyOp34
 70
     1
102
RTVSPropertyOp35
 70
     1
102
RTVSPropertyOp36
 70
     1
102
RTVSPropertyOp37
 70
     1
102
RTVSPropertyOp38
 70
     1
102
RTVSPropertyOp39
 70
     1
102
RTVSPropertyOp40
 70
     1
102
RTVSPropertyOp41
 70
     1
102
RTVSPropertyOp42
 70
     1
102
RTVSPropertyOp43
 70
     1
102
RTVSPropertyOp44
 70
     1
102
RTVSPropertyOp45
 70
     1
102
RTVSPropertyOp46
 70
     1
102
RTVSPropertyOp47
 70
     1
102
RTVSPropertyOp48
 70
     1
102
RTVSPropertyOp49
 70
     1
102
RTVSPropertyOp50
 70
     1
102
RTVSPropertyOp51
 70
     0
102
RTVSPropertyOp52
 70
     0
102
RTVSPropertyOp53
 70
     1
102
RTVSPropertyOp54
 70
     1
102
RTVSPropertyOp55
 70
     1
102
RTVSPropertyOp56
 70
     1
102
RTVSPropertyOp57
 70
     1
102
RTVSPropertyOp58
 70
     1
102
RTVSPropertyOp59
 70
     1
102
RTVSPropertyOp60
 70
     1
102
RTVSPropertyOp61
 70
     1
102
RTVSPropertyOp62
 70
     1
  0
XRECORD
  5
6F4
102
{ACAD_REACTORS
330
6F3
102
}
330
6F3
100
AcDbXrecord
280
     1
102
RTVSPost2010Prop28
280
     0
102
RTVSPost2010PropOp28
 70
     1
102
RTVSPost2010Prop29
280
     1
102
RTVSPost2010PropOp29
 70
     1
102
RTVSPost2010Prop30
280
     1
102
RTVSPost2010PropOp30
 70
     1
102
RTVSPost2010Prop31
280
     0
102
RTVSPost2010PropOp31
 70
     1
102
RTVSPost2010Prop32
280
     0
102
RTVSPost2010PropOp32
 70
     1
102
RTVSPost2010Prop33
280
     0
102
RTVSPost2010PropOp33
 70
     1
102
RTVSPost2010Prop34
280
     0
102
RTVSPost2010PropOp34
 70
     1
102
RTVSPost2010Prop35
280
     0
102
RTVSPost2010PropOp35
 70
     1
102
RTVSPost2010Prop36
280
     0
102
RTVSPost2010PropOp36
 70
     1
102
RTVSPost2010Prop37
 90
       50
102
RTVSPost2010PropOp37
 70
     1
102
RTVSPost2010Prop38
140
0.0
102
RTVSPost2010PropOp38
 70
     1
102
RTVSPost2010Prop39
140
1.0
102
RTVSPost2010PropOp39
 70
     1
102
RTVSPost2010Prop40
 90
        0
102
RTVSPost2010PropOp40
 70
     1
102
RTVSPost2010Prop41ColorIndex
 90
       18
102
RTVSPost2010Prop41ColorRGB
 90
        0
102
RTVSPost2010PropOp41
 70
     1
102
RTVSPost2010Prop42
 90
       50
102
RTVSPost2010PropOp42
 70
     1
102
RTVSPost2010Prop43
 90
        3
102
RTVSPost2010PropOp43
 70
     1
102
RTVSPost2010Prop44ColorIndex
 90
        5
102
RTVSPost2010Prop44ColorRGB
 90
      255
102
RTVSPost2010PropOp44
 70
     1
102
RTVSPost2010Prop45
280
     0
102
RTVSPost2010PropOp45
 70
     1
102
RTVSPost2010Prop46
 90
       50
102
RTVSPost2010PropOp46
 70
     1
102
RTVSPost2010Prop47
 90
       50
102
RTVSPost2010PropOp47
 70
     1
102
RTVSPost2010Prop48
 90
       50
102
RTVSPost2010PropOp48
 70
     1
102
RTVSPost2010Prop49
280
     0
102
RTVSPost2010PropOp49
 70
     1
102
RTVSPost2010Prop50
 90
       50
102
RTVSPost2010PropOp50
 70
     1
102
RTVSPost2010Prop51ColorIndex
 90
      256
102
RTVSPost2010Prop51ColorRGB
 90
-16777216
102
RTVSPost2010PropOp51
 70
     0
102
RTVSPost2010Prop52
140
1.0
102
RTVSPost2010PropOp52
 70
     0
102
RTVSPost2010Prop53
 90
        2
102
RTVSPost2010PropOp53
 70
     1
102
RTVSPost2010Prop54
  1
strokes_ogs.tif
102
RTVSPost2010PropOp54
 70
     1
102
RTVSPost2010Prop55
280
     0
102
RTVSPost2010PropOp55
 70
     1
102
RTVSPost2010Prop56
140
1.0
102
RTVSPost2010PropOp56
 70
     1
102
RTVSPost2010Prop57
140
1.0
102
RTVSPost2010PropOp57
 70
     1
102
RTVSPropertyOp0
 70
     1
102
RTVSPropertyOp1
 70
     1
102
RTVSPropertyOp2
 70
     1
102
RTVSPropertyOp3
 70
     1
102
RTVSPropertyOp4
 70
     1
102
RTVSPropertyOp5
 70
     1
102
RTVSPropertyOp6
 70
     1
102
RTVSPropertyOp7
 70
     1
102
RTVSPropertyOp8
 70
     1
102
RTVSPropertyOp9
 70
     1
102
RTVSPropertyOp10
 70
     1
102
RTVSPropertyOp11
 70
     1
102
RTVSPropertyOp12
 70
     1
102
RTVSPropertyOp13
 70
     1
102
RTVSPropertyOp14
 70
     1
102
RTVSPropertyOp15
 70
     1
102
RTVSPropertyOp16
 70
     1
102
RTVSPropertyOp17
 70
     1
102
RTVSPropertyOp18
 70
     1
102
RTVSPropertyOp19
 70
     1
102
RTVSPropertyOp20
 70
     1
102
RTVSPropertyOp21
 70
     1
102
RTVSPropertyOp22
 70
     1
102
RTVSPropertyOp23
 70
     1
102
RTVSPropertyOp24
 70
     1
102
RTVSPropertyOp25
 70
     1
102
RTVSPropertyOp26
 70
     1
102
RTVSPropertyOp27
 70
     1
102
RTVSPropertyOp28
 70
     1
102
RTVSPropertyOp29
 70
     1
102
RTVSPropertyOp30
 70
     1
102
RTVSPropertyOp31
 70
     1
102
RTVSPropertyOp32
 70
     1
102
RTVSPropertyOp33
 70
     1
102
RTVSPropertyOp34
 70
     1
102
RTVSPropertyOp35
 70
     1
102
RTVSPropertyOp36
 70
     1
102
RTVSPropertyOp37
 70
     1
102
RTVSPropertyOp38
 70
     1
102
RTVSPropertyOp39
 70
     1
102
RTVSPropertyOp40
 70
     1
102
RTVSPropertyOp41
 70
     1
102
RTVSPropertyOp42
 70
     1
102
RTVSPropertyOp43
 70
     1
102
RTVSPropertyOp44
 70
     1
102
RTVSPropertyOp45
 70
     1
102
RTVSPropertyOp46
 70
     1
102
RTVSPropertyOp47
 70
     1
102
RTVSPropertyOp48
 70
     1
102
RTVSPropertyOp49
 70
     1
102
RTVSPropertyOp50
 70
     1
102
RTVSPropertyOp51
 70
     0
102
RTVSPropertyOp52
 70
     0
102
RTVSPropertyOp53
 70
     1
102
RTVSPropertyOp54
 70
     1
102
RTVSPropertyOp55
 70
     1
102
RTVSPropertyOp56
 70
     1
102
RTVSPropertyOp57
 70
     1
102
RTVSPropertyOp58
 70
     1
102
RTVSPropertyOp59
 70
     1
102
RTVSPropertyOp60
 70
     1
102
RTVSPropertyOp61
 70
     1
102
RTVSPropertyOp62
 70
     1
  0
XRECORD
  5
6F6
102
{ACAD_REACTORS
330
6F5
102
}
330
6F5
100
AcDbXrecord
280
     1
102
RTVSPost2010Prop28
280
     0
102
RTVSPost2010PropOp28
 70
     1
102
RTVSPost2010Prop29
280
     1
102
RTVSPost2010PropOp29
 70
     1
102
RTVSPost2010Prop30
280
     1
102
RTVSPost2010PropOp30
 70
     1
102
RTVSPost2010Prop31
280
     0
102
RTVSPost2010PropOp31
 70
     1
102
RTVSPost2010Prop32
280
     0
102
RTVSPost2010PropOp32
 70
     1
102
RTVSPost2010Prop33
280
     0
102
RTVSPost2010PropOp33
 70
     1
102
RTVSPost2010Prop34
280
     0
102
RTVSPost2010PropOp34
 70
     1
102
RTVSPost2010Prop35
280
     0
102
RTVSPost2010PropOp35
 70
     1
102
RTVSPost2010Prop36
280
     0
102
RTVSPost2010PropOp36
 70
     1
102
RTVSPost2010Prop37
 90
       50
102
RTVSPost2010PropOp37
 70
     1
102
RTVSPost2010Prop38
140
0.0
102
RTVSPost2010PropOp38
 70
     1
102
RTVSPost2010Prop39
140
1.0
102
RTVSPost2010PropOp39
 70
     1
102
RTVSPost2010Prop40
 90
        0
102
RTVSPost2010PropOp40
 70
     1
102
RTVSPost2010Prop41ColorIndex
 90
       18
102
RTVSPost2010Prop41ColorRGB
 90
        0
102
RTVSPost2010PropOp41
 70
     1
102
RTVSPost2010Prop42
 90
       50
102
RTVSPost2010PropOp42
 70
     1
102
RTVSPost2010Prop43
 90
        3
102
RTVSPost2010PropOp43
 70
     1
102
RTVSPost2010Prop44ColorIndex
 90
        5
102
RTVSPost2010Prop44ColorRGB
 90
      255
102
RTVSPost2010PropOp44
 70
     1
102
RTVSPost2010Prop45
280
     0
102
RTVSPost2010PropOp45
 70
     1
102
RTVSPost2010Prop46
 90
       50
102
RTVSPost2010PropOp46
 70
     1
102
RTVSPost2010Prop47
 90
       50
102
RTVSPost2010PropOp47
 70
     1
102
RTVSPost2010Prop48
 90
       50
102
RTVSPost2010PropOp48
 70
     1
102
RTVSPost2010Prop49
280
     0
102
RTVSPost2010PropOp49
 70
     1
102
RTVSPost2010Prop50
 90
       50
102
RTVSPost2010PropOp50
 70
     1
102
RTVSPost2010Prop51ColorIndex
 90
      256
102
RTVSPost2010Prop51ColorRGB
 90
-16777216
102
RTVSPost2010PropOp51
 70
     0
102
RTVSPost2010Prop52
140
1.0
102
RTVSPost2010PropOp52
 70
     0
102
RTVSPost2010Prop53
 90
        2
102
RTVSPost2010PropOp53
 70
     1
102
RTVSPost2010Prop54
  1
strokes_ogs.tif
102
RTVSPost2010PropOp54
 70
     1
102
RTVSPost2010Prop55
280
     0
102
RTVSPost2010PropOp55
 70
     1
102
RTVSPost2010Prop56
140
1.0
102
RTVSPost2010PropOp56
 70
     1
102
RTVSPost2010Prop57
140
1.0
102
RTVSPost2010PropOp57
 70
     1
102
RTVSPropertyOp0
 70
     1
102
RTVSPropertyOp1
 70
     1
102
RTVSPropertyOp2
 70
     1
102
RTVSPropertyOp3
 70
     1
102
RTVSPropertyOp4
 70
     1
102
RTVSPropertyOp5
 70
     1
102
RTVSPropertyOp6
 70
     1
102
RTVSPropertyOp7
 70
     1
102
RTVSPropertyOp8
 70
     1
102
RTVSPropertyOp9
 70
     1
102
RTVSPropertyOp10
 70
     1
102
RTVSPropertyOp11
 70
     1
102
RTVSPropertyOp12
 70
     1
102
RTVSPropertyOp13
 70
     1
102
RTVSPropertyOp14
 70
     1
102
RTVSPropertyOp15
 70
     1
102
RTVSPropertyOp16
 70
     1
102
RTVSPropertyOp17
 70
     1
102
RTVSPropertyOp18
 70
     1
102
RTVSPropertyOp19
 70
     1
102
RTVSPropertyOp20
 70
     1
102
RTVSPropertyOp21
 70
     1
102
RTVSPropertyOp22
 70
     1
102
RTVSPropertyOp23
 70
     1
102
RTVSPropertyOp24
 70
     1
102
RTVSPropertyOp25
 70
     1
102
RTVSPropertyOp26
 70
     1
102
RTVSPropertyOp27
 70
     1
102
RTVSPropertyOp28
 70
     1
102
RTVSPropertyOp29
 70
     1
102
RTVSPropertyOp30
 70
     1
102
RTVSPropertyOp31
 70
     1
102
RTVSPropertyOp32
 70
     1
102
RTVSPropertyOp33
 70
     1
102
RTVSPropertyOp34
 70
     1
102
RTVSPropertyOp35
 70
     1
102
RTVSPropertyOp36
 70
     1
102
RTVSPropertyOp37
 70
     1
102
RTVSPropertyOp38
 70
     1
102
RTVSPropertyOp39
 70
     1
102
RTVSPropertyOp40
 70
     1
102
RTVSPropertyOp41
 70
     1
102
RTVSPropertyOp42
 70
     1
102
RTVSPropertyOp43
 70
     1
102
RTVSPropertyOp44
 70
     1
102
RTVSPropertyOp45
 70
     1
102
RTVSPropertyOp46
 70
     1
102
RTVSPropertyOp47
 70
     1
102
RTVSPropertyOp48
 70
     1
102
RTVSPropertyOp49
 70
     1
102
RTVSPropertyOp50
 70
     1
102
RTVSPropertyOp51
 70
     0
102
RTVSPropertyOp52
 70
     0
102
RTVSPropertyOp53
 70
     1
102
RTVSPropertyOp54
 70
     1
102
RTVSPropertyOp55
 70
     1
102
RTVSPropertyOp56
 70
     1
102
RTVSPropertyOp57
 70
     1
102
RTVSPropertyOp58
 70
     1
102
RTVSPropertyOp59
 70
     1
102
RTVSPropertyOp60
 70
     1
102
RTVSPropertyOp61
 70
     1
102
RTVSPropertyOp62
 70
     1
  0
XRECORD
  5
6E6
102
{ACAD_REACTORS
330
6E5
102
}
330
6E5
100
AcDbXrecord
280
     1
102
RTVSPost2010Prop28
280
     0
102
RTVSPost2010PropOp28
 70
     1
102
RTVSPost2010Prop29
280
     1
102
RTVSPost2010PropOp29
 70
     1
102
RTVSPost2010Prop30
280
     1
102
RTVSPost2010PropOp30
 70
     1
102
RTVSPost2010Prop31
280
     0
102
RTVSPost2010PropOp31
 70
     1
102
RTVSPost2010Prop32
280
     0
102
RTVSPost2010PropOp32
 70
     1
102
RTVSPost2010Prop33
280
     0
102
RTVSPost2010PropOp33
 70
     1
102
RTVSPost2010Prop34
280
     0
102
RTVSPost2010PropOp34
 70
     1
102
RTVSPost2010Prop35
280
     0
102
RTVSPost2010PropOp35
 70
     1
102
RTVSPost2010Prop36
280
     0
102
RTVSPost2010PropOp36
 70
     1
102
RTVSPost2010Prop37
 90
       50
102
RTVSPost2010PropOp37
 70
     1
102
RTVSPost2010Prop38
140
0.0
102
RTVSPost2010PropOp38
 70
     1
102
RTVSPost2010Prop39
140
1.0
102
RTVSPost2010PropOp39
 70
     1
102
RTVSPost2010Prop40
 90
        0
102
RTVSPost2010PropOp40
 70
     1
102
RTVSPost2010Prop41ColorIndex
 90
       18
102
RTVSPost2010Prop41ColorRGB
 90
        0
102
RTVSPost2010PropOp41
 70
     1
102
RTVSPost2010Prop42
 90
       50
102
RTVSPost2010PropOp42
 70
     1
102
RTVSPost2010Prop43
 90
        3
102
RTVSPost2010PropOp43
 70
     1
102
RTVSPost2010Prop44ColorIndex
 90
        5
102
RTVSPost2010Prop44ColorRGB
 90
      255
102
RTVSPost2010PropOp44
 70
     1
102
RTVSPost2010Prop45
280
     0
102
RTVSPost2010PropOp45
 70
     1
102
RTVSPost2010Prop46
 90
       50
102
RTVSPost2010PropOp46
 70
     1
102
RTVSPost2010Prop47
 90
       50
102
RTVSPost2010PropOp47
 70
     1
102
RTVSPost2010Prop48
 90
       50
102
RTVSPost2010PropOp48
 70
     1
102
RTVSPost2010Prop49
280
     0
102
RTVSPost2010PropOp49
 70
     1
102
RTVSPost2010Prop50
 90
       50
102
RTVSPost2010PropOp50
 70
     1
102
RTVSPost2010Prop51ColorIndex
 90
      256
102
RTVSPost2010Prop51ColorRGB
 90
-16777216
102
RTVSPost2010PropOp51
 70
     0
102
RTVSPost2010Prop52
140
1.0
102
RTVSPost2010PropOp52
 70
     0
102
RTVSPost2010Prop53
 90
        2
102
RTVSPost2010PropOp53
 70
     1
102
RTVSPost2010Prop54
  1
strokes_ogs.tif
102
RTVSPost2010PropOp54
 70
     1
102
RTVSPost2010Prop55
280
     0
102
RTVSPost2010PropOp55
 70
     1
102
RTVSPost2010Prop56
140
1.0
102
RTVSPost2010PropOp56
 70
     1
102
RTVSPost2010Prop57
140
1.0
102
RTVSPost2010PropOp57
 70
     1
102
RTVSPropertyOp0
 70
     1
102
RTVSPropertyOp1
 70
     1
102
RTVSPropertyOp2
 70
     1
102
RTVSPropertyOp3
 70
     1
102
RTVSPropertyOp4
 70
     1
102
RTVSPropertyOp5
 70
     1
102
RTVSPropertyOp6
 70
     1
102
RTVSPropertyOp7
 70
     1
102
RTVSPropertyOp8
 70
     1
102
RTVSPropertyOp9
 70
     1
102
RTVSPropertyOp10
 70
     1
102
RTVSPropertyOp11
 70
     1
102
RTVSPropertyOp12
 70
     1
102
RTVSPropertyOp13
 70
     1
102
RTVSPropertyOp14
 70
     1
102
RTVSPropertyOp15
 70
     1
102
RTVSPropertyOp16
 70
     1
102
RTVSPropertyOp17
 70
     1
102
RTVSPropertyOp18
 70
     1
102
RTVSPropertyOp19
 70
     1
102
RTVSPropertyOp20
 70
     1
102
RTVSPropertyOp21
 70
     1
102
RTVSPropertyOp22
 70
     1
102
RTVSPropertyOp23
 70
     1
102
RTVSPropertyOp24
 70
     1
102
RTVSPropertyOp25
 70
     1
102
RTVSPropertyOp26
 70
     1
102
RTVSPropertyOp27
 70
     1
102
RTVSPropertyOp28
 70
     1
102
RTVSPropertyOp29
 70
     1
102
RTVSPropertyOp30
 70
     1
102
RTVSPropertyOp31
 70
     1
102
RTVSPropertyOp32
 70
     1
102
RTVSPropertyOp33
 70
     1
102
RTVSPropertyOp34
 70
     1
102
RTVSPropertyOp35
 70
     1
102
RTVSPropertyOp36
 70
     1
102
RTVSPropertyOp37
 70
     1
102
RTVSPropertyOp38
 70
     1
102
RTVSPropertyOp39
 70
     1
102
RTVSPropertyOp40
 70
     1
102
RTVSPropertyOp41
 70
     1
102
RTVSPropertyOp42
 70
     1
102
RTVSPropertyOp43
 70
     1
102
RTVSPropertyOp44
 70
     1
102
RTVSPropertyOp45
 70
     1
102
RTVSPropertyOp46
 70
     1
102
RTVSPropertyOp47
 70
     1
102
RTVSPropertyOp48
 70
     1
102
RTVSPropertyOp49
 70
     1
102
RTVSPropertyOp50
 70
     1
102
RTVSPropertyOp51
 70
     0
102
RTVSPropertyOp52
 70
     0
102
RTVSPropertyOp53
 70
     1
102
RTVSPropertyOp54
 70
     1
102
RTVSPropertyOp55
 70
     1
102
RTVSPropertyOp56
 70
     1
102
RTVSPropertyOp57
 70
     1
102
RTVSPropertyOp58
 70
     1
102
RTVSPropertyOp59
 70
     1
102
RTVSPropertyOp60
 70
     1
102
RTVSPropertyOp61
 70
     1
102
RTVSPropertyOp62
 70
     1
  0
XRECORD
  5
6D8
102
{ACAD_REACTORS
330
6D7
102
}
330
6D7
100
AcDbXrecord
280
     1
102
RTVSPost2010Prop28
280
     0
102
RTVSPost2010PropOp28
 70
     1
102
RTVSPost2010Prop29
280
     1
102
RTVSPost2010PropOp29
 70
     1
102
RTVSPost2010Prop30
280
     1
102
RTVSPost2010PropOp30
 70
     1
102
RTVSPost2010Prop31
280
     0
102
RTVSPost2010PropOp31
 70
     1
102
RTVSPost2010Prop32
280
     0
102
RTVSPost2010PropOp32
 70
     1
102
RTVSPost2010Prop33
280
     0
102
RTVSPost2010PropOp33
 70
     1
102
RTVSPost2010Prop34
280
     0
102
RTVSPost2010PropOp34
 70
     1
102
RTVSPost2010Prop35
280
     0
102
RTVSPost2010PropOp35
 70
     1
102
RTVSPost2010Prop36
280
     0
102
RTVSPost2010PropOp36
 70
     1
102
RTVSPost2010Prop37
 90
       50
102
RTVSPost2010PropOp37
 70
     1
102
RTVSPost2010Prop38
140
0.0
102
RTVSPost2010PropOp38
 70
     1
102
RTVSPost2010Prop39
140
1.0
102
RTVSPost2010PropOp39
 70
     1
102
RTVSPost2010Prop40
 90
        0
102
RTVSPost2010PropOp40
 70
     1
102
RTVSPost2010Prop41ColorIndex
 90
       18
102
RTVSPost2010Prop41ColorRGB
 90
        0
102
RTVSPost2010PropOp41
 70
     1
102
RTVSPost2010Prop42
 90
       50
102
RTVSPost2010PropOp42
 70
     1
102
RTVSPost2010Prop43
 90
        3
102
RTVSPost2010PropOp43
 70
     1
102
RTVSPost2010Prop44ColorIndex
 90
        5
102
RTVSPost2010Prop44ColorRGB
 90
      255
102
RTVSPost2010PropOp44
 70
     1
102
RTVSPost2010Prop45
280
     0
102
RTVSPost2010PropOp45
 70
     1
102
RTVSPost2010Prop46
 90
       50
102
RTVSPost2010PropOp46
 70
     1
102
RTVSPost2010Prop47
 90
       50
102
RTVSPost2010PropOp47
 70
     1
102
RTVSPost2010Prop48
 90
       50
102
RTVSPost2010PropOp48
 70
     1
102
RTVSPost2010Prop49
280
     0
102
RTVSPost2010PropOp49
 70
     1
102
RTVSPost2010Prop50
 90
       50
102
RTVSPost2010PropOp50
 70
     1
102
RTVSPost2010Prop51ColorIndex
 90
      256
102
RTVSPost2010Prop51ColorRGB
 90
-16777216
102
RTVSPost2010PropOp51
 70
     0
102
RTVSPost2010Prop52
140
1.0
102
RTVSPost2010PropOp52
 70
     0
102
RTVSPost2010Prop53
 90
        2
102
RTVSPost2010PropOp53
 70
     1
102
RTVSPost2010Prop54
  1
strokes_ogs.tif
102
RTVSPost2010PropOp54
 70
     1
102
RTVSPost2010Prop55
280
     0
102
RTVSPost2010PropOp55
 70
     1
102
RTVSPost2010Prop56
140
1.0
102
RTVSPost2010PropOp56
 70
     1
102
RTVSPost2010Prop57
140
1.0
102
RTVSPost2010PropOp57
 70
     1
102
RTVSPropertyOp0
 70
     1
102
RTVSPropertyOp1
 70
     1
102
RTVSPropertyOp2
 70
     1
102
RTVSPropertyOp3
 70
     1
102
RTVSPropertyOp4
 70
     1
102
RTVSPropertyOp5
 70
     1
102
RTVSPropertyOp6
 70
     1
102
RTVSPropertyOp7
 70
     1
102
RTVSPropertyOp8
 70
     1
102
RTVSPropertyOp9
 70
     1
102
RTVSPropertyOp10
 70
     1
102
RTVSPropertyOp11
 70
     1
102
RTVSPropertyOp12
 70
     1
102
RTVSPropertyOp13
 70
     1
102
RTVSPropertyOp14
 70
     1
102
RTVSPropertyOp15
 70
     1
102
RTVSPropertyOp16
 70
     1
102
RTVSPropertyOp17
 70
     1
102
RTVSPropertyOp18
 70
     1
102
RTVSPropertyOp19
 70
     1
102
RTVSPropertyOp20
 70
     1
102
RTVSPropertyOp21
 70
     1
102
RTVSPropertyOp22
 70
     1
102
RTVSPropertyOp23
 70
     1
102
RTVSPropertyOp24
 70
     1
102
RTVSPropertyOp25
 70
     1
102
RTVSPropertyOp26
 70
     1
102
RTVSPropertyOp27
 70
     1
102
RTVSPropertyOp28
 70
     1
102
RTVSPropertyOp29
 70
     1
102
RTVSPropertyOp30
 70
     1
102
RTVSPropertyOp31
 70
     1
102
RTVSPropertyOp32
 70
     1
102
RTVSPropertyOp33
 70
     1
102
RTVSPropertyOp34
 70
     1
102
RTVSPropertyOp35
 70
     1
102
RTVSPropertyOp36
 70
     1
102
RTVSPropertyOp37
 70
     1
102
RTVSPropertyOp38
 70
     1
102
RTVSPropertyOp39
 70
     1
102
RTVSPropertyOp40
 70
     1
102
RTVSPropertyOp41
 70
     1
102
RTVSPropertyOp42
 70
     1
102
RTVSPropertyOp43
 70
     1
102
RTVSPropertyOp44
 70
     1
102
RTVSPropertyOp45
 70
     1
102
RTVSPropertyOp46
 70
     1
102
RTVSPropertyOp47
 70
     1
102
RTVSPropertyOp48
 70
     1
102
RTVSPropertyOp49
 70
     1
102
RTVSPropertyOp50
 70
     1
102
RTVSPropertyOp51
 70
     0
102
RTVSPropertyOp52
 70
     0
102
RTVSPropertyOp53
 70
     1
102
RTVSPropertyOp54
 70
     1
102
RTVSPropertyOp55
 70
     1
102
RTVSPropertyOp56
 70
     1
102
RTVSPropertyOp57
 70
     1
102
RTVSPropertyOp58
 70
     1
102
RTVSPropertyOp59
 70
     1
102
RTVSPropertyOp60
 70
     1
102
RTVSPropertyOp61
 70
     1
102
RTVSPropertyOp62
 70
     1
  0
XRECORD
  5
6F8
102
{ACAD_REACTORS
330
6F7
102
}
330
6F7
100
AcDbXrecord
280
     1
102
RTVSPost2010Prop28
280
     0
102
RTVSPost2010PropOp28
 70
     1
102
RTVSPost2010Prop29
280
     1
102
RTVSPost2010PropOp29
 70
     1
102
RTVSPost2010Prop30
280
     1
102
RTVSPost2010PropOp30
 70
     1
102
RTVSPost2010Prop31
280
     0
102
RTVSPost2010PropOp31
 70
     1
102
RTVSPost2010Prop32
280
     0
102
RTVSPost2010PropOp32
 70
     1
102
RTVSPost2010Prop33
280
     0
102
RTVSPost2010PropOp33
 70
     1
102
RTVSPost2010Prop34
280
     0
102
RTVSPost2010PropOp34
 70
     1
102
RTVSPost2010Prop35
280
     0
102
RTVSPost2010PropOp35
 70
     1
102
RTVSPost2010Prop36
280
     0
102
RTVSPost2010PropOp36
 70
     1
102
RTVSPost2010Prop37
 90
       50
102
RTVSPost2010PropOp37
 70
     1
102
RTVSPost2010Prop38
140
0.0
102
RTVSPost2010PropOp38
 70
     1
102
RTVSPost2010Prop39
140
1.0
102
RTVSPost2010PropOp39
 70
     1
102
RTVSPost2010Prop40
 90
        0
102
RTVSPost2010PropOp40
 70
     1
102
RTVSPost2010Prop41ColorIndex
 90
       18
102
RTVSPost2010Prop41ColorRGB
 90
        0
102
RTVSPost2010PropOp41
 70
     1
102
RTVSPost2010Prop42
 90
       50
102
RTVSPost2010PropOp42
 70
     1
102
RTVSPost2010Prop43
 90
        3
102
RTVSPost2010PropOp43
 70
     1
102
RTVSPost2010Prop44ColorIndex
 90
        5
102
RTVSPost2010Prop44ColorRGB
 90
      255
102
RTVSPost2010PropOp44
 70
     1
102
RTVSPost2010Prop45
280
     0
102
RTVSPost2010PropOp45
 70
     1
102
RTVSPost2010Prop46
 90
       50
102
RTVSPost2010PropOp46
 70
     1
102
RTVSPost2010Prop47
 90
       50
102
RTVSPost2010PropOp47
 70
     1
102
RTVSPost2010Prop48
 90
       50
102
RTVSPost2010PropOp48
 70
     1
102
RTVSPost2010Prop49
280
     0
102
RTVSPost2010PropOp49
 70
     1
102
RTVSPost2010Prop50
 90
       50
102
RTVSPost2010PropOp50
 70
     1
102
RTVSPost2010Prop51ColorIndex
 90
      256
102
RTVSPost2010Prop51ColorRGB
 90
-16777216
102
RTVSPost2010PropOp51
 70
     0
102
RTVSPost2010Prop52
140
1.0
102
RTVSPost2010PropOp52
 70
     0
102
RTVSPost2010Prop53
 90
        2
102
RTVSPost2010PropOp53
 70
     1
102
RTVSPost2010Prop54
  1
strokes_ogs.tif
102
RTVSPost2010PropOp54
 70
     1
102
RTVSPost2010Prop55
280
     0
102
RTVSPost2010PropOp55
 70
     1
102
RTVSPost2010Prop56
140
1.0
102
RTVSPost2010PropOp56
 70
     1
102
RTVSPost2010Prop57
140
1.0
102
RTVSPost2010PropOp57
 70
     1
102
RTVSPropertyOp0
 70
     1
102
RTVSPropertyOp1
 70
     1
102
RTVSPropertyOp2
 70
     1
102
RTVSPropertyOp3
 70
     1
102
RTVSPropertyOp4
 70
     1
102
RTVSPropertyOp5
 70
     1
102
RTVSPropertyOp6
 70
     1
102
RTVSPropertyOp7
 70
     1
102
RTVSPropertyOp8
 70
     1
102
RTVSPropertyOp9
 70
     1
102
RTVSPropertyOp10
 70
     1
102
RTVSPropertyOp11
 70
     1
102
RTVSPropertyOp12
 70
     1
102
RTVSPropertyOp13
 70
     1
102
RTVSPropertyOp14
 70
     1
102
RTVSPropertyOp15
 70
     1
102
RTVSPropertyOp16
 70
     1
102
RTVSPropertyOp17
 70
     1
102
RTVSPropertyOp18
 70
     1
102
RTVSPropertyOp19
 70
     1
102
RTVSPropertyOp20
 70
     1
102
RTVSPropertyOp21
 70
     1
102
RTVSPropertyOp22
 70
     1
102
RTVSPropertyOp23
 70
     1
102
RTVSPropertyOp24
 70
     1
102
RTVSPropertyOp25
 70
     1
102
RTVSPropertyOp26
 70
     1
102
RTVSPropertyOp27
 70
     1
102
RTVSPropertyOp28
 70
     1
102
RTVSPropertyOp29
 70
     1
102
RTVSPropertyOp30
 70
     1
102
RTVSPropertyOp31
 70
     1
102
RTVSPropertyOp32
 70
     1
102
RTVSPropertyOp33
 70
     1
102
RTVSPropertyOp34
 70
     1
102
RTVSPropertyOp35
 70
     1
102
RTVSPropertyOp36
 70
     1
102
RTVSPropertyOp37
 70
     1
102
RTVSPropertyOp38
 70
     1
102
RTVSPropertyOp39
 70
     1
102
RTVSPropertyOp40
 70
     1
102
RTVSPropertyOp41
 70
     1
102
RTVSPropertyOp42
 70
     1
102
RTVSPropertyOp43
 70
     1
102
RTVSPropertyOp44
 70
     1
102
RTVSPropertyOp45
 70
     1
102
RTVSPropertyOp46
 70
     1
102
RTVSPropertyOp47
 70
     1
102
RTVSPropertyOp48
 70
     1
102
RTVSPropertyOp49
 70
     1
102
RTVSPropertyOp50
 70
     1
102
RTVSPropertyOp51
 70
     0
102
RTVSPropertyOp52
 70
     0
102
RTVSPropertyOp53
 70
     1
102
RTVSPropertyOp54
 70
     1
102
RTVSPropertyOp55
 70
     1
102
RTVSPropertyOp56
 70
     1
102
RTVSPropertyOp57
 70
     1
102
RTVSPropertyOp58
 70
     1
102
RTVSPropertyOp59
 70
     1
102
RTVSPropertyOp60
 70
     1
102
RTVSPropertyOp61
 70
     1
102
RTVSPropertyOp62
 70
     1
  0
ENDSEC
  0
EOF
