  0
SECTION
  2
HEADER
  9
$ACADVER
  1
AC1015
  9
$ACADMAINTVER
 70
    20
  9
$DWGCODEPAGE
  3
ANSI_932
  9
$INSBASE
 10
0.0
 20
0.0
 30
0.0
  9
$EXTMIN
 10
8.565441269805774
 20
1.168872198849271
 30
0.0
  9
$EXTMAX
 10
1344.530850727342
 20
1043.580276202827
 30
0.0
  9
$LIMMIN
 10
-293.2183227539062
 20
-299.0157356262207
  9
$LIMMAX
 10
844.3967590332031
 20
441.1802825927733
  9
$ORTHOMODE
 70
     0
  9
$REGENMODE
 70
     1
  9
$FILLMODE
 70
     1
  9
$QTEXTMODE
 70
     0
  9
$MIRRTEXT
 70
     1
  9
$LTSCALE
 40
0.1197458162082462
  9
$ATTMODE
 70
     1
  9
$TEXTSIZE
 40
2.5
  9
$TRACEWID
 40
1.0
  9
$TEXTSTYLE
  7
Standard
  9
$CLAYER
  8
0
  9
$CELTYPE
  6
ByLayer
  9
$CECOLOR
 62
   256
  9
$CELTSCALE
 40
1.0
  9
$DISPSILH
 70
     0
  9
$DIMSCALE
 40
1.0
  9
$DIMASZ
 40
2.5
  9
$DIMEXO
 40
0.625
  9
$DIMDLI
 40
3.75
  9
$DIMRND
 40
0.0
  9
$DIMDLE
 40
0.0
  9
$DIMEXE
 40
1.25
  9
$DIMTP
 40
0.0
  9
$DIMTM
 40
0.0
  9
$DIMTXT
 40
2.5
  9
$DIMCEN
 40
2.5
  9
$DIMTSZ
 40
0.0
  9
$DIMTOL
 70
     0
  9
$DIMLIM
 70
     0
  9
$DIMTIH
 70
     0
  9
$DIMTOH
 70
     0
  9
$DIMSE1
 70
     0
  9
$DIMSE2
 70
     0
  9
$DIMTAD
 70
     1
  9
$DIMZIN
 70
     0
  9
$DIMBLK
  1

  9
$DIMASO
 70
     1
  9
$DIMSHO
 70
     1
  9
$DIMPOST
  1

  9
$DIMAPOST
  1

  9
$DIMALT
 70
     0
  9
$DIMALTD
 70
     3
  9
$DIMALTF
 40
0.03937007874016
  9
$DIMLFAC
 40
1.0
  9
$DIMTOFL
 70
     1
  9
$DIMTVP
 40
0.0
  9
$DIMTIX
 70
     0
  9
$DIMSOXD
 70
     0
  9
$DIMSAH
 70
     0
  9
$DIMBLK1
  1

  9
$DIMBLK2
  1

  9
$DIMSTYLE
  2
Standard
  9
$DIMCLRD
 70
     0
  9
$DIMCLRE
 70
     0
  9
$DIMCLRT
 70
     0
  9
$DIMTFAC
 40
0.75
  9
$DIMGAP
 40
0.625
  9
$DIMJUST
 70
     0
  9
$DIMSD1
 70
     0
  9
$DIMSD2
 70
     0
  9
$DIMTOLJ
 70
     0
  9
$DIMTZIN
 70
     8
  9
$DIMALTZ
 70
     0
  9
$DIMALTTZ
 70
     0
  9
$DIMUPT
 70
     0
  9
$DIMDEC
 70
     2
  9
$DIMTDEC
 70
     2
  9
$DIMALTU
 70
     2
  9
$DIMALTTD
 70
     3
  9
$DIMTXSTY
  7
Standard
  9
$DIMAUNIT
 70
     0
  9
$DIMADEC
 70
     0
  9
$DIMALTRND
 40
0.0
  9
$DIMAZIN
 70
     0
  9
$DIMDSEP
 70
    46
  9
$DIMATFIT
 70
     3
  9
$DIMFRAC
 70
     0
  9
$DIMLDRBLK
  1

  9
$DIMLUNIT
 70
     2
  9
$DIMLWD
 70
    -2
  9
$DIMLWE
 70
    -2
  9
$DIMTMOVE
 70
     0
  9
$LUNITS
 70
     2
  9
$LUPREC
 70
     4
  9
$SKETCHINC
 40
1.0
  9
$FILLETRAD
 40
0.0
  9
$AUNITS
 70
     0
  9
$AUPREC
 70
     0
  9
$MENU
  1
.
  9
$ELEVATION
 40
0.0
  9
$PELEVATION
 40
0.0
  9
$THICKNESS
 40
0.0
  9
$LIMCHECK
 70
     0
  9
$CHAMFERA
 40
10.0
  9
$CHAMFERB
 40
10.0
  9
$CHAMFERC
 40
20.0
  9
$CHAMFERD
 40
0.0
  9
$SKPOLY
 70
     0
  9
$TDCREATE
 40
2455188.750000000
  9
$TDUCREATE
 40
2455188.375000000
  9
$TDUPDATE
 40
2459739.552114595
  9
$TDUUPDATE
 40
2459739.177114595
  9
$TDINDWG
 40
0.0045329167
  9
$TDUSRTIMER
 40
0.0045327431
  9
$USRTIMER
 70
     1
  9
$ANGBASE
 50
0.0
  9
$ANGDIR
 70
     0
  9
$PDMODE
 70
     0
  9
$PDSIZE
 40
0.0
  9
$PLINEWID
 40
0.0
  9
$SPLFRAME
 70
     0
  9
$SPLINETYPE
 70
     6
  9
$SPLINESEGS
 70
     8
  9
$HANDSEED
  5
4EF
  9
$SURFTAB1
 70
     6
  9
$SURFTAB2
 70
     6
  9
$SURFTYPE
 70
     6
  9
$SURFU
 70
     6
  9
$SURFV
 70
     6
  9
$UCSBASE
  2

  9
$UCSNAME
  2

  9
$UCSORG
 10
0.0
 20
0.0
 30
0.0
  9
$UCSXDIR
 10
1.0
 20
0.0
 30
0.0
  9
$UCSYDIR
 10
0.0
 20
1.0
 30
0.0
  9
$UCSORTHOREF
  2

  9
$UCSORTHOVIEW
 70
     0
  9
$UCSORGTOP
 10
0.0
 20
0.0
 30
0.0
  9
$UCSORGBOTTOM
 10
0.0
 20
0.0
 30
0.0
  9
$UCSORGLEFT
 10
0.0
 20
0.0
 30
0.0
  9
$UCSORGRIGHT
 10
0.0
 20
0.0
 30
0.0
  9
$UCSORGFRONT
 10
0.0
 20
0.0
 30
0.0
  9
$UCSORGBACK
 10
0.0
 20
0.0
 30
0.0
  9
$PUCSBASE
  2

  9
$PUCSNAME
  2

  9
$PUCSORG
 10
0.0
 20
0.0
 30
0.0
  9
$PUCSXDIR
 10
1.0
 20
0.0
 30
0.0
  9
$PUCSYDIR
 10
0.0
 20
1.0
 30
0.0
  9
$PUCSORTHOREF
  2

  9
$PUCSORTHOVIEW
 70
     0
  9
$PUCSORGTOP
 10
0.0
 20
0.0
 30
0.0
  9
$PUCSORGBOTTOM
 10
0.0
 20
0.0
 30
0.0
  9
$PUCSORGLEFT
 10
0.0
 20
0.0
 30
0.0
  9
$PUCSORGRIGHT
 10
0.0
 20
0.0
 30
0.0
  9
$PUCSORGFRONT
 10
0.0
 20
0.0
 30
0.0
  9
$PUCSORGBACK
 10
0.0
 20
0.0
 30
0.0
  9
$USERI1
 70
     0
  9
$USERI2
 70
     0
  9
$USERI3
 70
     0
  9
$USERI4
 70
     0
  9
$USERI5
 70
     0
  9
$USERR1
 40
0.0
  9
$USERR2
 40
0.0
  9
$USERR3
 40
0.0
  9
$USERR4
 40
0.0
  9
$USERR5
 40
0.0
  9
$WORLDVIEW
 70
     1
  9
$SHADEDGE
 70
     3
  9
$SHADEDIF
 70
    70
  9
$TILEMODE
 70
     1
  9
$MAXACTVP
 70
    64
  9
$PINSBASE
 10
0.0
 20
0.0
 30
0.0
  9
$PLIMCHECK
 70
     0
  9
$PEXTMIN
 10
1.000000000000000E+20
 20
1.000000000000000E+20
 30
1.000000000000000E+20
  9
$PEXTMAX
 10
-1.000000000000000E+20
 20
-1.000000000000000E+20
 30
-1.000000000000000E+20
  9
$PLIMMIN
 10
0.0
 20
0.0
  9
$PLIMMAX
 10
420.0
 20
297.0
  9
$UNITMODE
 70
     0
  9
$VISRETAIN
 70
     1
  9
$PLINEGEN
 70
     0
  9
$PSLTSCALE
 70
     1
  9
$TREEDEPTH
 70
  3020
  9
$CMLSTYLE
  2
Standard
  9
$CMLJUST
 70
     0
  9
$CMLSCALE
 40
20.0
  9
$PROXYGRAPHICS
 70
     1
  9
$MEASUREMENT
 70
     1
  9
$CELWEIGHT
370
    -1
  9
$ENDCAPS
280
     0
  9
$JOINSTYLE
280
     0
  9
$LWDISPLAY
290
     0
  9
$INSUNITS
 70
     4
  9
$HYPERLINKBASE
  1

  9
$STYLESHEET
  1

  9
$XEDIT
290
     1
  9
$CEPSNTYPE
380
     0
  9
$PSTYLEMODE
290
     1
  9
$FINGERPRINTGUID
  2
{654A37DF-9356-406C-8F04-DD13032AEAC6}
  9
$VERSIONGUID
  2
{48F80ECE-1F72-4257-8728-1E521E9839F9}
  9
$EXTNAMES
290
     1
  9
$PSVPSCALE
 40
0.0
  9
$OLESTARTUP
290
     0
  0
ENDSEC
  0
SECTION
  2
CLASSES
  0
CLASS
  1
ACDBDICTIONARYWDFLT
  2
AcDbDictionaryWithDefault
  3
ObjectDBX Classes
 90
        0
280
     0
281
     0
  0
CLASS
  1
VISUALSTYLE
  2
AcDbVisualStyle
  3
ObjectDBX Classes
 90
     4095
280
     0
281
     0
  0
CLASS
  1
MATERIAL
  2
AcDbMaterial
  3
ObjectDBX Classes
 90
     1153
280
     0
281
     0
  0
CLASS
  1
SCALE
  2
AcDbScale
  3
ObjectDBX Classes
 90
     1153
280
     0
281
     0
  0
CLASS
  1
TABLESTYLE
  2
AcDbTableStyle
  3
ObjectDBX Classes
 90
     4095
280
     0
281
     0
  0
CLASS
  1
MLEADERSTYLE
  2
AcDbMLeaderStyle
  3
ACDB_MLEADERSTYLE_CLASS
 90
     4095
280
     0
281
     0
  0
CLASS
  1
SUN
  2
AcDbSun
  3
SCENEOE
 90
    33921
280
     0
281
     0
  0
CLASS
  1
DICTIONARYVAR
  2
AcDbDictionaryVar
  3
ObjectDBX Classes
 90
        0
280
     0
281
     0
  0
CLASS
  1
ACDBSECTIONVIEWSTYLE
  2
AcDbSectionViewStyle
  3
ObjectDBX Classes
 90
     1025
280
     0
281
     0
  0
CLASS
  1
ACDBDETAILVIEWSTYLE
  2
AcDbDetailViewStyle
  3
ObjectDBX Classes
 90
     1025
280
     0
281
     0
  0
CLASS
  1
SORTENTSTABLE
  2
AcDbSortentsTable
  3
ObjectDBX Classes
 90
        0
280
     0
281
     0
  0
CLASS
  1
CELLSTYLEMAP
  2
AcDbCellStyleMap
  3
ObjectDBX Classes
 90
     1152
280
     0
281
     0
  0
CLASS
  1
ACDBPLACEHOLDER
  2
AcDbPlaceHolder
  3
ObjectDBX Classes
 90
        0
280
     0
281
     0
  0
CLASS
  1
LAYOUT
  2
AcDbLayout
  3
ObjectDBX Classes
 90
        0
280
     0
281
     0
  0
ENDSEC
  0
SECTION
  2
TABLES
  0
TABLE
  2
VPORT
  5
8
330
0
100
AcDbSymbolTable
 70
     1
  0
VPORT
  5
29
330
8
100
AcDbSymbolTableRecord
100
AcDbViewportTableRecord
  2
*Active
 70
     0
 10
0.0
 20
0.0
 11
1.0
 21
1.0
 12
691.613117370884
 22
341.9619522069906
 13
0.0
 23
0.0
 14
10.0
 24
10.0
 15
10.0
 25
10.0
 16
0.0
 26
0.0
 36
1.0
 17
0.0
 27
0.0
 37
0.0
 40
836.7243607629117
 41
2.204301075268817
 42
50.0
 43
0.0
 44
0.0
 50
0.0
 51
0.0
 71
     0
 72
 20000
 73
     1
 74
     3
 75
     0
 76
     0
 77
     0
 78
     0
281
     0
 65
     1
110
0.0
120
0.0
130
0.0
111
1.0
121
0.0
131
0.0
112
0.0
122
1.0
132
0.0
 79
     0
146
0.0
1001
ACAD_NAV_VCDISPLAY
1070
     3
  0
ENDTAB
  0
TABLE
  2
LTYPE
  5
5
330
0
100
AcDbSymbolTable
 70
     2
  0
LTYPE
  5
14
330
5
100
AcDbSymbolTableRecord
100
AcDbLinetypeTableRecord
  2
ByBlock
 70
     0
  3

 72
    65
 73
     0
 40
0.0
  0
LTYPE
  5
15
330
5
100
AcDbSymbolTableRecord
100
AcDbLinetypeTableRecord
  2
ByLayer
 70
     0
  3

 72
    65
 73
     0
 40
0.0
  0
LTYPE
  5
16
330
5
100
AcDbSymbolTableRecord
100
AcDbLinetypeTableRecord
  2
Continuous
 70
     0
  3
Solid line
 72
    65
 73
     0
 40
0.0
  0
LTYPE
  5
23E
330
5
100
AcDbSymbolTableRecord
100
AcDbLinetypeTableRecord
  2
CENTER2
 70
     0
  3
Center (.5x) ___ _ ___ _ ___ _ ___ _ ___ _ ___
 72
    65
 73
     4
 40
28.575
 49
19.05
 74
     0
 49
-3.174999999999998
 74
     0
 49
3.174999999999998
 74
     0
 49
-3.174999999999998
 74
     0
  0
ENDTAB
  0
TABLE
  2
LAYER
  5
2
102
{ACAD_XDICTIONARY
360
244
102
}
330
0
100
AcDbSymbolTable
 70
     4
  0
LAYER
  5
10
102
{ACAD_XDICTIONARY
360
45A
102
}
330
2
100
AcDbSymbolTableRecord
100
AcDbLayerTableRecord
  2
0
 70
     0
 62
     7
  6
Continuous
370
    -3
390
F
  0
LAYER
  5
66
330
2
100
AcDbSymbolTableRecord
100
AcDbLayerTableRecord
  2
Defpoints
 70
     0
 62
     7
  6
Continuous
290
     0
370
    -3
390
F
  0
LAYER
  5
23F
102
{ACAD_XDICTIONARY
360
240
102
}
330
2
100
AcDbSymbolTableRecord
100
AcDbLayerTableRecord
  2
中心線
 70
     0
 62
     3
  6
CENTER2
370
    -3
390
F
  0
LAYER
  5
241
102
{ACAD_XDICTIONARY
360
242
102
}
330
2
100
AcDbSymbolTableRecord
100
AcDbLayerTableRecord
  2
実線
 70
     0
 62
     7
  6
Continuous
370
    -3
390
F
  0
ENDTAB
  0
TABLE
  2
STYLE
  5
3
330
0
100
AcDbSymbolTable
 70
     1
  0
STYLE
  5
11
330
3
100
AcDbSymbolTableRecord
100
AcDbTextStyleTableRecord
  2
Standard
 70
     0
 40
0.0
 41
1.0
 50
0.0
 71
     0
 42
2.5
  3
txt
  4
extfont2
  0
ENDTAB
  0
TABLE
  2
VIEW
  5
6
330
0
100
AcDbSymbolTable
 70
     0
  0
ENDTAB
  0
TABLE
  2
UCS
  5
7
330
0
100
AcDbSymbolTable
 70
     0
  0
ENDTAB
  0
TABLE
  2
APPID
  5
9
330
0
100
AcDbSymbolTable
 70
     4
  0
APPID
  5
12
330
9
100
AcDbSymbolTableRecord
100
AcDbRegAppTableRecord
  2
ACAD
 70
     0
  0
APPID
  5
22E
330
9
100
AcDbSymbolTableRecord
100
AcDbRegAppTableRecord
  2
ACAD_MLEADERVER
 70
     0
  0
APPID
  5
243
330
9
100
AcDbSymbolTableRecord
100
AcDbRegAppTableRecord
  2
ACAD_NAV_VCDISPLAY
 70
     0
  0
APPID
  5
447
330
9
100
AcDbSymbolTableRecord
100
AcDbRegAppTableRecord
  2
ACAD_EXEMPT_FROM_CAD_STANDARDS
 70
     0
  0
ENDTAB
  0
TABLE
  2
DIMSTYLE
  5
A
330
0
100
AcDbSymbolTable
 70
     1
100
AcDbDimStyleTable
 71
     1
340
27
  0
DIMSTYLE
105
27
330
A
100
AcDbSymbolTableRecord
100
AcDbDimStyleTableRecord
  2
Standard
 70
     0
 41
2.5
 42
0.625
 43
3.75
 44
1.25
 73
     0
 74
     0
 77
     1
140
2.5
141
2.5
143
0.03937007874016
146
0.75
147
0.625
171
     3
172
     1
271
     2
272
     2
274
     3
283
     0
284
     8
340
11
  0
ENDTAB
  0
TABLE
  2
BLOCK_RECORD
  5
1
330
0
100
AcDbSymbolTable
 70
     1
  0
BLOCK_RECORD
  5
1F
102
{ACAD_XDICTIONARY
360
301
102
}
330
1
100
AcDbSymbolTableRecord
100
AcDbBlockTableRecord
  2
*Model_Space
340
22
  0
BLOCK_RECORD
  5
1B
330
1
100
AcDbSymbolTableRecord
100
AcDbBlockTableRecord
  2
*Paper_Space
340
1E
  0
BLOCK_RECORD
  5
23
330
1
100
AcDbSymbolTableRecord
100
AcDbBlockTableRecord
  2
*Paper_Space0
340
238
  0
ENDTAB
  0
ENDSEC
  0
SECTION
  2
BLOCKS
  0
BLOCK
  5
20
330
1F
100
AcDbEntity
  8
0
100
AcDbBlockBegin
  2
*Model_Space
 70
     0
 10
0.0
 20
0.0
 30
0.0
  3
*Model_Space
  1

  0
ENDBLK
  5
21
330
1F
100
AcDbEntity
  8
0
100
AcDbBlockEnd
  0
BLOCK
  5
1C
330
1B
100
AcDbEntity
 67
     1
  8
0
100
AcDbBlockBegin
  2
*Paper_Space
 70
     0
 10
0.0
 20
0.0
 30
0.0
  3
*Paper_Space
  1

  0
ENDBLK
  5
1D
330
1B
100
AcDbEntity
 67
     1
  8
0
100
AcDbBlockEnd
  0
BLOCK
  5
24
330
23
100
AcDbEntity
 67
     1
  8
0
100
AcDbBlockBegin
  2
*Paper_Space0
 70
     0
 10
0.0
 20
0.0
 30
0.0
  3
*Paper_Space0
  1

  0
ENDBLK
  5
25
330
23
100
AcDbEntity
 67
     1
  8
0
100
AcDbBlockEnd
  0
ENDSEC
  0
SECTION
  2
ENTITIES
  0
LINE
  5
2D6
102
{ACAD_REACTORS
330
4A6
102
}
330
1F
100
AcDbEntity
  8
実線
100
AcDbLine
 10
226.5654412698059
 20
473.4688721988492
 30
0.0
 11
235.635110398589
 21
473.4688721988492
 31
0.0
  0
LINE
  5
2D7
102
{ACAD_REACTORS
330
4A6
102
}
330
1F
100
AcDbEntity
  8
実線
100
AcDbLine
 10
235.635110398589
 20
498.8688721988491
 30
0.0
 11
226.5654412698059
 21
498.8688721988491
 31
0.0
  0
LINE
  5
2D8
102
{ACAD_REACTORS
330
4A6
102
}
330
1F
100
AcDbEntity
  8
実線
100
AcDbLine
 10
218.5654412698059
 20
460.9188721988494
 30
0.0
 11
221.4154412698059
 21
460.9188721988494
 31
0.0
  0
LINE
  5
2D9
102
{ACAD_REACTORS
330
4A6
102
}
330
1F
100
AcDbEntity
  8
実線
100
AcDbLine
 10
221.4154412698059
 20
511.4188721988491
 30
0.0
 11
218.5654412698059
 21
511.4188721988491
 31
0.0
  0
LINE
  5
2DA
102
{ACAD_REACTORS
330
4A6
102
}
330
1F
100
AcDbEntity
  8
実線
100
AcDbLine
 10
218.5654412698059
 20
511.4188721988491
 30
0.0
 11
218.5654412698059
 21
460.9188721988494
 31
0.0
  0
LINE
  5
2DB
102
{ACAD_REACTORS
330
4A6
102
}
330
1F
100
AcDbEntity
  8
実線
100
AcDbLine
 10
226.5654412698059
 20
498.8688721988491
 30
0.0
 11
221.4154412698059
 21
511.4188721988491
 31
0.0
  0
LINE
  5
2DC
102
{ACAD_REACTORS
330
4A6
102
}
330
1F
100
AcDbEntity
  8
実線
100
AcDbLine
 10
221.4154412698059
 20
460.9188721988494
 30
0.0
 11
226.5654412698059
 21
473.4688721988492
 31
0.0
  0
LINE
  5
2DD
102
{ACAD_REACTORS
330
4A6
102
}
330
1F
100
AcDbEntity
  8
実線
100
AcDbLine
 10
221.4154412698059
 20
511.4188721988491
 30
0.0
 11
221.4154412698059
 21
460.9188721988494
 31
0.0
  0
LINE
  5
2DE
102
{ACAD_REACTORS
330
4A6
102
}
330
1F
100
AcDbEntity
  8
実線
100
AcDbLine
 10
226.5654412698059
 20
498.8688721988491
 30
0.0
 11
226.5654412698059
 21
473.4688721988492
 31
0.0
  0
LINE
  5
2DF
102
{ACAD_REACTORS
330
4A6
102
}
330
1F
100
AcDbEntity
  8
実線
100
AcDbLine
 10
267.2813338164078
 20
477.8653609550316
 30
0.0
 11
292.2486618950426
 21
476.5876565237141
 31
0.0
  0
LINE
  5
2E0
102
{ACAD_REACTORS
330
4A6
102
}
330
1F
100
AcDbEntity
  8
実線
100
AcDbLine
 10
267.2813338164078
 20
477.8653609550316
 30
0.0
 11
266.8775792161115
 21
469.9756852821832
 31
0.0
  0
LINE
  5
2E1
102
{ACAD_REACTORS
330
4A6
102
}
330
1F
100
AcDbEntity
  8
実線
100
AcDbLine
 10
291.8449072947463
 20
468.6979808508655
 30
0.0
 11
292.2486618950426
 21
476.5876565237141
 31
0.0
  0
LINE
  5
2E2
102
{ACAD_REACTORS
330
4A6
102
}
330
1F
100
AcDbEntity
  8
実線
100
AcDbLine
 10
298.4616276294606
 20
470.8125758504292
 30
0.0
 11
298.6149521612187
 21
473.8086552198656
 31
0.0
  0
LINE
  5
2E3
102
{ACAD_REACTORS
330
4A6
102
}
330
1F
100
AcDbEntity
  8
実線
100
AcDbLine
 10
291.9701223290155
 20
471.1447790025719
 30
0.0
 11
298.4616276294606
 21
470.8125758504292
 31
0.0
  0
LINE
  5
2E4
102
{ACAD_REACTORS
330
4A6
102
}
330
1F
100
AcDbEntity
  8
実線
100
AcDbLine
 10
298.6149521612187
 20
473.8086552198656
 30
0.0
 11
292.1234468607736
 21
474.140858372008
 31
0.0
  0
LINE
  5
2E5
102
{ACAD_REACTORS
330
4A6
102
}
330
1F
100
AcDbEntity
  8
実線
100
AcDbLine
 10
266.8162494034082
 20
468.7772535344082
 30
0.0
 11
266.8775792161115
 21
469.9756852821832
 31
0.0
  0
LINE
  5
2E6
102
{ACAD_REACTORS
330
4A6
102
}
330
1F
100
AcDbEntity
  8
実線
100
AcDbLine
 10
266.8775792161115
 20
469.9756852821832
 30
0.0
 11
296.8383729104733
 21
468.4424399646019
 31
0.0
  0
LINE
  5
2E7
102
{ACAD_REACTORS
330
4A6
102
}
330
1F
100
AcDbEntity
  8
実線
100
AcDbLine
 10
296.77704309777
 20
467.2440082168275
 30
0.0
 11
266.8162494034082
 21
468.7772535344082
 31
0.0
  0
LINE
  5
2E8
102
{ACAD_REACTORS
330
4A6
102
}
330
1F
100
AcDbEntity
  8
実線
100
AcDbLine
 10
296.8383729104733
 20
468.4424399646019
 30
0.0
 11
296.77704309777
 21
467.2440082168275
 31
0.0
  0
CIRCLE
  5
2E9
102
{ACAD_REACTORS
330
4A6
102
}
330
1F
100
AcDbEntity
  8
実線
100
AcDbCircle
 10
273.5654412698058
 20
486.1688721988493
 30
0.0
 40
8.0
  0
LINE
  5
2EA
102
{ACAD_REACTORS
330
4A6
102
}
330
1F
100
AcDbEntity
  8
実線
100
AcDbLine
 10
320.5654412698061
 20
498.8688721988493
 30
0.0
 11
311.4957721410228
 21
498.8688721988493
 31
0.0
  0
LINE
  5
2EB
102
{ACAD_REACTORS
330
4A6
102
}
330
1F
100
AcDbEntity
  8
実線
100
AcDbLine
 10
311.4957721410228
 20
473.4688721988492
 30
0.0
 11
320.5654412698061
 21
473.4688721988492
 31
0.0
  0
LINE
  5
2EC
102
{ACAD_REACTORS
330
4A6
102
}
330
1F
100
AcDbEntity
  8
実線
100
AcDbLine
 10
320.5654412698061
 20
473.4688721988492
 30
0.0
 11
325.7154412698057
 21
460.9188721988494
 31
0.0
  0
LINE
  5
2ED
102
{ACAD_REACTORS
330
4A6
102
}
330
1F
100
AcDbEntity
  8
実線
100
AcDbLine
 10
325.7154412698057
 20
511.4188721988491
 30
0.0
 11
320.5654412698061
 21
498.8688721988493
 31
0.0
  0
LINE
  5
2EE
102
{ACAD_REACTORS
330
4A6
102
}
330
1F
100
AcDbEntity
  8
実線
100
AcDbLine
 10
320.5654412698061
 20
473.4688721988492
 30
0.0
 11
320.5654412698061
 21
498.8688721988493
 31
0.0
  0
LINE
  5
2EF
102
{ACAD_REACTORS
330
4A6
102
}
330
1F
100
AcDbEntity
  8
実線
100
AcDbLine
 10
328.5654412698061
 20
511.4188721988491
 30
0.0
 11
325.7154412698057
 21
511.4188721988491
 31
0.0
  0
LINE
  5
2F0
102
{ACAD_REACTORS
330
4A6
102
}
330
1F
100
AcDbEntity
  8
実線
100
AcDbLine
 10
325.7154412698057
 20
460.9188721988494
 30
0.0
 11
328.5654412698061
 21
460.9188721988494
 31
0.0
  0
LINE
  5
2F1
102
{ACAD_REACTORS
330
4A6
102
}
330
1F
100
AcDbEntity
  8
実線
100
AcDbLine
 10
328.5654412698061
 20
460.9188721988494
 30
0.0
 11
328.5654412698061
 21
511.4188721988491
 31
0.0
  0
LINE
  5
2F2
102
{ACAD_REACTORS
330
4A6
102
}
330
1F
100
AcDbEntity
  8
実線
100
AcDbLine
 10
325.7154412698057
 20
460.9188721988494
 30
0.0
 11
325.7154412698057
 21
511.4188721988491
 31
0.0
  0
LINE
  5
2F3
102
{ACAD_REACTORS
330
4A6
102
}
330
1F
100
AcDbEntity
  8
実線
100
AcDbLine
 10
266.3409433549581
 20
459.4894074891564
 30
0.0
 11
266.8162494034082
 21
468.7772535344082
 31
0.0
  0
LINE
  5
2F4
102
{ACAD_REACTORS
330
4A6
102
}
330
1F
100
AcDbEntity
  8
実線
100
AcDbLine
 10
276.327874586412
 20
458.9783257166292
 30
0.0
 11
266.3409433549581
 21
459.4894074891564
 31
0.0
  0
CIRCLE
  5
2F7
102
{ACAD_REACTORS
330
4A6
102
}
330
1F
100
AcDbEntity
  8
実線
100
AcDbCircle
 10
270.7654412698059
 20
463.7688721988491
 30
0.0
 40
2.0
  0
LINE
  5
2F8
102
{ACAD_REACTORS
330
4A6
102
}
330
1F
100
AcDbEntity
  8
実線
100
AcDbLine
 10
276.8031806348621
 20
468.2661717618815
 30
0.0
 11
276.327874586412
 21
458.9783257166292
 31
0.0
  0
LINE
  5
2F9
102
{ACAD_REACTORS
330
4A6
102
}
330
1F
100
AcDbEntity
  8
実線
100
AcDbLine
 10
296.9635879447425
 20
470.8892381163082
 30
0.0
 11
296.8383729104733
 21
468.4424399646019
 31
0.0
  0
LINE
  5
2FA
102
{ACAD_REACTORS
330
4A6
102
}
330
1F
100
AcDbEntity
  8
実線
100
AcDbLine
 10
297.323900594374
 20
477.9300246344831
 30
0.0
 11
297.1169124765006
 21
473.8853174857443
 31
0.0
  0
ARC
  5
2FD
102
{ACAD_REACTORS
330
4A6
102
}
330
1F
100
AcDbEntity
  8
実線
100
AcDbCircle
 10
292.9249567681526
 20
474.1499064863631
 30
0.0
 40
2.0
100
AcDbArc
 50
355.6378971050011
 51
110.6486193207728
  0
LINE
  5
2FE
102
{ACAD_REACTORS
330
4A6
102
}
330
1F
100
AcDbEntity
  8
実線
100
AcDbLine
 10
287.2551962793155
 20
476.8431974099776
 30
0.0
 11
287.33696936292
 21
478.4411064070103
 31
0.0
  0
LINE
  5
2FF
102
{ACAD_REACTORS
330
4A6
102
}
330
1F
100
AcDbEntity
  8
実線
100
AcDbLine
 10
287.33696936292
 20
478.4411064070103
 30
0.0
 11
297.323900594374
 21
477.9300246344831
 31
0.0
  0
CIRCLE
  5
300
102
{ACAD_REACTORS
330
4A6
102
}
330
1F
100
AcDbEntity
  8
実線
100
AcDbCircle
 10
273.5654412698058
 20
486.1688721988493
 30
0.0
 40
40.0
  0
CIRCLE
  5
303
102
{ACAD_REACTORS
330
454
102
}
330
1F
100
AcDbEntity
  8
実線
100
AcDbCircle
 10
273.5654412698058
 20
46.16887219884927
 30
0.0
 40
25.25
  0
LINE
  5
304
102
{ACAD_REACTORS
330
454
102
}
330
1F
100
AcDbEntity
  8
実線
100
AcDbLine
 10
226.5654412698059
 20
33.46887219884929
 30
0.0
 11
245.5654412698058
 21
33.46887219884929
 31
0.0
  0
LINE
  5
305
102
{ACAD_REACTORS
330
454
102
}
330
1F
100
AcDbEntity
  8
実線
100
AcDbLine
 10
245.5654412698058
 20
58.86887219884926
 30
0.0
 11
226.5654412698059
 21
58.86887219884926
 31
0.0
  0
LINE
  5
306
102
{ACAD_REACTORS
330
454
102
}
330
1F
100
AcDbEntity
  8
実線
100
AcDbLine
 10
226.5654412698059
 20
33.46887219884929
 30
0.0
 11
226.5654412698059
 21
58.86887219884926
 31
0.0
  0
LINE
  5
307
102
{ACAD_REACTORS
330
454
102
}
330
1F
100
AcDbEntity
  8
実線
100
AcDbLine
 10
226.5654412698059
 20
58.86887219884926
 30
0.0
 11
221.4154412698059
 21
71.41887219884927
 31
0.0
  0
LINE
  5
308
102
{ACAD_REACTORS
330
454
102
}
330
1F
100
AcDbEntity
  8
実線
100
AcDbLine
 10
221.4154412698059
 20
20.91887219884927
 30
0.0
 11
226.5654412698059
 21
33.46887219884929
 31
0.0
  0
LINE
  5
309
102
{ACAD_REACTORS
330
454
102
}
330
1F
100
AcDbEntity
  8
実線
100
AcDbLine
 10
218.5654412698059
 20
20.91887219884927
 30
0.0
 11
218.5654412698059
 21
71.41887219884927
 31
0.0
  0
LINE
  5
30A
102
{ACAD_REACTORS
330
454
102
}
330
1F
100
AcDbEntity
  8
実線
100
AcDbLine
 10
221.4154412698059
 20
20.91887219884927
 30
0.0
 11
221.4154412698059
 21
71.41887219884927
 31
0.0
  0
LINE
  5
30B
102
{ACAD_REACTORS
330
454
102
}
330
1F
100
AcDbEntity
  8
実線
100
AcDbLine
 10
218.5654412698059
 20
20.91887219884927
 30
0.0
 11
221.4154412698059
 21
20.91887219884927
 31
0.0
  0
LINE
  5
30C
102
{ACAD_REACTORS
330
454
102
}
330
1F
100
AcDbEntity
  8
実線
100
AcDbLine
 10
221.4154412698059
 20
71.41887219884927
 30
0.0
 11
218.5654412698059
 21
71.41887219884927
 31
0.0
  0
LINE
  5
30D
102
{ACAD_REACTORS
330
454
102
}
330
1F
100
AcDbEntity
  8
実線
100
AcDbLine
 10
320.5654412698061
 20
58.86887219884926
 30
0.0
 11
301.5654412698059
 21
58.86887219884926
 31
0.0
  0
LINE
  5
30E
102
{ACAD_REACTORS
330
454
102
}
330
1F
100
AcDbEntity
  8
実線
100
AcDbLine
 10
301.5654412698059
 20
33.46887219884923
 30
0.0
 11
320.5654412698061
 21
33.46887219884923
 31
0.0
  0
LINE
  5
30F
102
{ACAD_REACTORS
330
454
102
}
330
1F
100
AcDbEntity
  8
実線
100
AcDbLine
 10
320.5654412698061
 20
58.86887219884926
 30
0.0
 11
320.5654412698061
 21
33.46887219884923
 31
0.0
  0
LINE
  5
310
102
{ACAD_REACTORS
330
454
102
}
330
1F
100
AcDbEntity
  8
実線
100
AcDbLine
 10
320.5654412698061
 20
33.46887219884923
 30
0.0
 11
325.7154412698057
 21
20.91887219884927
 31
0.0
  0
LINE
  5
311
102
{ACAD_REACTORS
330
454
102
}
330
1F
100
AcDbEntity
  8
実線
100
AcDbLine
 10
325.7154412698057
 20
71.41887219884927
 30
0.0
 11
320.5654412698061
 21
58.86887219884926
 31
0.0
  0
LINE
  5
312
102
{ACAD_REACTORS
330
454
102
}
330
1F
100
AcDbEntity
  8
実線
100
AcDbLine
 10
328.5654412698061
 20
71.41887219884927
 30
0.0
 11
328.5654412698061
 21
20.91887219884927
 31
0.0
  0
LINE
  5
313
102
{ACAD_REACTORS
330
454
102
}
330
1F
100
AcDbEntity
  8
実線
100
AcDbLine
 10
325.7154412698057
 20
71.41887219884927
 30
0.0
 11
325.7154412698057
 21
20.91887219884927
 31
0.0
  0
LINE
  5
314
102
{ACAD_REACTORS
330
454
102
}
330
1F
100
AcDbEntity
  8
実線
100
AcDbLine
 10
328.5654412698061
 20
71.41887219884927
 30
0.0
 11
325.7154412698057
 21
71.41887219884927
 31
0.0
  0
LINE
  5
315
102
{ACAD_REACTORS
330
454
102
}
330
1F
100
AcDbEntity
  8
実線
100
AcDbLine
 10
325.7154412698057
 20
20.91887219884927
 30
0.0
 11
328.5654412698061
 21
20.91887219884927
 31
0.0
  0
ARC
  5
316
102
{ACAD_REACTORS
330
454
102
}
330
1F
100
AcDbEntity
  8
実線
100
AcDbCircle
 10
273.5654412698058
 20
46.16887219884927
 30
0.0
 40
40.0
100
AcDbArc
 50
18.51180266809855
 51
161.4881973319014
  0
ARC
  5
317
102
{ACAD_REACTORS
330
454
102
}
330
1F
100
AcDbEntity
  8
実線
100
AcDbCircle
 10
273.5654412698058
 20
46.16887219884927
 30
0.0
 40
40.0
100
AcDbArc
 50
198.5118026680986
 51
341.4881973319014
  0
LINE
  5
318
102
{ACAD_REACTORS
330
454
102
}
330
1F
100
AcDbEntity
  8
実線
100
AcDbLine
 10
301.5654412698059
 20
18.16887219884927
 30
0.0
 11
301.8497125172678
 21
17.88460095138743
 31
0.0
  0
LINE
  5
319
102
{ACAD_REACTORS
330
454
102
}
330
1F
100
AcDbEntity
  8
実線
100
AcDbLine
 10
301.8497125172678
 20
74.45314344631123
 30
0.0
 11
301.5654412698059
 21
74.16887219884927
 31
0.0
  0
LINE
  5
31A
102
{ACAD_REACTORS
330
454
102
}
330
1F
100
AcDbEntity
  8
実線
100
AcDbLine
 10
245.5654412698058
 20
18.16887219884927
 30
0.0
 11
245.2811700223439
 21
17.88460095138743
 31
0.0
  0
LINE
  5
31B
102
{ACAD_REACTORS
330
454
102
}
330
1F
100
AcDbEntity
  8
実線
100
AcDbLine
 10
245.5654412698058
 20
74.16887219884927
 30
0.0
 11
245.2811700223439
 21
74.45314344631123
 31
0.0
  0
LINE
  5
31C
102
{ACAD_REACTORS
330
454
102
}
330
1F
100
AcDbEntity
  8
実線
100
AcDbLine
 10
301.5654412698059
 20
74.16887219884927
 30
0.0
 11
301.5654412698059
 21
18.16887219884927
 31
0.0
  0
LINE
  5
31D
102
{ACAD_REACTORS
330
454
102
}
330
1F
100
AcDbEntity
  8
実線
100
AcDbLine
 10
301.5654412698059
 20
74.16887219884927
 30
0.0
 11
245.5654412698058
 21
74.16887219884927
 31
0.0
  0
LINE
  5
31E
102
{ACAD_REACTORS
330
454
102
}
330
1F
100
AcDbEntity
  8
実線
100
AcDbLine
 10
245.5654412698058
 20
74.16887219884927
 30
0.0
 11
245.5654412698058
 21
18.16887219884927
 31
0.0
  0
LINE
  5
31F
102
{ACAD_REACTORS
330
454
102
}
330
1F
100
AcDbEntity
  8
実線
100
AcDbLine
 10
245.5654412698058
 20
18.16887219884927
 30
0.0
 11
301.5654412698059
 21
18.16887219884927
 31
0.0
  0
ARC
  5
320
102
{ACAD_REACTORS
330
454
102
}
330
1F
100
AcDbEntity
  8
実線
100
AcDbCircle
 10
299.7786447054023
 20
75.16887219884927
 30
0.0
 40
15.0
100
AcDbArc
 50
245.8534358366481
 51
270.0
  0
LINE
  5
321
102
{ACAD_REACTORS
330
454
102
}
330
1F
100
AcDbEntity
  8
実線
100
AcDbLine
 10
285.1082212815701
 20
68.62609218708496
 30
0.0
 11
279.5654412698059
 21
74.16887219884927
 31
0.0
  0
LINE
  5
322
102
{ACAD_REACTORS
330
454
102
}
330
1F
100
AcDbEntity
  8
実線
100
AcDbLine
 10
262.0226612580416
 20
68.62609218708496
 30
0.0
 11
267.5654412698059
 21
74.16887219884927
 31
0.0
  0
ARC
  5
323
102
{ACAD_REACTORS
330
454
102
}
330
1F
100
AcDbEntity
  8
実線
100
AcDbCircle
 10
247.3522378342094
 20
75.16887219884927
 30
0.0
 40
15.0
100
AcDbArc
 50
270.0
 51
294.1465641633519
  0
LINE
  5
324
102
{ACAD_REACTORS
330
454
102
}
330
1F
100
AcDbEntity
  8
実線
100
AcDbLine
 10
245.5654412698058
 20
60.16887219884927
 30
0.0
 11
247.3522378342094
 21
60.16887219884927
 31
0.0
  0
LINE
  5
325
102
{ACAD_REACTORS
330
454
102
}
330
1F
100
AcDbEntity
  8
実線
100
AcDbLine
 10
245.5654412698058
 20
32.16887219884927
 30
0.0
 11
247.3522378342094
 21
32.16887219884927
 31
0.0
  0
ARC
  5
326
102
{ACAD_REACTORS
330
454
102
}
330
1F
100
AcDbEntity
  8
実線
100
AcDbCircle
 10
247.3522378342094
 20
17.16887219884927
 30
0.0
 40
15.0
100
AcDbArc
 50
65.85343583664812
 51
90.0
  0
LINE
  5
327
102
{ACAD_REACTORS
330
454
102
}
330
1F
100
AcDbEntity
  8
実線
100
AcDbLine
 10
262.0226612580416
 20
23.71165221061346
 30
0.0
 11
267.5654412698059
 21
18.16887219884927
 31
0.0
  0
LINE
  5
328
102
{ACAD_REACTORS
330
454
102
}
330
1F
100
AcDbEntity
  8
実線
100
AcDbLine
 10
285.1082212815701
 20
23.71165221061346
 30
0.0
 11
279.5654412698059
 21
18.16887219884927
 31
0.0
  0
ARC
  5
329
102
{ACAD_REACTORS
330
454
102
}
330
1F
100
AcDbEntity
  8
実線
100
AcDbCircle
 10
299.7786447054023
 20
17.16887219884927
 30
0.0
 40
15.0
100
AcDbArc
 50
90.0
 51
114.1465641633519
  0
LINE
  5
32A
102
{ACAD_REACTORS
330
454
102
}
330
1F
100
AcDbEntity
  8
実線
100
AcDbLine
 10
301.5654412698059
 20
32.16887219884927
 30
0.0
 11
299.7786447054023
 21
32.16887219884927
 31
0.0
  0
LINE
  5
32B
102
{ACAD_REACTORS
330
454
102
}
330
1F
100
AcDbEntity
  8
実線
100
AcDbLine
 10
301.5654412698059
 20
60.16887219884927
 30
0.0
 11
299.7786447054023
 21
60.16887219884927
 31
0.0
  0
LINE
  5
32C
102
{ACAD_REACTORS
330
455
102
}
330
1F
100
AcDbEntity
  8
実線
100
AcDbLine
 10
726.2654412698061
 20
159.1688721988494
 30
0.0
 11
726.2654412698061
 21
191.6688721988494
 31
0.0
  0
LINE
  5
32D
102
{ACAD_REACTORS
330
455
102
}
330
1F
100
AcDbEntity
  8
実線
100
AcDbLine
 10
700.8654412698062
 20
191.6688721988494
 30
0.0
 11
700.8654412698062
 21
159.1688721988494
 31
0.0
  0
LINE
  5
32E
102
{ACAD_REACTORS
330
455
102
}
330
1F
100
AcDbEntity
  8
実線
100
AcDbLine
 10
688.3154412698059
 20
151.1688721988494
 30
0.0
 11
738.8154412698059
 21
151.1688721988494
 31
0.0
  0
LINE
  5
32F
102
{ACAD_REACTORS
330
455
102
}
330
1F
100
AcDbEntity
  8
実線
100
AcDbLine
 10
738.8154412698059
 20
151.1688721988494
 30
0.0
 11
738.8154412698059
 21
154.0188721988494
 31
0.0
  0
LINE
  5
330
102
{ACAD_REACTORS
330
455
102
}
330
1F
100
AcDbEntity
  8
実線
100
AcDbLine
 10
688.3154412698059
 20
154.0188721988494
 30
0.0
 11
688.3154412698059
 21
151.1688721988494
 31
0.0
  0
LINE
  5
331
102
{ACAD_REACTORS
330
455
102
}
330
1F
100
AcDbEntity
  8
実線
100
AcDbLine
 10
688.3154412698059
 20
154.0188721988494
 30
0.0
 11
738.8154412698059
 21
154.0188721988494
 31
0.0
  0
LINE
  5
332
102
{ACAD_REACTORS
330
455
102
}
330
1F
100
AcDbEntity
  8
実線
100
AcDbLine
 10
700.8654412698062
 20
159.1688721988494
 30
0.0
 11
726.2654412698061
 21
159.1688721988494
 31
0.0
  0
LINE
  5
333
102
{ACAD_REACTORS
330
455
102
}
330
1F
100
AcDbEntity
  8
実線
100
AcDbLine
 10
700.8654412698062
 20
159.1688721988494
 30
0.0
 11
688.3154412698059
 21
154.0188721988494
 31
0.0
  0
LINE
  5
334
102
{ACAD_REACTORS
330
455
102
}
330
1F
100
AcDbEntity
  8
実線
100
AcDbLine
 10
738.8154412698059
 20
154.0188721988494
 30
0.0
 11
726.2654412698061
 21
159.1688721988494
 31
0.0
  0
LINE
  5
335
102
{ACAD_REACTORS
330
455
102
}
330
1F
100
AcDbEntity
  8
実線
100
AcDbLine
 10
760.565441269806
 20
218.8688721988493
 30
0.0
 11
741.565441269806
 21
218.8688721988493
 31
0.0
  0
LINE
  5
336
102
{ACAD_REACTORS
330
455
102
}
330
1F
100
AcDbEntity
  8
実線
100
AcDbLine
 10
741.565441269806
 20
193.4688721988492
 30
0.0
 11
760.565441269806
 21
193.4688721988492
 31
0.0
  0
LINE
  5
337
102
{ACAD_REACTORS
330
455
102
}
330
1F
100
AcDbEntity
  8
実線
100
AcDbLine
 10
768.5654412698059
 20
180.9188721988494
 30
0.0
 11
768.5654412698059
 21
231.4188721988494
 31
0.0
  0
LINE
  5
338
102
{ACAD_REACTORS
330
455
102
}
330
1F
100
AcDbEntity
  8
実線
100
AcDbLine
 10
768.5654412698059
 20
231.4188721988494
 30
0.0
 11
765.715441269806
 21
231.4188721988494
 31
0.0
  0
LINE
  5
339
102
{ACAD_REACTORS
330
455
102
}
330
1F
100
AcDbEntity
  8
実線
100
AcDbLine
 10
765.715441269806
 20
180.9188721988494
 30
0.0
 11
768.5654412698059
 21
180.9188721988494
 31
0.0
  0
LINE
  5
33A
102
{ACAD_REACTORS
330
455
102
}
330
1F
100
AcDbEntity
  8
実線
100
AcDbLine
 10
765.715441269806
 20
180.9188721988494
 30
0.0
 11
765.715441269806
 21
231.4188721988494
 31
0.0
  0
LINE
  5
33B
102
{ACAD_REACTORS
330
455
102
}
330
1F
100
AcDbEntity
  8
実線
100
AcDbLine
 10
760.565441269806
 20
193.4688721988492
 30
0.0
 11
760.565441269806
 21
218.8688721988493
 31
0.0
  0
LINE
  5
33C
102
{ACAD_REACTORS
330
455
102
}
330
1F
100
AcDbEntity
  8
実線
100
AcDbLine
 10
760.565441269806
 20
193.4688721988492
 30
0.0
 11
765.715441269806
 21
180.9188721988494
 31
0.0
  0
LINE
  5
33D
102
{ACAD_REACTORS
330
455
102
}
330
1F
100
AcDbEntity
  8
実線
100
AcDbLine
 10
765.715441269806
 20
231.4188721988494
 30
0.0
 11
760.565441269806
 21
218.8688721988493
 31
0.0
  0
LINE
  5
33E
102
{ACAD_REACTORS
330
455
102
}
330
1F
100
AcDbEntity
  8
実線
100
AcDbLine
 10
720.2533033235
 20
344.8188721988493
 30
0.0
 11
719.5654412698059
 21
344.8188721988493
 31
0.0
  0
LINE
  5
33F
102
{ACAD_REACTORS
330
455
102
}
330
1F
100
AcDbEntity
  8
実線
100
AcDbLine
 10
720.2533033235
 20
352.7188721988492
 30
0.0
 11
694.8822206445692
 21
352.7188721988492
 31
0.0
  0
LINE
  5
340
102
{ACAD_REACTORS
330
455
102
}
330
1F
100
AcDbEntity
  8
実線
100
AcDbLine
 10
707.5654412698059
 20
344.8188721988493
 30
0.0
 11
694.8822206445692
 21
344.8188721988493
 31
0.0
  0
LINE
  5
341
102
{ACAD_REACTORS
330
455
102
}
330
1F
100
AcDbEntity
  8
実線
100
AcDbLine
 10
694.8822206445692
 20
352.7188721988492
 30
0.0
 11
694.8822206445692
 21
344.8188721988493
 31
0.0
  0
LINE
  5
342
102
{ACAD_REACTORS
330
455
102
}
330
1F
100
AcDbEntity
  8
実線
100
AcDbLine
 10
719.849548723204
 20
351.7688721988494
 30
0.0
 11
719.849548723204
 21
352.7188721988492
 31
0.0
  0
LINE
  5
343
102
{ACAD_REACTORS
330
455
102
}
330
1F
100
AcDbEntity
  8
実線
100
AcDbLine
 10
719.849548723204
 20
344.8188721988493
 30
0.0
 11
719.849548723204
 21
345.2688721988492
 31
0.0
  0
LINE
  5
344
102
{ACAD_REACTORS
330
455
102
}
330
1F
100
AcDbEntity
  8
実線
100
AcDbLine
 10
694.8822206445692
 20
350.2688721988494
 30
0.0
 11
688.5925926442722
 21
350.2688721988494
 31
0.0
  0
LINE
  5
345
102
{ACAD_REACTORS
330
455
102
}
330
1F
100
AcDbEntity
  8
実線
100
AcDbLine
 10
688.5925926442722
 20
347.2688721988494
 30
0.0
 11
694.8822206445692
 21
347.2688721988494
 31
0.0
  0
ELLIPSE
  5
346
102
{ACAD_REACTORS
330
455
102
}
330
1F
100
AcDbEntity
  8
実線
100
AcDbEllipse
 10
688.5925926442722
 20
348.7688721988492
 30
0.0
 11
0.0
 21
1.5
 31
0.0
210
0.0
220
0.0
230
1.0
 40
0.051108177252701
 41
0.0
 42
3.14159265358979
  0
LINE
  5
347
102
{ACAD_REACTORS
330
455
102
}
330
1F
100
AcDbEntity
  8
実線
100
AcDbLine
 10
694.8822206445692
 20
339.7688721988492
 30
0.0
 11
688.5925926442722
 21
339.7688721988492
 31
0.0
  0
LINE
  5
348
102
{ACAD_REACTORS
330
455
102
}
330
1F
100
AcDbEntity
  8
実線
100
AcDbLine
 10
688.5925926442722
 20
336.7688721988492
 30
0.0
 11
694.8822206445692
 21
336.7688721988492
 31
0.0
  0
ELLIPSE
  5
349
102
{ACAD_REACTORS
330
455
102
}
330
1F
100
AcDbEntity
  8
実線
100
AcDbEllipse
 10
688.5925926442722
 20
338.2688721988494
 30
0.0
 11
0.0
 21
1.5
 31
0.0
210
0.0
220
0.0
230
1.0
 40
0.051108177252701
 41
0.0
 42
3.14159265358979
  0
LINE
  5
34A
102
{ACAD_REACTORS
330
455
102
}
330
1F
100
AcDbEntity
  8
実線
100
AcDbLine
 10
720.2533033235
 20
342.2188721988492
 30
0.0
 11
719.5654412698059
 21
342.2188721988492
 31
0.0
  0
LINE
  5
34B
102
{ACAD_REACTORS
330
455
102
}
330
1F
100
AcDbEntity
  8
実線
100
AcDbLine
 10
720.2533033235
 20
334.3188721988493
 30
0.0
 11
719.5654412698059
 21
334.3188721988493
 31
0.0
  0
LINE
  5
34C
102
{ACAD_REACTORS
330
455
102
}
330
1F
100
AcDbEntity
  8
実線
100
AcDbLine
 10
707.5654412698059
 20
342.2188721988492
 30
0.0
 11
694.8822206445692
 21
342.2188721988492
 31
0.0
  0
LINE
  5
34D
102
{ACAD_REACTORS
330
455
102
}
330
1F
100
AcDbEntity
  8
実線
100
AcDbLine
 10
707.5654412698059
 20
334.3188721988493
 30
0.0
 11
694.8822206445692
 21
334.3188721988493
 31
0.0
  0
LINE
  5
34E
102
{ACAD_REACTORS
330
455
102
}
330
1F
100
AcDbEntity
  8
実線
100
AcDbLine
 10
694.8822206445692
 20
342.2188721988492
 30
0.0
 11
694.8822206445692
 21
334.3188721988493
 31
0.0
  0
LINE
  5
34F
102
{ACAD_REACTORS
330
455
102
}
330
1F
100
AcDbEntity
  8
実線
100
AcDbLine
 10
719.849548723204
 20
334.3188721988493
 30
0.0
 11
719.849548723204
 21
342.2188721988492
 31
0.0
  0
LINE
  5
350
102
{ACAD_REACTORS
330
455
102
}
330
1F
100
AcDbEntity
  8
実線
100
AcDbLine
 10
690.2925096291379
 20
355.7688721988494
 30
0.0
 11
720.3146331362042
 21
355.7688721988494
 31
0.0
  0
LINE
  5
351
102
{ACAD_REACTORS
330
455
102
}
330
1F
100
AcDbEntity
  8
実線
100
AcDbLine
 10
690.2925096291379
 20
350.2688721988494
 30
0.0
 11
690.2925096291379
 21
355.7688721988494
 31
0.0
  0
LINE
  5
352
102
{ACAD_REACTORS
330
455
102
}
330
1F
100
AcDbEntity
  8
実線
100
AcDbLine
 10
690.2925096291379
 20
339.7688721988492
 30
0.0
 11
690.2925096291379
 21
347.2688721988494
 31
0.0
  0
LINE
  5
353
102
{ACAD_REACTORS
330
455
102
}
330
1F
100
AcDbEntity
  8
実線
100
AcDbLine
 10
690.2925096291379
 20
331.9688721988492
 30
0.0
 11
690.2925096291379
 21
336.7688721988492
 31
0.0
  0
LINE
  5
354
102
{ACAD_REACTORS
330
455
102
}
330
1F
100
AcDbEntity
  8
実線
100
AcDbLine
 10
720.3146331362042
 20
351.7688721988494
 30
0.0
 11
720.3146331362042
 21
355.7688721988494
 31
0.0
  0
LINE
  5
355
102
{ACAD_REACTORS
330
455
102
}
330
1F
100
AcDbEntity
  8
実線
100
AcDbLine
 10
720.3146331362042
 20
345.2688721988492
 30
0.0
 11
720.3146331362042
 21
330.7688721988494
 31
0.0
  0
LINE
  5
356
102
{ACAD_REACTORS
330
455
102
}
330
1F
100
AcDbEntity
  8
実線
100
AcDbLine
 10
720.2533033235
 20
355.7688721988494
 30
0.0
 11
720.2533033235
 21
351.7688721988494
 31
0.0
  0
LINE
  5
357
102
{ACAD_REACTORS
330
455
102
}
330
1F
100
AcDbEntity
  8
実線
100
AcDbLine
 10
720.2533033235
 20
345.2688721988492
 30
0.0
 11
720.2533033235
 21
330.7688721988494
 31
0.0
  0
LINE
  5
358
102
{ACAD_REACTORS
330
455
102
}
330
1F
100
AcDbEntity
  8
実線
100
AcDbLine
 10
705.565441269806
 20
351.7688721988494
 30
0.0
 11
721.565441269806
 21
351.7688721988494
 31
0.0
  0
LINE
  5
359
102
{ACAD_REACTORS
330
455
102
}
330
1F
100
AcDbEntity
  8
実線
100
AcDbLine
 10
721.565441269806
 20
345.2688721988492
 30
0.0
 11
721.565441269806
 21
351.7688721988494
 31
0.0
  0
LINE
  5
35A
102
{ACAD_REACTORS
330
455
102
}
330
1F
100
AcDbEntity
  8
実線
100
AcDbLine
 10
705.565441269806
 20
351.7688721988494
 30
0.0
 11
705.565441269806
 21
345.2688721988492
 31
0.0
  0
LINE
  5
35B
102
{ACAD_REACTORS
330
455
102
}
330
1F
100
AcDbEntity
  8
実線
100
AcDbLine
 10
721.565441269806
 20
345.2688721988492
 30
0.0
 11
705.565441269806
 21
345.2688721988492
 31
0.0
  0
LINE
  5
35C
102
{ACAD_REACTORS
330
455
102
}
330
1F
100
AcDbEntity
  8
実線
100
AcDbLine
 10
673.5654412698059
 20
325.7688721988494
 30
0.0
 11
753.5654412698059
 21
325.7688721988494
 31
0.0
  0
LINE
  5
35D
102
{ACAD_REACTORS
330
455
102
}
330
1F
100
AcDbEntity
  8
実線
100
AcDbLine
 10
753.5654412698059
 20
239.8688721988493
 30
0.0
 11
753.5654412698059
 21
325.7688721988494
 31
0.0
  0
LINE
  5
35E
102
{ACAD_REACTORS
330
455
102
}
330
1F
100
AcDbEntity
  8
実線
100
AcDbLine
 10
673.5654412698059
 20
325.7688721988494
 30
0.0
 11
673.5654412698059
 21
239.8688721988493
 31
0.0
  0
LINE
  5
35F
102
{ACAD_REACTORS
330
455
102
}
330
1F
100
AcDbEntity
  8
実線
100
AcDbLine
 10
719.5654412698059
 20
330.7688721988494
 30
0.0
 11
719.5654412698059
 21
345.2688721988492
 31
0.0
  0
LINE
  5
360
102
{ACAD_REACTORS
330
455
102
}
330
1F
100
AcDbEntity
  8
実線
100
AcDbLine
 10
707.5654412698059
 20
345.2688721988492
 30
0.0
 11
707.5654412698059
 21
330.7688721988494
 31
0.0
  0
LINE
  5
361
102
{ACAD_REACTORS
330
455
102
}
330
1F
100
AcDbEntity
  8
実線
100
AcDbLine
 10
666.565441269806
 20
193.4688721988492
 30
0.0
 11
685.565441269806
 21
193.4688721988492
 31
0.0
  0
LINE
  5
362
102
{ACAD_REACTORS
330
455
102
}
330
1F
100
AcDbEntity
  8
実線
100
AcDbLine
 10
685.565441269806
 20
218.8688721988493
 30
0.0
 11
666.565441269806
 21
218.8688721988493
 31
0.0
  0
LINE
  5
363
102
{ACAD_REACTORS
330
455
102
}
330
1F
100
AcDbEntity
  8
実線
100
AcDbLine
 10
666.565441269806
 20
218.8688721988493
 30
0.0
 11
661.4154412698061
 21
231.4188721988494
 31
0.0
  0
LINE
  5
364
102
{ACAD_REACTORS
330
455
102
}
330
1F
100
AcDbEntity
  8
実線
100
AcDbLine
 10
661.4154412698061
 20
180.9188721988494
 30
0.0
 11
666.565441269806
 21
193.4688721988492
 31
0.0
  0
LINE
  5
365
102
{ACAD_REACTORS
330
455
102
}
330
1F
100
AcDbEntity
  8
実線
100
AcDbLine
 10
666.565441269806
 20
218.8688721988493
 30
0.0
 11
666.565441269806
 21
193.4688721988492
 31
0.0
  0
LINE
  5
366
102
{ACAD_REACTORS
330
455
102
}
330
1F
100
AcDbEntity
  8
実線
100
AcDbLine
 10
658.565441269806
 20
180.9188721988494
 30
0.0
 11
661.4154412698061
 21
180.9188721988494
 31
0.0
  0
LINE
  5
367
102
{ACAD_REACTORS
330
455
102
}
330
1F
100
AcDbEntity
  8
実線
100
AcDbLine
 10
661.4154412698061
 20
231.4188721988494
 30
0.0
 11
658.565441269806
 21
231.4188721988494
 31
0.0
  0
LINE
  5
368
102
{ACAD_REACTORS
330
455
102
}
330
1F
100
AcDbEntity
  8
実線
100
AcDbLine
 10
658.565441269806
 20
180.9188721988494
 30
0.0
 11
658.565441269806
 21
231.4188721988494
 31
0.0
  0
LINE
  5
369
102
{ACAD_REACTORS
330
455
102
}
330
1F
100
AcDbEntity
  8
実線
100
AcDbLine
 10
661.4154412698061
 20
180.9188721988494
 30
0.0
 11
661.4154412698061
 21
231.4188721988494
 31
0.0
  0
LINE
  5
36A
102
{ACAD_REACTORS
330
455
102
}
330
1F
100
AcDbEntity
  8
実線
100
AcDbLine
 10
685.565441269806
 20
226.8688721988493
 30
0.0
 11
673.5654412698059
 21
238.8688721988491
 31
0.0
  0
LINE
  5
36B
102
{ACAD_REACTORS
330
455
102
}
330
1F
100
AcDbEntity
  8
実線
100
AcDbLine
 10
741.565441269806
 20
226.8688721988493
 30
0.0
 11
753.5654412698059
 21
238.8688721988493
 31
0.0
  0
LINE
  5
36C
102
{ACAD_REACTORS
330
455
102
}
330
1F
100
AcDbEntity
  8
実線
100
AcDbLine
 10
753.5654412698059
 20
239.8688721988493
 30
0.0
 11
673.5654412698059
 21
239.8688721988493
 31
0.0
  0
ARC
  5
36D
102
{ACAD_REACTORS
330
455
102
}
330
1F
100
AcDbEntity
  8
実線
100
AcDbCircle
 10
713.565441269806
 20
198.8688721988493
 30
0.0
 40
40.0
100
AcDbArc
 50
45.0
 51
135.0
  0
LINE
  5
36E
102
{ACAD_REACTORS
330
455
102
}
330
1F
100
AcDbEntity
  8
実線
100
AcDbLine
 10
753.5654412698059
 20
238.8688721988493
 30
0.0
 11
753.5654412698059
 21
239.8688721988493
 31
0.0
  0
LINE
  5
36F
102
{ACAD_REACTORS
330
455
102
}
330
1F
100
AcDbEntity
  8
実線
100
AcDbLine
 10
673.5654412698059
 20
239.8688721988493
 30
0.0
 11
673.5654412698059
 21
238.8688721988493
 31
0.0
  0
LINE
  5
370
102
{ACAD_REACTORS
330
455
102
}
330
1F
100
AcDbEntity
  8
実線
100
AcDbLine
 10
720.7899391846541
 20
331.9688721988492
 30
0.0
 11
720.3146331362042
 21
331.9688721988492
 31
0.0
  0
LINE
  5
371
102
{ACAD_REACTORS
330
455
102
}
330
1F
100
AcDbEntity
  8
実線
100
AcDbLine
 10
720.7899391846541
 20
330.7688721988494
 30
0.0
 11
720.7899391846541
 21
331.9688721988492
 31
0.0
  0
LINE
  5
372
102
{ACAD_REACTORS
330
455
102
}
330
1F
100
AcDbEntity
  8
実線
100
AcDbLine
 10
689.8069819452381
 20
331.9688721988492
 30
0.0
 11
700.279440860592
 21
331.9688721988492
 31
0.0
  0
LINE
  5
373
102
{ACAD_REACTORS
330
455
102
}
330
1F
100
AcDbEntity
  8
実線
100
AcDbLine
 10
689.8069819452381
 20
330.7688721988494
 30
0.0
 11
689.8069819452381
 21
331.9688721988492
 31
0.0
  0
LINE
  5
374
102
{ACAD_REACTORS
330
455
102
}
330
1F
100
AcDbEntity
  8
実線
100
AcDbLine
 10
700.279440860592
 20
330.7688721988494
 30
0.0
 11
700.279440860592
 21
331.9688721988492
 31
0.0
  0
LINE
  5
375
102
{ACAD_REACTORS
330
455
102
}
330
1F
100
AcDbEntity
  8
実線
100
AcDbLine
 10
699.7939131766921
 20
330.7688721988494
 30
0.0
 11
699.7939131766921
 21
331.9688721988492
 31
0.0
  0
LINE
  5
376
102
{ACAD_REACTORS
330
455
102
}
330
1F
100
AcDbEntity
  8
実線
100
AcDbLine
 10
678.5654412698059
 20
330.7688721988494
 30
0.0
 11
748.5654412690661
 21
330.7688721988494
 31
0.0
  0
ARC
  5
377
102
{ACAD_REACTORS
330
455
102
}
330
1F
100
AcDbEntity
  8
実線
100
AcDbCircle
 10
748.5654412698059
 20
325.7688721988494
 30
0.0
 40
5.0
100
AcDbArc
 50
0.0
 51
90.0
  0
ARC
  5
378
102
{ACAD_REACTORS
330
455
102
}
330
1F
100
AcDbEntity
  8
実線
100
AcDbCircle
 10
678.5654412698059
 20
325.7688721988494
 30
0.0
 40
5.0
100
AcDbArc
 50
90.0
 51
180.0
  0
LINE
  5
379
102
{ACAD_REACTORS
330
455
102
}
330
1F
100
AcDbEntity
  8
実線
100
AcDbLine
 10
685.565441269806
 20
191.6688721988494
 30
0.0
 11
741.565441269806
 21
191.6688721988494
 31
0.0
  0
LINE
  5
37A
102
{ACAD_REACTORS
330
455
102
}
330
1F
100
AcDbEntity
  8
実線
100
AcDbLine
 10
685.565441269806
 20
191.6688721988494
 30
0.0
 11
685.565441269806
 21
226.8688721988493
 31
0.0
  0
LINE
  5
37B
102
{ACAD_REACTORS
330
455
102
}
330
1F
100
AcDbEntity
  8
実線
100
AcDbLine
 10
741.565441269806
 20
191.6688721988494
 30
0.0
 11
741.565441269806
 21
226.8688721988493
 31
0.0
  0
LINE
  5
37C
102
{ACAD_REACTORS
330
455
102
}
330
1F
100
AcDbEntity
  8
実線
100
AcDbLine
 10
719.5654412698059
 20
191.6688721988494
 30
0.0
 11
719.5654412698059
 21
216.8688721988493
 31
0.0
  0
LINE
  5
37D
102
{ACAD_REACTORS
330
455
102
}
330
1F
100
AcDbEntity
  8
実線
100
AcDbLine
 10
719.5654412698059
 20
216.8688721988493
 30
0.0
 11
741.565441269806
 21
216.8688721988493
 31
0.0
  0
LINE
  5
37E
102
{ACAD_REACTORS
330
455
102
}
330
1F
100
AcDbEntity
  8
実線
100
AcDbLine
 10
741.565441269806
 20
226.8688721988493
 30
0.0
 11
685.565441269806
 21
226.8688721988493
 31
0.0
  0
LINE
  5
37F
102
{ACAD_REACTORS
330
455
102
}
330
1F
100
AcDbEntity
  8
実線
100
AcDbLine
 10
707.5654412698059
 20
216.8688721988493
 30
0.0
 11
685.565441269806
 21
216.8688721988493
 31
0.0
  0
LINE
  5
380
102
{ACAD_REACTORS
330
455
102
}
330
1F
100
AcDbEntity
  8
実線
100
AcDbLine
 10
707.5654412698059
 20
191.6688721988494
 30
0.0
 11
707.5654412698059
 21
216.8688721988493
 31
0.0
  0
LINE
  5
381
102
{ACAD_REACTORS
330
456
102
}
330
1F
100
AcDbEntity
  8
実線
100
AcDbLine
 10
506.2654412698054
 20
159.1688721988494
 30
0.0
 11
506.2654412698054
 21
184.3452038545952
 31
0.0
  0
LINE
  5
382
102
{ACAD_REACTORS
330
456
102
}
330
1F
100
AcDbEntity
  8
実線
100
AcDbLine
 10
480.8654412698058
 20
184.3452038545952
 30
0.0
 11
480.8654412698058
 21
159.1688721988494
 31
0.0
  0
LINE
  5
383
102
{ACAD_REACTORS
330
456
102
}
330
1F
100
AcDbEntity
  8
実線
100
AcDbLine
 10
518.8154412698057
 20
151.1688721988494
 30
0.0
 11
468.3154412698057
 21
151.1688721988494
 31
0.0
  0
LINE
  5
384
102
{ACAD_REACTORS
330
456
102
}
330
1F
100
AcDbEntity
  8
実線
100
AcDbLine
 10
518.8154412698057
 20
151.1688721988494
 30
0.0
 11
518.8154412698057
 21
154.0188721988494
 31
0.0
  0
LINE
  5
385
102
{ACAD_REACTORS
330
456
102
}
330
1F
100
AcDbEntity
  8
実線
100
AcDbLine
 10
468.3154412698057
 20
154.0188721988494
 30
0.0
 11
468.3154412698057
 21
151.1688721988494
 31
0.0
  0
LINE
  5
386
102
{ACAD_REACTORS
330
456
102
}
330
1F
100
AcDbEntity
  8
実線
100
AcDbLine
 10
518.8154412698057
 20
154.0188721988494
 30
0.0
 11
468.3154412698057
 21
154.0188721988494
 31
0.0
  0
LINE
  5
387
102
{ACAD_REACTORS
330
456
102
}
330
1F
100
AcDbEntity
  8
実線
100
AcDbLine
 10
506.2654412698054
 20
159.1688721988494
 30
0.0
 11
480.8654412698058
 21
159.1688721988494
 31
0.0
  0
LINE
  5
388
102
{ACAD_REACTORS
330
456
102
}
330
1F
100
AcDbEntity
  8
実線
100
AcDbLine
 10
480.8654412698058
 20
159.1688721988494
 30
0.0
 11
468.3154412698057
 21
154.0188721988494
 31
0.0
  0
LINE
  5
389
102
{ACAD_REACTORS
330
456
102
}
330
1F
100
AcDbEntity
  8
実線
100
AcDbLine
 10
518.8154412698057
 20
154.0188721988494
 30
0.0
 11
506.2654412698054
 21
159.1688721988494
 31
0.0
  0
LINE
  5
38A
102
{ACAD_REACTORS
330
456
102
}
330
1F
100
AcDbEntity
  8
実線
100
AcDbLine
 10
476.0945499218219
 20
344.8188721988493
 30
0.0
 11
485.2619300259882
 21
344.8188721988493
 31
0.0
  0
LINE
  5
38B
102
{ACAD_REACTORS
330
456
102
}
330
1F
100
AcDbEntity
  8
実線
100
AcDbLine
 10
476.0945499218219
 20
352.7188721988492
 30
0.0
 11
485.2619300259882
 21
352.7188721988492
 31
0.0
  0
LINE
  5
38C
102
{ACAD_REACTORS
330
456
102
}
330
1F
100
AcDbEntity
  8
実線
100
AcDbLine
 10
476.0945499218219
 20
344.8188721988493
 30
0.0
 11
476.0945499218219
 21
352.7188721988492
 31
0.0
  0
LINE
  5
38D
102
{ACAD_REACTORS
330
456
102
}
330
1F
100
AcDbEntity
  8
実線
100
AcDbLine
 10
483.9842255946706
 20
352.7188721988492
 30
0.0
 11
483.9842255946706
 21
344.8188721988493
 31
0.0
  0
LINE
  5
38E
102
{ACAD_REACTORS
330
456
102
}
330
1F
100
AcDbEntity
  8
実線
100
AcDbLine
 10
485.2619300259882
 20
344.8188721988493
 30
0.0
 11
485.2619300259882
 21
352.7188721988492
 31
0.0
  0
ELLIPSE
  5
38F
102
{ACAD_REACTORS
330
456
102
}
330
1F
100
AcDbEntity
  8
実線
100
AcDbEllipse
 10
479.7071846061037
 20
348.7688721988492
 30
0.0
 11
0.0
 21
1.5
 31
0.0
210
0.0
220
0.0
230
1.0
 40
0.9986931231453969
 41
0.0
 42
1.570796326794897
  0
ELLIPSE
  5
390
102
{ACAD_REACTORS
330
456
102
}
330
1F
100
AcDbEntity
  8
実線
100
AcDbEllipse
 10
480.0393877582463
 20
348.7688721988492
 30
0.0
 11
0.0
 21
1.5
 31
0.0
210
0.0
220
0.0
230
1.0
 40
0.9986931231453969
 41
4.71238898038469
 42
6.283185307179584
  0
LINE
  5
391
102
{ACAD_REACTORS
330
456
102
}
330
1F
100
AcDbEntity
  8
実線
100
AcDbLine
 10
480.0393877582463
 20
350.2688721988494
 30
0.0
 11
479.7071846061037
 21
350.2688721988494
 31
0.0
  0
LINE
  5
392
102
{ACAD_REACTORS
330
456
102
}
330
1F
100
AcDbEntity
  8
実線
100
AcDbLine
 10
479.7071846061037
 20
347.2688721988494
 30
0.0
 11
480.0393877582463
 21
347.2688721988494
 31
0.0
  0
ELLIPSE
  5
393
102
{ACAD_REACTORS
330
456
102
}
330
1F
100
AcDbEntity
  8
実線
100
AcDbEllipse
 10
479.7071846061037
 20
348.7688721988492
 30
0.0
 11
0.0
 21
1.5
 31
0.0
210
0.0
220
0.0
230
1.0
 40
0.9986931231453969
 41
3.141592653589792
 42
6.283185307179584
  0
ELLIPSE
  5
394
102
{ACAD_REACTORS
330
456
102
}
330
1F
100
AcDbEntity
  8
実線
100
AcDbEllipse
 10
479.7071846061037
 20
348.7688721988492
 30
0.0
 11
0.0
 21
1.5
 31
0.0
210
0.0
220
0.0
230
1.0
 40
0.9986931231453969
 41
1.570796326794897
 42
3.141592653589792
  0
ELLIPSE
  5
395
102
{ACAD_REACTORS
330
456
102
}
330
1F
100
AcDbEntity
  8
実線
100
AcDbEllipse
 10
480.0393877582463
 20
348.7688721988492
 30
0.0
 11
0.0
 21
1.5
 31
0.0
210
0.0
220
0.0
230
1.0
 40
0.9986931231453969
 41
3.141592653589792
 42
4.71238898038469
  0
ELLIPSE
  5
396
102
{ACAD_REACTORS
330
456
102
}
330
1F
100
AcDbEntity
  8
実線
100
AcDbEllipse
 10
480.0393877582463
 20
338.2688721988494
 30
0.0
 11
0.0
 21
1.5
 31
0.0
210
0.0
220
0.0
230
1.0
 40
0.9986931231453969
 41
4.71238898038469
 42
6.283185307179584
  0
LINE
  5
397
102
{ACAD_REACTORS
330
456
102
}
330
1F
100
AcDbEntity
  8
実線
100
AcDbLine
 10
480.0393877582463
 20
339.7688721988492
 30
0.0
 11
479.7071846061037
 21
339.7688721988492
 31
0.0
  0
LINE
  5
398
102
{ACAD_REACTORS
330
456
102
}
330
1F
100
AcDbEntity
  8
実線
100
AcDbLine
 10
479.7071846061037
 20
336.7688721988492
 30
0.0
 11
480.0393877582463
 21
336.7688721988492
 31
0.0
  0
ELLIPSE
  5
399
102
{ACAD_REACTORS
330
456
102
}
330
1F
100
AcDbEntity
  8
実線
100
AcDbEllipse
 10
479.7071846061037
 20
338.2688721988494
 30
0.0
 11
0.0
 21
1.5
 31
0.0
210
0.0
220
0.0
230
1.0
 40
0.9986931231453969
 41
3.141592653589792
 42
6.283185307179584
  0
ELLIPSE
  5
39A
102
{ACAD_REACTORS
330
456
102
}
330
1F
100
AcDbEntity
  8
実線
100
AcDbEllipse
 10
479.7071846061037
 20
338.2688721988494
 30
0.0
 11
0.0
 21
1.5
 31
0.0
210
0.0
220
0.0
230
1.0
 40
0.9986931231453969
 41
1.570796326794897
 42
3.141592653589792
  0
ELLIPSE
  5
39B
102
{ACAD_REACTORS
330
456
102
}
330
1F
100
AcDbEntity
  8
実線
100
AcDbEllipse
 10
480.0393877582463
 20
338.2688721988494
 30
0.0
 11
0.0
 21
1.5
 31
0.0
210
0.0
220
0.0
230
1.0
 40
0.9986931231453969
 41
3.141592653589792
 42
4.71238898038469
  0
ELLIPSE
  5
39C
102
{ACAD_REACTORS
330
456
102
}
330
1F
100
AcDbEntity
  8
実線
100
AcDbEllipse
 10
479.7071846061037
 20
338.2688721988494
 30
0.0
 11
0.0
 21
1.5
 31
0.0
210
0.0
220
0.0
230
1.0
 40
0.9986931231453969
 41
0.0
 42
1.570796326794897
  0
LINE
  5
39D
102
{ACAD_REACTORS
330
456
102
}
330
1F
100
AcDbEntity
  8
実線
100
AcDbLine
 10
476.0945499218219
 20
334.3188721988493
 30
0.0
 11
485.2619300259882
 21
334.3188721988493
 31
0.0
  0
LINE
  5
39E
102
{ACAD_REACTORS
330
456
102
}
330
1F
100
AcDbEntity
  8
実線
100
AcDbLine
 10
476.0945499218219
 20
342.2188721988492
 30
0.0
 11
485.2619300259882
 21
342.2188721988492
 31
0.0
  0
LINE
  5
39F
102
{ACAD_REACTORS
330
456
102
}
330
1F
100
AcDbEntity
  8
実線
100
AcDbLine
 10
476.0945499218219
 20
334.3188721988493
 30
0.0
 11
476.0945499218219
 21
342.2188721988492
 31
0.0
  0
LINE
  5
3A0
102
{ACAD_REACTORS
330
456
102
}
330
1F
100
AcDbEntity
  8
実線
100
AcDbLine
 10
483.9842255946706
 20
342.2188721988492
 30
0.0
 11
483.9842255946706
 21
334.3188721988493
 31
0.0
  0
LINE
  5
3A1
102
{ACAD_REACTORS
330
456
102
}
330
1F
100
AcDbEntity
  8
実線
100
AcDbLine
 10
485.2619300259882
 20
334.3188721988493
 30
0.0
 11
485.2619300259882
 21
342.2188721988492
 31
0.0
  0
LINE
  5
3A2
102
{ACAD_REACTORS
330
456
102
}
330
1F
100
AcDbEntity
  8
実線
100
AcDbLine
 10
477.3722543531394
 20
355.7688721988494
 30
0.0
 11
474.6405772877838
 21
355.7688721988494
 31
0.0
  0
LINE
  5
3A3
102
{ACAD_REACTORS
330
456
102
}
330
1F
100
AcDbEntity
  8
実線
100
AcDbLine
 10
477.3722543531394
 20
352.7188721988492
 30
0.0
 11
477.3722543531394
 21
355.7688721988494
 31
0.0
  0
LINE
  5
3A4
102
{ACAD_REACTORS
330
456
102
}
330
1F
100
AcDbEntity
  8
実線
100
AcDbLine
 10
477.3722543531394
 20
342.2188721988492
 30
0.0
 11
477.3722543531394
 21
344.8188721988493
 31
0.0
  0
LINE
  5
3A5
102
{ACAD_REACTORS
330
456
102
}
330
1F
100
AcDbEntity
  8
実線
100
AcDbLine
 10
477.3722543531394
 20
331.9688721988492
 30
0.0
 11
477.3722543531394
 21
334.3188721988493
 31
0.0
  0
LINE
  5
3A6
102
{ACAD_REACTORS
330
456
102
}
330
1F
100
AcDbEntity
  8
実線
100
AcDbLine
 10
475.8390090355582
 20
355.7688721988494
 30
0.0
 11
475.8390090355582
 21
330.7688721988494
 31
0.0
  0
LINE
  5
3A7
102
{ACAD_REACTORS
330
456
102
}
330
1F
100
AcDbEntity
  8
実線
100
AcDbLine
 10
474.6405772877838
 20
330.7688721988494
 30
0.0
 11
474.6405772877838
 21
355.7688721988494
 31
0.0
  0
LINE
  5
3A8
102
{ACAD_REACTORS
330
456
102
}
330
1F
100
AcDbEntity
  8
実線
100
AcDbLine
 10
485.5654412698057
 20
345.2688721988492
 30
0.0
 11
501.565441269806
 21
345.2688721988492
 31
0.0
  0
LINE
  5
3A9
102
{ACAD_REACTORS
330
456
102
}
330
1F
100
AcDbEntity
  8
実線
100
AcDbLine
 10
501.565441269806
 20
351.7688721988494
 30
0.0
 11
485.5654412698057
 21
351.7688721988494
 31
0.0
  0
LINE
  5
3AA
102
{ACAD_REACTORS
330
456
102
}
330
1F
100
AcDbEntity
  8
実線
100
AcDbLine
 10
501.565441269806
 20
345.2688721988492
 30
0.0
 11
501.565441269806
 21
351.7688721988494
 31
0.0
  0
LINE
  5
3AB
102
{ACAD_REACTORS
330
456
102
}
330
1F
100
AcDbEntity
  8
実線
100
AcDbLine
 10
485.5654412698057
 20
351.7688721988494
 30
0.0
 11
485.5654412698057
 21
345.2688721988492
 31
0.0
  0
LINE
  5
3AC
102
{ACAD_REACTORS
330
456
102
}
330
1F
100
AcDbEntity
  8
実線
100
AcDbLine
 10
453.5654412698058
 20
239.8688721988493
 30
0.0
 11
533.5654412698054
 21
239.8688721988493
 31
0.0
  0
LINE
  5
3AD
102
{ACAD_REACTORS
330
456
102
}
330
1F
100
AcDbEntity
  8
実線
100
AcDbLine
 10
533.5654412698054
 20
325.7688721988494
 30
0.0
 11
453.5654412698058
 21
325.7688721988494
 31
0.0
  0
LINE
  5
3AE
102
{ACAD_REACTORS
330
456
102
}
330
1F
100
AcDbEntity
  8
実線
100
AcDbLine
 10
533.5654412698054
 20
239.8688721988493
 30
0.0
 11
533.5654412698054
 21
325.7688721988494
 31
0.0
  0
LINE
  5
3AF
102
{ACAD_REACTORS
330
456
102
}
330
1F
100
AcDbEntity
  8
実線
100
AcDbLine
 10
453.5654412698058
 20
325.7688721988494
 30
0.0
 11
453.5654412698058
 21
239.8688721988493
 31
0.0
  0
LINE
  5
3B0
102
{ACAD_REACTORS
330
456
102
}
330
1F
100
AcDbEntity
  8
実線
100
AcDbLine
 10
499.5654412698054
 20
330.7688721988494
 30
0.0
 11
499.5654412698054
 21
345.2688721988492
 31
0.0
  0
LINE
  5
3B1
102
{ACAD_REACTORS
330
456
102
}
330
1F
100
AcDbEntity
  8
実線
100
AcDbLine
 10
487.5654412698057
 20
345.2688721988492
 30
0.0
 11
487.5654412698057
 21
330.7688721988494
 31
0.0
  0
CIRCLE
  5
3B2
102
{ACAD_REACTORS
330
456
102
}
330
1F
100
AcDbEntity
  8
実線
100
AcDbCircle
 10
493.565441269806
 20
206.1688721988493
 30
0.0
 40
25.25
  0
LINE
  5
3B3
102
{ACAD_REACTORS
330
456
102
}
330
1F
100
AcDbEntity
  8
実線
100
AcDbLine
 10
465.5654412698056
 20
226.8688721988493
 30
0.0
 11
453.5654412698058
 21
238.8688721988493
 31
0.0
  0
LINE
  5
3B4
102
{ACAD_REACTORS
330
456
102
}
330
1F
100
AcDbEntity
  8
実線
100
AcDbLine
 10
521.5654412698057
 20
226.8688721988493
 30
0.0
 11
533.5654412698054
 21
238.8688721988493
 31
0.0
  0
ARC
  5
3B5
102
{ACAD_REACTORS
330
456
102
}
330
1F
100
AcDbEntity
  8
実線
100
AcDbCircle
 10
493.565441269806
 20
198.8688721988493
 30
0.0
 40
40.0
100
AcDbArc
 50
45.0
 51
135.0
  0
LINE
  5
3B6
102
{ACAD_REACTORS
330
456
102
}
330
1F
100
AcDbEntity
  8
実線
100
AcDbLine
 10
533.5654412698054
 20
238.8688721988493
 30
0.0
 11
533.5654412698054
 21
239.8688721988493
 31
0.0
  0
LINE
  5
3B7
102
{ACAD_REACTORS
330
456
102
}
330
1F
100
AcDbEntity
  8
実線
100
AcDbLine
 10
453.5654412698058
 20
239.8688721988493
 30
0.0
 11
453.5654412698058
 21
238.8688721988493
 31
0.0
  0
LINE
  5
3B8
102
{ACAD_REACTORS
330
456
102
}
330
1F
100
AcDbEntity
  8
実線
100
AcDbLine
 10
474.6405772877838
 20
331.9688721988492
 30
0.0
 11
466.3748947875858
 21
331.9688721988492
 31
0.0
  0
LINE
  5
3B9
102
{ACAD_REACTORS
330
456
102
}
330
1F
100
AcDbEntity
  8
実線
100
AcDbLine
 10
466.3748947875858
 20
330.7688721988494
 30
0.0
 11
466.3748947875858
 21
331.9688721988492
 31
0.0
  0
LINE
  5
3BA
102
{ACAD_REACTORS
330
456
102
}
330
1F
100
AcDbEntity
  8
実線
100
AcDbLine
 10
485.8376754779668
 20
330.7688721988494
 30
0.0
 11
485.8376754779668
 21
331.9688721988492
 31
0.0
  0
LINE
  5
3BB
102
{ACAD_REACTORS
330
456
102
}
330
1F
100
AcDbEntity
  8
実線
100
AcDbLine
 10
485.8376754779668
 20
331.9688721988492
 30
0.0
 11
475.8390090355582
 21
331.9688721988492
 31
0.0
  0
LINE
  5
3BC
102
{ACAD_REACTORS
330
456
102
}
330
1F
100
AcDbEntity
  8
実線
100
AcDbLine
 10
485.3265937054397
 20
330.7688721988494
 30
0.0
 11
485.3265937054397
 21
331.9688721988492
 31
0.0
  0
LINE
  5
3BD
102
{ACAD_REACTORS
330
456
102
}
330
1F
100
AcDbEntity
  8
実線
100
AcDbLine
 10
528.5654412698058
 20
330.7688721988494
 30
0.0
 11
458.5654412698056
 21
330.7688721988494
 31
0.0
  0
ARC
  5
3BE
102
{ACAD_REACTORS
330
456
102
}
330
1F
100
AcDbEntity
  8
実線
100
AcDbCircle
 10
528.5654412698058
 20
325.7688721988494
 30
0.0
 40
5.0
100
AcDbArc
 50
0.0
 51
90.0
  0
ARC
  5
3BF
102
{ACAD_REACTORS
330
456
102
}
330
1F
100
AcDbEntity
  8
実線
100
AcDbCircle
 10
458.5654412698056
 20
325.7688721988494
 30
0.0
 40
5.0
100
AcDbArc
 50
90.0
 51
180.0
  0
LINE
  5
3C0
102
{ACAD_REACTORS
330
456
102
}
330
1F
100
AcDbEntity
  8
実線
100
AcDbLine
 10
514.2369796740947
 20
191.6688721988494
 30
0.0
 11
521.5654412698057
 21
191.6688721988494
 31
0.0
  0
LINE
  5
3C1
102
{ACAD_REACTORS
330
456
102
}
330
1F
100
AcDbEntity
  8
実線
100
AcDbLine
 10
521.5654412698057
 20
191.6688721988494
 30
0.0
 11
521.5654412698057
 21
226.8688721988493
 31
0.0
  0
LINE
  5
3C2
102
{ACAD_REACTORS
330
456
102
}
330
1F
100
AcDbEntity
  8
実線
100
AcDbLine
 10
472.8939028655165
 20
191.6688721988494
 30
0.0
 11
465.5654412698056
 21
191.6688721988494
 31
0.0
  0
LINE
  5
3C3
102
{ACAD_REACTORS
330
456
102
}
330
1F
100
AcDbEntity
  8
実線
100
AcDbLine
 10
465.5654412698056
 20
191.6688721988494
 30
0.0
 11
465.5654412698056
 21
226.8688721988493
 31
0.0
  0
LINE
  5
3C4
102
{ACAD_REACTORS
330
456
102
}
330
1F
100
AcDbEntity
  8
実線
100
AcDbLine
 10
465.5654412698056
 20
216.8688721988493
 30
0.0
 11
470.6946629708496
 21
216.8688721988493
 31
0.0
  0
LINE
  5
3C5
102
{ACAD_REACTORS
330
456
102
}
330
1F
100
AcDbEntity
  8
実線
100
AcDbLine
 10
521.5654412698057
 20
216.8688721988493
 30
0.0
 11
516.4362195687618
 21
216.8688721988493
 31
0.0
  0
LINE
  5
3C6
102
{ACAD_REACTORS
330
456
102
}
330
1F
100
AcDbEntity
  8
実線
100
AcDbLine
 10
479.1061017274891
 20
226.8688721988493
 30
0.0
 11
465.5654412698056
 21
226.8688721988493
 31
0.0
  0
LINE
  5
3C7
102
{ACAD_REACTORS
330
456
102
}
330
1F
100
AcDbEntity
  8
実線
100
AcDbLine
 10
521.5654412698057
 20
226.8688721988493
 30
0.0
 11
508.0247808121223
 21
226.8688721988493
 31
0.0
  0
LINE
  5
3C8
102
{ACAD_REACTORS
330
458
102
}
330
1F
100
AcDbEntity
  8
実線
100
AcDbLine
 10
66.26544126980594
 20
159.1688721988494
 30
0.0
 11
66.26544126980594
 21
184.3452038545952
 31
0.0
  0
LINE
  5
3C9
102
{ACAD_REACTORS
330
458
102
}
330
1F
100
AcDbEntity
  8
実線
100
AcDbLine
 10
40.86544126980595
 20
184.3452038545952
 30
0.0
 11
40.86544126980595
 21
159.1688721988494
 31
0.0
  0
LINE
  5
3CA
102
{ACAD_REACTORS
330
458
102
}
330
1F
100
AcDbEntity
  8
実線
100
AcDbLine
 10
78.81544126980589
 20
151.1688721988494
 30
0.0
 11
78.81544126980589
 21
154.0188721988494
 31
0.0
  0
LINE
  5
3CB
102
{ACAD_REACTORS
330
458
102
}
330
1F
100
AcDbEntity
  8
実線
100
AcDbLine
 10
28.31544126980589
 20
154.0188721988494
 30
0.0
 11
28.31544126980589
 21
151.1688721988494
 31
0.0
  0
LINE
  5
3CC
102
{ACAD_REACTORS
330
458
102
}
330
1F
100
AcDbEntity
  8
実線
100
AcDbLine
 10
28.31544126980589
 20
151.1688721988494
 30
0.0
 11
78.81544126980589
 21
151.1688721988494
 31
0.0
  0
LINE
  5
3CD
102
{ACAD_REACTORS
330
458
102
}
330
1F
100
AcDbEntity
  8
実線
100
AcDbLine
 10
40.86544126980595
 20
159.1688721988494
 30
0.0
 11
28.31544126980589
 21
154.0188721988494
 31
0.0
  0
LINE
  5
3CE
102
{ACAD_REACTORS
330
458
102
}
330
1F
100
AcDbEntity
  8
実線
100
AcDbLine
 10
78.81544126980589
 20
154.0188721988494
 30
0.0
 11
66.26544126980594
 21
159.1688721988494
 31
0.0
  0
LINE
  5
3CF
102
{ACAD_REACTORS
330
458
102
}
330
1F
100
AcDbEntity
  8
実線
100
AcDbLine
 10
28.31544126980589
 20
154.0188721988494
 30
0.0
 11
78.81544126980589
 21
154.0188721988494
 31
0.0
  0
LINE
  5
3D0
102
{ACAD_REACTORS
330
458
102
}
330
1F
100
AcDbEntity
  8
実線
100
AcDbLine
 10
40.86544126980595
 20
159.1688721988494
 30
0.0
 11
66.26544126980594
 21
159.1688721988494
 31
0.0
  0
CIRCLE
  5
3D1
102
{ACAD_REACTORS
330
458
102
}
330
1F
100
AcDbEntity
  8
実線
100
AcDbCircle
 10
53.56544126980589
 20
206.1688721988493
 30
0.0
 40
25.25
  0
LINE
  5
3D2
102
{ACAD_REACTORS
330
458
102
}
330
1F
100
AcDbEntity
  8
実線
100
AcDbLine
 10
61.86895251362352
 20
352.7188721988492
 30
0.0
 11
69.75862818647215
 21
352.7188721988492
 31
0.0
  0
LINE
  5
3D3
102
{ACAD_REACTORS
330
458
102
}
330
1F
100
AcDbEntity
  8
実線
100
AcDbLine
 10
69.75862818647215
 20
344.8188721988493
 30
0.0
 11
61.86895251362352
 21
344.8188721988493
 31
0.0
  0
LINE
  5
3D4
102
{ACAD_REACTORS
330
458
102
}
330
1F
100
AcDbEntity
  8
実線
100
AcDbLine
 10
61.86895251362352
 20
344.8188721988493
 30
0.0
 11
61.86895251362352
 21
352.7188721988492
 31
0.0
  0
LINE
  5
3D5
102
{ACAD_REACTORS
330
458
102
}
330
1F
100
AcDbEntity
  8
実線
100
AcDbLine
 10
69.75862818647215
 20
334.3188721988493
 30
0.0
 11
61.86895251362352
 21
334.3188721988493
 31
0.0
  0
LINE
  5
3D6
102
{ACAD_REACTORS
330
458
102
}
330
1F
100
AcDbEntity
  8
実線
100
AcDbLine
 10
61.86895251362352
 20
342.2188721988492
 30
0.0
 11
69.75862818647215
 21
342.2188721988492
 31
0.0
  0
LINE
  5
3D7
102
{ACAD_REACTORS
330
458
102
}
330
1F
100
AcDbEntity
  8
実線
100
AcDbLine
 10
61.86895251362352
 20
334.3188721988493
 30
0.0
 11
61.86895251362352
 21
342.2188721988492
 31
0.0
  0
LINE
  5
3D8
102
{ACAD_REACTORS
330
458
102
}
330
1F
100
AcDbEntity
  8
実線
100
AcDbLine
 10
69.75862818647215
 20
355.7688721988494
 30
0.0
 11
72.49030525182769
 21
355.7688721988494
 31
0.0
  0
LINE
  5
3D9
102
{ACAD_REACTORS
330
458
102
}
330
1F
100
AcDbEntity
  8
実線
100
AcDbLine
 10
69.75862818647215
 20
355.7688721988494
 30
0.0
 11
69.75862818647215
 21
330.7688721988494
 31
0.0
  0
LINE
  5
3DA
102
{ACAD_REACTORS
330
458
102
}
330
1F
100
AcDbEntity
  8
実線
100
AcDbLine
 10
72.49030525182769
 20
331.9688721988492
 30
0.0
 11
72.49030525182769
 21
355.7688721988494
 31
0.0
  0
LINE
  5
3DB
102
{ACAD_REACTORS
330
458
102
}
330
1F
100
AcDbEntity
  8
実線
100
AcDbLine
 10
70.95705993424667
 20
355.7688721988494
 30
0.0
 11
70.95705993424667
 21
330.7688721988494
 31
0.0
  0
LINE
  5
3DC
102
{ACAD_REACTORS
330
458
102
}
330
1F
100
AcDbEntity
  8
実線
100
AcDbLine
 10
61.56544126980588
 20
345.2688721988492
 30
0.0
 11
61.56544126980588
 21
351.7688721988494
 31
0.0
  0
LINE
  5
3DD
102
{ACAD_REACTORS
330
458
102
}
330
1F
100
AcDbEntity
  8
実線
100
AcDbLine
 10
45.56544126980589
 20
351.7688721988494
 30
0.0
 11
45.56544126980589
 21
345.2688721988492
 31
0.0
  0
LINE
  5
3DE
102
{ACAD_REACTORS
330
458
102
}
330
1F
100
AcDbEntity
  8
実線
100
AcDbLine
 10
61.56544126980588
 20
351.7688721988494
 30
0.0
 11
45.56544126980589
 21
351.7688721988494
 31
0.0
  0
LINE
  5
3DF
102
{ACAD_REACTORS
330
458
102
}
330
1F
100
AcDbEntity
  8
実線
100
AcDbLine
 10
45.56544126980589
 20
345.2688721988492
 30
0.0
 11
61.56544126980588
 21
345.2688721988492
 31
0.0
  0
LINE
  5
3E0
102
{ACAD_REACTORS
330
458
102
}
330
1F
100
AcDbEntity
  8
実線
100
AcDbLine
 10
93.56544126980594
 20
239.8688721988493
 30
0.0
 11
93.56544126980594
 21
325.7688721988494
 31
0.0
  0
LINE
  5
3E1
102
{ACAD_REACTORS
330
458
102
}
330
1F
100
AcDbEntity
  8
実線
100
AcDbLine
 10
13.56544126980589
 20
325.7688721988494
 30
0.0
 11
13.56544126980589
 21
239.8688721988493
 31
0.0
  0
LINE
  5
3E2
102
{ACAD_REACTORS
330
458
102
}
330
1F
100
AcDbEntity
  8
実線
100
AcDbLine
 10
93.56544126980594
 20
325.7688721988494
 30
0.0
 11
13.56544126980589
 21
325.7688721988494
 31
0.0
  0
LINE
  5
3E3
102
{ACAD_REACTORS
330
458
102
}
330
1F
100
AcDbEntity
  8
実線
100
AcDbLine
 10
93.56544126980594
 20
239.8688721988493
 30
0.0
 11
13.56544126980589
 21
239.8688721988493
 31
0.0
  0
LINE
  5
3E4
102
{ACAD_REACTORS
330
458
102
}
330
1F
100
AcDbEntity
  8
実線
100
AcDbLine
 10
59.56544126980588
 20
330.7688721988494
 30
0.0
 11
59.56544126980588
 21
345.2688721988492
 31
0.0
  0
LINE
  5
3E5
102
{ACAD_REACTORS
330
458
102
}
330
1F
100
AcDbEntity
  8
実線
100
AcDbLine
 10
47.56544126980588
 20
345.2688721988492
 30
0.0
 11
47.56544126980588
 21
330.7688721988494
 31
0.0
  0
LINE
  5
3E6
102
{ACAD_REACTORS
330
458
102
}
330
1F
100
AcDbEntity
  8
実線
100
AcDbLine
 10
13.56544126980589
 20
238.8688721988493
 30
0.0
 11
25.56544126980589
 21
226.8688721988493
 31
0.0
  0
LINE
  5
3E7
102
{ACAD_REACTORS
330
458
102
}
330
1F
100
AcDbEntity
  8
実線
100
AcDbLine
 10
93.56544126980594
 20
238.8688721988493
 30
0.0
 11
93.56544126980594
 21
239.8688721988493
 31
0.0
  0
LINE
  5
3E8
102
{ACAD_REACTORS
330
458
102
}
330
1F
100
AcDbEntity
  8
実線
100
AcDbLine
 10
13.56544126980589
 20
239.8688721988493
 30
0.0
 11
13.56544126980589
 21
238.8688721988493
 31
0.0
  0
LINE
  5
3E9
102
{ACAD_REACTORS
330
458
102
}
330
1F
100
AcDbEntity
  8
実線
100
AcDbLine
 10
93.56544126980594
 20
238.8688721988493
 30
0.0
 11
81.56544126980589
 21
226.8688721988493
 31
0.0
  0
ARC
  5
3EA
102
{ACAD_REACTORS
330
458
102
}
330
1F
100
AcDbEntity
  8
実線
100
AcDbCircle
 10
53.56544126980589
 20
198.8688721988493
 30
0.0
 40
40.0
100
AcDbArc
 50
45.0
 51
135.0
  0
LINE
  5
3EB
102
{ACAD_REACTORS
330
458
102
}
330
1F
100
AcDbEntity
  8
実線
100
AcDbLine
 10
68.02478081212251
 20
226.8688721988493
 30
0.0
 11
81.56544126980589
 21
226.8688721988493
 31
0.0
  0
LINE
  5
3EC
102
{ACAD_REACTORS
330
458
102
}
330
1F
100
AcDbEntity
  8
実線
100
AcDbLine
 10
70.95705993424667
 20
331.9688721988492
 30
0.0
 11
80.75598775202593
 21
331.9688721988492
 31
0.0
  0
LINE
  5
3ED
102
{ACAD_REACTORS
330
458
102
}
330
1F
100
AcDbEntity
  8
実線
100
AcDbLine
 10
80.75598775202593
 20
330.7688721988494
 30
0.0
 11
80.75598775202593
 21
331.9688721988492
 31
0.0
  0
LINE
  5
3EE
102
{ACAD_REACTORS
330
458
102
}
330
1F
100
AcDbEntity
  8
実線
100
AcDbLine
 10
80.24490597949881
 20
330.7688721988494
 30
0.0
 11
80.24490597949881
 21
331.9688721988492
 31
0.0
  0
LINE
  5
3EF
102
{ACAD_REACTORS
330
458
102
}
330
1F
100
AcDbEntity
  8
実線
100
AcDbLine
 10
69.75862818647215
 20
331.9688721988492
 30
0.0
 11
61.29320706164492
 21
331.9688721988492
 31
0.0
  0
LINE
  5
3F0
102
{ACAD_REACTORS
330
458
102
}
330
1F
100
AcDbEntity
  8
実線
100
AcDbLine
 10
61.29320706164492
 20
330.7688721988494
 30
0.0
 11
61.29320706164492
 21
331.9688721988492
 31
0.0
  0
LINE
  5
3F1
102
{ACAD_REACTORS
330
458
102
}
330
1F
100
AcDbEntity
  8
実線
100
AcDbLine
 10
18.56544126980589
 20
330.7688721988494
 30
0.0
 11
88.56544126980594
 21
330.7688721988494
 31
0.0
  0
ARC
  5
3F2
102
{ACAD_REACTORS
330
458
102
}
330
1F
100
AcDbEntity
  8
実線
100
AcDbCircle
 10
88.56544126980594
 20
325.7688721988494
 30
0.0
 40
5.0
100
AcDbArc
 50
0.0
 51
90.0
  0
ARC
  5
3F3
102
{ACAD_REACTORS
330
458
102
}
330
1F
100
AcDbEntity
  8
実線
100
AcDbCircle
 10
18.56544126980589
 20
325.7688721988494
 30
0.0
 40
5.0
100
AcDbArc
 50
90.0
 51
180.0
  0
LINE
  5
3F4
102
{ACAD_REACTORS
330
458
102
}
330
1F
100
AcDbEntity
  8
実線
100
AcDbLine
 10
25.56544126980589
 20
191.6688721988494
 30
0.0
 11
25.56544126980589
 21
226.8688721988493
 31
0.0
  0
LINE
  5
3F5
102
{ACAD_REACTORS
330
458
102
}
330
1F
100
AcDbEntity
  8
実線
100
AcDbLine
 10
32.89390286551668
 20
191.6688721988494
 30
0.0
 11
25.56544126980589
 21
191.6688721988494
 31
0.0
  0
LINE
  5
3F6
102
{ACAD_REACTORS
330
458
102
}
330
1F
100
AcDbEntity
  8
実線
100
AcDbLine
 10
81.56544126980589
 20
191.6688721988494
 30
0.0
 11
81.56544126980589
 21
226.8688721988493
 31
0.0
  0
LINE
  5
3F7
102
{ACAD_REACTORS
330
458
102
}
330
1F
100
AcDbEntity
  8
実線
100
AcDbLine
 10
74.23697967409498
 20
191.6688721988494
 30
0.0
 11
81.56544126980589
 21
191.6688721988494
 31
0.0
  0
LINE
  5
3F8
102
{ACAD_REACTORS
330
458
102
}
330
1F
100
AcDbEntity
  8
実線
100
AcDbLine
 10
25.56544126980589
 20
216.8688721988493
 30
0.0
 11
30.69466297084978
 21
216.8688721988493
 31
0.0
  0
LINE
  5
3F9
102
{ACAD_REACTORS
330
458
102
}
330
1F
100
AcDbEntity
  8
実線
100
AcDbLine
 10
81.56544126980589
 20
216.8688721988493
 30
0.0
 11
76.436219568762
 21
216.8688721988493
 31
0.0
  0
LINE
  5
3FA
102
{ACAD_REACTORS
330
458
102
}
330
1F
100
AcDbEntity
  8
実線
100
AcDbLine
 10
39.10610172748932
 20
226.8688721988493
 30
0.0
 11
25.56544126980589
 21
226.8688721988493
 31
0.0
  0
LINE
  5
3FB
102
{ACAD_REACTORS
330
457
102
}
330
1F
100
AcDbEntity
  8
実線
100
AcDbLine
 10
286.2654412698059
 20
159.1688721988494
 30
0.0
 11
286.2654412698059
 21
191.6688721988494
 31
0.0
  0
LINE
  5
3FC
102
{ACAD_REACTORS
330
457
102
}
330
1F
100
AcDbEntity
  8
実線
100
AcDbLine
 10
260.8654412698057
 20
191.6688721988494
 30
0.0
 11
260.8654412698057
 21
159.1688721988494
 31
0.0
  0
LINE
  5
3FD
102
{ACAD_REACTORS
330
457
102
}
330
1F
100
AcDbEntity
  8
実線
100
AcDbLine
 10
298.8154412698059
 20
151.1688721988494
 30
0.0
 11
298.8154412698059
 21
154.0188721988494
 31
0.0
  0
LINE
  5
3FE
102
{ACAD_REACTORS
330
457
102
}
330
1F
100
AcDbEntity
  8
実線
100
AcDbLine
 10
248.3154412698059
 20
154.0188721988494
 30
0.0
 11
248.3154412698059
 21
151.1688721988494
 31
0.0
  0
LINE
  5
3FF
102
{ACAD_REACTORS
330
457
102
}
330
1F
100
AcDbEntity
  8
実線
100
AcDbLine
 10
298.8154412698059
 20
151.1688721988494
 30
0.0
 11
248.3154412698059
 21
151.1688721988494
 31
0.0
  0
LINE
  5
400
102
{ACAD_REACTORS
330
457
102
}
330
1F
100
AcDbEntity
  8
実線
100
AcDbLine
 10
260.8654412698057
 20
159.1688721988494
 30
0.0
 11
248.3154412698059
 21
154.0188721988494
 31
0.0
  0
LINE
  5
401
102
{ACAD_REACTORS
330
457
102
}
330
1F
100
AcDbEntity
  8
実線
100
AcDbLine
 10
298.8154412698059
 20
154.0188721988494
 30
0.0
 11
286.2654412698059
 21
159.1688721988494
 31
0.0
  0
LINE
  5
402
102
{ACAD_REACTORS
330
457
102
}
330
1F
100
AcDbEntity
  8
実線
100
AcDbLine
 10
248.3154412698059
 20
154.0188721988494
 30
0.0
 11
298.8154412698059
 21
154.0188721988494
 31
0.0
  0
LINE
  5
403
102
{ACAD_REACTORS
330
457
102
}
330
1F
100
AcDbEntity
  8
実線
100
AcDbLine
 10
260.8654412698057
 20
159.1688721988494
 30
0.0
 11
286.2654412698059
 21
159.1688721988494
 31
0.0
  0
LINE
  5
404
102
{ACAD_REACTORS
330
457
102
}
330
1F
100
AcDbEntity
  8
実線
100
AcDbLine
 10
226.5654412698059
 20
193.4688721988492
 30
0.0
 11
245.5654412698058
 21
193.4688721988492
 31
0.0
  0
LINE
  5
405
102
{ACAD_REACTORS
330
457
102
}
330
1F
100
AcDbEntity
  8
実線
100
AcDbLine
 10
245.5654412698058
 20
218.8688721988493
 30
0.0
 11
226.5654412698059
 21
218.8688721988493
 31
0.0
  0
LINE
  5
406
102
{ACAD_REACTORS
330
457
102
}
330
1F
100
AcDbEntity
  8
実線
100
AcDbLine
 10
218.5654412698059
 20
180.9188721988494
 30
0.0
 11
221.4154412698059
 21
180.9188721988494
 31
0.0
  0
LINE
  5
407
102
{ACAD_REACTORS
330
457
102
}
330
1F
100
AcDbEntity
  8
実線
100
AcDbLine
 10
221.4154412698059
 20
231.4188721988494
 30
0.0
 11
218.5654412698059
 21
231.4188721988494
 31
0.0
  0
LINE
  5
408
102
{ACAD_REACTORS
330
457
102
}
330
1F
100
AcDbEntity
  8
実線
100
AcDbLine
 10
218.5654412698059
 20
180.9188721988494
 30
0.0
 11
218.5654412698059
 21
231.4188721988494
 31
0.0
  0
LINE
  5
409
102
{ACAD_REACTORS
330
457
102
}
330
1F
100
AcDbEntity
  8
実線
100
AcDbLine
 10
226.5654412698059
 20
218.8688721988493
 30
0.0
 11
221.4154412698059
 21
231.4188721988494
 31
0.0
  0
LINE
  5
40A
102
{ACAD_REACTORS
330
457
102
}
330
1F
100
AcDbEntity
  8
実線
100
AcDbLine
 10
221.4154412698059
 20
180.9188721988494
 30
0.0
 11
226.5654412698059
 21
193.4688721988492
 31
0.0
  0
LINE
  5
40B
102
{ACAD_REACTORS
330
457
102
}
330
1F
100
AcDbEntity
  8
実線
100
AcDbLine
 10
221.4154412698059
 20
231.4188721988494
 30
0.0
 11
221.4154412698059
 21
180.9188721988494
 31
0.0
  0
LINE
  5
40C
102
{ACAD_REACTORS
330
457
102
}
330
1F
100
AcDbEntity
  8
実線
100
AcDbLine
 10
226.5654412698059
 20
218.8688721988493
 30
0.0
 11
226.5654412698059
 21
193.4688721988492
 31
0.0
  0
LINE
  5
40D
102
{ACAD_REACTORS
330
457
102
}
330
1F
100
AcDbEntity
  8
実線
100
AcDbLine
 10
296.8383729104733
 20
347.2688721988494
 30
0.0
 11
298.5382898953396
 21
347.2688721988494
 31
0.0
  0
LINE
  5
40E
102
{ACAD_REACTORS
330
457
102
}
330
1F
100
AcDbEntity
  8
実線
100
AcDbLine
 10
298.5382898953396
 20
350.2688721988494
 30
0.0
 11
296.8383729104733
 21
350.2688721988494
 31
0.0
  0
ELLIPSE
  5
40F
102
{ACAD_REACTORS
330
457
102
}
330
1F
100
AcDbEntity
  8
実線
100
AcDbEllipse
 10
298.5382898953396
 20
348.7688721988492
 30
0.0
 11
0.0
 21
1.5
 31
0.0
210
0.0
220
0.0
230
1.0
 40
0.051108177252701
 41
3.14159265358979
 42
6.283185307179584
  0
ELLIPSE
  5
410
102
{ACAD_REACTORS
330
457
102
}
330
1F
100
AcDbEntity
  8
実線
100
AcDbEllipse
 10
298.5382898953396
 20
348.7688721988492
 30
0.0
 11
0.0
 21
1.5
 31
0.0
210
0.0
220
0.0
230
1.0
 40
0.051108177252701
 41
1.570796326794897
 42
3.14159265358979
  0
ELLIPSE
  5
411
102
{ACAD_REACTORS
330
457
102
}
330
1F
100
AcDbEntity
  8
実線
100
AcDbEllipse
 10
298.5382898953396
 20
348.7688721988492
 30
0.0
 11
0.0
 21
1.5
 31
0.0
210
0.0
220
0.0
230
1.0
 40
0.051108177252701
 41
0.0
 42
1.570796326794897
  0
ELLIPSE
  5
412
102
{ACAD_REACTORS
330
457
102
}
330
1F
100
AcDbEntity
  8
実線
100
AcDbEllipse
 10
298.5382898953396
 20
338.2688721988494
 30
0.0
 11
0.0
 21
1.5
 31
0.0
210
0.0
220
0.0
230
1.0
 40
0.051108177252701
 41
0.0
 42
1.570796326794897
  0
LINE
  5
413
102
{ACAD_REACTORS
330
457
102
}
330
1F
100
AcDbEntity
  8
実線
100
AcDbLine
 10
296.8383729104733
 20
336.7688721988492
 30
0.0
 11
298.5382898953396
 21
336.7688721988492
 31
0.0
  0
LINE
  5
414
102
{ACAD_REACTORS
330
457
102
}
330
1F
100
AcDbEntity
  8
実線
100
AcDbLine
 10
298.5382898953396
 20
339.7688721988492
 30
0.0
 11
296.8383729104733
 21
339.7688721988492
 31
0.0
  0
ELLIPSE
  5
415
102
{ACAD_REACTORS
330
457
102
}
330
1F
100
AcDbEntity
  8
実線
100
AcDbEllipse
 10
298.5382898953396
 20
338.2688721988494
 30
0.0
 11
0.0
 21
1.5
 31
0.0
210
0.0
220
0.0
230
1.0
 40
0.051108177252701
 41
3.14159265358979
 42
6.283185307179584
  0
ELLIPSE
  5
416
102
{ACAD_REACTORS
330
457
102
}
330
1F
100
AcDbEntity
  8
実線
100
AcDbEllipse
 10
298.5382898953396
 20
338.2688721988494
 30
0.0
 11
0.0
 21
1.5
 31
0.0
210
0.0
220
0.0
230
1.0
 40
0.051108177252701
 41
1.570796326794897
 42
3.14159265358979
  0
LINE
  5
417
102
{ACAD_REACTORS
330
457
102
}
330
1F
100
AcDbEntity
  8
実線
100
AcDbLine
 10
296.8383729104733
 20
355.7688721988494
 30
0.0
 11
296.8383729104733
 21
330.7688721988494
 31
0.0
  0
LINE
  5
418
102
{ACAD_REACTORS
330
457
102
}
330
1F
100
AcDbEntity
  8
実線
100
AcDbLine
 10
296.8383729104733
 20
355.7688721988494
 30
0.0
 11
266.8162494034082
 21
355.7688721988494
 31
0.0
  0
LINE
  5
419
102
{ACAD_REACTORS
330
457
102
}
330
1F
100
AcDbEntity
  8
実線
100
AcDbLine
 10
296.77704309777
 20
330.7688721988494
 30
0.0
 11
296.77704309777
 21
355.7688721988494
 31
0.0
  0
LINE
  5
41A
102
{ACAD_REACTORS
330
457
102
}
330
1F
100
AcDbEntity
  8
実線
100
AcDbLine
 10
266.8162494034082
 20
331.9688721988492
 30
0.0
 11
266.8162494034082
 21
355.7688721988494
 31
0.0
  0
LINE
  5
41B
102
{ACAD_REACTORS
330
457
102
}
330
1F
100
AcDbEntity
  8
実線
100
AcDbLine
 10
265.5654412698058
 20
351.7688721988494
 30
0.0
 11
265.5654412698058
 21
345.2688721988492
 31
0.0
  0
LINE
  5
41C
102
{ACAD_REACTORS
330
457
102
}
330
1F
100
AcDbEntity
  8
実線
100
AcDbLine
 10
266.8162494034082
 20
351.7688721988494
 30
0.0
 11
265.5654412698058
 21
351.7688721988494
 31
0.0
  0
LINE
  5
41D
102
{ACAD_REACTORS
330
457
102
}
330
1F
100
AcDbEntity
  8
実線
100
AcDbLine
 10
266.8162494034082
 20
345.2688721988492
 30
0.0
 11
265.5654412698058
 21
345.2688721988492
 31
0.0
  0
LINE
  5
41E
102
{ACAD_REACTORS
330
457
102
}
330
1F
100
AcDbEntity
  8
実線
100
AcDbLine
 10
313.5654412698059
 20
239.8688721988493
 30
0.0
 11
313.5654412698059
 21
325.7688721988494
 31
0.0
  0
LINE
  5
41F
102
{ACAD_REACTORS
330
457
102
}
330
1F
100
AcDbEntity
  8
実線
100
AcDbLine
 10
233.5654412698058
 20
325.7688721988494
 30
0.0
 11
233.5654412698058
 21
239.8688721988493
 31
0.0
  0
LINE
  5
420
102
{ACAD_REACTORS
330
457
102
}
330
1F
100
AcDbEntity
  8
実線
100
AcDbLine
 10
313.5654412698059
 20
325.7688721988494
 30
0.0
 11
233.5654412698058
 21
325.7688721988494
 31
0.0
  0
LINE
  5
421
102
{ACAD_REACTORS
330
457
102
}
330
1F
100
AcDbEntity
  8
実線
100
AcDbLine
 10
320.5654412698061
 20
218.8688721988493
 30
0.0
 11
301.5654412698059
 21
218.8688721988493
 31
0.0
  0
LINE
  5
422
102
{ACAD_REACTORS
330
457
102
}
330
1F
100
AcDbEntity
  8
実線
100
AcDbLine
 10
301.5654412698059
 20
193.4688721988492
 30
0.0
 11
320.5654412698061
 21
193.4688721988492
 31
0.0
  0
LINE
  5
423
102
{ACAD_REACTORS
330
457
102
}
330
1F
100
AcDbEntity
  8
実線
100
AcDbLine
 10
328.5654412698061
 20
180.9188721988494
 30
0.0
 11
328.5654412698061
 21
231.4188721988494
 31
0.0
  0
LINE
  5
424
102
{ACAD_REACTORS
330
457
102
}
330
1F
100
AcDbEntity
  8
実線
100
AcDbLine
 10
328.5654412698061
 20
231.4188721988494
 30
0.0
 11
325.7154412698057
 21
231.4188721988494
 31
0.0
  0
LINE
  5
425
102
{ACAD_REACTORS
330
457
102
}
330
1F
100
AcDbEntity
  8
実線
100
AcDbLine
 10
325.7154412698057
 20
180.9188721988494
 30
0.0
 11
328.5654412698061
 21
180.9188721988494
 31
0.0
  0
LINE
  5
426
102
{ACAD_REACTORS
330
457
102
}
330
1F
100
AcDbEntity
  8
実線
100
AcDbLine
 10
325.7154412698057
 20
180.9188721988494
 30
0.0
 11
325.7154412698057
 21
231.4188721988494
 31
0.0
  0
LINE
  5
427
102
{ACAD_REACTORS
330
457
102
}
330
1F
100
AcDbEntity
  8
実線
100
AcDbLine
 10
320.5654412698061
 20
193.4688721988492
 30
0.0
 11
320.5654412698061
 21
218.8688721988493
 31
0.0
  0
LINE
  5
428
102
{ACAD_REACTORS
330
457
102
}
330
1F
100
AcDbEntity
  8
実線
100
AcDbLine
 10
320.5654412698061
 20
193.4688721988492
 30
0.0
 11
325.7154412698057
 21
180.9188721988494
 31
0.0
  0
LINE
  5
429
102
{ACAD_REACTORS
330
457
102
}
330
1F
100
AcDbEntity
  8
実線
100
AcDbLine
 10
325.7154412698057
 20
231.4188721988494
 30
0.0
 11
320.5654412698061
 21
218.8688721988493
 31
0.0
  0
LINE
  5
42A
102
{ACAD_REACTORS
330
457
102
}
330
1F
100
AcDbEntity
  8
実線
100
AcDbLine
 10
245.5654412698058
 20
226.8688721988493
 30
0.0
 11
233.5654412698058
 21
238.8688721988493
 31
0.0
  0
LINE
  5
42B
102
{ACAD_REACTORS
330
457
102
}
330
1F
100
AcDbEntity
  8
実線
100
AcDbLine
 10
301.5654412698059
 20
226.8688721988493
 30
0.0
 11
313.5654412698061
 21
238.8688721988491
 31
0.0
  0
ARC
  5
42C
102
{ACAD_REACTORS
330
457
102
}
330
1F
100
AcDbEntity
  8
実線
100
AcDbCircle
 10
273.5654412698058
 20
198.8688721988493
 30
0.0
 40
40.0
100
AcDbArc
 50
45.0
 51
135.0
  0
LINE
  5
42D
102
{ACAD_REACTORS
330
457
102
}
330
1F
100
AcDbEntity
  8
実線
100
AcDbLine
 10
313.5654412698059
 20
238.8688721988493
 30
0.0
 11
313.5654412698059
 21
239.8688721988493
 31
0.0
  0
LINE
  5
42E
102
{ACAD_REACTORS
330
457
102
}
330
1F
100
AcDbEntity
  8
実線
100
AcDbLine
 10
233.5654412698058
 20
239.8688721988493
 30
0.0
 11
233.5654412698058
 21
238.8688721988493
 31
0.0
  0
LINE
  5
42F
102
{ACAD_REACTORS
330
457
102
}
330
1F
100
AcDbEntity
  8
実線
100
AcDbLine
 10
313.5654412698059
 20
239.8688721988493
 30
0.0
 11
233.5654412698058
 21
239.8688721988493
 31
0.0
  0
LINE
  5
430
102
{ACAD_REACTORS
330
457
102
}
330
1F
100
AcDbEntity
  8
実線
100
AcDbLine
 10
276.8031806348621
 20
330.7688721988494
 30
0.0
 11
276.8031806348621
 21
331.9688721988492
 31
0.0
  0
LINE
  5
431
102
{ACAD_REACTORS
330
457
102
}
330
1F
100
AcDbEntity
  8
実線
100
AcDbLine
 10
276.8031806348621
 20
331.9688721988492
 30
0.0
 11
266.3409433549581
 21
331.9688721988492
 31
0.0
  0
LINE
  5
432
102
{ACAD_REACTORS
330
457
102
}
330
1F
100
AcDbEntity
  8
実線
100
AcDbLine
 10
276.327874586412
 20
330.7688721988494
 30
0.0
 11
276.327874586412
 21
331.9688721988492
 31
0.0
  0
LINE
  5
433
102
{ACAD_REACTORS
330
457
102
}
330
1F
100
AcDbEntity
  8
実線
100
AcDbLine
 10
266.3409433549581
 20
330.7688721988494
 30
0.0
 11
266.3409433549581
 21
331.9688721988492
 31
0.0
  0
LINE
  5
434
102
{ACAD_REACTORS
330
457
102
}
330
1F
100
AcDbEntity
  8
実線
100
AcDbLine
 10
297.323900594374
 20
331.9688721988492
 30
0.0
 11
296.8383729104733
 21
331.9688721988492
 31
0.0
  0
LINE
  5
435
102
{ACAD_REACTORS
330
457
102
}
330
1F
100
AcDbEntity
  8
実線
100
AcDbLine
 10
297.323900594374
 20
330.7688721988494
 30
0.0
 11
297.323900594374
 21
331.9688721988492
 31
0.0
  0
LINE
  5
436
102
{ACAD_REACTORS
330
457
102
}
330
1F
100
AcDbEntity
  8
実線
100
AcDbLine
 10
308.5654412698058
 20
330.7688721988494
 30
0.0
 11
238.5654412698059
 21
330.7688721988494
 31
0.0
  0
ARC
  5
437
102
{ACAD_REACTORS
330
457
102
}
330
1F
100
AcDbEntity
  8
実線
100
AcDbCircle
 10
308.5654412698058
 20
325.7688721988494
 30
0.0
 40
5.0
100
AcDbArc
 50
0.0
 51
90.0
  0
ARC
  5
438
102
{ACAD_REACTORS
330
457
102
}
330
1F
100
AcDbEntity
  8
実線
100
AcDbCircle
 10
238.5654412698059
 20
325.7688721988494
 30
0.0
 40
5.0
100
AcDbArc
 50
90.0
 51
180.0
  0
LINE
  5
439
102
{ACAD_REACTORS
330
457
102
}
330
1F
100
AcDbEntity
  8
実線
100
AcDbLine
 10
301.5654412698059
 20
191.6688721988494
 30
0.0
 11
245.5654412698058
 21
191.6688721988494
 31
0.0
  0
LINE
  5
43A
102
{ACAD_REACTORS
330
457
102
}
330
1F
100
AcDbEntity
  8
実線
100
AcDbLine
 10
301.5654412698059
 20
191.6688721988494
 30
0.0
 11
301.5654412698059
 21
226.8688721988493
 31
0.0
  0
LINE
  5
43B
102
{ACAD_REACTORS
330
457
102
}
330
1F
100
AcDbEntity
  8
実線
100
AcDbLine
 10
245.5654412698058
 20
191.6688721988494
 30
0.0
 11
245.5654412698058
 21
226.8688721988493
 31
0.0
  0
LINE
  5
43C
102
{ACAD_REACTORS
330
457
102
}
330
1F
100
AcDbEntity
  8
実線
100
AcDbLine
 10
267.5654412698059
 20
216.8688721988493
 30
0.0
 11
245.5654412698058
 21
216.8688721988493
 31
0.0
  0
LINE
  5
43D
102
{ACAD_REACTORS
330
457
102
}
330
1F
100
AcDbEntity
  8
実線
100
AcDbLine
 10
279.5654412698059
 20
216.8688721988493
 30
0.0
 11
301.5654412698059
 21
216.8688721988493
 31
0.0
  0
LINE
  5
43E
102
{ACAD_REACTORS
330
457
102
}
330
1F
100
AcDbEntity
  8
実線
100
AcDbLine
 10
301.5654412698059
 20
226.8688721988493
 30
0.0
 11
245.5654412698058
 21
226.8688721988493
 31
0.0
  0
LINE
  5
43F
102
{ACAD_REACTORS
330
457
102
}
330
1F
100
AcDbEntity
  8
実線
100
AcDbLine
 10
267.5654412698059
 20
191.6688721988494
 30
0.0
 11
267.5654412698059
 21
216.8688721988493
 31
0.0
  0
LINE
  5
440
102
{ACAD_REACTORS
330
457
102
}
330
1F
100
AcDbEntity
  8
実線
100
AcDbLine
 10
279.5654412698059
 20
191.6688721988494
 30
0.0
 11
279.5654412698059
 21
216.8688721988493
 31
0.0
  0
LINE
  5
441
102
{ACAD_REACTORS
330
454
102
}
330
1F
100
AcDbEntity
  8
中心線
100
AcDbLine
 10
216.5654412698059
 20
46.16887219884927
 30
0.0
 11
330.5654412698059
 21
46.16887219884927
 31
0.0
  0
LINE
  5
442
102
{ACAD_REACTORS
330
454
102
}
330
1F
100
AcDbEntity
  8
中心線
100
AcDbLine
 10
273.5654412698058
 20
1.168872198849271
 30
0.0
 11
273.5654412698058
 21
91.16887219884928
 31
0.0
  0
LINE
  5
443
102
{ACAD_REACTORS
330
4A6
102
}
330
1F
100
AcDbEntity
  8
中心線
100
AcDbLine
 10
216.5654412698059
 20
486.1688721988493
 30
0.0
 11
330.5654412698059
 21
486.1688721988493
 31
0.0
  0
LINE
  5
444
102
{ACAD_REACTORS
330
4A6
102
}
330
1F
100
AcDbEntity
  8
中心線
100
AcDbLine
 10
273.5654412698058
 20
441.1688721988493
 30
0.0
 11
273.5654412698058
 21
531.1688721988494
 31
0.0
  0
LINE
  5
445
102
{ACAD_REACTORS
330
456
102
}
330
1F
100
AcDbEntity
  8
中心線
100
AcDbLine
 10
493.565441269806
 20
149.1688721988492
 30
0.0
 11
493.565441269806
 21
362.9370172058907
 31
0.0
  0
LINE
  5
446
102
{ACAD_REACTORS
330
456
102
}
330
1F
100
AcDbEntity
  8
中心線
100
AcDbLine
 10
448.5654412698059
 20
206.1688721988493
 30
0.0
 11
538.565441269806
 21
206.1688721988493
 31
0.0
  0
LINE
  5
44E
102
{ACAD_REACTORS
330
455
102
}
330
1F
100
AcDbEntity
  8
中心線
100
AcDbLine
 10
713.565441269806
 20
149.1688721988492
 30
0.0
 11
713.565441269806
 21
362.9370172058907
 31
0.0
  0
LINE
  5
44F
102
{ACAD_REACTORS
330
455
102
}
330
1F
100
AcDbEntity
  8
中心線
100
AcDbLine
 10
656.565441269806
 20
206.1688721988493
 30
0.0
 11
770.5654412698058
 21
206.1688721988493
 31
0.0
  0
LINE
  5
450
102
{ACAD_REACTORS
330
457
102
}
330
1F
100
AcDbEntity
  8
中心線
100
AcDbLine
 10
273.5654412698058
 20
149.1688721988492
 30
0.0
 11
273.5654412698058
 21
362.9370172058907
 31
0.0
  0
LINE
  5
451
102
{ACAD_REACTORS
330
457
102
}
330
1F
100
AcDbEntity
  8
中心線
100
AcDbLine
 10
216.5654412698058
 20
206.1688721988493
 30
0.0
 11
330.5654412698058
 21
206.1688721988493
 31
0.0
  0
LINE
  5
452
102
{ACAD_REACTORS
330
458
102
}
330
1F
100
AcDbEntity
  8
中心線
100
AcDbLine
 10
53.56544126980577
 20
149.1688721988492
 30
0.0
 11
53.56544126980577
 21
362.9370172058907
 31
0.0
  0
LINE
  5
453
102
{ACAD_REACTORS
330
458
102
}
330
1F
100
AcDbEntity
  8
中心線
100
AcDbLine
 10
8.565441269805774
 20
206.1688721988493
 30
0.0
 11
98.56544126980578
 21
206.1688721988493
 31
0.0
  0
ENDSEC
  0
SECTION
  2
OBJECTS
  0
DICTIONARY
  5
C
330
0
100
AcDbDictionary
281
     1
  3
ACAD_CIP_PREVIOUS_PRODUCT_INFO
350
23D
  3
ACAD_COLOR
350
233
  3
ACAD_DETAILVIEWSTYLE
350
236
  3
ACAD_GROUP
350
D
  3
ACAD_LAYOUT
350
1A
  3
ACAD_MATERIAL
350
43
  3
ACAD_MLEADERSTYLE
350
5B
  3
ACAD_MLINESTYLE
350
17
  3
ACAD_PLOTSETTINGS
350
19
  3
ACAD_PLOTSTYLENAME
350
E
  3
ACAD_SCALELIST
350
47
  3
ACAD_SECTIONVIEWSTYLE
350
234
  3
ACAD_TABLESTYLE
350
59
  3
ACAD_VISUALSTYLE
350
2A
  3
ACDB_RECOMPOSE_DATA
350
4B2
  3
AcDbVariableDictionary
350
1E8
  3
DWGPROPS
350
4B3
  0
DICTIONARY
  5
244
330
2
100
AcDbDictionary
280
     1
281
     1
  3
ACAD_LAYERSTATES
360
245
  0
DICTIONARY
  5
45A
330
10
100
AcDbDictionary
280
     1
281
     1
  3
ADSK_XREC_LAYER_RECONCILED
360
45B
  0
DICTIONARY
  5
240
330
23F
100
AcDbDictionary
280
     1
281
     1
  3
ADSK_XREC_LAYER_RECONCILED
360
45C
  0
DICTIONARY
  5
242
330
241
100
AcDbDictionary
280
     1
281
     1
  3
ADSK_XREC_LAYER_RECONCILED
360
45D
  0
DICTIONARY
  5
301
330
1F
100
AcDbDictionary
280
     1
281
     1
  3
ACAD_SORTENTS
360
302
  0
XRECORD
  5
23D
102
{ACAD_REACTORS
330
C
102
}
330
C
100
AcDbXrecord
280
     1
300
ACDLT
300
2016
300
ACDLT_F_S
  0
DICTIONARY
  5
233
102
{ACAD_REACTORS
330
C
102
}
330
C
100
AcDbDictionary
281
     1
  0
DICTIONARY
  5
236
102
{ACAD_REACTORS
330
C
102
}
330
C
100
AcDbDictionary
281
     1
  3
Metric50
350
237
  0
DICTIONARY
  5
D
102
{ACAD_REACTORS
330
C
102
}
330
C
100
AcDbDictionary
281
     1
  3
*A1
350
454
  3
*A2
350
455
  3
*A3
350
456
  3
*A4
350
457
  3
*A5
350
458
  3
*A7
350
4A6
  0
DICTIONARY
  5
1A
102
{ACAD_REACTORS
330
C
102
}
330
C
100
AcDbDictionary
281
     1
  3
Layout1
350
1E
  3
Model
350
22
  3
レイアウト1
350
238
  0
DICTIONARY
  5
43
102
{ACAD_REACTORS
330
C
102
}
330
C
100
AcDbDictionary
281
     1
  3
ByBlock
350
45
  3
ByLayer
350
44
  3
Global
350
46
  0
DICTIONARY
  5
5B
102
{ACAD_REACTORS
330
C
102
}
330
C
100
AcDbDictionary
281
     1
  3
Standard
350
5C
  0
DICTIONARY
  5
17
102
{ACAD_REACTORS
330
C
102
}
330
C
100
AcDbDictionary
281
     1
  3
Standard
350
18
  0
DICTIONARY
  5
19
102
{ACAD_REACTORS
330
C
102
}
330
C
100
AcDbDictionary
281
     1
  0
ACDBDICTIONARYWDFLT
  5
E
102
{ACAD_REACTORS
330
C
102
}
330
C
100
AcDbDictionary
281
     1
  3
Normal
350
F
100
AcDbDictionaryWithDefault
340
F
  0
DICTIONARY
  5
47
102
{ACAD_REACTORS
330
C
102
}
330
C
100
AcDbDictionary
281
     1
  3
A0
350
48
  3
A1
350
49
  3
A2
350
4A
  3
A3
350
4B
  3
A4
350
4C
  3
A5
350
4D
  3
A6
350
4E
  3
A7
350
4F
  3
A8
350
50
  3
A9
350
51
  3
B0
350
52
  3
B1
350
53
  3
B2
350
54
  3
B3
350
55
  3
B4
350
56
  3
B5
350
57
  3
B6
350
58
  0
DICTIONARY
  5
234
102
{ACAD_REACTORS
330
C
102
}
330
C
100
AcDbDictionary
281
     1
  3
Metric50
350
235
  0
DICTIONARY
  5
59
102
{ACAD_REACTORS
330
C
102
}
330
C
100
AcDbDictionary
281
     1
  3
Standard
350
5A
  0
DICTIONARY
  5
2A
102
{ACAD_REACTORS
330
C
102
}
330
C
100
AcDbDictionary
281
     1
  3
2dWireframe
350
2F
  3
Basic
350
32
  3
Brighten
350
36
  3
ColorChange
350
3A
  3
Conceptual
350
34
  3
Dim
350
35
  3
EdgeColorOff
350
3D
  3
Facepattern
350
39
  3
Flat
350
2B
  3
FlatWithEdges
350
2C
  3
Gouraud
350
2D
  3
GouraudWithEdges
350
2E
  3
Hidden
350
31
  3
JitterOff
350
3B
  3
Linepattern
350
38
  3
OverhangOff
350
3C
  3
Realistic
350
33
  3
Shaded
350
42
  3
Shaded with edges
350
41
  3
Shades of Gray
350
3E
  3
Sketchy
350
3F
  3
Thicken
350
37
  3
Wireframe
350
30
  3
X-Ray
350
40
  0
XRECORD
  5
4B2
102
{ACAD_REACTORS
330
C
102
}
330
C
100
AcDbXrecord
280
     1
 90
        1
330
5A
  0
DICTIONARY
  5
1E8
102
{ACAD_REACTORS
330
C
102
}
330
C
100
AcDbDictionary
281
     1
  3
CANNOSCALE
350
1F6
  3
CENTEREXE
350
1EF
  3
CENTERLTYPEFILE
350
1F0
  3
CMLEADERSTYLE
350
1EA
  3
CTABLESTYLE
350
1E9
  3
CVIEWDETAILSTYLE
350
45E
  3
CVIEWSECTIONSTYLE
350
45F
  3
DIMASSOC
350
1F1
  3
HIDETEXT
350
1F2
  3
INDEXCTL
350
4AA
  3
LAYEREVAL
350
461
  3
LAYERNOTIFY
350
462
  3
LIGHTINGUNITS
350
460
  3
LOFTANG1
350
4AD
  3
LOFTANG2
350
4AE
  3
LONGITUDE
350
4AF
  3
MSLTSCALE
350
1F7
  3
PSOLHEIGHT
350
4AC
  3
PSOLWIDTH
350
4AB
  3
SORTENTS
350
4A9
  3
XCLIPFRAME
350
4B0
  0
XRECORD
  5
4B3
102
{ACAD_REACTORS
330
C
102
}
330
C
100
AcDbXrecord
280
     1
  1
DWGPROPS COOKIE
  2

  3

  4

  6
File was created by TR2_DExp
  7

  8
fujino
  9

300
=
301
=
302
=
303
=
304
=
305
=
306
=
307
=
308
=
309
=
 40
0.0045320138888889
 41
2455188.75
 42
2459739.552114595
  1

 90
        0
  0
DICTIONARY
  5
245
102
{ACAD_REACTORS
330
244
102
}
330
244
100
AcDbDictionary
281
     1
  0
XRECORD
  5
45B
102
{ACAD_REACTORS
330
45A
102
}
330
45A
100
AcDbXrecord
280
     1
290
     1
  0
XRECORD
  5
45C
102
{ACAD_REACTORS
330
240
102
}
330
240
100
AcDbXrecord
280
     1
290
     1
  0
XRECORD
  5
45D
102
{ACAD_REACTORS
330
242
102
}
330
242
100
AcDbXrecord
280
     1
290
     1
  0
SORTENTSTABLE
  5
302
102
{ACAD_REACTORS
330
301
102
}
330
301
100
AcDbSortentsTable
330
1F
331
38F
  5
31A
331
38B
  5
316
331
387
  5
312
331
3C6
  5
351
331
31C
  5
3C1
331
318
  5
3BD
331
357
  5
37E
331
383
  5
30E
331
3C2
  5
34D
331
2ED
  5
3E8
331
314
  5
3B9
331
353
  5
37A
331
2E9
  5
3E4
331
310
  5
3B5
331
3FC
  5
292
331
437
  5
2CD
331
3F8
  5
309
331
433
  5
2C9
331
3F4
  5
305
331
3F0
  5
2FF
331
3BE
  5
349
331
37F
  5
3A6
331
3BA
  5
345
331
34F
  5
376
331
37B
  5
3A2
331
34B
  5
372
331
377
  5
39E
331
3B6
  5
341
331
446
  5
446
331
2E5
  5
3E0
331
30C
  5
3B1
331
373
  5
39A
331
308
  5
3AD
331
347
  5
36E
331
3B2
  5
33D
331
442
  5
442
331
2E1
  5
3DC
331
2DD
  5
3D8
331
343
  5
36A
331
450
  5
450
331
2D9
  5
3D4
331
42F
  5
2C5
331
3EC
  5
2FB
331
42B
  5
2C1
331
3E8
  5
2F7
331
427
  5
2BD
331
423
  5
2B9
331
3E4
  5
2F3
331
3E0
  5
2EF
331
36F
  5
396
331
3AE
  5
339
331
3AA
  5
335
331
33F
  5
366
331
36B
  5
392
331
33B
  5
362
331
367
  5
38E
331
3A6
  5
331
331
2F8
  5
3F3
331
337
  5
35E
331
363
  5
38A
331
3A2
  5
32D
331
2F4
  5
3EF
331
333
  5
35A
331
2F0
  5
3EB
331
41F
  5
2B5
331
3DC
  5
2EB
331
41B
  5
2B1
331
3D8
  5
2E7
331
417
  5
2AD
331
413
  5
2A9
331
3D4
  5
2E3
331
3D0
  5
2DF
331
35F
  5
386
331
39E
  5
329
331
39A
  5
325
331
32F
  5
356
331
35B
  5
382
331
32B
  5
3D0
331
396
  5
321
331
305
  5
3AA
331
327
  5
3CC
331
392
  5
31D
331
323
  5
3C8
331
40F
  5
2A5
331
3CC
  5
2DB
331
40B
  5
2A1
331
3C8
  5
2D7
331
407
  5
29D
331
403
  5
299
331
43C
  5
2D2
331
438
  5
2CE
331
38E
  5
319
331
38A
  5
315
331
31F
  5
3C4
331
31B
  5
3C0
331
386
  5
311
331
3C5
  5
350
331
317
  5
3BC
331
356
  5
37D
331
382
  5
30D
331
3C1
  5
34C
331
2EC
  5
3E7
331
313
  5
3B8
331
352
  5
379
331
2E8
  5
3E3
331
3FF
  5
295
331
3FB
  5
291
331
436
  5
2CC
331
3F7
  5
308
331
3F3
  5
304
331
432
  5
2C8
331
3BD
  5
348
331
37E
  5
3A5
331
34E
  5
375
331
37A
  5
3A1
331
3B9
  5
344
331
30F
  5
3B4
331
34A
  5
371
331
376
  5
39D
331
3B5
  5
340
331
445
  5
445
331
2E4
  5
3DF
331
30B
  5
3B0
331
372
  5
399
331
346
  5
36D
331
3B1
  5
33C
331
441
  5
441
331
2E0
  5
3DB
331
453
  5
453
331
2DC
  5
3D7
331
342
  5
369
331
2D8
  5
3D3
331
3EF
  5
2FE
331
42E
  5
2C4
331
3EB
  5
2FA
331
42A
  5
2C0
331
426
  5
2BC
331
3E7
  5
2F6
331
422
  5
2B8
331
3E3
  5
2F2
331
3AD
  5
338
331
36E
  5
395
331
3A9
  5
334
331
2FF
  5
3FA
331
33E
  5
365
331
36A
  5
391
331
33A
  5
361
331
366
  5
38D
331
3A5
  5
330
331
2F7
  5
3F2
331
336
  5
35D
331
362
  5
389
331
3A1
  5
32C
331
2F3
  5
3EE
331
332
  5
359
331
3DF
  5
2EE
331
41E
  5
2B4
331
3DB
  5
2EA
331
41A
  5
2B0
331
3D7
  5
2E6
331
416
  5
2AC
331
412
  5
2A8
331
3D3
  5
2E2
331
35E
  5
385
331
39D
  5
328
331
399
  5
324
331
32E
  5
355
331
35A
  5
381
331
32A
  5
3CF
331
395
  5
320
331
304
  5
3A9
331
326
  5
3CB
331
391
  5
31C
331
300
  5
3FB
331
322
  5
3C7
331
3CF
  5
2DE
331
40E
  5
2A4
331
3CB
  5
2DA
331
40A
  5
2A0
331
406
  5
29C
331
402
  5
298
331
44F
  5
44F
331
43F
  5
2D5
331
43B
  5
2D1
331
38D
  5
318
331
389
  5
314
331
31E
  5
3C3
331
31A
  5
3BF
331
385
  5
310
331
3C4
  5
34F
331
2EF
  5
3EA
331
316
  5
3BB
331
355
  5
37C
331
381
  5
30C
331
3C0
  5
34B
331
2EB
  5
3E6
331
312
  5
3B7
331
351
  5
378
331
3FE
  5
294
331
3FA
  5
30B
331
435
  5
2CB
331
3F6
  5
307
331
3F2
  5
303
331
431
  5
2C7
331
3BC
  5
347
331
37D
  5
3A4
331
34D
  5
374
331
379
  5
3A0
331
3B8
  5
343
331
2E7
  5
3E2
331
30E
  5
3B3
331
30A
  5
3AF
331
349
  5
370
331
375
  5
39C
331
3B4
  5
33F
331
444
  5
444
331
2E3
  5
3DE
331
371
  5
398
331
345
  5
36C
331
3B0
  5
33B
331
440
  5
2D6
331
2DF
  5
3DA
331
452
  5
452
331
2DB
  5
3D6
331
341
  5
368
331
3EE
  5
2FD
331
42D
  5
2C3
331
3EA
  5
2F9
331
429
  5
2BF
331
425
  5
2BB
331
3E6
  5
2F5
331
3E2
  5
2F1
331
421
  5
2B7
331
3AC
  5
337
331
36D
  5
394
331
33D
  5
364
331
369
  5
390
331
3A8
  5
333
331
2D7
  5
3D2
331
2FE
  5
3F9
331
339
  5
360
331
365
  5
38C
331
3A4
  5
32F
331
2FA
  5
3F5
331
335
  5
35C
331
361
  5
388
331
3A0
  5
32B
331
2F2
  5
3ED
331
331
  5
358
331
3DE
  5
2ED
331
41D
  5
2B3
331
3DA
  5
2E9
331
419
  5
2AF
331
415
  5
2AB
331
3D6
  5
2E5
331
411
  5
2A7
331
3D2
  5
2E1
331
39C
  5
327
331
35D
  5
384
331
398
  5
323
331
307
  5
3AC
331
32D
  5
354
331
359
  5
380
331
329
  5
3CE
331
394
  5
31F
331
303
  5
3A8
331
325
  5
3CA
331
390
  5
31B
331
321
  5
3C6
331
3CE
  5
2DD
331
40D
  5
2A3
331
3CA
  5
2D9
331
409
  5
29F
331
405
  5
29B
331
401
  5
297
331
44E
  5
44E
331
43E
  5
2D4
331
43A
  5
2D0
331
38C
  5
317
331
388
  5
313
331
3C7
  5
352
331
31D
  5
3C2
331
319
  5
3BE
331
384
  5
30F
331
3C3
  5
34E
331
380
  5
3A7
331
2EE
  5
3E9
331
315
  5
3BA
331
354
  5
37B
331
2EA
  5
3E5
331
311
  5
3B6
331
350
  5
377
331
3FD
  5
293
331
3F9
  5
30A
331
434
  5
2CA
331
3F5
  5
306
331
3F1
  5
300
331
430
  5
2C6
331
3BF
  5
34A
331
3BB
  5
346
331
37C
  5
3A3
331
34C
  5
373
331
378
  5
39F
331
3B7
  5
342
331
2E6
  5
3E1
331
30D
  5
3B2
331
374
  5
39B
331
309
  5
3AE
331
348
  5
36F
331
3B3
  5
33E
331
443
  5
443
331
2E2
  5
3DD
331
370
  5
397
331
2DE
  5
3D9
331
344
  5
36B
331
451
  5
451
331
2DA
  5
3D5
331
340
  5
367
331
3ED
  5
2FC
331
42C
  5
2C2
331
3E9
  5
2F8
331
428
  5
2BE
331
424
  5
2BA
331
3E5
  5
2F4
331
3E1
  5
2F0
331
420
  5
2B6
331
3AF
  5
33A
331
3AB
  5
336
331
36C
  5
393
331
33C
  5
363
331
368
  5
38F
331
3A7
  5
332
331
2D6
  5
3D1
331
2FD
  5
3F8
331
2F9
  5
3F4
331
338
  5
35F
331
364
  5
38B
331
3A3
  5
32E
331
334
  5
35B
331
360
  5
387
331
2F1
  5
3EC
331
330
  5
357
331
3DD
  5
2EC
331
41C
  5
2B2
331
3D9
  5
2E8
331
418
  5
2AE
331
414
  5
2AA
331
3D5
  5
2E4
331
3D1
  5
2E0
331
410
  5
2A6
331
39F
  5
32A
331
39B
  5
326
331
35C
  5
383
331
32C
  5
353
331
358
  5
37F
331
397
  5
322
331
306
  5
3AB
331
328
  5
3CD
331
393
  5
31E
331
324
  5
3C9
331
320
  5
3C5
331
3CD
  5
2DC
331
40C
  5
2A2
331
3C9
  5
2D8
331
408
  5
29E
331
404
  5
29A
331
400
  5
296
331
43D
  5
2D3
331
439
  5
2CF
  0
ACDBDETAILVIEWSTYLE
  5
237
102
{ACAD_XDICTIONARY
360
4EB
102
}
102
{ACAD_REACTORS
330
236
102
}
330
236
100
AcDbModelDocViewStyle
 70
     0
  3
Metric50
290
     0
100
AcDbDetailViewStyle
 70
     0
 71
     0
 90
        3
 71
     1
340
11
 40
5.0
340
0
 40
5.0
300

 40
0.0
280
     1
 71
     2
340
16
 90
       25
 71
     3
340
11
 40
5.0
 90
        0
 40
15.0
 90
        1
300
%<\AcVar ViewDetailId>% (%<\AcVar ViewScale \f "%sn">%)
 71
     4
340
16
 90
       25
340
16
 90
       25
280
     0
  0
GROUP
  5
454
102
{ACAD_REACTORS
330
D
102
}
330
D
100
AcDbGroup
300

 70
     1
 71
     1
340
442
340
441
340
32B
340
32A
340
329
340
328
340
327
340
326
340
325
340
324
340
323
340
322
340
321
340
320
340
31F
340
31E
340
31D
340
31C
340
31B
340
31A
340
319
340
318
340
317
340
316
340
315
340
314
340
313
340
312
340
311
340
310
340
30F
340
30E
340
30D
340
30C
340
30B
340
30A
340
309
340
308
340
307
340
306
340
305
340
304
340
303
  0
GROUP
  5
455
102
{ACAD_REACTORS
330
D
102
}
330
D
100
AcDbGroup
300

 70
     1
 71
     1
340
44F
340
44E
340
380
340
37F
340
37E
340
37D
340
37C
340
37B
340
37A
340
379
340
378
340
377
340
376
340
375
340
374
340
373
340
372
340
371
340
370
340
36F
340
36E
340
36D
340
36C
340
36B
340
36A
340
369
340
368
340
367
340
366
340
365
340
364
340
363
340
362
340
361
340
360
340
35F
340
35E
340
35D
340
35C
340
35B
340
35A
340
359
340
358
340
357
340
356
340
355
340
354
340
353
340
352
340
351
340
350
340
34F
340
34E
340
34D
340
34C
340
34B
340
34A
340
349
340
348
340
347
340
346
340
345
340
344
340
343
340
342
340
341
340
340
340
33F
340
33E
340
33D
340
33C
340
33B
340
33A
340
339
340
338
340
337
340
336
340
335
340
334
340
333
340
332
340
331
340
330
340
32F
340
32E
340
32D
340
32C
  0
GROUP
  5
456
102
{ACAD_REACTORS
330
D
102
}
330
D
100
AcDbGroup
300

 70
     1
 71
     1
340
446
340
445
340
3C7
340
3C6
340
3C5
340
3C4
340
3C3
340
3C2
340
3C1
340
3C0
340
3BF
340
3BE
340
3BD
340
3BC
340
3BB
340
3BA
340
3B9
340
3B8
340
3B7
340
3B6
340
3B5
340
3B4
340
3B3
340
3B2
340
3B1
340
3B0
340
3AF
340
3AE
340
3AD
340
3AC
340
3AB
340
3AA
340
3A9
340
3A8
340
3A7
340
3A6
340
3A5
340
3A4
340
3A3
340
3A2
340
3A1
340
3A0
340
39F
340
39E
340
39D
340
39C
340
39B
340
39A
340
399
340
398
340
397
340
396
340
395
340
394
340
393
340
392
340
391
340
390
340
38F
340
38E
340
38D
340
38C
340
38B
340
38A
340
389
340
388
340
387
340
386
340
385
340
384
340
383
340
382
340
381
  0
GROUP
  5
457
102
{ACAD_REACTORS
330
D
102
}
330
D
100
AcDbGroup
300

 70
     1
 71
     1
340
451
340
450
340
440
340
43F
340
43E
340
43D
340
43C
340
43B
340
43A
340
439
340
438
340
437
340
436
340
435
340
434
340
433
340
432
340
431
340
430
340
42F
340
42E
340
42D
340
42C
340
42B
340
42A
340
429
340
428
340
427
340
426
340
425
340
424
340
423
340
422
340
421
340
420
340
41F
340
41E
340
41D
340
41C
340
41B
340
41A
340
419
340
418
340
417
340
416
340
415
340
414
340
413
340
412
340
411
340
410
340
40F
340
40E
340
40D
340
40C
340
40B
340
40A
340
409
340
408
340
407
340
406
340
405
340
404
340
403
340
402
340
401
340
400
340
3FF
340
3FE
340
3FD
340
3FC
340
3FB
  0
GROUP
  5
458
102
{ACAD_REACTORS
330
D
102
}
330
D
100
AcDbGroup
300

 70
     1
 71
     1
340
453
340
452
340
3FA
340
3F9
340
3F8
340
3F7
340
3F6
340
3F5
340
3F4
340
3F3
340
3F2
340
3F1
340
3F0
340
3EF
340
3EE
340
3ED
340
3EC
340
3EB
340
3EA
340
3E9
340
3E8
340
3E7
340
3E6
340
3E5
340
3E4
340
3E3
340
3E2
340
3E1
340
3E0
340
3DF
340
3DE
340
3DD
340
3DC
340
3DB
340
3DA
340
3D9
340
3D8
340
3D7
340
3D6
340
3D5
340
3D4
340
3D3
340
3D2
340
3D1
340
3D0
340
3CF
340
3CE
340
3CD
340
3CC
340
3CB
340
3CA
340
3C9
340
3C8
  0
GROUP
  5
4A6
102
{ACAD_REACTORS
330
D
102
}
330
D
100
AcDbGroup
300

 70
     1
 71
     1
340
444
340
443
340
300
340
2FF
340
2FE
340
2FD
340
2FA
340
2F9
340
2F8
340
2F7
340
2F4
340
2F3
340
2F2
340
2F1
340
2F0
340
2EF
340
2EE
340
2ED
340
2EC
340
2EB
340
2EA
340
2E9
340
2E8
340
2E7
340
2E6
340
2E5
340
2E4
340
2E3
340
2E2
340
2E1
340
2E0
340
2DF
340
2DE
340
2DD
340
2DC
340
2DB
340
2DA
340
2D9
340
2D8
340
2D7
340
2D6
  0
LAYOUT
  5
1E
102
{ACAD_XDICTIONARY
360
4B4
102
}
102
{ACAD_REACTORS
330
1A
102
}
330
1A
100
AcDbPlotSettings
  1

  2
none_device
  4

  6

 40
0.0
 41
0.0
 42
0.0
 43
0.0
 44
0.0
 45
0.0
 46
0.0
 47
0.0
 48
0.0
 49
0.0
140
0.0
141
0.0
142
1.0
143
1.0
 70
   688
 72
     1
 73
     0
 74
     5
  7

 75
    16
147
1.0
148
0.0
149
0.0
100
AcDbLayout
  1
Layout1
 70
     1
 71
     1
 10
0.0
 20
0.0
 11
420.0
 21
297.0
 12
0.0
 22
0.0
 32
0.0
 14
1.000000000000000E+20
 24
1.000000000000000E+20
 34
1.000000000000000E+20
 15
-1.000000000000000E+20
 25
-1.000000000000000E+20
 35
-1.000000000000000E+20
146
0.0
 13
0.0
 23
0.0
 33
0.0
 16
1.0
 26
0.0
 36
0.0
 17
0.0
 27
1.0
 37
0.0
 76
     0
330
1B
  0
LAYOUT
  5
22
102
{ACAD_XDICTIONARY
360
4B6
102
}
102
{ACAD_REACTORS
330
1A
102
}
330
1A
100
AcDbPlotSettings
  1

  2
none_device
  4
Letter_(8.50_x_11.00_Inches)
  6

 40
6.349999999999998
 41
6.349999999999998
 42
6.350005079999998
 43
6.350005079999998
 44
215.9
 45
279.4
 46
0.0
 47
0.0
 48
0.0
 49
0.0
140
0.0
141
0.0
142
1.0
143
1.0
 70
  1712
 72
     1
 73
     0
 74
     0
  7

 75
     0
147
1.0
148
0.0
149
0.0
100
AcDbLayout
  1
Model
 70
     1
 71
     0
 10
-293.2183227539062
 20
-299.0157356262207
 11
844.3967590332031
 21
441.1802825927733
 12
0.0
 22
0.0
 32
0.0
 14
-293.2183227539062
 24
-299.0157356262207
 34
0.0
 15
844.3967590332031
 25
441.1802825927733
 35
0.0
146
0.0
 13
0.0
 23
0.0
 33
0.0
 16
1.0
 26
0.0
 36
0.0
 17
0.0
 27
1.0
 37
0.0
 76
     0
330
1F
331
29
  0
LAYOUT
  5
238
102
{ACAD_XDICTIONARY
360
4ED
102
}
102
{ACAD_REACTORS
330
1A
102
}
330
1A
100
AcDbPlotSettings
  1

  2
青梅 FX DocuCentre-V C2275 T2
  4

  6

 40
0.0
 41
0.0
 42
0.0
 43
0.0
 44
0.0
 45
0.0
 46
0.0
 47
0.0
 48
0.0
 49
0.0
140
0.0
141
0.0
142
1.0
143
1.0
 70
   688
 72
     0
 73
     0
 74
     5
  7
AutoCAD_PEN.ctb
 75
    16
147
1.0
148
0.0
149
0.0
100
AcDbLayout
  1
レイアウト1
 70
     1
 71
     2
 10
0.0
 20
0.0
 11
12.0
 21
9.0
 12
0.0
 22
0.0
 32
0.0
 14
0.0
 24
0.0
 34
0.0
 15
0.0
 25
0.0
 35
0.0
146
0.0
 13
0.0
 23
0.0
 33
0.0
 16
1.0
 26
0.0
 36
0.0
 17
0.0
 27
1.0
 37
0.0
 76
     0
330
23
  0
MATERIAL
  5
45
102
{ACAD_XDICTIONARY
360
22A
102
}
102
{ACAD_REACTORS
330
43
102
}
330
43
100
AcDbMaterial
  1
ByBlock
  0
MATERIAL
  5
44
102
{ACAD_XDICTIONARY
360
228
102
}
102
{ACAD_REACTORS
330
43
102
}
330
43
100
AcDbMaterial
  1
ByLayer
  0
MATERIAL
  5
46
102
{ACAD_XDICTIONARY
360
22C
102
}
102
{ACAD_REACTORS
330
43
102
}
330
43
100
AcDbMaterial
  1
Global
  0
MLEADERSTYLE
  5
5C
102
{ACAD_REACTORS
330
5B
102
}
330
5B
100
AcDbMLeaderStyle
170
     2
171
     1
172
     0
 90
        2
 40
0.0
 41
0.0
173
     1
 91
-1056964608
340
14
 92
       -2
290
     1
 42
2.0
291
     1
 43
8.0
  3
Standard
 44
4.0
300

342
11
174
     1
178
     6
175
     1
176
     0
 93
-1056964608
 45
4.0
292
     0
297
     0
 46
4.0
 94
-1056964608
 47
1.0
 49
1.0
140
1.0
293
     1
141
0.0
294
     1
177
     0
142
1.0
295
     0
296
     0
143
3.75
1001
ACAD_MLEADERVER
1070
     2
  0
MLINESTYLE
  5
18
102
{ACAD_REACTORS
330
17
102
}
330
17
100
AcDbMlineStyle
  2
STANDARD
 70
     0
  3

 62
   256
 51
90.0
 52
90.0
 71
     2
 49
0.5
 62
   256
  6
BYLAYER
 49
-0.5
 62
   256
  6
BYLAYER
  0
ACDBPLACEHOLDER
  5
F
102
{ACAD_REACTORS
330
E
102
}
330
E
  0
SCALE
  5
48
102
{ACAD_REACTORS
330
47
102
}
330
47
100
AcDbScale
 70
     0
300
1:1
140
1.0
141
1.0
290
     1
  0
SCALE
  5
49
102
{ACAD_REACTORS
330
47
102
}
330
47
100
AcDbScale
 70
     0
300
1:2
140
1.0
141
2.0
290
     0
  0
SCALE
  5
4A
102
{ACAD_REACTORS
330
47
102
}
330
47
100
AcDbScale
 70
     0
300
1:4
140
1.0
141
4.0
290
     0
  0
SCALE
  5
4B
102
{ACAD_REACTORS
330
47
102
}
330
47
100
AcDbScale
 70
     0
300
1:5
140
1.0
141
5.0
290
     0
  0
SCALE
  5
4C
102
{ACAD_REACTORS
330
47
102
}
330
47
100
AcDbScale
 70
     0
300
1:8
140
1.0
141
8.0
290
     0
  0
SCALE
  5
4D
102
{ACAD_REACTORS
330
47
102
}
330
47
100
AcDbScale
 70
     0
300
1:10
140
1.0
141
10.0
290
     0
  0
SCALE
  5
4E
102
{ACAD_REACTORS
330
47
102
}
330
47
100
AcDbScale
 70
     0
300
1:16
140
1.0
141
16.0
290
     0
  0
SCALE
  5
4F
102
{ACAD_REACTORS
330
47
102
}
330
47
100
AcDbScale
 70
     0
300
1:20
140
1.0
141
20.0
290
     0
  0
SCALE
  5
50
102
{ACAD_REACTORS
330
47
102
}
330
47
100
AcDbScale
 70
     0
300
1:30
140
1.0
141
30.0
290
     0
  0
SCALE
  5
51
102
{ACAD_REACTORS
330
47
102
}
330
47
100
AcDbScale
 70
     0
300
1:40
140
1.0
141
40.0
290
     0
  0
SCALE
  5
52
102
{ACAD_REACTORS
330
47
102
}
330
47
100
AcDbScale
 70
     0
300
1:50
140
1.0
141
50.0
290
     0
  0
SCALE
  5
53
102
{ACAD_REACTORS
330
47
102
}
330
47
100
AcDbScale
 70
     0
300
1:100
140
1.0
141
100.0
290
     0
  0
SCALE
  5
54
102
{ACAD_REACTORS
330
47
102
}
330
47
100
AcDbScale
 70
     0
300
2:1
140
2.0
141
1.0
290
     0
  0
SCALE
  5
55
102
{ACAD_REACTORS
330
47
102
}
330
47
100
AcDbScale
 70
     0
300
4:1
140
4.0
141
1.0
290
     0
  0
SCALE
  5
56
102
{ACAD_REACTORS
330
47
102
}
330
47
100
AcDbScale
 70
     0
300
8:1
140
8.0
141
1.0
290
     0
  0
SCALE
  5
57
102
{ACAD_REACTORS
330
47
102
}
330
47
100
AcDbScale
 70
     0
300
10:1
140
10.0
141
1.0
290
     0
  0
SCALE
  5
58
102
{ACAD_REACTORS
330
47
102
}
330
47
100
AcDbScale
 70
     0
300
100:1
140
100.0
141
1.0
290
     0
  0
ACDBSECTIONVIEWSTYLE
  5
235
102
{ACAD_XDICTIONARY
360
4E9
102
}
102
{ACAD_REACTORS
330
234
102
}
330
234
100
AcDbModelDocViewStyle
 70
     0
  3
Metric50
290
     0
100
AcDbSectionViewStyle
 70
     0
 71
     0
 90
      102
 71
     1
340
11
 40
5.0
340
0
340
0
 40
5.0
300
I, O, Q, S, X, Z
 40
10.0
 90
        0
 40
2.5
 90
        0
 71
     2
340
16
 90
       25
340
16
 90
       50
 40
5.0
 40
2.5
 40
5.0
 71
     3
340
11
 40
5.0
 90
        0
 40
15.0
 90
        1
300
%<\AcVar ViewSectionStartId>%-%<\AcVar ViewSectionEndId>% (%<\AcVar ViewScale \f "%sn">%)
 71
     4
300
ANSI31
 40
1.0
 90
        0
290
     0
290
     0
 90
        6
 40
0.0
 40
1.570796326794896
 40
0.2617993877991494
 40
1.308996938995747
 40
-0.2617993877991494
 40
1.832595714594045
  0
TABLESTYLE
  5
5A
102
{ACAD_XDICTIONARY
360
463
102
}
102
{ACAD_REACTORS
330
59
102
}
330
59
100
AcDbTableStyle
  3
Standard
 70
     0
 71
     0
 40
1.5
 41
1.5
280
     0
281
     0
  7
Standard
140
4.5
170
     2
 62
     0
 63
     7
283
     0
274
    -2
284
     1
 64
     0
275
    -2
285
     1
 65
     0
276
    -2
286
     1
 66
     0
277
    -2
287
     1
 67
     0
278
    -2
288
     1
 68
     0
279
    -2
289
     1
 69
     0
  7
Standard
140
6.0
170
     5
 62
     0
 63
     7
283
     0
274
    -2
284
     1
 64
     0
275
    -2
285
     1
 65
     0
276
    -2
286
     1
 66
     0
277
    -2
287
     1
 67
     0
278
    -2
288
     1
 68
     0
279
    -2
289
     1
 69
     0
  7
Standard
140
4.5
170
     5
 62
     0
 63
     7
283
     0
274
    -2
284
     1
 64
     0
275
    -2
285
     1
 65
     0
276
    -2
286
     1
 66
     0
277
    -2
287
     1
 67
     0
278
    -2
288
     1
 68
     0
279
    -2
289
     1
 69
     0
  0
VISUALSTYLE
  5
2F
102
{ACAD_XDICTIONARY
360
4C0
102
}
102
{ACAD_REACTORS
330
2A
102
}
330
2A
100
AcDbVisualStyle
  2

 70
     4
 71
     0
 72
     2
 73
     0
 90
        0
 40
-0.6
 41
-30.0
 62
     5
 63
     7
 74
     1
 91
        4
 64
     7
 65
   257
 75
     1
175
     1
 42
1.0
 92
        0
 66
   257
 43
1.0
 76
     1
 77
     6
 78
     2
 67
     7
 79
     5
170
     0
171
     0
290
     0
174
     0
 93
        1
 44
0.0
173
     0
291
     0
 45
0.0
1001
ACAD
1000
AcDbSavedByObjectVersion
1070
     0
  0
VISUALSTYLE
  5
32
102
{ACAD_XDICTIONARY
360
4C6
102
}
102
{ACAD_REACTORS
330
2A
102
}
330
2A
100
AcDbVisualStyle
  2

 70
     7
 71
     1
 72
     0
 73
     1
 90
        0
 40
-0.6
 41
-30.0
 62
     5
 63
     7
 74
     0
 91
        4
 64
     7
 65
   257
 75
     1
175
     1
 42
1.0
 92
        8
 66
     7
 43
1.0
 76
     1
 77
     6
 78
     2
 67
     7
 79
     5
170
     0
171
     0
290
     0
174
     0
 93
        1
 44
0.0
173
     0
291
     1
 45
0.0
1001
ACAD
1000
AcDbSavedByObjectVersion
1070
     0
  0
VISUALSTYLE
  5
36
102
{ACAD_XDICTIONARY
360
4CE
102
}
102
{ACAD_REACTORS
330
2A
102
}
330
2A
100
AcDbVisualStyle
  2

 70
    12
 71
     2
 72
     2
 73
     0
 90
        0
 40
-0.6
 41
-30.0
 62
     5
 63
     7
 74
     1
 91
        4
 64
     7
 65
   257
 75
     1
175
     1
 42
1.0
 92
        8
 66
     7
 43
1.0
 76
     1
 77
     6
 78
     2
 67
     7
 79
     5
170
     0
171
     0
290
     0
174
     0
 93
        1
 44
50.0
173
     0
291
     1
 45
0.0
1001
ACAD
1000
AcDbSavedByObjectVersion
1070
     0
  0
VISUALSTYLE
  5
3A
102
{ACAD_XDICTIONARY
360
4D6
102
}
102
{ACAD_REACTORS
330
2A
102
}
330
2A
100
AcDbVisualStyle
  2

 70
    16
 71
     2
 72
     2
 73
     3
 90
        0
 40
-0.6
 41
-30.0
 62
     5
 63
     8
 74
     1
 91
        4
 64
     7
 65
   257
 75
     1
175
     1
 42
1.0
 92
        8
 66
     8
 43
1.0
 76
     1
 77
     6
 78
     2
 67
     7
 79
     5
170
     0
171
     0
290
     0
174
     0
 93
        1
 44
0.0
173
     0
291
     1
 45
0.0
1001
ACAD
1000
AcDbSavedByObjectVersion
1070
     0
  0
VISUALSTYLE
  5
34
102
{ACAD_XDICTIONARY
360
4CA
102
}
102
{ACAD_REACTORS
330
2A
102
}
330
2A
100
AcDbVisualStyle
  2

 70
     9
 71
     3
 72
     2
 73
     0
 90
        0
 40
-0.6
 41
-30.0
 62
     5
 63
     7
 74
     2
 91
        2
 64
     7
 65
   257
 75
     1
175
     1
 42
179.0
 92
        8
 66
     7
 43
1.0
 76
     1
 77
     6
 78
     2
 67
     7
 79
     3
170
     0
171
     0
290
     0
174
     0
 93
        1
 44
0.0
173
     0
291
     0
 45
0.0
1001
ACAD
1000
AcDbSavedByObjectVersion
1070
     0
  0
VISUALSTYLE
  5
35
102
{ACAD_XDICTIONARY
360
4CC
102
}
102
{ACAD_REACTORS
330
2A
102
}
330
2A
100
AcDbVisualStyle
  2

 70
    11
 71
     2
 72
     2
 73
     0
 90
        0
 40
-0.6
 41
-30.0
 62
     5
 63
     7
 74
     1
 91
        4
 64
     7
 65
   257
 75
     1
175
     1
 42
1.0
 92
        8
 66
     7
 43
1.0
 76
     1
 77
     6
 78
     2
 67
     7
 79
     5
170
     0
171
     0
290
     0
174
     0
 93
        1
 44
-50.0
173
     0
291
     1
 45
0.0
1001
ACAD
1000
AcDbSavedByObjectVersion
1070
     0
  0
VISUALSTYLE
  5
3D
102
{ACAD_XDICTIONARY
360
4DC
102
}
102
{ACAD_REACTORS
330
2A
102
}
330
2A
100
AcDbVisualStyle
  2

 70
    22
 71
     2
 72
     2
 73
     0
 90
        0
 40
-0.6
 41
-30.0
 62
     5
 63
     7
 74
     1
 91
        4
 64
     7
 65
   257
 75
     1
175
     1
 42
1.0
 92
        8
 66
     7
 43
1.0
 76
     1
 77
     6
 78
     2
 67
     7
 79
     5
170
     0
171
     0
290
     0
174
     0
 93
        1
 44
0.0
173
     0
291
     1
 45
0.0
1001
ACAD
1000
AcDbSavedByObjectVersion
1070
     0
  0
VISUALSTYLE
  5
39
102
{ACAD_XDICTIONARY
360
4D4
102
}
102
{ACAD_REACTORS
330
2A
102
}
330
2A
100
AcDbVisualStyle
  2

 70
    15
 71
     2
 72
     2
 73
     0
 90
        0
 40
-0.6
 41
-30.0
 62
     5
 63
     7
 74
     1
 91
        4
 64
     7
 65
   257
 75
     1
175
     1
 42
1.0
 92
        8
 66
     7
 43
1.0
 76
     1
 77
     6
 78
     2
 67
     7
 79
     5
170
     0
171
     0
290
     0
174
     0
 93
        1
 44
0.0
173
     0
291
     1
 45
0.0
1001
ACAD
1000
AcDbSavedByObjectVersion
1070
     0
  0
VISUALSTYLE
  5
2B
102
{ACAD_XDICTIONARY
360
4B8
102
}
102
{ACAD_REACTORS
330
2A
102
}
330
2A
100
AcDbVisualStyle
  2

 70
     0
 71
     2
 72
     1
 73
     1
 90
        2
 40
-0.6
 41
30.0
 62
     5
 63
     7
 74
     0
 91
        0
 64
     7
 65
   257
 75
     1
175
     1
 42
1.0
 92
        8
 66
     7
 43
1.0
 76
     1
 77
     6
 78
     2
 67
     7
 79
     5
170
     0
171
     0
290
     0
174
     0
 93
       13
 44
0.0
173
     0
291
     1
 45
0.0
1001
ACAD
1000
AcDbSavedByObjectVersion
1070
     0
  0
VISUALSTYLE
  5
2C
102
{ACAD_XDICTIONARY
360
4BA
102
}
102
{ACAD_REACTORS
330
2A
102
}
330
2A
100
AcDbVisualStyle
  2

 70
     1
 71
     2
 72
     1
 73
     1
 90
        2
 40
-0.6
 41
30.0
 62
     5
 63
     7
 74
     1
 91
        0
 64
     7
 65
   257
 75
     1
175
     1
 42
1.0
 92
        0
 66
   257
 43
1.0
 76
     1
 77
     6
 78
     2
 67
     7
 79
     5
170
     0
171
     0
290
     0
174
     0
 93
       13
 44
0.0
173
     0
291
     1
 45
0.0
1001
ACAD
1000
AcDbSavedByObjectVersion
1070
     0
  0
VISUALSTYLE
  5
2D
102
{ACAD_XDICTIONARY
360
4BC
102
}
102
{ACAD_REACTORS
330
2A
102
}
330
2A
100
AcDbVisualStyle
  2

 70
     2
 71
     2
 72
     2
 73
     1
 90
        2
 40
-0.6
 41
30.0
 62
     5
 63
     7
 74
     0
 91
        0
 64
     7
 65
   257
 75
     1
175
     1
 42
1.0
 92
        0
 66
     7
 43
1.0
 76
     1
 77
     6
 78
     2
 67
     7
 79
     5
170
     0
171
     0
290
     0
174
     0
 93
       13
 44
0.0
173
     0
291
     1
 45
0.0
1001
ACAD
1000
AcDbSavedByObjectVersion
1070
     0
  0
VISUALSTYLE
  5
2E
102
{ACAD_XDICTIONARY
360
4BE
102
}
102
{ACAD_REACTORS
330
2A
102
}
330
2A
100
AcDbVisualStyle
  2

 70
     3
 71
     2
 72
     2
 73
     1
 90
        2
 40
-0.6
 41
30.0
 62
     5
 63
     7
 74
     1
 91
        0
 64
     7
 65
   257
 75
     1
175
     1
 42
1.0
 92
        0
 66
   257
 43
1.0
 76
     1
 77
     6
 78
     2
 67
     7
 79
     5
170
     0
171
     0
290
     0
174
     0
 93
       13
 44
0.0
173
     0
291
     1
 45
0.0
1001
ACAD
1000
AcDbSavedByObjectVersion
1070
     0
  0
VISUALSTYLE
  5
31
102
{ACAD_XDICTIONARY
360
4C4
102
}
102
{ACAD_REACTORS
330
2A
102
}
330
2A
100
AcDbVisualStyle
  2

 70
     6
 71
     1
 72
     2
 73
     2
 90
        0
 40
-0.6
 41
-30.0
 62
     5
 63
     7
 74
     2
 91
        2
 64
     7
 65
   257
 75
     2
175
     1
 42
40.0
 92
        0
 66
   257
 43
1.0
 76
     1
 77
     6
 78
     2
 67
     7
 79
     3
170
     0
171
     0
290
     0
174
     0
 93
        1
 44
0.0
173
     0
291
     0
 45
0.0
1001
ACAD
1000
AcDbSavedByObjectVersion
1070
     0
  0
VISUALSTYLE
  5
3B
102
{ACAD_XDICTIONARY
360
4D8
102
}
102
{ACAD_REACTORS
330
2A
102
}
330
2A
100
AcDbVisualStyle
  2

 70
    20
 71
     2
 72
     2
 73
     0
 90
        0
 40
-0.6
 41
-30.0
 62
     5
 63
     7
 74
     1
 91
        4
 64
     7
 65
   257
 75
     1
175
     1
 42
1.0
 92
       10
 66
     7
 43
1.0
 76
     1
 77
     6
 78
     2
 67
     7
 79
     5
170
     0
171
     0
290
     0
174
     0
 93
        1
 44
0.0
173
     0
291
     1
 45
0.0
1001
ACAD
1000
AcDbSavedByObjectVersion
1070
     0
  0
VISUALSTYLE
  5
38
102
{ACAD_XDICTIONARY
360
4D2
102
}
102
{ACAD_REACTORS
330
2A
102
}
330
2A
100
AcDbVisualStyle
  2

 70
    14
 71
     2
 72
     2
 73
     0
 90
        0
 40
-0.6
 41
-30.0
 62
     5
 63
     7
 74
     1
 91
        4
 64
     7
 65
   257
 75
     7
175
     7
 42
1.0
 92
        8
 66
     7
 43
1.0
 76
     1
 77
     6
 78
     2
 67
     7
 79
     5
170
     0
171
     0
290
     0
174
     0
 93
        1
 44
0.0
173
     0
291
     1
 45
0.0
1001
ACAD
1000
AcDbSavedByObjectVersion
1070
     0
  0
VISUALSTYLE
  5
3C
102
{ACAD_XDICTIONARY
360
4DA
102
}
102
{ACAD_REACTORS
330
2A
102
}
330
2A
100
AcDbVisualStyle
  2

 70
    21
 71
     2
 72
     2
 73
     0
 90
        0
 40
-0.6
 41
-30.0
 62
     5
 63
     7
 74
     1
 91
        4
 64
     7
 65
   257
 75
     1
175
     1
 42
1.0
 92
        9
 66
     7
 43
1.0
 76
     1
 77
     6
 78
     2
 67
     7
 79
     5
170
     0
171
     0
290
     0
174
     0
 93
        1
 44
0.0
173
     0
291
     1
 45
0.0
1001
ACAD
1000
AcDbSavedByObjectVersion
1070
     0
  0
VISUALSTYLE
  5
33
102
{ACAD_XDICTIONARY
360
4C8
102
}
102
{ACAD_REACTORS
330
2A
102
}
330
2A
100
AcDbVisualStyle
  2

 70
     8
 71
     2
 72
     3
 73
     0
 90
        2
 40
-0.6
 41
30.0
 62
     5
 63
     7
 74
     0
 91
        0
 64
     7
 65
   257
 75
     1
175
     1
 42
1.0
 92
        8
 66
   257
 43
1.0
 76
     1
 77
     6
 78
     2
 67
     7
 79
     3
170
     0
171
     0
290
     0
174
     0
 93
       13
 44
0.0
173
     0
291
     0
 45
0.0
1001
ACAD
1000
AcDbSavedByObjectVersion
1070
     0
  0
VISUALSTYLE
  5
42
102
{ACAD_XDICTIONARY
360
4E6
102
}
102
{ACAD_REACTORS
330
2A
102
}
330
2A
100
AcDbVisualStyle
  2

 70
    27
 71
     2
 72
     2
 73
     1
 90
        2
 40
-0.6
 41
30.0
 62
     5
 63
     7
 74
     0
 91
        4
 64
     7
 65
   257
 75
     1
175
     1
 42
1.0
 92
        8
 66
   257
 43
1.0
 76
     1
 77
     6
 78
     2
 67
     8
 79
     3
170
     0
171
     0
290
     0
174
     0
 93
        5
 44
0.0
173
     0
291
     0
 45
0.0
1001
ACAD
1000
AcDbSavedByObjectVersion
1070
     0
  0
VISUALSTYLE
  5
41
102
{ACAD_XDICTIONARY
360
4E4
102
}
102
{ACAD_REACTORS
330
2A
102
}
330
2A
100
AcDbVisualStyle
  2

 70
    26
 71
     2
 72
     2
 73
     1
 90
        2
 40
-0.6
 41
30.0
 62
     5
 63
     7
 74
     1
 91
       10
 64
     7
 65
   257
 75
     2
175
     1
 42
1.0
 92
        8
 66
   257
 43
1.0
 76
     1
 77
     6
 78
     2
 67
     7
 79
     3
170
     0
171
     0
290
     0
174
     0
 93
        5
 44
0.0
173
     0
291
     0
 45
0.0
1001
ACAD
1000
AcDbSavedByObjectVersion
1070
     0
  0
VISUALSTYLE
  5
3E
102
{ACAD_XDICTIONARY
360
4DE
102
}
102
{ACAD_REACTORS
330
2A
102
}
330
2A
100
AcDbVisualStyle
  2

 70
    23
 71
     2
 72
     2
 73
     3
 90
        0
 40
-0.6
 41
-30.0
 62
     5
 63
     7
 74
     2
 91
        2
 64
     7
 65
     7
 75
     1
175
     1
 42
40.0
 92
        8
 66
     7
 43
1.0
 76
     1
 77
     6
 78
     2
 67
     7
 79
     3
170
     0
171
     0
290
     0
174
     0
 93
        1
 44
0.0
173
     0
291
     0
 45
0.0
1001
ACAD
1000
AcDbSavedByObjectVersion
1070
     0
  0
VISUALSTYLE
  5
3F
102
{ACAD_XDICTIONARY
360
4E0
102
}
102
{ACAD_REACTORS
330
2A
102
}
330
2A
100
AcDbVisualStyle
  2

 70
    24
 71
     1
 72
     2
 73
     2
 90
        0
 40
-0.6
 41
-30.0
 62
     5
 63
     7
 74
     2
 91
        2
 64
     7
 65
     7
 75
     1
175
     1
 42
40.0
 92
       11
 66
     7
 43
1.0
 76
     1
 77
     6
 78
     2
 67
     7
 79
     6
170
     0
171
     0
290
     0
174
     0
 93
        1
 44
0.0
173
     0
291
     0
 45
0.0
1001
ACAD
1000
AcDbSavedByObjectVersion
1070
     0
  0
VISUALSTYLE
  5
37
102
{ACAD_XDICTIONARY
360
4D0
102
}
102
{ACAD_REACTORS
330
2A
102
}
330
2A
100
AcDbVisualStyle
  2

 70
    13
 71
     2
 72
     2
 73
     0
 90
        0
 40
-0.6
 41
-30.0
 62
     5
 63
     7
 74
     1
 91
        4
 64
     7
 65
   257
 75
     1
175
     1
 42
1.0
 92
       12
 66
     7
 43
1.0
 76
     1
 77
     6
 78
     2
 67
     7
 79
     5
170
     0
171
     0
290
     0
174
     0
 93
        1
 44
0.0
173
     0
291
     1
 45
0.0
1001
ACAD
1000
AcDbSavedByObjectVersion
1070
     0
  0
VISUALSTYLE
  5
30
102
{ACAD_XDICTIONARY
360
4C2
102
}
102
{ACAD_REACTORS
330
2A
102
}
330
2A
100
AcDbVisualStyle
  2

 70
     5
 71
     0
 72
     2
 73
     0
 90
        0
 40
-0.6
 41
-30.0
 62
     5
 63
     7
 74
     1
 91
        4
 64
     7
 65
   257
 75
     1
175
     1
 42
1.0
 92
        0
 66
   257
 43
1.0
 76
     1
 77
     6
 78
     2
 67
     7
 79
     3
170
     0
171
     0
290
     0
174
     0
 93
        1
 44
0.0
173
     0
291
     0
 45
0.0
1001
ACAD
1000
AcDbSavedByObjectVersion
1070
     0
  0
VISUALSTYLE
  5
40
102
{ACAD_XDICTIONARY
360
4E2
102
}
102
{ACAD_REACTORS
330
2A
102
}
330
2A
100
AcDbVisualStyle
  2

 70
    25
 71
     2
 72
     2
 73
     1
 90
        1
 40
0.5
 41
-30.0
 62
     5
 63
     7
 74
     1
 91
        0
 64
     7
 65
   257
 75
     1
175
     1
 42
1.0
 92
        8
 66
     7
 43
1.0
 76
     1
 77
     6
 78
     2
 67
     7
 79
     3
170
     0
171
     0
290
     0
174
     0
 93
       13
 44
0.0
173
     0
291
     0
 45
0.0
1001
ACAD
1000
AcDbSavedByObjectVersion
1070
     0
  0
DICTIONARYVAR
  5
1F6
102
{ACAD_REACTORS
330
1E8
102
}
330
1E8
100
DictionaryVariables
280
     0
  1
1:1
  0
DICTIONARYVAR
  5
1EF
102
{ACAD_REACTORS
330
1E8
102
}
330
1E8
100
DictionaryVariables
280
     0
  1
3.500000
  0
DICTIONARYVAR
  5
1F0
102
{ACAD_REACTORS
330
1E8
102
}
330
1E8
100
DictionaryVariables
280
     0
  1
acadiso.lin
  0
DICTIONARYVAR
  5
1EA
102
{ACAD_REACTORS
330
1E8
102
}
330
1E8
100
DictionaryVariables
280
     0
  1
STANDARD
  0
DICTIONARYVAR
  5
1E9
102
{ACAD_REACTORS
330
1E8
102
}
330
1E8
100
DictionaryVariables
280
     0
  1
STANDARD
  0
DICTIONARYVAR
  5
45E
102
{ACAD_REACTORS
330
1E8
102
}
330
1E8
100
DictionaryVariables
280
     0
  1
Metric50
  0
DICTIONARYVAR
  5
45F
102
{ACAD_REACTORS
330
1E8
102
}
330
1E8
100
DictionaryVariables
280
     0
  1
Metric50
  0
DICTIONARYVAR
  5
1F1
102
{ACAD_REACTORS
330
1E8
102
}
330
1E8
100
DictionaryVariables
280
     0
  1
2
  0
DICTIONARYVAR
  5
1F2
102
{ACAD_REACTORS
330
1E8
102
}
330
1E8
100
DictionaryVariables
280
     0
  1
1
  0
DICTIONARYVAR
  5
4AA
102
{ACAD_REACTORS
330
1E8
102
}
330
1E8
100
DictionaryVariables
280
     0
  1
0
  0
DICTIONARYVAR
  5
461
102
{ACAD_REACTORS
330
1E8
102
}
330
1E8
100
DictionaryVariables
280
     0
  1
1
  0
DICTIONARYVAR
  5
462
102
{ACAD_REACTORS
330
1E8
102
}
330
1E8
100
DictionaryVariables
280
     0
  1
15
  0
DICTIONARYVAR
  5
460
102
{ACAD_REACTORS
330
1E8
102
}
330
1E8
100
DictionaryVariables
280
     0
  1
0
  0
DICTIONARYVAR
  5
4AD
102
{ACAD_REACTORS
330
1E8
102
}
330
1E8
100
DictionaryVariables
280
     0
  1
1.570796
  0
DICTIONARYVAR
  5
4AE
102
{ACAD_REACTORS
330
1E8
102
}
330
1E8
100
DictionaryVariables
280
     0
  1
1.570796
  0
DICTIONARYVAR
  5
4AF
102
{ACAD_REACTORS
330
1E8
102
}
330
1E8
100
DictionaryVariables
280
     0
  1
-122.394000
  0
DICTIONARYVAR
  5
1F7
102
{ACAD_REACTORS
330
1E8
102
}
330
1E8
100
DictionaryVariables
280
     0
  1
1
  0
DICTIONARYVAR
  5
4AC
102
{ACAD_REACTORS
330
1E8
102
}
330
1E8
100
DictionaryVariables
280
     0
  1
80.000000
  0
DICTIONARYVAR
  5
4AB
102
{ACAD_REACTORS
330
1E8
102
}
330
1E8
100
DictionaryVariables
280
     0
  1
5.000000
  0
DICTIONARYVAR
  5
4A9
102
{ACAD_REACTORS
330
1E8
102
}
330
1E8
100
DictionaryVariables
280
     0
  1
127
  0
DICTIONARYVAR
  5
4B0
102
{ACAD_REACTORS
330
1E8
102
}
330
1E8
100
DictionaryVariables
280
     0
  1
2
  0
DICTIONARY
  5
4EB
330
237
100
AcDbDictionary
280
     1
281
     1
  3
ACAD_XREC_ROUNDTRIP
360
4EC
  0
DICTIONARY
  5
4B4
330
1E
100
AcDbDictionary
280
     1
281
     1
  3
ACAD_XREC_ROUNDTRIP
360
4B5
  0
DICTIONARY
  5
4B6
330
22
100
AcDbDictionary
280
     1
281
     1
  3
ACAD_XREC_ROUNDTRIP
360
4B7
  0
DICTIONARY
  5
4ED
330
238
100
AcDbDictionary
280
     1
281
     1
  3
ACAD_XREC_ROUNDTRIP
360
4EE
  0
DICTIONARY
  5
22A
330
45
100
AcDbDictionary
280
     1
281
     1
  3
ACAD_XREC_ROUNDTRIP
360
22B
  0
DICTIONARY
  5
228
330
44
100
AcDbDictionary
280
     1
281
     1
  3
ACAD_XREC_ROUNDTRIP
360
229
  0
DICTIONARY
  5
22C
330
46
100
AcDbDictionary
280
     1
281
     1
  3
ACAD_XREC_ROUNDTRIP
360
22D
  0
DICTIONARY
  5
4E9
330
235
100
AcDbDictionary
280
     1
281
     1
  3
ACAD_XREC_ROUNDTRIP
360
4EA
  0
DICTIONARY
  5
463
330
5A
100
AcDbDictionary
280
     1
281
     1
  3
ACAD_ROUNDTRIP_2008_TABLESTYLE_CELLSTYLEMAP
360
4B1
  3
ACAD_XREC_ROUNDTRIP
360
4E8
  0
DICTIONARY
  5
4C0
330
2F
100
AcDbDictionary
280
     1
281
     1
  3
ACAD_XREC_ROUNDTRIP
360
4C1
  0
DICTIONARY
  5
4C6
330
32
100
AcDbDictionary
280
     1
281
     1
  3
ACAD_XREC_ROUNDTRIP
360
4C7
  0
DICTIONARY
  5
4CE
330
36
100
AcDbDictionary
280
     1
281
     1
  3
ACAD_XREC_ROUNDTRIP
360
4CF
  0
DICTIONARY
  5
4D6
330
3A
100
AcDbDictionary
280
     1
281
     1
  3
ACAD_XREC_ROUNDTRIP
360
4D7
  0
DICTIONARY
  5
4CA
330
34
100
AcDbDictionary
280
     1
281
     1
  3
ACAD_XREC_ROUNDTRIP
360
4CB
  0
DICTIONARY
  5
4CC
330
35
100
AcDbDictionary
280
     1
281
     1
  3
ACAD_XREC_ROUNDTRIP
360
4CD
  0
DICTIONARY
  5
4DC
330
3D
100
AcDbDictionary
280
     1
281
     1
  3
ACAD_XREC_ROUNDTRIP
360
4DD
  0
DICTIONARY
  5
4D4
330
39
100
AcDbDictionary
280
     1
281
     1
  3
ACAD_XREC_ROUNDTRIP
360
4D5
  0
DICTIONARY
  5
4B8
330
2B
100
AcDbDictionary
280
     1
281
     1
  3
ACAD_XREC_ROUNDTRIP
360
4B9
  0
DICTIONARY
  5
4BA
330
2C
100
AcDbDictionary
280
     1
281
     1
  3
ACAD_XREC_ROUNDTRIP
360
4BB
  0
DICTIONARY
  5
4BC
330
2D
100
AcDbDictionary
280
     1
281
     1
  3
ACAD_XREC_ROUNDTRIP
360
4BD
  0
DICTIONARY
  5
4BE
330
2E
100
AcDbDictionary
280
     1
281
     1
  3
ACAD_XREC_ROUNDTRIP
360
4BF
  0
DICTIONARY
  5
4C4
330
31
100
AcDbDictionary
280
     1
281
     1
  3
ACAD_XREC_ROUNDTRIP
360
4C5
  0
DICTIONARY
  5
4D8
330
3B
100
AcDbDictionary
280
     1
281
     1
  3
ACAD_XREC_ROUNDTRIP
360
4D9
  0
DICTIONARY
  5
4D2
330
38
100
AcDbDictionary
280
     1
281
     1
  3
ACAD_XREC_ROUNDTRIP
360
4D3
  0
DICTIONARY
  5
4DA
330
3C
100
AcDbDictionary
280
     1
281
     1
  3
ACAD_XREC_ROUNDTRIP
360
4DB
  0
DICTIONARY
  5
4C8
330
33
100
AcDbDictionary
280
     1
281
     1
  3
ACAD_XREC_ROUNDTRIP
360
4C9
  0
DICTIONARY
  5
4E6
330
42
100
AcDbDictionary
280
     1
281
     1
  3
ACAD_XREC_ROUNDTRIP
360
4E7
  0
DICTIONARY
  5
4E4
330
41
100
AcDbDictionary
280
     1
281
     1
  3
ACAD_XREC_ROUNDTRIP
360
4E5
  0
DICTIONARY
  5
4DE
330
3E
100
AcDbDictionary
280
     1
281
     1
  3
ACAD_XREC_ROUNDTRIP
360
4DF
  0
DICTIONARY
  5
4E0
330
3F
100
AcDbDictionary
280
     1
281
     1
  3
ACAD_XREC_ROUNDTRIP
360
4E1
  0
DICTIONARY
  5
4D0
330
37
100
AcDbDictionary
280
     1
281
     1
  3
ACAD_XREC_ROUNDTRIP
360
4D1
  0
DICTIONARY
  5
4C2
330
30
100
AcDbDictionary
280
     1
281
     1
  3
ACAD_XREC_ROUNDTRIP
360
4C3
  0
DICTIONARY
  5
4E2
330
40
100
AcDbDictionary
280
     1
281
     1
  3
ACAD_XREC_ROUNDTRIP
360
4E3
  0
XRECORD
  5
4EC
102
{ACAD_REACTORS
330
4EB
102
}
330
4EB
100
AcDbXrecord
280
     1
102
DISPLAYNAME
  1
Metric50
102
FLAGS
 90
        0
  0
XRECORD
  5
4B5
102
{ACAD_REACTORS
330
4B4
102
}
330
4B4
100
AcDbXrecord
280
     1
102
SHADEPLOT
 70
     0
102
SHADEPLOTRESLEVEL
 70
     2
102
SHADEPLOTCUSTOMDPI
 70
   300
  0
XRECORD
  5
4B7
102
{ACAD_REACTORS
330
4B6
102
}
330
4B6
100
AcDbXrecord
280
     1
102
SHADEPLOT
 70
     0
102
SHADEPLOTRESLEVEL
 70
     2
102
SHADEPLOTCUSTOMDPI
 70
   300
  0
XRECORD
  5
4EE
102
{ACAD_REACTORS
330
4ED
102
}
330
4ED
100
AcDbXrecord
280
     1
102
SHADEPLOT
 70
     0
102
SHADEPLOTRESLEVEL
 70
     2
102
SHADEPLOTCUSTOMDPI
 70
   300
  0
XRECORD
  5
22B
102
{ACAD_REACTORS
330
22A
102
}
330
22A
100
AcDbXrecord
280
     1
102
MATERIAL
148
0.0
149
0.0
149
0.0
 93
        0
 94
      127
282
     0
 72
     1
 77
     1
171
     1
175
     1
179
     1
273
     0
  0
XRECORD
  5
229
102
{ACAD_REACTORS
330
228
102
}
330
228
100
AcDbXrecord
280
     1
102
MATERIAL
148
0.0
149
0.0
149
0.0
 93
        0
 94
      127
282
     0
 72
     1
 77
     1
171
     1
175
     1
179
     1
273
     0
  0
XRECORD
  5
22D
102
{ACAD_REACTORS
330
22C
102
}
330
22C
100
AcDbXrecord
280
     1
102
MATERIAL
148
0.0
149
0.0
149
0.0
 93
        0
 94
      127
282
     0
 72
     1
 77
     1
171
     1
175
     1
179
     1
273
     0
  0
XRECORD
  5
4EA
102
{ACAD_REACTORS
330
4E9
102
}
330
4E9
100
AcDbXrecord
280
     1
102
DISPLAYNAME
  1
Metric50
102
FLAGS
 90
        0
  0
CELLSTYLEMAP
  5
4B1
102
{ACAD_REACTORS
330
463
102
}
330
463
100
AcDbCellStyleMap
 90
        3
300
CELLSTYLE
  1
TABLEFORMAT_BEGIN
 90
        5
170
     1
 91
        0
 92
    32768
 62
   257
 93
        1
300
CONTENTFORMAT
  1
CONTENTFORMAT_BEGIN
 90
        0
 91
        0
 92
        4
 93
        0
300

 40
0.0
140
1.0
 94
        5
 62
     0
340
11
144
6.0
309
CONTENTFORMAT_END
171
     1
301
MARGIN
  1
CELLMARGIN_BEGIN
 40
1.5
 40
1.5
 40
1.5
 40
1.5
 40
0.18
 40
0.18
309
CELLMARGIN_END
 94
        6
 95
        1
302
GRIDFORMAT
  1
GRIDFORMAT_BEGIN
 90
        0
 91
        1
 62
     0
 92
       -2
340
0
 93
        0
 40
0.045
309
GRIDFORMAT_END
 95
        2
302
GRIDFORMAT
  1
GRIDFORMAT_BEGIN
 90
        0
 91
        1
 62
     0
 92
       -2
340
0
 93
        0
 40
0.045
309
GRIDFORMAT_END
 95
        4
302
GRIDFORMAT
  1
GRIDFORMAT_BEGIN
 90
        0
 91
        1
 62
     0
 92
       -2
340
0
 93
        0
 40
0.045
309
GRIDFORMAT_END
 95
        8
302
GRIDFORMAT
  1
GRIDFORMAT_BEGIN
 90
        0
 91
        1
 62
     0
 92
       -2
340
0
 93
        0
 40
0.045
309
GRIDFORMAT_END
 95
       16
302
GRIDFORMAT
  1
GRIDFORMAT_BEGIN
 90
        0
 91
        1
 62
     0
 92
       -2
340
0
 93
        0
 40
0.045
309
GRIDFORMAT_END
 95
       32
302
GRIDFORMAT
  1
GRIDFORMAT_BEGIN
 90
        0
 91
        1
 62
     0
 92
       -2
340
0
 93
        0
 40
0.045
309
GRIDFORMAT_END
309
TABLEFORMAT_END
  1
CELLSTYLE_BEGIN
 90
        1
 91
        1
300
_TITLE
309
CELLSTYLE_END
300
CELLSTYLE
  1
TABLEFORMAT_BEGIN
 90
        5
170
     1
 91
        0
 92
        0
 62
   257
 93
        1
300
CONTENTFORMAT
  1
CONTENTFORMAT_BEGIN
 90
        0
 91
        0
 92
        4
 93
        0
300

 40
0.0
140
1.0
 94
        5
 62
     0
340
11
144
4.5
309
CONTENTFORMAT_END
171
     1
301
MARGIN
  1
CELLMARGIN_BEGIN
 40
1.5
 40
1.5
 40
1.5
 40
1.5
 40
0.18
 40
0.18
309
CELLMARGIN_END
 94
        6
 95
        1
302
GRIDFORMAT
  1
GRIDFORMAT_BEGIN
 90
        0
 91
        1
 62
     0
 92
       -2
340
0
 93
        0
 40
0.045
309
GRIDFORMAT_END
 95
        2
302
GRIDFORMAT
  1
GRIDFORMAT_BEGIN
 90
        0
 91
        1
 62
     0
 92
       -2
340
0
 93
        0
 40
0.045
309
GRIDFORMAT_END
 95
        4
302
GRIDFORMAT
  1
GRIDFORMAT_BEGIN
 90
        0
 91
        1
 62
     0
 92
       -2
340
0
 93
        0
 40
0.045
309
GRIDFORMAT_END
 95
        8
302
GRIDFORMAT
  1
GRIDFORMAT_BEGIN
 90
        0
 91
        1
 62
     0
 92
       -2
340
0
 93
        0
 40
0.045
309
GRIDFORMAT_END
 95
       16
302
GRIDFORMAT
  1
GRIDFORMAT_BEGIN
 90
        0
 91
        1
 62
     0
 92
       -2
340
0
 93
        0
 40
0.045
309
GRIDFORMAT_END
 95
       32
302
GRIDFORMAT
  1
GRIDFORMAT_BEGIN
 90
        0
 91
        1
 62
     0
 92
       -2
340
0
 93
        0
 40
0.045
309
GRIDFORMAT_END
309
TABLEFORMAT_END
  1
CELLSTYLE_BEGIN
 90
        2
 91
        1
300
_HEADER
309
CELLSTYLE_END
300
CELLSTYLE
  1
TABLEFORMAT_BEGIN
 90
        5
170
     1
 91
        0
 92
        0
 62
   257
 93
        1
300
CONTENTFORMAT
  1
CONTENTFORMAT_BEGIN
 90
        0
 91
        0
 92
        4
 93
        0
300

 40
0.0
140
1.0
 94
        2
 62
     0
340
11
144
4.5
309
CONTENTFORMAT_END
171
     1
301
MARGIN
  1
CELLMARGIN_BEGIN
 40
1.5
 40
1.5
 40
1.5
 40
1.5
 40
0.18
 40
0.18
309
CELLMARGIN_END
 94
        6
 95
        1
302
GRIDFORMAT
  1
GRIDFORMAT_BEGIN
 90
        0
 91
        1
 62
     0
 92
       -2
340
0
 93
        0
 40
0.045
309
GRIDFORMAT_END
 95
        2
302
GRIDFORMAT
  1
GRIDFORMAT_BEGIN
 90
        0
 91
        1
 62
     0
 92
       -2
340
0
 93
        0
 40
0.045
309
GRIDFORMAT_END
 95
        4
302
GRIDFORMAT
  1
GRIDFORMAT_BEGIN
 90
        0
 91
        1
 62
     0
 92
       -2
340
0
 93
        0
 40
0.045
309
GRIDFORMAT_END
 95
        8
302
GRIDFORMAT
  1
GRIDFORMAT_BEGIN
 90
        0
 91
        1
 62
     0
 92
       -2
340
0
 93
        0
 40
0.045
309
GRIDFORMAT_END
 95
       16
302
GRIDFORMAT
  1
GRIDFORMAT_BEGIN
 90
        0
 91
        1
 62
     0
 92
       -2
340
0
 93
        0
 40
0.045
309
GRIDFORMAT_END
 95
       32
302
GRIDFORMAT
  1
GRIDFORMAT_BEGIN
 90
        0
 91
        1
 62
     0
 92
       -2
340
0
 93
        0
 40
0.045
309
GRIDFORMAT_END
309
TABLEFORMAT_END
  1
CELLSTYLE_BEGIN
 90
        3
 91
        2
300
_DATA
309
CELLSTYLE_END
  0
XRECORD
  5
4E8
102
{ACAD_REACTORS
330
463
102
}
330
463
100
AcDbXrecord
280
     1
102
ACAD_ROUNDTRIP_PRE2007_TABLESTYLE
 90
        4
 91
        0
  1

 92
        4
 93
        0
  2

 94
        4
 95
        0
  3

  0
XRECORD
  5
4C1
102
{ACAD_REACTORS
330
4C0
102
}
330
4C0
100
AcDbXrecord
280
     1
102
RTVSPost2010Prop28
280
     1
102
RTVSPost2010PropOp28
 70
     1
102
RTVSPost2010Prop29
280
     1
102
RTVSPost2010PropOp29
 70
     1
102
RTVSPost2010Prop30
280
     0
102
RTVSPost2010PropOp30
 70
     1
102
RTVSPost2010Prop31
280
     0
102
RTVSPost2010PropOp31
 70
     1
102
RTVSPost2010Prop32
280
     0
102
RTVSPost2010PropOp32
 70
     1
102
RTVSPost2010Prop33
280
     0
102
RTVSPost2010PropOp33
 70
     1
102
RTVSPost2010Prop34
280
     0
102
RTVSPost2010PropOp34
 70
     1
102
RTVSPost2010Prop35
280
     0
102
RTVSPost2010PropOp35
 70
     1
102
RTVSPost2010Prop36
280
     0
102
RTVSPost2010PropOp36
 70
     1
102
RTVSPost2010Prop37
 90
       50
102
RTVSPost2010PropOp37
 70
     1
102
RTVSPost2010Prop38
140
0.0
102
RTVSPost2010PropOp38
 70
     1
102
RTVSPost2010Prop39
140
1.0
102
RTVSPost2010PropOp39
 70
     1
102
RTVSPost2010Prop40
 90
        0
102
RTVSPost2010PropOp40
 70
     1
102
RTVSPost2010Prop41ColorIndex
 90
       18
102
RTVSPost2010Prop41ColorRGB
 90
        0
102
RTVSPost2010PropOp41
 70
     1
102
RTVSPost2010Prop42
 90
       50
102
RTVSPost2010PropOp42
 70
     1
102
RTVSPost2010Prop43
 90
        3
102
RTVSPost2010PropOp43
 70
     1
102
RTVSPost2010Prop44ColorIndex
 90
        5
102
RTVSPost2010Prop44ColorRGB
 90
      255
102
RTVSPost2010PropOp44
 70
     1
102
RTVSPost2010Prop45
280
     0
102
RTVSPost2010PropOp45
 70
     1
102
RTVSPost2010Prop46
 90
       50
102
RTVSPost2010PropOp46
 70
     1
102
RTVSPost2010Prop47
 90
       50
102
RTVSPost2010PropOp47
 70
     1
102
RTVSPost2010Prop48
 90
       50
102
RTVSPost2010PropOp48
 70
     1
102
RTVSPost2010Prop49
280
     0
102
RTVSPost2010PropOp49
 70
     1
102
RTVSPost2010Prop50
 90
       50
102
RTVSPost2010PropOp50
 70
     1
102
RTVSPost2010Prop51ColorIndex
 90
      256
102
RTVSPost2010Prop51ColorRGB
 90
-16777216
102
RTVSPost2010PropOp51
 70
     0
102
RTVSPost2010Prop52
140
1.0
102
RTVSPost2010PropOp52
 70
     0
102
RTVSPost2010Prop53
 90
        2
102
RTVSPost2010PropOp53
 70
     1
102
RTVSPost2010Prop54
  1
strokes_ogs.tif
102
RTVSPost2010PropOp54
 70
     1
102
RTVSPost2010Prop55
280
     0
102
RTVSPost2010PropOp55
 70
     1
102
RTVSPost2010Prop56
140
1.0
102
RTVSPost2010PropOp56
 70
     1
102
RTVSPost2010Prop57
140
1.0
102
RTVSPost2010PropOp57
 70
     1
102
RTVSPropertyOp0
 70
     1
102
RTVSPropertyOp1
 70
     1
102
RTVSPropertyOp2
 70
     1
102
RTVSPropertyOp3
 70
     1
102
RTVSPropertyOp4
 70
     1
102
RTVSPropertyOp5
 70
     1
102
RTVSPropertyOp6
 70
     1
102
RTVSPropertyOp7
 70
     1
102
RTVSPropertyOp8
 70
     1
102
RTVSPropertyOp9
 70
     1
102
RTVSPropertyOp10
 70
     1
102
RTVSPropertyOp11
 70
     1
102
RTVSPropertyOp12
 70
     1
102
RTVSPropertyOp13
 70
     1
102
RTVSPropertyOp14
 70
     1
102
RTVSPropertyOp15
 70
     1
102
RTVSPropertyOp16
 70
     1
102
RTVSPropertyOp17
 70
     1
102
RTVSPropertyOp18
 70
     1
102
RTVSPropertyOp19
 70
     1
102
RTVSPropertyOp20
 70
     1
102
RTVSPropertyOp21
 70
     1
102
RTVSPropertyOp22
 70
     1
102
RTVSPropertyOp23
 70
     1
102
RTVSPropertyOp24
 70
     1
102
RTVSPropertyOp25
 70
     1
102
RTVSPropertyOp26
 70
     1
102
RTVSPropertyOp27
 70
     1
102
RTVSPropertyOp28
 70
     1
102
RTVSPropertyOp29
 70
     1
102
RTVSPropertyOp30
 70
     1
102
RTVSPropertyOp31
 70
     1
102
RTVSPropertyOp32
 70
     1
102
RTVSPropertyOp33
 70
     1
102
RTVSPropertyOp34
 70
     1
102
RTVSPropertyOp35
 70
     1
102
RTVSPropertyOp36
 70
     1
102
RTVSPropertyOp37
 70
     1
102
RTVSPropertyOp38
 70
     1
102
RTVSPropertyOp39
 70
     1
102
RTVSPropertyOp40
 70
     1
102
RTVSPropertyOp41
 70
     1
102
RTVSPropertyOp42
 70
     1
102
RTVSPropertyOp43
 70
     1
102
RTVSPropertyOp44
 70
     1
102
RTVSPropertyOp45
 70
     1
102
RTVSPropertyOp46
 70
     1
102
RTVSPropertyOp47
 70
     1
102
RTVSPropertyOp48
 70
     1
102
RTVSPropertyOp49
 70
     1
102
RTVSPropertyOp50
 70
     1
102
RTVSPropertyOp51
 70
     0
102
RTVSPropertyOp52
 70
     0
102
RTVSPropertyOp53
 70
     1
102
RTVSPropertyOp54
 70
     1
102
RTVSPropertyOp55
 70
     1
102
RTVSPropertyOp56
 70
     1
102
RTVSPropertyOp57
 70
     1
102
RTVSPropertyOp58
 70
     1
102
RTVSPropertyOp59
 70
     1
102
RTVSPropertyOp60
 70
     1
102
RTVSPropertyOp61
 70
     1
102
RTVSPropertyOp62
 70
     1
  0
XRECORD
  5
4C7
102
{ACAD_REACTORS
330
4C6
102
}
330
4C6
100
AcDbXrecord
280
     1
102
RTVSPost2010Prop28
280
     0
102
RTVSPost2010PropOp28
 70
     1
102
RTVSPost2010Prop29
280
     1
102
RTVSPost2010PropOp29
 70
     1
102
RTVSPost2010Prop30
280
     1
102
RTVSPost2010PropOp30
 70
     1
102
RTVSPost2010Prop31
280
     0
102
RTVSPost2010PropOp31
 70
     1
102
RTVSPost2010Prop32
280
     0
102
RTVSPost2010PropOp32
 70
     1
102
RTVSPost2010Prop33
280
     0
102
RTVSPost2010PropOp33
 70
     1
102
RTVSPost2010Prop34
280
     0
102
RTVSPost2010PropOp34
 70
     1
102
RTVSPost2010Prop35
280
     0
102
RTVSPost2010PropOp35
 70
     1
102
RTVSPost2010Prop36
280
     0
102
RTVSPost2010PropOp36
 70
     1
102
RTVSPost2010Prop37
 90
       50
102
RTVSPost2010PropOp37
 70
     1
102
RTVSPost2010Prop38
140
0.0
102
RTVSPost2010PropOp38
 70
     1
102
RTVSPost2010Prop39
140
1.0
102
RTVSPost2010PropOp39
 70
     1
102
RTVSPost2010Prop40
 90
        0
102
RTVSPost2010PropOp40
 70
     1
102
RTVSPost2010Prop41ColorIndex
 90
       18
102
RTVSPost2010Prop41ColorRGB
 90
        0
102
RTVSPost2010PropOp41
 70
     1
102
RTVSPost2010Prop42
 90
       50
102
RTVSPost2010PropOp42
 70
     1
102
RTVSPost2010Prop43
 90
        3
102
RTVSPost2010PropOp43
 70
     1
102
RTVSPost2010Prop44ColorIndex
 90
        5
102
RTVSPost2010Prop44ColorRGB
 90
      255
102
RTVSPost2010PropOp44
 70
     1
102
RTVSPost2010Prop45
280
     0
102
RTVSPost2010PropOp45
 70
     1
102
RTVSPost2010Prop46
 90
       50
102
RTVSPost2010PropOp46
 70
     1
102
RTVSPost2010Prop47
 90
       50
102
RTVSPost2010PropOp47
 70
     1
102
RTVSPost2010Prop48
 90
       50
102
RTVSPost2010PropOp48
 70
     1
102
RTVSPost2010Prop49
280
     0
102
RTVSPost2010PropOp49
 70
     1
102
RTVSPost2010Prop50
 90
       50
102
RTVSPost2010PropOp50
 70
     1
102
RTVSPost2010Prop51ColorIndex
 90
      256
102
RTVSPost2010Prop51ColorRGB
 90
-16777216
102
RTVSPost2010PropOp51
 70
     0
102
RTVSPost2010Prop52
140
1.0
102
RTVSPost2010PropOp52
 70
     0
102
RTVSPost2010Prop53
 90
        2
102
RTVSPost2010PropOp53
 70
     1
102
RTVSPost2010Prop54
  1
strokes_ogs.tif
102
RTVSPost2010PropOp54
 70
     1
102
RTVSPost2010Prop55
280
     0
102
RTVSPost2010PropOp55
 70
     1
102
RTVSPost2010Prop56
140
1.0
102
RTVSPost2010PropOp56
 70
     1
102
RTVSPost2010Prop57
140
1.0
102
RTVSPost2010PropOp57
 70
     1
102
RTVSPropertyOp0
 70
     1
102
RTVSPropertyOp1
 70
     1
102
RTVSPropertyOp2
 70
     1
102
RTVSPropertyOp3
 70
     1
102
RTVSPropertyOp4
 70
     1
102
RTVSPropertyOp5
 70
     1
102
RTVSPropertyOp6
 70
     1
102
RTVSPropertyOp7
 70
     1
102
RTVSPropertyOp8
 70
     1
102
RTVSPropertyOp9
 70
     1
102
RTVSPropertyOp10
 70
     1
102
RTVSPropertyOp11
 70
     1
102
RTVSPropertyOp12
 70
     1
102
RTVSPropertyOp13
 70
     1
102
RTVSPropertyOp14
 70
     1
102
RTVSPropertyOp15
 70
     1
102
RTVSPropertyOp16
 70
     1
102
RTVSPropertyOp17
 70
     1
102
RTVSPropertyOp18
 70
     1
102
RTVSPropertyOp19
 70
     1
102
RTVSPropertyOp20
 70
     1
102
RTVSPropertyOp21
 70
     1
102
RTVSPropertyOp22
 70
     1
102
RTVSPropertyOp23
 70
     1
102
RTVSPropertyOp24
 70
     1
102
RTVSPropertyOp25
 70
     1
102
RTVSPropertyOp26
 70
     1
102
RTVSPropertyOp27
 70
     1
102
RTVSPropertyOp28
 70
     1
102
RTVSPropertyOp29
 70
     1
102
RTVSPropertyOp30
 70
     1
102
RTVSPropertyOp31
 70
     1
102
RTVSPropertyOp32
 70
     1
102
RTVSPropertyOp33
 70
     1
102
RTVSPropertyOp34
 70
     1
102
RTVSPropertyOp35
 70
     1
102
RTVSPropertyOp36
 70
     1
102
RTVSPropertyOp37
 70
     1
102
RTVSPropertyOp38
 70
     1
102
RTVSPropertyOp39
 70
     1
102
RTVSPropertyOp40
 70
     1
102
RTVSPropertyOp41
 70
     1
102
RTVSPropertyOp42
 70
     1
102
RTVSPropertyOp43
 70
     1
102
RTVSPropertyOp44
 70
     1
102
RTVSPropertyOp45
 70
     1
102
RTVSPropertyOp46
 70
     1
102
RTVSPropertyOp47
 70
     1
102
RTVSPropertyOp48
 70
     1
102
RTVSPropertyOp49
 70
     1
102
RTVSPropertyOp50
 70
     1
102
RTVSPropertyOp51
 70
     0
102
RTVSPropertyOp52
 70
     0
102
RTVSPropertyOp53
 70
     1
102
RTVSPropertyOp54
 70
     1
102
RTVSPropertyOp55
 70
     1
102
RTVSPropertyOp56
 70
     1
102
RTVSPropertyOp57
 70
     1
102
RTVSPropertyOp58
 70
     1
102
RTVSPropertyOp59
 70
     1
102
RTVSPropertyOp60
 70
     1
102
RTVSPropertyOp61
 70
     1
102
RTVSPropertyOp62
 70
     1
  0
XRECORD
  5
4CF
102
{ACAD_REACTORS
330
4CE
102
}
330
4CE
100
AcDbXrecord
280
     1
102
RTVSPost2010Prop28
280
     0
102
RTVSPost2010PropOp28
 70
     1
102
RTVSPost2010Prop29
280
     1
102
RTVSPost2010PropOp29
 70
     1
102
RTVSPost2010Prop30
280
     1
102
RTVSPost2010PropOp30
 70
     1
102
RTVSPost2010Prop31
280
     0
102
RTVSPost2010PropOp31
 70
     1
102
RTVSPost2010Prop32
280
     0
102
RTVSPost2010PropOp32
 70
     1
102
RTVSPost2010Prop33
280
     0
102
RTVSPost2010PropOp33
 70
     1
102
RTVSPost2010Prop34
280
     0
102
RTVSPost2010PropOp34
 70
     1
102
RTVSPost2010Prop35
280
     0
102
RTVSPost2010PropOp35
 70
     1
102
RTVSPost2010Prop36
280
     0
102
RTVSPost2010PropOp36
 70
     1
102
RTVSPost2010Prop37
 90
       50
102
RTVSPost2010PropOp37
 70
     1
102
RTVSPost2010Prop38
140
0.0
102
RTVSPost2010PropOp38
 70
     1
102
RTVSPost2010Prop39
140
1.0
102
RTVSPost2010PropOp39
 70
     1
102
RTVSPost2010Prop40
 90
        0
102
RTVSPost2010PropOp40
 70
     1
102
RTVSPost2010Prop41ColorIndex
 90
       18
102
RTVSPost2010Prop41ColorRGB
 90
        0
102
RTVSPost2010PropOp41
 70
     1
102
RTVSPost2010Prop42
 90
       50
102
RTVSPost2010PropOp42
 70
     1
102
RTVSPost2010Prop43
 90
        3
102
RTVSPost2010PropOp43
 70
     1
102
RTVSPost2010Prop44ColorIndex
 90
        5
102
RTVSPost2010Prop44ColorRGB
 90
      255
102
RTVSPost2010PropOp44
 70
     1
102
RTVSPost2010Prop45
280
     0
102
RTVSPost2010PropOp45
 70
     1
102
RTVSPost2010Prop46
 90
       50
102
RTVSPost2010PropOp46
 70
     1
102
RTVSPost2010Prop47
 90
       50
102
RTVSPost2010PropOp47
 70
     1
102
RTVSPost2010Prop48
 90
       50
102
RTVSPost2010PropOp48
 70
     1
102
RTVSPost2010Prop49
280
     0
102
RTVSPost2010PropOp49
 70
     1
102
RTVSPost2010Prop50
 90
       50
102
RTVSPost2010PropOp50
 70
     1
102
RTVSPost2010Prop51ColorIndex
 90
      256
102
RTVSPost2010Prop51ColorRGB
 90
-16777216
102
RTVSPost2010PropOp51
 70
     0
102
RTVSPost2010Prop52
140
1.0
102
RTVSPost2010PropOp52
 70
     0
102
RTVSPost2010Prop53
 90
        2
102
RTVSPost2010PropOp53
 70
     1
102
RTVSPost2010Prop54
  1
strokes_ogs.tif
102
RTVSPost2010PropOp54
 70
     1
102
RTVSPost2010Prop55
280
     0
102
RTVSPost2010PropOp55
 70
     1
102
RTVSPost2010Prop56
140
1.0
102
RTVSPost2010PropOp56
 70
     1
102
RTVSPost2010Prop57
140
1.0
102
RTVSPost2010PropOp57
 70
     1
102
RTVSPropertyOp0
 70
     1
102
RTVSPropertyOp1
 70
     1
102
RTVSPropertyOp2
 70
     1
102
RTVSPropertyOp3
 70
     1
102
RTVSPropertyOp4
 70
     1
102
RTVSPropertyOp5
 70
     1
102
RTVSPropertyOp6
 70
     1
102
RTVSPropertyOp7
 70
     1
102
RTVSPropertyOp8
 70
     1
102
RTVSPropertyOp9
 70
     1
102
RTVSPropertyOp10
 70
     1
102
RTVSPropertyOp11
 70
     1
102
RTVSPropertyOp12
 70
     1
102
RTVSPropertyOp13
 70
     1
102
RTVSPropertyOp14
 70
     1
102
RTVSPropertyOp15
 70
     1
102
RTVSPropertyOp16
 70
     1
102
RTVSPropertyOp17
 70
     1
102
RTVSPropertyOp18
 70
     1
102
RTVSPropertyOp19
 70
     1
102
RTVSPropertyOp20
 70
     1
102
RTVSPropertyOp21
 70
     1
102
RTVSPropertyOp22
 70
     1
102
RTVSPropertyOp23
 70
     1
102
RTVSPropertyOp24
 70
     1
102
RTVSPropertyOp25
 70
     1
102
RTVSPropertyOp26
 70
     1
102
RTVSPropertyOp27
 70
     1
102
RTVSPropertyOp28
 70
     1
102
RTVSPropertyOp29
 70
     1
102
RTVSPropertyOp30
 70
     1
102
RTVSPropertyOp31
 70
     1
102
RTVSPropertyOp32
 70
     1
102
RTVSPropertyOp33
 70
     1
102
RTVSPropertyOp34
 70
     1
102
RTVSPropertyOp35
 70
     1
102
RTVSPropertyOp36
 70
     1
102
RTVSPropertyOp37
 70
     1
102
RTVSPropertyOp38
 70
     1
102
RTVSPropertyOp39
 70
     1
102
RTVSPropertyOp40
 70
     1
102
RTVSPropertyOp41
 70
     1
102
RTVSPropertyOp42
 70
     1
102
RTVSPropertyOp43
 70
     1
102
RTVSPropertyOp44
 70
     1
102
RTVSPropertyOp45
 70
     1
102
RTVSPropertyOp46
 70
     1
102
RTVSPropertyOp47
 70
     1
102
RTVSPropertyOp48
 70
     1
102
RTVSPropertyOp49
 70
     1
102
RTVSPropertyOp50
 70
     1
102
RTVSPropertyOp51
 70
     0
102
RTVSPropertyOp52
 70
     0
102
RTVSPropertyOp53
 70
     1
102
RTVSPropertyOp54
 70
     1
102
RTVSPropertyOp55
 70
     1
102
RTVSPropertyOp56
 70
     1
102
RTVSPropertyOp57
 70
     1
102
RTVSPropertyOp58
 70
     1
102
RTVSPropertyOp59
 70
     1
102
RTVSPropertyOp60
 70
     1
102
RTVSPropertyOp61
 70
     1
102
RTVSPropertyOp62
 70
     1
  0
XRECORD
  5
4D7
102
{ACAD_REACTORS
330
4D6
102
}
330
4D6
100
AcDbXrecord
280
     1
102
RTVSPost2010Prop28
280
     0
102
RTVSPost2010PropOp28
 70
     1
102
RTVSPost2010Prop29
280
     1
102
RTVSPost2010PropOp29
 70
     1
102
RTVSPost2010Prop30
280
     1
102
RTVSPost2010PropOp30
 70
     1
102
RTVSPost2010Prop31
280
     0
102
RTVSPost2010PropOp31
 70
     1
102
RTVSPost2010Prop32
280
     0
102
RTVSPost2010PropOp32
 70
     1
102
RTVSPost2010Prop33
280
     0
102
RTVSPost2010PropOp33
 70
     1
102
RTVSPost2010Prop34
280
     0
102
RTVSPost2010PropOp34
 70
     1
102
RTVSPost2010Prop35
280
     0
102
RTVSPost2010PropOp35
 70
     1
102
RTVSPost2010Prop36
280
     0
102
RTVSPost2010PropOp36
 70
     1
102
RTVSPost2010Prop37
 90
       50
102
RTVSPost2010PropOp37
 70
     1
102
RTVSPost2010Prop38
140
0.0
102
RTVSPost2010PropOp38
 70
     1
102
RTVSPost2010Prop39
140
1.0
102
RTVSPost2010PropOp39
 70
     1
102
RTVSPost2010Prop40
 90
        0
102
RTVSPost2010PropOp40
 70
     1
102
RTVSPost2010Prop41ColorIndex
 90
       18
102
RTVSPost2010Prop41ColorRGB
 90
        0
102
RTVSPost2010PropOp41
 70
     1
102
RTVSPost2010Prop42
 90
       50
102
RTVSPost2010PropOp42
 70
     1
102
RTVSPost2010Prop43
 90
        3
102
RTVSPost2010PropOp43
 70
     1
102
RTVSPost2010Prop44ColorIndex
 90
        5
102
RTVSPost2010Prop44ColorRGB
 90
      255
102
RTVSPost2010PropOp44
 70
     1
102
RTVSPost2010Prop45
280
     0
102
RTVSPost2010PropOp45
 70
     1
102
RTVSPost2010Prop46
 90
       50
102
RTVSPost2010PropOp46
 70
     1
102
RTVSPost2010Prop47
 90
       50
102
RTVSPost2010PropOp47
 70
     1
102
RTVSPost2010Prop48
 90
       50
102
RTVSPost2010PropOp48
 70
     1
102
RTVSPost2010Prop49
280
     0
102
RTVSPost2010PropOp49
 70
     1
102
RTVSPost2010Prop50
 90
       50
102
RTVSPost2010PropOp50
 70
     1
102
RTVSPost2010Prop51ColorIndex
 90
      256
102
RTVSPost2010Prop51ColorRGB
 90
-16777216
102
RTVSPost2010PropOp51
 70
     0
102
RTVSPost2010Prop52
140
1.0
102
RTVSPost2010PropOp52
 70
     0
102
RTVSPost2010Prop53
 90
        2
102
RTVSPost2010PropOp53
 70
     1
102
RTVSPost2010Prop54
  1
strokes_ogs.tif
102
RTVSPost2010PropOp54
 70
     1
102
RTVSPost2010Prop55
280
     0
102
RTVSPost2010PropOp55
 70
     1
102
RTVSPost2010Prop56
140
1.0
102
RTVSPost2010PropOp56
 70
     1
102
RTVSPost2010Prop57
140
1.0
102
RTVSPost2010PropOp57
 70
     1
102
RTVSPropertyOp0
 70
     1
102
RTVSPropertyOp1
 70
     1
102
RTVSPropertyOp2
 70
     1
102
RTVSPropertyOp3
 70
     1
102
RTVSPropertyOp4
 70
     1
102
RTVSPropertyOp5
 70
     1
102
RTVSPropertyOp6
 70
     1
102
RTVSPropertyOp7
 70
     1
102
RTVSPropertyOp8
 70
     1
102
RTVSPropertyOp9
 70
     1
102
RTVSPropertyOp10
 70
     1
102
RTVSPropertyOp11
 70
     1
102
RTVSPropertyOp12
 70
     1
102
RTVSPropertyOp13
 70
     1
102
RTVSPropertyOp14
 70
     1
102
RTVSPropertyOp15
 70
     1
102
RTVSPropertyOp16
 70
     1
102
RTVSPropertyOp17
 70
     1
102
RTVSPropertyOp18
 70
     1
102
RTVSPropertyOp19
 70
     1
102
RTVSPropertyOp20
 70
     1
102
RTVSPropertyOp21
 70
     1
102
RTVSPropertyOp22
 70
     1
102
RTVSPropertyOp23
 70
     1
102
RTVSPropertyOp24
 70
     1
102
RTVSPropertyOp25
 70
     1
102
RTVSPropertyOp26
 70
     1
102
RTVSPropertyOp27
 70
     1
102
RTVSPropertyOp28
 70
     1
102
RTVSPropertyOp29
 70
     1
102
RTVSPropertyOp30
 70
     1
102
RTVSPropertyOp31
 70
     1
102
RTVSPropertyOp32
 70
     1
102
RTVSPropertyOp33
 70
     1
102
RTVSPropertyOp34
 70
     1
102
RTVSPropertyOp35
 70
     1
102
RTVSPropertyOp36
 70
     1
102
RTVSPropertyOp37
 70
     1
102
RTVSPropertyOp38
 70
     1
102
RTVSPropertyOp39
 70
     1
102
RTVSPropertyOp40
 70
     1
102
RTVSPropertyOp41
 70
     1
102
RTVSPropertyOp42
 70
     1
102
RTVSPropertyOp43
 70
     1
102
RTVSPropertyOp44
 70
     1
102
RTVSPropertyOp45
 70
     1
102
RTVSPropertyOp46
 70
     1
102
RTVSPropertyOp47
 70
     1
102
RTVSPropertyOp48
 70
     1
102
RTVSPropertyOp49
 70
     1
102
RTVSPropertyOp50
 70
     1
102
RTVSPropertyOp51
 70
     0
102
RTVSPropertyOp52
 70
     0
102
RTVSPropertyOp53
 70
     1
102
RTVSPropertyOp54
 70
     1
102
RTVSPropertyOp55
 70
     1
102
RTVSPropertyOp56
 70
     1
102
RTVSPropertyOp57
 70
     1
102
RTVSPropertyOp58
 70
     1
102
RTVSPropertyOp59
 70
     1
102
RTVSPropertyOp60
 70
     1
102
RTVSPropertyOp61
 70
     1
102
RTVSPropertyOp62
 70
     1
  0
XRECORD
  5
4CB
102
{ACAD_REACTORS
330
4CA
102
}
330
4CA
100
AcDbXrecord
280
     1
102
RTVSPost2010Prop28
280
     0
102
RTVSPost2010PropOp28
 70
     1
102
RTVSPost2010Prop29
280
     1
102
RTVSPost2010PropOp29
 70
     1
102
RTVSPost2010Prop30
280
     1
102
RTVSPost2010PropOp30
 70
     1
102
RTVSPost2010Prop31
280
     0
102
RTVSPost2010PropOp31
 70
     1
102
RTVSPost2010Prop32
280
     0
102
RTVSPost2010PropOp32
 70
     1
102
RTVSPost2010Prop33
280
     0
102
RTVSPost2010PropOp33
 70
     1
102
RTVSPost2010Prop34
280
     0
102
RTVSPost2010PropOp34
 70
     1
102
RTVSPost2010Prop35
280
     0
102
RTVSPost2010PropOp35
 70
     1
102
RTVSPost2010Prop36
280
     0
102
RTVSPost2010PropOp36
 70
     1
102
RTVSPost2010Prop37
 90
       50
102
RTVSPost2010PropOp37
 70
     1
102
RTVSPost2010Prop38
140
0.0
102
RTVSPost2010PropOp38
 70
     1
102
RTVSPost2010Prop39
140
1.0
102
RTVSPost2010PropOp39
 70
     1
102
RTVSPost2010Prop40
 90
        0
102
RTVSPost2010PropOp40
 70
     1
102
RTVSPost2010Prop41ColorIndex
 90
       18
102
RTVSPost2010Prop41ColorRGB
 90
        0
102
RTVSPost2010PropOp41
 70
     1
102
RTVSPost2010Prop42
 90
       50
102
RTVSPost2010PropOp42
 70
     1
102
RTVSPost2010Prop43
 90
        3
102
RTVSPost2010PropOp43
 70
     1
102
RTVSPost2010Prop44ColorIndex
 90
        5
102
RTVSPost2010Prop44ColorRGB
 90
      255
102
RTVSPost2010PropOp44
 70
     1
102
RTVSPost2010Prop45
280
     0
102
RTVSPost2010PropOp45
 70
     1
102
RTVSPost2010Prop46
 90
       50
102
RTVSPost2010PropOp46
 70
     1
102
RTVSPost2010Prop47
 90
       50
102
RTVSPost2010PropOp47
 70
     1
102
RTVSPost2010Prop48
 90
       50
102
RTVSPost2010PropOp48
 70
     1
102
RTVSPost2010Prop49
280
     0
102
RTVSPost2010PropOp49
 70
     1
102
RTVSPost2010Prop50
 90
       50
102
RTVSPost2010PropOp50
 70
     1
102
RTVSPost2010Prop51ColorIndex
 90
      256
102
RTVSPost2010Prop51ColorRGB
 90
-16777216
102
RTVSPost2010PropOp51
 70
     0
102
RTVSPost2010Prop52
140
1.0
102
RTVSPost2010PropOp52
 70
     0
102
RTVSPost2010Prop53
 90
        2
102
RTVSPost2010PropOp53
 70
     1
102
RTVSPost2010Prop54
  1
strokes_ogs.tif
102
RTVSPost2010PropOp54
 70
     1
102
RTVSPost2010Prop55
280
     0
102
RTVSPost2010PropOp55
 70
     1
102
RTVSPost2010Prop56
140
1.0
102
RTVSPost2010PropOp56
 70
     1
102
RTVSPost2010Prop57
140
1.0
102
RTVSPost2010PropOp57
 70
     1
102
RTVSPropertyOp0
 70
     1
102
RTVSPropertyOp1
 70
     1
102
RTVSPropertyOp2
 70
     1
102
RTVSPropertyOp3
 70
     1
102
RTVSPropertyOp4
 70
     1
102
RTVSPropertyOp5
 70
     1
102
RTVSPropertyOp6
 70
     1
102
RTVSPropertyOp7
 70
     1
102
RTVSPropertyOp8
 70
     1
102
RTVSPropertyOp9
 70
     1
102
RTVSPropertyOp10
 70
     1
102
RTVSPropertyOp11
 70
     1
102
RTVSPropertyOp12
 70
     1
102
RTVSPropertyOp13
 70
     1
102
RTVSPropertyOp14
 70
     1
102
RTVSPropertyOp15
 70
     1
102
RTVSPropertyOp16
 70
     1
102
RTVSPropertyOp17
 70
     1
102
RTVSPropertyOp18
 70
     1
102
RTVSPropertyOp19
 70
     1
102
RTVSPropertyOp20
 70
     1
102
RTVSPropertyOp21
 70
     1
102
RTVSPropertyOp22
 70
     1
102
RTVSPropertyOp23
 70
     1
102
RTVSPropertyOp24
 70
     1
102
RTVSPropertyOp25
 70
     1
102
RTVSPropertyOp26
 70
     1
102
RTVSPropertyOp27
 70
     1
102
RTVSPropertyOp28
 70
     1
102
RTVSPropertyOp29
 70
     1
102
RTVSPropertyOp30
 70
     1
102
RTVSPropertyOp31
 70
     1
102
RTVSPropertyOp32
 70
     1
102
RTVSPropertyOp33
 70
     1
102
RTVSPropertyOp34
 70
     1
102
RTVSPropertyOp35
 70
     1
102
RTVSPropertyOp36
 70
     1
102
RTVSPropertyOp37
 70
     1
102
RTVSPropertyOp38
 70
     1
102
RTVSPropertyOp39
 70
     1
102
RTVSPropertyOp40
 70
     1
102
RTVSPropertyOp41
 70
     1
102
RTVSPropertyOp42
 70
     1
102
RTVSPropertyOp43
 70
     1
102
RTVSPropertyOp44
 70
     1
102
RTVSPropertyOp45
 70
     1
102
RTVSPropertyOp46
 70
     1
102
RTVSPropertyOp47
 70
     1
102
RTVSPropertyOp48
 70
     1
102
RTVSPropertyOp49
 70
     1
102
RTVSPropertyOp50
 70
     1
102
RTVSPropertyOp51
 70
     0
102
RTVSPropertyOp52
 70
     0
102
RTVSPropertyOp53
 70
     1
102
RTVSPropertyOp54
 70
     1
102
RTVSPropertyOp55
 70
     1
102
RTVSPropertyOp56
 70
     1
102
RTVSPropertyOp57
 70
     1
102
RTVSPropertyOp58
 70
     1
102
RTVSPropertyOp59
 70
     1
102
RTVSPropertyOp60
 70
     1
102
RTVSPropertyOp61
 70
     1
102
RTVSPropertyOp62
 70
     1
  0
XRECORD
  5
4CD
102
{ACAD_REACTORS
330
4CC
102
}
330
4CC
100
AcDbXrecord
280
     1
102
RTVSPost2010Prop28
280
     0
102
RTVSPost2010PropOp28
 70
     1
102
RTVSPost2010Prop29
280
     1
102
RTVSPost2010PropOp29
 70
     1
102
RTVSPost2010Prop30
280
     1
102
RTVSPost2010PropOp30
 70
     1
102
RTVSPost2010Prop31
280
     0
102
RTVSPost2010PropOp31
 70
     1
102
RTVSPost2010Prop32
280
     0
102
RTVSPost2010PropOp32
 70
     1
102
RTVSPost2010Prop33
280
     0
102
RTVSPost2010PropOp33
 70
     1
102
RTVSPost2010Prop34
280
     0
102
RTVSPost2010PropOp34
 70
     1
102
RTVSPost2010Prop35
280
     0
102
RTVSPost2010PropOp35
 70
     1
102
RTVSPost2010Prop36
280
     0
102
RTVSPost2010PropOp36
 70
     1
102
RTVSPost2010Prop37
 90
       50
102
RTVSPost2010PropOp37
 70
     1
102
RTVSPost2010Prop38
140
0.0
102
RTVSPost2010PropOp38
 70
     1
102
RTVSPost2010Prop39
140
1.0
102
RTVSPost2010PropOp39
 70
     1
102
RTVSPost2010Prop40
 90
        0
102
RTVSPost2010PropOp40
 70
     1
102
RTVSPost2010Prop41ColorIndex
 90
       18
102
RTVSPost2010Prop41ColorRGB
 90
        0
102
RTVSPost2010PropOp41
 70
     1
102
RTVSPost2010Prop42
 90
       50
102
RTVSPost2010PropOp42
 70
     1
102
RTVSPost2010Prop43
 90
        3
102
RTVSPost2010PropOp43
 70
     1
102
RTVSPost2010Prop44ColorIndex
 90
        5
102
RTVSPost2010Prop44ColorRGB
 90
      255
102
RTVSPost2010PropOp44
 70
     1
102
RTVSPost2010Prop45
280
     0
102
RTVSPost2010PropOp45
 70
     1
102
RTVSPost2010Prop46
 90
       50
102
RTVSPost2010PropOp46
 70
     1
102
RTVSPost2010Prop47
 90
       50
102
RTVSPost2010PropOp47
 70
     1
102
RTVSPost2010Prop48
 90
       50
102
RTVSPost2010PropOp48
 70
     1
102
RTVSPost2010Prop49
280
     0
102
RTVSPost2010PropOp49
 70
     1
102
RTVSPost2010Prop50
 90
       50
102
RTVSPost2010PropOp50
 70
     1
102
RTVSPost2010Prop51ColorIndex
 90
      256
102
RTVSPost2010Prop51ColorRGB
 90
-16777216
102
RTVSPost2010PropOp51
 70
     0
102
RTVSPost2010Prop52
140
1.0
102
RTVSPost2010PropOp52
 70
     0
102
RTVSPost2010Prop53
 90
        2
102
RTVSPost2010PropOp53
 70
     1
102
RTVSPost2010Prop54
  1
strokes_ogs.tif
102
RTVSPost2010PropOp54
 70
     1
102
RTVSPost2010Prop55
280
     0
102
RTVSPost2010PropOp55
 70
     1
102
RTVSPost2010Prop56
140
1.0
102
RTVSPost2010PropOp56
 70
     1
102
RTVSPost2010Prop57
140
1.0
102
RTVSPost2010PropOp57
 70
     1
102
RTVSPropertyOp0
 70
     1
102
RTVSPropertyOp1
 70
     1
102
RTVSPropertyOp2
 70
     1
102
RTVSPropertyOp3
 70
     1
102
RTVSPropertyOp4
 70
     1
102
RTVSPropertyOp5
 70
     1
102
RTVSPropertyOp6
 70
     1
102
RTVSPropertyOp7
 70
     1
102
RTVSPropertyOp8
 70
     1
102
RTVSPropertyOp9
 70
     1
102
RTVSPropertyOp10
 70
     1
102
RTVSPropertyOp11
 70
     1
102
RTVSPropertyOp12
 70
     1
102
RTVSPropertyOp13
 70
     1
102
RTVSPropertyOp14
 70
     1
102
RTVSPropertyOp15
 70
     1
102
RTVSPropertyOp16
 70
     1
102
RTVSPropertyOp17
 70
     1
102
RTVSPropertyOp18
 70
     1
102
RTVSPropertyOp19
 70
     1
102
RTVSPropertyOp20
 70
     1
102
RTVSPropertyOp21
 70
     1
102
RTVSPropertyOp22
 70
     1
102
RTVSPropertyOp23
 70
     1
102
RTVSPropertyOp24
 70
     1
102
RTVSPropertyOp25
 70
     1
102
RTVSPropertyOp26
 70
     1
102
RTVSPropertyOp27
 70
     1
102
RTVSPropertyOp28
 70
     1
102
RTVSPropertyOp29
 70
     1
102
RTVSPropertyOp30
 70
     1
102
RTVSPropertyOp31
 70
     1
102
RTVSPropertyOp32
 70
     1
102
RTVSPropertyOp33
 70
     1
102
RTVSPropertyOp34
 70
     1
102
RTVSPropertyOp35
 70
     1
102
RTVSPropertyOp36
 70
     1
102
RTVSPropertyOp37
 70
     1
102
RTVSPropertyOp38
 70
     1
102
RTVSPropertyOp39
 70
     1
102
RTVSPropertyOp40
 70
     1
102
RTVSPropertyOp41
 70
     1
102
RTVSPropertyOp42
 70
     1
102
RTVSPropertyOp43
 70
     1
102
RTVSPropertyOp44
 70
     1
102
RTVSPropertyOp45
 70
     1
102
RTVSPropertyOp46
 70
     1
102
RTVSPropertyOp47
 70
     1
102
RTVSPropertyOp48
 70
     1
102
RTVSPropertyOp49
 70
     1
102
RTVSPropertyOp50
 70
     1
102
RTVSPropertyOp51
 70
     0
102
RTVSPropertyOp52
 70
     0
102
RTVSPropertyOp53
 70
     1
102
RTVSPropertyOp54
 70
     1
102
RTVSPropertyOp55
 70
     1
102
RTVSPropertyOp56
 70
     1
102
RTVSPropertyOp57
 70
     1
102
RTVSPropertyOp58
 70
     1
102
RTVSPropertyOp59
 70
     1
102
RTVSPropertyOp60
 70
     1
102
RTVSPropertyOp61
 70
     1
102
RTVSPropertyOp62
 70
     1
  0
XRECORD
  5
4DD
102
{ACAD_REACTORS
330
4DC
102
}
330
4DC
100
AcDbXrecord
280
     1
102
RTVSPost2010Prop28
280
     0
102
RTVSPost2010PropOp28
 70
     0
102
RTVSPost2010Prop29
280
     1
102
RTVSPost2010PropOp29
 70
     0
102
RTVSPost2010Prop30
280
     1
102
RTVSPost2010PropOp30
 70
     0
102
RTVSPost2010Prop31
280
     0
102
RTVSPost2010PropOp31
 70
     0
102
RTVSPost2010Prop32
280
     0
102
RTVSPost2010PropOp32
 70
     0
102
RTVSPost2010Prop33
280
     0
102
RTVSPost2010PropOp33
 70
     0
102
RTVSPost2010Prop34
280
     0
102
RTVSPost2010PropOp34
 70
     0
102
RTVSPost2010Prop35
280
     0
102
RTVSPost2010PropOp35
 70
     0
102
RTVSPost2010Prop36
280
     0
102
RTVSPost2010PropOp36
 70
     0
102
RTVSPost2010Prop37
 90
       50
102
RTVSPost2010PropOp37
 70
     0
102
RTVSPost2010Prop38
140
0.0
102
RTVSPost2010PropOp38
 70
     0
102
RTVSPost2010Prop39
140
1.0
102
RTVSPost2010PropOp39
 70
     0
102
RTVSPost2010Prop40
 90
        0
102
RTVSPost2010PropOp40
 70
     0
102
RTVSPost2010Prop41ColorIndex
 90
       18
102
RTVSPost2010Prop41ColorRGB
 90
        0
102
RTVSPost2010PropOp41
 70
     0
102
RTVSPost2010Prop42
 90
       50
102
RTVSPost2010PropOp42
 70
     0
102
RTVSPost2010Prop43
 90
        3
102
RTVSPost2010PropOp43
 70
     0
102
RTVSPost2010Prop44ColorIndex
 90
        5
102
RTVSPost2010Prop44ColorRGB
 90
      255
102
RTVSPost2010PropOp44
 70
     0
102
RTVSPost2010Prop45
280
     0
102
RTVSPost2010PropOp45
 70
     0
102
RTVSPost2010Prop46
 90
       50
102
RTVSPost2010PropOp46
 70
     0
102
RTVSPost2010Prop47
 90
       50
102
RTVSPost2010PropOp47
 70
     0
102
RTVSPost2010Prop48
 90
       50
102
RTVSPost2010PropOp48
 70
     0
102
RTVSPost2010Prop49
280
     0
102
RTVSPost2010PropOp49
 70
     0
102
RTVSPost2010Prop50
 90
       50
102
RTVSPost2010PropOp50
 70
     0
102
RTVSPost2010Prop51ColorIndex
 90
      256
102
RTVSPost2010Prop51ColorRGB
 90
-16777216
102
RTVSPost2010PropOp51
 70
     0
102
RTVSPost2010Prop52
140
1.0
102
RTVSPost2010PropOp52
 70
     0
102
RTVSPost2010Prop53
 90
        2
102
RTVSPost2010PropOp53
 70
     0
102
RTVSPost2010Prop54
  1
strokes_ogs.tif
102
RTVSPost2010PropOp54
 70
     0
102
RTVSPost2010Prop55
280
     0
102
RTVSPost2010PropOp55
 70
     0
102
RTVSPost2010Prop56
140
1.0
102
RTVSPost2010PropOp56
 70
     0
102
RTVSPost2010Prop57
140
1.0
102
RTVSPost2010PropOp57
 70
     0
102
RTVSPropertyOp0
 70
     0
102
RTVSPropertyOp1
 70
     0
102
RTVSPropertyOp2
 70
     0
102
RTVSPropertyOp3
 70
     0
102
RTVSPropertyOp4
 70
     0
102
RTVSPropertyOp5
 70
     0
102
RTVSPropertyOp6
 70
     0
102
RTVSPropertyOp7
 70
     0
102
RTVSPropertyOp8
 70
     0
102
RTVSPropertyOp9
 70
     0
102
RTVSPropertyOp10
 70
     0
102
RTVSPropertyOp11
 70
     0
102
RTVSPropertyOp12
 70
     0
102
RTVSPropertyOp13
 70
     0
102
RTVSPropertyOp14
 70
     2
102
RTVSPropertyOp15
 70
     0
102
RTVSPropertyOp16
 70
     0
102
RTVSPropertyOp17
 70
     0
102
RTVSPropertyOp18
 70
     0
102
RTVSPropertyOp19
 70
     0
102
RTVSPropertyOp20
 70
     0
102
RTVSPropertyOp21
 70
     0
102
RTVSPropertyOp22
 70
     0
102
RTVSPropertyOp23
 70
     0
102
RTVSPropertyOp24
 70
     0
102
RTVSPropertyOp25
 70
     0
102
RTVSPropertyOp26
 70
     0
102
RTVSPropertyOp27
 70
     0
102
RTVSPropertyOp28
 70
     0
102
RTVSPropertyOp29
 70
     0
102
RTVSPropertyOp30
 70
     0
102
RTVSPropertyOp31
 70
     0
102
RTVSPropertyOp32
 70
     0
102
RTVSPropertyOp33
 70
     0
102
RTVSPropertyOp34
 70
     0
102
RTVSPropertyOp35
 70
     0
102
RTVSPropertyOp36
 70
     0
102
RTVSPropertyOp37
 70
     0
102
RTVSPropertyOp38
 70
     0
102
RTVSPropertyOp39
 70
     0
102
RTVSPropertyOp40
 70
     0
102
RTVSPropertyOp41
 70
     0
102
RTVSPropertyOp42
 70
     0
102
RTVSPropertyOp43
 70
     0
102
RTVSPropertyOp44
 70
     0
102
RTVSPropertyOp45
 70
     0
102
RTVSPropertyOp46
 70
     0
102
RTVSPropertyOp47
 70
     0
102
RTVSPropertyOp48
 70
     0
102
RTVSPropertyOp49
 70
     0
102
RTVSPropertyOp50
 70
     0
102
RTVSPropertyOp51
 70
     0
102
RTVSPropertyOp52
 70
     0
102
RTVSPropertyOp53
 70
     0
102
RTVSPropertyOp54
 70
     0
102
RTVSPropertyOp55
 70
     0
102
RTVSPropertyOp56
 70
     0
102
RTVSPropertyOp57
 70
     0
102
RTVSPropertyOp58
 70
     1
102
RTVSPropertyOp59
 70
     1
102
RTVSPropertyOp60
 70
     1
102
RTVSPropertyOp61
 70
     1
102
RTVSPropertyOp62
 70
     1
  0
XRECORD
  5
4D5
102
{ACAD_REACTORS
330
4D4
102
}
330
4D4
100
AcDbXrecord
280
     1
102
RTVSPost2010Prop28
280
     0
102
RTVSPost2010PropOp28
 70
     1
102
RTVSPost2010Prop29
280
     1
102
RTVSPost2010PropOp29
 70
     1
102
RTVSPost2010Prop30
280
     1
102
RTVSPost2010PropOp30
 70
     1
102
RTVSPost2010Prop31
280
     0
102
RTVSPost2010PropOp31
 70
     1
102
RTVSPost2010Prop32
280
     0
102
RTVSPost2010PropOp32
 70
     1
102
RTVSPost2010Prop33
280
     0
102
RTVSPost2010PropOp33
 70
     1
102
RTVSPost2010Prop34
280
     0
102
RTVSPost2010PropOp34
 70
     1
102
RTVSPost2010Prop35
280
     0
102
RTVSPost2010PropOp35
 70
     1
102
RTVSPost2010Prop36
280
     0
102
RTVSPost2010PropOp36
 70
     1
102
RTVSPost2010Prop37
 90
       50
102
RTVSPost2010PropOp37
 70
     1
102
RTVSPost2010Prop38
140
0.0
102
RTVSPost2010PropOp38
 70
     1
102
RTVSPost2010Prop39
140
1.0
102
RTVSPost2010PropOp39
 70
     1
102
RTVSPost2010Prop40
 90
        0
102
RTVSPost2010PropOp40
 70
     1
102
RTVSPost2010Prop41ColorIndex
 90
       18
102
RTVSPost2010Prop41ColorRGB
 90
        0
102
RTVSPost2010PropOp41
 70
     1
102
RTVSPost2010Prop42
 90
       50
102
RTVSPost2010PropOp42
 70
     1
102
RTVSPost2010Prop43
 90
        3
102
RTVSPost2010PropOp43
 70
     1
102
RTVSPost2010Prop44ColorIndex
 90
        5
102
RTVSPost2010Prop44ColorRGB
 90
      255
102
RTVSPost2010PropOp44
 70
     1
102
RTVSPost2010Prop45
280
     0
102
RTVSPost2010PropOp45
 70
     1
102
RTVSPost2010Prop46
 90
       50
102
RTVSPost2010PropOp46
 70
     1
102
RTVSPost2010Prop47
 90
       50
102
RTVSPost2010PropOp47
 70
     1
102
RTVSPost2010Prop48
 90
       50
102
RTVSPost2010PropOp48
 70
     1
102
RTVSPost2010Prop49
280
     0
102
RTVSPost2010PropOp49
 70
     1
102
RTVSPost2010Prop50
 90
       50
102
RTVSPost2010PropOp50
 70
     1
102
RTVSPost2010Prop51ColorIndex
 90
      256
102
RTVSPost2010Prop51ColorRGB
 90
-16777216
102
RTVSPost2010PropOp51
 70
     0
102
RTVSPost2010Prop52
140
1.0
102
RTVSPost2010PropOp52
 70
     0
102
RTVSPost2010Prop53
 90
        2
102
RTVSPost2010PropOp53
 70
     1
102
RTVSPost2010Prop54
  1
strokes_ogs.tif
102
RTVSPost2010PropOp54
 70
     1
102
RTVSPost2010Prop55
280
     0
102
RTVSPost2010PropOp55
 70
     1
102
RTVSPost2010Prop56
140
1.0
102
RTVSPost2010PropOp56
 70
     1
102
RTVSPost2010Prop57
140
1.0
102
RTVSPost2010PropOp57
 70
     1
102
RTVSPropertyOp0
 70
     1
102
RTVSPropertyOp1
 70
     1
102
RTVSPropertyOp2
 70
     1
102
RTVSPropertyOp3
 70
     1
102
RTVSPropertyOp4
 70
     1
102
RTVSPropertyOp5
 70
     1
102
RTVSPropertyOp6
 70
     1
102
RTVSPropertyOp7
 70
     1
102
RTVSPropertyOp8
 70
     1
102
RTVSPropertyOp9
 70
     1
102
RTVSPropertyOp10
 70
     1
102
RTVSPropertyOp11
 70
     1
102
RTVSPropertyOp12
 70
     1
102
RTVSPropertyOp13
 70
     1
102
RTVSPropertyOp14
 70
     1
102
RTVSPropertyOp15
 70
     1
102
RTVSPropertyOp16
 70
     1
102
RTVSPropertyOp17
 70
     1
102
RTVSPropertyOp18
 70
     1
102
RTVSPropertyOp19
 70
     1
102
RTVSPropertyOp20
 70
     1
102
RTVSPropertyOp21
 70
     1
102
RTVSPropertyOp22
 70
     1
102
RTVSPropertyOp23
 70
     1
102
RTVSPropertyOp24
 70
     1
102
RTVSPropertyOp25
 70
     1
102
RTVSPropertyOp26
 70
     1
102
RTVSPropertyOp27
 70
     1
102
RTVSPropertyOp28
 70
     1
102
RTVSPropertyOp29
 70
     1
102
RTVSPropertyOp30
 70
     1
102
RTVSPropertyOp31
 70
     1
102
RTVSPropertyOp32
 70
     1
102
RTVSPropertyOp33
 70
     1
102
RTVSPropertyOp34
 70
     1
102
RTVSPropertyOp35
 70
     1
102
RTVSPropertyOp36
 70
     1
102
RTVSPropertyOp37
 70
     1
102
RTVSPropertyOp38
 70
     1
102
RTVSPropertyOp39
 70
     1
102
RTVSPropertyOp40
 70
     1
102
RTVSPropertyOp41
 70
     1
102
RTVSPropertyOp42
 70
     1
102
RTVSPropertyOp43
 70
     1
102
RTVSPropertyOp44
 70
     1
102
RTVSPropertyOp45
 70
     1
102
RTVSPropertyOp46
 70
     1
102
RTVSPropertyOp47
 70
     1
102
RTVSPropertyOp48
 70
     1
102
RTVSPropertyOp49
 70
     1
102
RTVSPropertyOp50
 70
     1
102
RTVSPropertyOp51
 70
     0
102
RTVSPropertyOp52
 70
     0
102
RTVSPropertyOp53
 70
     1
102
RTVSPropertyOp54
 70
     1
102
RTVSPropertyOp55
 70
     1
102
RTVSPropertyOp56
 70
     1
102
RTVSPropertyOp57
 70
     1
102
RTVSPropertyOp58
 70
     1
102
RTVSPropertyOp59
 70
     1
102
RTVSPropertyOp60
 70
     1
102
RTVSPropertyOp61
 70
     1
102
RTVSPropertyOp62
 70
     1
  0
XRECORD
  5
4B9
102
{ACAD_REACTORS
330
4B8
102
}
330
4B8
100
AcDbXrecord
280
     1
102
RTVSPost2010Prop28
280
     0
102
RTVSPost2010PropOp28
 70
     1
102
RTVSPost2010Prop29
280
     1
102
RTVSPost2010PropOp29
 70
     1
102
RTVSPost2010Prop30
280
     1
102
RTVSPost2010PropOp30
 70
     1
102
RTVSPost2010Prop31
280
     0
102
RTVSPost2010PropOp31
 70
     1
102
RTVSPost2010Prop32
280
     0
102
RTVSPost2010PropOp32
 70
     1
102
RTVSPost2010Prop33
280
     0
102
RTVSPost2010PropOp33
 70
     1
102
RTVSPost2010Prop34
280
     0
102
RTVSPost2010PropOp34
 70
     1
102
RTVSPost2010Prop35
280
     0
102
RTVSPost2010PropOp35
 70
     1
102
RTVSPost2010Prop36
280
     0
102
RTVSPost2010PropOp36
 70
     1
102
RTVSPost2010Prop37
 90
       50
102
RTVSPost2010PropOp37
 70
     1
102
RTVSPost2010Prop38
140
0.0
102
RTVSPost2010PropOp38
 70
     1
102
RTVSPost2010Prop39
140
1.0
102
RTVSPost2010PropOp39
 70
     1
102
RTVSPost2010Prop40
 90
        0
102
RTVSPost2010PropOp40
 70
     1
102
RTVSPost2010Prop41ColorIndex
 90
       18
102
RTVSPost2010Prop41ColorRGB
 90
        0
102
RTVSPost2010PropOp41
 70
     1
102
RTVSPost2010Prop42
 90
       50
102
RTVSPost2010PropOp42
 70
     1
102
RTVSPost2010Prop43
 90
        3
102
RTVSPost2010PropOp43
 70
     1
102
RTVSPost2010Prop44ColorIndex
 90
        5
102
RTVSPost2010Prop44ColorRGB
 90
      255
102
RTVSPost2010PropOp44
 70
     1
102
RTVSPost2010Prop45
280
     0
102
RTVSPost2010PropOp45
 70
     1
102
RTVSPost2010Prop46
 90
       50
102
RTVSPost2010PropOp46
 70
     1
102
RTVSPost2010Prop47
 90
       50
102
RTVSPost2010PropOp47
 70
     1
102
RTVSPost2010Prop48
 90
       50
102
RTVSPost2010PropOp48
 70
     1
102
RTVSPost2010Prop49
280
     0
102
RTVSPost2010PropOp49
 70
     1
102
RTVSPost2010Prop50
 90
       50
102
RTVSPost2010PropOp50
 70
     1
102
RTVSPost2010Prop51ColorIndex
 90
      256
102
RTVSPost2010Prop51ColorRGB
 90
-16777216
102
RTVSPost2010PropOp51
 70
     0
102
RTVSPost2010Prop52
140
1.0
102
RTVSPost2010PropOp52
 70
     0
102
RTVSPost2010Prop53
 90
        2
102
RTVSPost2010PropOp53
 70
     1
102
RTVSPost2010Prop54
  1
strokes_ogs.tif
102
RTVSPost2010PropOp54
 70
     1
102
RTVSPost2010Prop55
280
     0
102
RTVSPost2010PropOp55
 70
     1
102
RTVSPost2010Prop56
140
1.0
102
RTVSPost2010PropOp56
 70
     1
102
RTVSPost2010Prop57
140
1.0
102
RTVSPost2010PropOp57
 70
     1
102
RTVSPropertyOp0
 70
     1
102
RTVSPropertyOp1
 70
     1
102
RTVSPropertyOp2
 70
     1
102
RTVSPropertyOp3
 70
     1
102
RTVSPropertyOp4
 70
     1
102
RTVSPropertyOp5
 70
     1
102
RTVSPropertyOp6
 70
     1
102
RTVSPropertyOp7
 70
     1
102
RTVSPropertyOp8
 70
     1
102
RTVSPropertyOp9
 70
     1
102
RTVSPropertyOp10
 70
     1
102
RTVSPropertyOp11
 70
     1
102
RTVSPropertyOp12
 70
     1
102
RTVSPropertyOp13
 70
     1
102
RTVSPropertyOp14
 70
     1
102
RTVSPropertyOp15
 70
     1
102
RTVSPropertyOp16
 70
     1
102
RTVSPropertyOp17
 70
     1
102
RTVSPropertyOp18
 70
     1
102
RTVSPropertyOp19
 70
     1
102
RTVSPropertyOp20
 70
     1
102
RTVSPropertyOp21
 70
     1
102
RTVSPropertyOp22
 70
     1
102
RTVSPropertyOp23
 70
     1
102
RTVSPropertyOp24
 70
     1
102
RTVSPropertyOp25
 70
     1
102
RTVSPropertyOp26
 70
     1
102
RTVSPropertyOp27
 70
     1
102
RTVSPropertyOp28
 70
     1
102
RTVSPropertyOp29
 70
     1
102
RTVSPropertyOp30
 70
     1
102
RTVSPropertyOp31
 70
     1
102
RTVSPropertyOp32
 70
     1
102
RTVSPropertyOp33
 70
     1
102
RTVSPropertyOp34
 70
     1
102
RTVSPropertyOp35
 70
     1
102
RTVSPropertyOp36
 70
     1
102
RTVSPropertyOp37
 70
     1
102
RTVSPropertyOp38
 70
     1
102
RTVSPropertyOp39
 70
     1
102
RTVSPropertyOp40
 70
     1
102
RTVSPropertyOp41
 70
     1
102
RTVSPropertyOp42
 70
     1
102
RTVSPropertyOp43
 70
     1
102
RTVSPropertyOp44
 70
     1
102
RTVSPropertyOp45
 70
     1
102
RTVSPropertyOp46
 70
     1
102
RTVSPropertyOp47
 70
     1
102
RTVSPropertyOp48
 70
     1
102
RTVSPropertyOp49
 70
     1
102
RTVSPropertyOp50
 70
     1
102
RTVSPropertyOp51
 70
     0
102
RTVSPropertyOp52
 70
     0
102
RTVSPropertyOp53
 70
     1
102
RTVSPropertyOp54
 70
     1
102
RTVSPropertyOp55
 70
     1
102
RTVSPropertyOp56
 70
     1
102
RTVSPropertyOp57
 70
     1
102
RTVSPropertyOp58
 70
     1
102
RTVSPropertyOp59
 70
     1
102
RTVSPropertyOp60
 70
     1
102
RTVSPropertyOp61
 70
     1
102
RTVSPropertyOp62
 70
     1
  0
XRECORD
  5
4BB
102
{ACAD_REACTORS
330
4BA
102
}
330
4BA
100
AcDbXrecord
280
     1
102
RTVSPost2010Prop28
280
     0
102
RTVSPost2010PropOp28
 70
     1
102
RTVSPost2010Prop29
280
     1
102
RTVSPost2010PropOp29
 70
     1
102
RTVSPost2010Prop30
280
     1
102
RTVSPost2010PropOp30
 70
     1
102
RTVSPost2010Prop31
280
     0
102
RTVSPost2010PropOp31
 70
     1
102
RTVSPost2010Prop32
280
     0
102
RTVSPost2010PropOp32
 70
     1
102
RTVSPost2010Prop33
280
     0
102
RTVSPost2010PropOp33
 70
     1
102
RTVSPost2010Prop34
280
     0
102
RTVSPost2010PropOp34
 70
     1
102
RTVSPost2010Prop35
280
     0
102
RTVSPost2010PropOp35
 70
     1
102
RTVSPost2010Prop36
280
     0
102
RTVSPost2010PropOp36
 70
     1
102
RTVSPost2010Prop37
 90
       50
102
RTVSPost2010PropOp37
 70
     1
102
RTVSPost2010Prop38
140
0.0
102
RTVSPost2010PropOp38
 70
     1
102
RTVSPost2010Prop39
140
1.0
102
RTVSPost2010PropOp39
 70
     1
102
RTVSPost2010Prop40
 90
        0
102
RTVSPost2010PropOp40
 70
     1
102
RTVSPost2010Prop41ColorIndex
 90
       18
102
RTVSPost2010Prop41ColorRGB
 90
        0
102
RTVSPost2010PropOp41
 70
     1
102
RTVSPost2010Prop42
 90
       50
102
RTVSPost2010PropOp42
 70
     1
102
RTVSPost2010Prop43
 90
        3
102
RTVSPost2010PropOp43
 70
     1
102
RTVSPost2010Prop44ColorIndex
 90
        5
102
RTVSPost2010Prop44ColorRGB
 90
      255
102
RTVSPost2010PropOp44
 70
     1
102
RTVSPost2010Prop45
280
     0
102
RTVSPost2010PropOp45
 70
     1
102
RTVSPost2010Prop46
 90
       50
102
RTVSPost2010PropOp46
 70
     1
102
RTVSPost2010Prop47
 90
       50
102
RTVSPost2010PropOp47
 70
     1
102
RTVSPost2010Prop48
 90
       50
102
RTVSPost2010PropOp48
 70
     1
102
RTVSPost2010Prop49
280
     0
102
RTVSPost2010PropOp49
 70
     1
102
RTVSPost2010Prop50
 90
       50
102
RTVSPost2010PropOp50
 70
     1
102
RTVSPost2010Prop51ColorIndex
 90
      256
102
RTVSPost2010Prop51ColorRGB
 90
-16777216
102
RTVSPost2010PropOp51
 70
     0
102
RTVSPost2010Prop52
140
1.0
102
RTVSPost2010PropOp52
 70
     0
102
RTVSPost2010Prop53
 90
        2
102
RTVSPost2010PropOp53
 70
     1
102
RTVSPost2010Prop54
  1
strokes_ogs.tif
102
RTVSPost2010PropOp54
 70
     1
102
RTVSPost2010Prop55
280
     0
102
RTVSPost2010PropOp55
 70
     1
102
RTVSPost2010Prop56
140
1.0
102
RTVSPost2010PropOp56
 70
     1
102
RTVSPost2010Prop57
140
1.0
102
RTVSPost2010PropOp57
 70
     1
102
RTVSPropertyOp0
 70
     1
102
RTVSPropertyOp1
 70
     1
102
RTVSPropertyOp2
 70
     1
102
RTVSPropertyOp3
 70
     1
102
RTVSPropertyOp4
 70
     1
102
RTVSPropertyOp5
 70
     1
102
RTVSPropertyOp6
 70
     1
102
RTVSPropertyOp7
 70
     1
102
RTVSPropertyOp8
 70
     1
102
RTVSPropertyOp9
 70
     1
102
RTVSPropertyOp10
 70
     1
102
RTVSPropertyOp11
 70
     1
102
RTVSPropertyOp12
 70
     1
102
RTVSPropertyOp13
 70
     1
102
RTVSPropertyOp14
 70
     1
102
RTVSPropertyOp15
 70
     1
102
RTVSPropertyOp16
 70
     1
102
RTVSPropertyOp17
 70
     1
102
RTVSPropertyOp18
 70
     1
102
RTVSPropertyOp19
 70
     1
102
RTVSPropertyOp20
 70
     1
102
RTVSPropertyOp21
 70
     1
102
RTVSPropertyOp22
 70
     1
102
RTVSPropertyOp23
 70
     1
102
RTVSPropertyOp24
 70
     1
102
RTVSPropertyOp25
 70
     1
102
RTVSPropertyOp26
 70
     1
102
RTVSPropertyOp27
 70
     1
102
RTVSPropertyOp28
 70
     1
102
RTVSPropertyOp29
 70
     1
102
RTVSPropertyOp30
 70
     1
102
RTVSPropertyOp31
 70
     1
102
RTVSPropertyOp32
 70
     1
102
RTVSPropertyOp33
 70
     1
102
RTVSPropertyOp34
 70
     1
102
RTVSPropertyOp35
 70
     1
102
RTVSPropertyOp36
 70
     1
102
RTVSPropertyOp37
 70
     1
102
RTVSPropertyOp38
 70
     1
102
RTVSPropertyOp39
 70
     1
102
RTVSPropertyOp40
 70
     1
102
RTVSPropertyOp41
 70
     1
102
RTVSPropertyOp42
 70
     1
102
RTVSPropertyOp43
 70
     1
102
RTVSPropertyOp44
 70
     1
102
RTVSPropertyOp45
 70
     1
102
RTVSPropertyOp46
 70
     1
102
RTVSPropertyOp47
 70
     1
102
RTVSPropertyOp48
 70
     1
102
RTVSPropertyOp49
 70
     1
102
RTVSPropertyOp50
 70
     1
102
RTVSPropertyOp51
 70
     0
102
RTVSPropertyOp52
 70
     0
102
RTVSPropertyOp53
 70
     1
102
RTVSPropertyOp54
 70
     1
102
RTVSPropertyOp55
 70
     1
102
RTVSPropertyOp56
 70
     1
102
RTVSPropertyOp57
 70
     1
102
RTVSPropertyOp58
 70
     1
102
RTVSPropertyOp59
 70
     1
102
RTVSPropertyOp60
 70
     1
102
RTVSPropertyOp61
 70
     1
102
RTVSPropertyOp62
 70
     1
  0
XRECORD
  5
4BD
102
{ACAD_REACTORS
330
4BC
102
}
330
4BC
100
AcDbXrecord
280
     1
102
RTVSPost2010Prop28
280
     0
102
RTVSPost2010PropOp28
 70
     1
102
RTVSPost2010Prop29
280
     1
102
RTVSPost2010PropOp29
 70
     1
102
RTVSPost2010Prop30
280
     1
102
RTVSPost2010PropOp30
 70
     1
102
RTVSPost2010Prop31
280
     0
102
RTVSPost2010PropOp31
 70
     1
102
RTVSPost2010Prop32
280
     0
102
RTVSPost2010PropOp32
 70
     1
102
RTVSPost2010Prop33
280
     0
102
RTVSPost2010PropOp33
 70
     1
102
RTVSPost2010Prop34
280
     0
102
RTVSPost2010PropOp34
 70
     1
102
RTVSPost2010Prop35
280
     0
102
RTVSPost2010PropOp35
 70
     1
102
RTVSPost2010Prop36
280
     0
102
RTVSPost2010PropOp36
 70
     1
102
RTVSPost2010Prop37
 90
       50
102
RTVSPost2010PropOp37
 70
     1
102
RTVSPost2010Prop38
140
0.0
102
RTVSPost2010PropOp38
 70
     1
102
RTVSPost2010Prop39
140
1.0
102
RTVSPost2010PropOp39
 70
     1
102
RTVSPost2010Prop40
 90
        0
102
RTVSPost2010PropOp40
 70
     1
102
RTVSPost2010Prop41ColorIndex
 90
       18
102
RTVSPost2010Prop41ColorRGB
 90
        0
102
RTVSPost2010PropOp41
 70
     1
102
RTVSPost2010Prop42
 90
       50
102
RTVSPost2010PropOp42
 70
     1
102
RTVSPost2010Prop43
 90
        3
102
RTVSPost2010PropOp43
 70
     1
102
RTVSPost2010Prop44ColorIndex
 90
        5
102
RTVSPost2010Prop44ColorRGB
 90
      255
102
RTVSPost2010PropOp44
 70
     1
102
RTVSPost2010Prop45
280
     0
102
RTVSPost2010PropOp45
 70
     1
102
RTVSPost2010Prop46
 90
       50
102
RTVSPost2010PropOp46
 70
     1
102
RTVSPost2010Prop47
 90
       50
102
RTVSPost2010PropOp47
 70
     1
102
RTVSPost2010Prop48
 90
       50
102
RTVSPost2010PropOp48
 70
     1
102
RTVSPost2010Prop49
280
     0
102
RTVSPost2010PropOp49
 70
     1
102
RTVSPost2010Prop50
 90
       50
102
RTVSPost2010PropOp50
 70
     1
102
RTVSPost2010Prop51ColorIndex
 90
      256
102
RTVSPost2010Prop51ColorRGB
 90
-16777216
102
RTVSPost2010PropOp51
 70
     0
102
RTVSPost2010Prop52
140
1.0
102
RTVSPost2010PropOp52
 70
     0
102
RTVSPost2010Prop53
 90
        2
102
RTVSPost2010PropOp53
 70
     1
102
RTVSPost2010Prop54
  1
strokes_ogs.tif
102
RTVSPost2010PropOp54
 70
     1
102
RTVSPost2010Prop55
280
     0
102
RTVSPost2010PropOp55
 70
     1
102
RTVSPost2010Prop56
140
1.0
102
RTVSPost2010PropOp56
 70
     1
102
RTVSPost2010Prop57
140
1.0
102
RTVSPost2010PropOp57
 70
     1
102
RTVSPropertyOp0
 70
     1
102
RTVSPropertyOp1
 70
     1
102
RTVSPropertyOp2
 70
     1
102
RTVSPropertyOp3
 70
     1
102
RTVSPropertyOp4
 70
     1
102
RTVSPropertyOp5
 70
     1
102
RTVSPropertyOp6
 70
     1
102
RTVSPropertyOp7
 70
     1
102
RTVSPropertyOp8
 70
     1
102
RTVSPropertyOp9
 70
     1
102
RTVSPropertyOp10
 70
     1
102
RTVSPropertyOp11
 70
     1
102
RTVSPropertyOp12
 70
     1
102
RTVSPropertyOp13
 70
     1
102
RTVSPropertyOp14
 70
     1
102
RTVSPropertyOp15
 70
     1
102
RTVSPropertyOp16
 70
     1
102
RTVSPropertyOp17
 70
     1
102
RTVSPropertyOp18
 70
     1
102
RTVSPropertyOp19
 70
     1
102
RTVSPropertyOp20
 70
     1
102
RTVSPropertyOp21
 70
     1
102
RTVSPropertyOp22
 70
     1
102
RTVSPropertyOp23
 70
     1
102
RTVSPropertyOp24
 70
     1
102
RTVSPropertyOp25
 70
     1
102
RTVSPropertyOp26
 70
     1
102
RTVSPropertyOp27
 70
     1
102
RTVSPropertyOp28
 70
     1
102
RTVSPropertyOp29
 70
     1
102
RTVSPropertyOp30
 70
     1
102
RTVSPropertyOp31
 70
     1
102
RTVSPropertyOp32
 70
     1
102
RTVSPropertyOp33
 70
     1
102
RTVSPropertyOp34
 70
     1
102
RTVSPropertyOp35
 70
     1
102
RTVSPropertyOp36
 70
     1
102
RTVSPropertyOp37
 70
     1
102
RTVSPropertyOp38
 70
     1
102
RTVSPropertyOp39
 70
     1
102
RTVSPropertyOp40
 70
     1
102
RTVSPropertyOp41
 70
     1
102
RTVSPropertyOp42
 70
     1
102
RTVSPropertyOp43
 70
     1
102
RTVSPropertyOp44
 70
     1
102
RTVSPropertyOp45
 70
     1
102
RTVSPropertyOp46
 70
     1
102
RTVSPropertyOp47
 70
     1
102
RTVSPropertyOp48
 70
     1
102
RTVSPropertyOp49
 70
     1
102
RTVSPropertyOp50
 70
     1
102
RTVSPropertyOp51
 70
     0
102
RTVSPropertyOp52
 70
     0
102
RTVSPropertyOp53
 70
     1
102
RTVSPropertyOp54
 70
     1
102
RTVSPropertyOp55
 70
     1
102
RTVSPropertyOp56
 70
     1
102
RTVSPropertyOp57
 70
     1
102
RTVSPropertyOp58
 70
     1
102
RTVSPropertyOp59
 70
     1
102
RTVSPropertyOp60
 70
     1
102
RTVSPropertyOp61
 70
     1
102
RTVSPropertyOp62
 70
     1
  0
XRECORD
  5
4BF
102
{ACAD_REACTORS
330
4BE
102
}
330
4BE
100
AcDbXrecord
280
     1
102
RTVSPost2010Prop28
280
     0
102
RTVSPost2010PropOp28
 70
     1
102
RTVSPost2010Prop29
280
     1
102
RTVSPost2010PropOp29
 70
     1
102
RTVSPost2010Prop30
280
     1
102
RTVSPost2010PropOp30
 70
     1
102
RTVSPost2010Prop31
280
     0
102
RTVSPost2010PropOp31
 70
     1
102
RTVSPost2010Prop32
280
     0
102
RTVSPost2010PropOp32
 70
     1
102
RTVSPost2010Prop33
280
     0
102
RTVSPost2010PropOp33
 70
     1
102
RTVSPost2010Prop34
280
     0
102
RTVSPost2010PropOp34
 70
     1
102
RTVSPost2010Prop35
280
     0
102
RTVSPost2010PropOp35
 70
     1
102
RTVSPost2010Prop36
280
     0
102
RTVSPost2010PropOp36
 70
     1
102
RTVSPost2010Prop37
 90
       50
102
RTVSPost2010PropOp37
 70
     1
102
RTVSPost2010Prop38
140
0.0
102
RTVSPost2010PropOp38
 70
     1
102
RTVSPost2010Prop39
140
1.0
102
RTVSPost2010PropOp39
 70
     1
102
RTVSPost2010Prop40
 90
        0
102
RTVSPost2010PropOp40
 70
     1
102
RTVSPost2010Prop41ColorIndex
 90
       18
102
RTVSPost2010Prop41ColorRGB
 90
        0
102
RTVSPost2010PropOp41
 70
     1
102
RTVSPost2010Prop42
 90
       50
102
RTVSPost2010PropOp42
 70
     1
102
RTVSPost2010Prop43
 90
        3
102
RTVSPost2010PropOp43
 70
     1
102
RTVSPost2010Prop44ColorIndex
 90
        5
102
RTVSPost2010Prop44ColorRGB
 90
      255
102
RTVSPost2010PropOp44
 70
     1
102
RTVSPost2010Prop45
280
     0
102
RTVSPost2010PropOp45
 70
     1
102
RTVSPost2010Prop46
 90
       50
102
RTVSPost2010PropOp46
 70
     1
102
RTVSPost2010Prop47
 90
       50
102
RTVSPost2010PropOp47
 70
     1
102
RTVSPost2010Prop48
 90
       50
102
RTVSPost2010PropOp48
 70
     1
102
RTVSPost2010Prop49
280
     0
102
RTVSPost2010PropOp49
 70
     1
102
RTVSPost2010Prop50
 90
       50
102
RTVSPost2010PropOp50
 70
     1
102
RTVSPost2010Prop51ColorIndex
 90
      256
102
RTVSPost2010Prop51ColorRGB
 90
-16777216
102
RTVSPost2010PropOp51
 70
     0
102
RTVSPost2010Prop52
140
1.0
102
RTVSPost2010PropOp52
 70
     0
102
RTVSPost2010Prop53
 90
        2
102
RTVSPost2010PropOp53
 70
     1
102
RTVSPost2010Prop54
  1
strokes_ogs.tif
102
RTVSPost2010PropOp54
 70
     1
102
RTVSPost2010Prop55
280
     0
102
RTVSPost2010PropOp55
 70
     1
102
RTVSPost2010Prop56
140
1.0
102
RTVSPost2010PropOp56
 70
     1
102
RTVSPost2010Prop57
140
1.0
102
RTVSPost2010PropOp57
 70
     1
102
RTVSPropertyOp0
 70
     1
102
RTVSPropertyOp1
 70
     1
102
RTVSPropertyOp2
 70
     1
102
RTVSPropertyOp3
 70
     1
102
RTVSPropertyOp4
 70
     1
102
RTVSPropertyOp5
 70
     1
102
RTVSPropertyOp6
 70
     1
102
RTVSPropertyOp7
 70
     1
102
RTVSPropertyOp8
 70
     1
102
RTVSPropertyOp9
 70
     1
102
RTVSPropertyOp10
 70
     1
102
RTVSPropertyOp11
 70
     1
102
RTVSPropertyOp12
 70
     1
102
RTVSPropertyOp13
 70
     1
102
RTVSPropertyOp14
 70
     1
102
RTVSPropertyOp15
 70
     1
102
RTVSPropertyOp16
 70
     1
102
RTVSPropertyOp17
 70
     1
102
RTVSPropertyOp18
 70
     1
102
RTVSPropertyOp19
 70
     1
102
RTVSPropertyOp20
 70
     1
102
RTVSPropertyOp21
 70
     1
102
RTVSPropertyOp22
 70
     1
102
RTVSPropertyOp23
 70
     1
102
RTVSPropertyOp24
 70
     1
102
RTVSPropertyOp25
 70
     1
102
RTVSPropertyOp26
 70
     1
102
RTVSPropertyOp27
 70
     1
102
RTVSPropertyOp28
 70
     1
102
RTVSPropertyOp29
 70
     1
102
RTVSPropertyOp30
 70
     1
102
RTVSPropertyOp31
 70
     1
102
RTVSPropertyOp32
 70
     1
102
RTVSPropertyOp33
 70
     1
102
RTVSPropertyOp34
 70
     1
102
RTVSPropertyOp35
 70
     1
102
RTVSPropertyOp36
 70
     1
102
RTVSPropertyOp37
 70
     1
102
RTVSPropertyOp38
 70
     1
102
RTVSPropertyOp39
 70
     1
102
RTVSPropertyOp40
 70
     1
102
RTVSPropertyOp41
 70
     1
102
RTVSPropertyOp42
 70
     1
102
RTVSPropertyOp43
 70
     1
102
RTVSPropertyOp44
 70
     1
102
RTVSPropertyOp45
 70
     1
102
RTVSPropertyOp46
 70
     1
102
RTVSPropertyOp47
 70
     1
102
RTVSPropertyOp48
 70
     1
102
RTVSPropertyOp49
 70
     1
102
RTVSPropertyOp50
 70
     1
102
RTVSPropertyOp51
 70
     0
102
RTVSPropertyOp52
 70
     0
102
RTVSPropertyOp53
 70
     1
102
RTVSPropertyOp54
 70
     1
102
RTVSPropertyOp55
 70
     1
102
RTVSPropertyOp56
 70
     1
102
RTVSPropertyOp57
 70
     1
102
RTVSPropertyOp58
 70
     1
102
RTVSPropertyOp59
 70
     1
102
RTVSPropertyOp60
 70
     1
102
RTVSPropertyOp61
 70
     1
102
RTVSPropertyOp62
 70
     1
  0
XRECORD
  5
4C5
102
{ACAD_REACTORS
330
4C4
102
}
330
4C4
100
AcDbXrecord
280
     1
102
RTVSPost2010Prop28
280
     0
102
RTVSPost2010PropOp28
 70
     1
102
RTVSPost2010Prop29
280
     1
102
RTVSPost2010PropOp29
 70
     1
102
RTVSPost2010Prop30
280
     1
102
RTVSPost2010PropOp30
 70
     1
102
RTVSPost2010Prop31
280
     0
102
RTVSPost2010PropOp31
 70
     1
102
RTVSPost2010Prop32
280
     0
102
RTVSPost2010PropOp32
 70
     1
102
RTVSPost2010Prop33
280
     0
102
RTVSPost2010PropOp33
 70
     1
102
RTVSPost2010Prop34
280
     0
102
RTVSPost2010PropOp34
 70
     1
102
RTVSPost2010Prop35
280
     0
102
RTVSPost2010PropOp35
 70
     1
102
RTVSPost2010Prop36
280
     0
102
RTVSPost2010PropOp36
 70
     1
102
RTVSPost2010Prop37
 90
       50
102
RTVSPost2010PropOp37
 70
     1
102
RTVSPost2010Prop38
140
0.0
102
RTVSPost2010PropOp38
 70
     1
102
RTVSPost2010Prop39
140
1.0
102
RTVSPost2010PropOp39
 70
     1
102
RTVSPost2010Prop40
 90
        0
102
RTVSPost2010PropOp40
 70
     1
102
RTVSPost2010Prop41ColorIndex
 90
       18
102
RTVSPost2010Prop41ColorRGB
 90
        0
102
RTVSPost2010PropOp41
 70
     1
102
RTVSPost2010Prop42
 90
       50
102
RTVSPost2010PropOp42
 70
     1
102
RTVSPost2010Prop43
 90
        3
102
RTVSPost2010PropOp43
 70
     1
102
RTVSPost2010Prop44ColorIndex
 90
        5
102
RTVSPost2010Prop44ColorRGB
 90
      255
102
RTVSPost2010PropOp44
 70
     1
102
RTVSPost2010Prop45
280
     0
102
RTVSPost2010PropOp45
 70
     1
102
RTVSPost2010Prop46
 90
       50
102
RTVSPost2010PropOp46
 70
     1
102
RTVSPost2010Prop47
 90
       50
102
RTVSPost2010PropOp47
 70
     1
102
RTVSPost2010Prop48
 90
       50
102
RTVSPost2010PropOp48
 70
     1
102
RTVSPost2010Prop49
280
     0
102
RTVSPost2010PropOp49
 70
     1
102
RTVSPost2010Prop50
 90
       50
102
RTVSPost2010PropOp50
 70
     1
102
RTVSPost2010Prop51ColorIndex
 90
      256
102
RTVSPost2010Prop51ColorRGB
 90
-16777216
102
RTVSPost2010PropOp51
 70
     0
102
RTVSPost2010Prop52
140
1.0
102
RTVSPost2010PropOp52
 70
     0
102
RTVSPost2010Prop53
 90
        2
102
RTVSPost2010PropOp53
 70
     1
102
RTVSPost2010Prop54
  1
strokes_ogs.tif
102
RTVSPost2010PropOp54
 70
     1
102
RTVSPost2010Prop55
280
     0
102
RTVSPost2010PropOp55
 70
     1
102
RTVSPost2010Prop56
140
1.0
102
RTVSPost2010PropOp56
 70
     1
102
RTVSPost2010Prop57
140
1.0
102
RTVSPost2010PropOp57
 70
     1
102
RTVSPropertyOp0
 70
     1
102
RTVSPropertyOp1
 70
     1
102
RTVSPropertyOp2
 70
     1
102
RTVSPropertyOp3
 70
     1
102
RTVSPropertyOp4
 70
     1
102
RTVSPropertyOp5
 70
     1
102
RTVSPropertyOp6
 70
     1
102
RTVSPropertyOp7
 70
     1
102
RTVSPropertyOp8
 70
     1
102
RTVSPropertyOp9
 70
     1
102
RTVSPropertyOp10
 70
     1
102
RTVSPropertyOp11
 70
     1
102
RTVSPropertyOp12
 70
     1
102
RTVSPropertyOp13
 70
     1
102
RTVSPropertyOp14
 70
     1
102
RTVSPropertyOp15
 70
     1
102
RTVSPropertyOp16
 70
     1
102
RTVSPropertyOp17
 70
     1
102
RTVSPropertyOp18
 70
     1
102
RTVSPropertyOp19
 70
     1
102
RTVSPropertyOp20
 70
     1
102
RTVSPropertyOp21
 70
     1
102
RTVSPropertyOp22
 70
     1
102
RTVSPropertyOp23
 70
     1
102
RTVSPropertyOp24
 70
     1
102
RTVSPropertyOp25
 70
     1
102
RTVSPropertyOp26
 70
     1
102
RTVSPropertyOp27
 70
     1
102
RTVSPropertyOp28
 70
     1
102
RTVSPropertyOp29
 70
     1
102
RTVSPropertyOp30
 70
     1
102
RTVSPropertyOp31
 70
     1
102
RTVSPropertyOp32
 70
     1
102
RTVSPropertyOp33
 70
     1
102
RTVSPropertyOp34
 70
     1
102
RTVSPropertyOp35
 70
     1
102
RTVSPropertyOp36
 70
     1
102
RTVSPropertyOp37
 70
     1
102
RTVSPropertyOp38
 70
     1
102
RTVSPropertyOp39
 70
     1
102
RTVSPropertyOp40
 70
     1
102
RTVSPropertyOp41
 70
     1
102
RTVSPropertyOp42
 70
     1
102
RTVSPropertyOp43
 70
     1
102
RTVSPropertyOp44
 70
     1
102
RTVSPropertyOp45
 70
     1
102
RTVSPropertyOp46
 70
     1
102
RTVSPropertyOp47
 70
     1
102
RTVSPropertyOp48
 70
     1
102
RTVSPropertyOp49
 70
     1
102
RTVSPropertyOp50
 70
     1
102
RTVSPropertyOp51
 70
     0
102
RTVSPropertyOp52
 70
     0
102
RTVSPropertyOp53
 70
     1
102
RTVSPropertyOp54
 70
     1
102
RTVSPropertyOp55
 70
     1
102
RTVSPropertyOp56
 70
     1
102
RTVSPropertyOp57
 70
     1
102
RTVSPropertyOp58
 70
     1
102
RTVSPropertyOp59
 70
     1
102
RTVSPropertyOp60
 70
     1
102
RTVSPropertyOp61
 70
     1
102
RTVSPropertyOp62
 70
     1
  0
XRECORD
  5
4D9
102
{ACAD_REACTORS
330
4D8
102
}
330
4D8
100
AcDbXrecord
280
     1
102
RTVSPost2010Prop28
280
     0
102
RTVSPost2010PropOp28
 70
     0
102
RTVSPost2010Prop29
280
     1
102
RTVSPost2010PropOp29
 70
     0
102
RTVSPost2010Prop30
280
     1
102
RTVSPost2010PropOp30
 70
     0
102
RTVSPost2010Prop31
280
     0
102
RTVSPost2010PropOp31
 70
     0
102
RTVSPost2010Prop32
280
     0
102
RTVSPost2010PropOp32
 70
     0
102
RTVSPost2010Prop33
280
     0
102
RTVSPost2010PropOp33
 70
     0
102
RTVSPost2010Prop34
280
     0
102
RTVSPost2010PropOp34
 70
     0
102
RTVSPost2010Prop35
280
     0
102
RTVSPost2010PropOp35
 70
     0
102
RTVSPost2010Prop36
280
     0
102
RTVSPost2010PropOp36
 70
     0
102
RTVSPost2010Prop37
 90
       50
102
RTVSPost2010PropOp37
 70
     0
102
RTVSPost2010Prop38
140
0.0
102
RTVSPost2010PropOp38
 70
     0
102
RTVSPost2010Prop39
140
1.0
102
RTVSPost2010PropOp39
 70
     0
102
RTVSPost2010Prop40
 90
        0
102
RTVSPost2010PropOp40
 70
     0
102
RTVSPost2010Prop41ColorIndex
 90
       18
102
RTVSPost2010Prop41ColorRGB
 90
        0
102
RTVSPost2010PropOp41
 70
     0
102
RTVSPost2010Prop42
 90
       50
102
RTVSPost2010PropOp42
 70
     0
102
RTVSPost2010Prop43
 90
        3
102
RTVSPost2010PropOp43
 70
     0
102
RTVSPost2010Prop44ColorIndex
 90
        5
102
RTVSPost2010Prop44ColorRGB
 90
      255
102
RTVSPost2010PropOp44
 70
     0
102
RTVSPost2010Prop45
280
     0
102
RTVSPost2010PropOp45
 70
     0
102
RTVSPost2010Prop46
 90
       50
102
RTVSPost2010PropOp46
 70
     0
102
RTVSPost2010Prop47
 90
       50
102
RTVSPost2010PropOp47
 70
     0
102
RTVSPost2010Prop48
 90
       50
102
RTVSPost2010PropOp48
 70
     0
102
RTVSPost2010Prop49
280
     0
102
RTVSPost2010PropOp49
 70
     0
102
RTVSPost2010Prop50
 90
       50
102
RTVSPost2010PropOp50
 70
     0
102
RTVSPost2010Prop51ColorIndex
 90
      256
102
RTVSPost2010Prop51ColorRGB
 90
-16777216
102
RTVSPost2010PropOp51
 70
     0
102
RTVSPost2010Prop52
140
1.0
102
RTVSPost2010PropOp52
 70
     0
102
RTVSPost2010Prop53
 90
        2
102
RTVSPost2010PropOp53
 70
     0
102
RTVSPost2010Prop54
  1
strokes_ogs.tif
102
RTVSPost2010PropOp54
 70
     0
102
RTVSPost2010Prop55
280
     0
102
RTVSPost2010PropOp55
 70
     0
102
RTVSPost2010Prop56
140
1.0
102
RTVSPost2010PropOp56
 70
     0
102
RTVSPost2010Prop57
140
1.0
102
RTVSPost2010PropOp57
 70
     0
102
RTVSPropertyOp0
 70
     0
102
RTVSPropertyOp1
 70
     0
102
RTVSPropertyOp2
 70
     0
102
RTVSPropertyOp3
 70
     0
102
RTVSPropertyOp4
 70
     0
102
RTVSPropertyOp5
 70
     0
102
RTVSPropertyOp6
 70
     0
102
RTVSPropertyOp7
 70
     0
102
RTVSPropertyOp8
 70
     0
102
RTVSPropertyOp9
 70
     0
102
RTVSPropertyOp10
 70
     0
102
RTVSPropertyOp11
 70
     0
102
RTVSPropertyOp12
 70
     0
102
RTVSPropertyOp13
 70
     0
102
RTVSPropertyOp14
 70
     2
102
RTVSPropertyOp15
 70
     0
102
RTVSPropertyOp16
 70
     0
102
RTVSPropertyOp17
 70
     0
102
RTVSPropertyOp18
 70
     0
102
RTVSPropertyOp19
 70
     0
102
RTVSPropertyOp20
 70
     0
102
RTVSPropertyOp21
 70
     0
102
RTVSPropertyOp22
 70
     0
102
RTVSPropertyOp23
 70
     0
102
RTVSPropertyOp24
 70
     0
102
RTVSPropertyOp25
 70
     0
102
RTVSPropertyOp26
 70
     0
102
RTVSPropertyOp27
 70
     0
102
RTVSPropertyOp28
 70
     0
102
RTVSPropertyOp29
 70
     0
102
RTVSPropertyOp30
 70
     0
102
RTVSPropertyOp31
 70
     0
102
RTVSPropertyOp32
 70
     0
102
RTVSPropertyOp33
 70
     0
102
RTVSPropertyOp34
 70
     0
102
RTVSPropertyOp35
 70
     0
102
RTVSPropertyOp36
 70
     0
102
RTVSPropertyOp37
 70
     0
102
RTVSPropertyOp38
 70
     0
102
RTVSPropertyOp39
 70
     0
102
RTVSPropertyOp40
 70
     0
102
RTVSPropertyOp41
 70
     0
102
RTVSPropertyOp42
 70
     0
102
RTVSPropertyOp43
 70
     0
102
RTVSPropertyOp44
 70
     0
102
RTVSPropertyOp45
 70
     0
102
RTVSPropertyOp46
 70
     0
102
RTVSPropertyOp47
 70
     0
102
RTVSPropertyOp48
 70
     0
102
RTVSPropertyOp49
 70
     0
102
RTVSPropertyOp50
 70
     0
102
RTVSPropertyOp51
 70
     0
102
RTVSPropertyOp52
 70
     0
102
RTVSPropertyOp53
 70
     0
102
RTVSPropertyOp54
 70
     0
102
RTVSPropertyOp55
 70
     0
102
RTVSPropertyOp56
 70
     0
102
RTVSPropertyOp57
 70
     0
102
RTVSPropertyOp58
 70
     1
102
RTVSPropertyOp59
 70
     1
102
RTVSPropertyOp60
 70
     1
102
RTVSPropertyOp61
 70
     1
102
RTVSPropertyOp62
 70
     1
  0
XRECORD
  5
4D3
102
{ACAD_REACTORS
330
4D2
102
}
330
4D2
100
AcDbXrecord
280
     1
102
RTVSPost2010Prop28
280
     0
102
RTVSPost2010PropOp28
 70
     1
102
RTVSPost2010Prop29
280
     1
102
RTVSPost2010PropOp29
 70
     1
102
RTVSPost2010Prop30
280
     1
102
RTVSPost2010PropOp30
 70
     1
102
RTVSPost2010Prop31
280
     0
102
RTVSPost2010PropOp31
 70
     1
102
RTVSPost2010Prop32
280
     0
102
RTVSPost2010PropOp32
 70
     1
102
RTVSPost2010Prop33
280
     0
102
RTVSPost2010PropOp33
 70
     1
102
RTVSPost2010Prop34
280
     0
102
RTVSPost2010PropOp34
 70
     1
102
RTVSPost2010Prop35
280
     0
102
RTVSPost2010PropOp35
 70
     1
102
RTVSPost2010Prop36
280
     0
102
RTVSPost2010PropOp36
 70
     1
102
RTVSPost2010Prop37
 90
       50
102
RTVSPost2010PropOp37
 70
     1
102
RTVSPost2010Prop38
140
0.0
102
RTVSPost2010PropOp38
 70
     1
102
RTVSPost2010Prop39
140
1.0
102
RTVSPost2010PropOp39
 70
     1
102
RTVSPost2010Prop40
 90
        0
102
RTVSPost2010PropOp40
 70
     1
102
RTVSPost2010Prop41ColorIndex
 90
       18
102
RTVSPost2010Prop41ColorRGB
 90
        0
102
RTVSPost2010PropOp41
 70
     1
102
RTVSPost2010Prop42
 90
       50
102
RTVSPost2010PropOp42
 70
     1
102
RTVSPost2010Prop43
 90
        3
102
RTVSPost2010PropOp43
 70
     1
102
RTVSPost2010Prop44ColorIndex
 90
        5
102
RTVSPost2010Prop44ColorRGB
 90
      255
102
RTVSPost2010PropOp44
 70
     1
102
RTVSPost2010Prop45
280
     0
102
RTVSPost2010PropOp45
 70
     1
102
RTVSPost2010Prop46
 90
       50
102
RTVSPost2010PropOp46
 70
     1
102
RTVSPost2010Prop47
 90
       50
102
RTVSPost2010PropOp47
 70
     1
102
RTVSPost2010Prop48
 90
       50
102
RTVSPost2010PropOp48
 70
     1
102
RTVSPost2010Prop49
280
     0
102
RTVSPost2010PropOp49
 70
     1
102
RTVSPost2010Prop50
 90
       50
102
RTVSPost2010PropOp50
 70
     1
102
RTVSPost2010Prop51ColorIndex
 90
      256
102
RTVSPost2010Prop51ColorRGB
 90
-16777216
102
RTVSPost2010PropOp51
 70
     0
102
RTVSPost2010Prop52
140
1.0
102
RTVSPost2010PropOp52
 70
     0
102
RTVSPost2010Prop53
 90
        2
102
RTVSPost2010PropOp53
 70
     1
102
RTVSPost2010Prop54
  1
strokes_ogs.tif
102
RTVSPost2010PropOp54
 70
     1
102
RTVSPost2010Prop55
280
     0
102
RTVSPost2010PropOp55
 70
     1
102
RTVSPost2010Prop56
140
1.0
102
RTVSPost2010PropOp56
 70
     1
102
RTVSPost2010Prop57
140
1.0
102
RTVSPost2010PropOp57
 70
     1
102
RTVSPropertyOp0
 70
     1
102
RTVSPropertyOp1
 70
     1
102
RTVSPropertyOp2
 70
     1
102
RTVSPropertyOp3
 70
     1
102
RTVSPropertyOp4
 70
     1
102
RTVSPropertyOp5
 70
     1
102
RTVSPropertyOp6
 70
     1
102
RTVSPropertyOp7
 70
     1
102
RTVSPropertyOp8
 70
     1
102
RTVSPropertyOp9
 70
     1
102
RTVSPropertyOp10
 70
     1
102
RTVSPropertyOp11
 70
     1
102
RTVSPropertyOp12
 70
     1
102
RTVSPropertyOp13
 70
     1
102
RTVSPropertyOp14
 70
     1
102
RTVSPropertyOp15
 70
     1
102
RTVSPropertyOp16
 70
     1
102
RTVSPropertyOp17
 70
     1
102
RTVSPropertyOp18
 70
     1
102
RTVSPropertyOp19
 70
     1
102
RTVSPropertyOp20
 70
     1
102
RTVSPropertyOp21
 70
     1
102
RTVSPropertyOp22
 70
     1
102
RTVSPropertyOp23
 70
     1
102
RTVSPropertyOp24
 70
     1
102
RTVSPropertyOp25
 70
     1
102
RTVSPropertyOp26
 70
     1
102
RTVSPropertyOp27
 70
     1
102
RTVSPropertyOp28
 70
     1
102
RTVSPropertyOp29
 70
     1
102
RTVSPropertyOp30
 70
     1
102
RTVSPropertyOp31
 70
     1
102
RTVSPropertyOp32
 70
     1
102
RTVSPropertyOp33
 70
     1
102
RTVSPropertyOp34
 70
     1
102
RTVSPropertyOp35
 70
     1
102
RTVSPropertyOp36
 70
     1
102
RTVSPropertyOp37
 70
     1
102
RTVSPropertyOp38
 70
     1
102
RTVSPropertyOp39
 70
     1
102
RTVSPropertyOp40
 70
     1
102
RTVSPropertyOp41
 70
     1
102
RTVSPropertyOp42
 70
     1
102
RTVSPropertyOp43
 70
     1
102
RTVSPropertyOp44
 70
     1
102
RTVSPropertyOp45
 70
     1
102
RTVSPropertyOp46
 70
     1
102
RTVSPropertyOp47
 70
     1
102
RTVSPropertyOp48
 70
     1
102
RTVSPropertyOp49
 70
     1
102
RTVSPropertyOp50
 70
     1
102
RTVSPropertyOp51
 70
     0
102
RTVSPropertyOp52
 70
     0
102
RTVSPropertyOp53
 70
     1
102
RTVSPropertyOp54
 70
     1
102
RTVSPropertyOp55
 70
     1
102
RTVSPropertyOp56
 70
     1
102
RTVSPropertyOp57
 70
     1
102
RTVSPropertyOp58
 70
     1
102
RTVSPropertyOp59
 70
     1
102
RTVSPropertyOp60
 70
     1
102
RTVSPropertyOp61
 70
     1
102
RTVSPropertyOp62
 70
     1
  0
XRECORD
  5
4DB
102
{ACAD_REACTORS
330
4DA
102
}
330
4DA
100
AcDbXrecord
280
     1
102
RTVSPost2010Prop28
280
     0
102
RTVSPost2010PropOp28
 70
     0
102
RTVSPost2010Prop29
280
     1
102
RTVSPost2010PropOp29
 70
     0
102
RTVSPost2010Prop30
280
     1
102
RTVSPost2010PropOp30
 70
     0
102
RTVSPost2010Prop31
280
     0
102
RTVSPost2010PropOp31
 70
     0
102
RTVSPost2010Prop32
280
     0
102
RTVSPost2010PropOp32
 70
     0
102
RTVSPost2010Prop33
280
     0
102
RTVSPost2010PropOp33
 70
     0
102
RTVSPost2010Prop34
280
     0
102
RTVSPost2010PropOp34
 70
     0
102
RTVSPost2010Prop35
280
     0
102
RTVSPost2010PropOp35
 70
     0
102
RTVSPost2010Prop36
280
     0
102
RTVSPost2010PropOp36
 70
     0
102
RTVSPost2010Prop37
 90
       50
102
RTVSPost2010PropOp37
 70
     0
102
RTVSPost2010Prop38
140
0.0
102
RTVSPost2010PropOp38
 70
     0
102
RTVSPost2010Prop39
140
1.0
102
RTVSPost2010PropOp39
 70
     0
102
RTVSPost2010Prop40
 90
        0
102
RTVSPost2010PropOp40
 70
     0
102
RTVSPost2010Prop41ColorIndex
 90
       18
102
RTVSPost2010Prop41ColorRGB
 90
        0
102
RTVSPost2010PropOp41
 70
     0
102
RTVSPost2010Prop42
 90
       50
102
RTVSPost2010PropOp42
 70
     0
102
RTVSPost2010Prop43
 90
        3
102
RTVSPost2010PropOp43
 70
     0
102
RTVSPost2010Prop44ColorIndex
 90
        5
102
RTVSPost2010Prop44ColorRGB
 90
      255
102
RTVSPost2010PropOp44
 70
     0
102
RTVSPost2010Prop45
280
     0
102
RTVSPost2010PropOp45
 70
     0
102
RTVSPost2010Prop46
 90
       50
102
RTVSPost2010PropOp46
 70
     0
102
RTVSPost2010Prop47
 90
       50
102
RTVSPost2010PropOp47
 70
     0
102
RTVSPost2010Prop48
 90
       50
102
RTVSPost2010PropOp48
 70
     0
102
RTVSPost2010Prop49
280
     0
102
RTVSPost2010PropOp49
 70
     0
102
RTVSPost2010Prop50
 90
       50
102
RTVSPost2010PropOp50
 70
     0
102
RTVSPost2010Prop51ColorIndex
 90
      256
102
RTVSPost2010Prop51ColorRGB
 90
-16777216
102
RTVSPost2010PropOp51
 70
     0
102
RTVSPost2010Prop52
140
1.0
102
RTVSPost2010PropOp52
 70
     0
102
RTVSPost2010Prop53
 90
        2
102
RTVSPost2010PropOp53
 70
     0
102
RTVSPost2010Prop54
  1
strokes_ogs.tif
102
RTVSPost2010PropOp54
 70
     0
102
RTVSPost2010Prop55
280
     0
102
RTVSPost2010PropOp55
 70
     0
102
RTVSPost2010Prop56
140
1.0
102
RTVSPost2010PropOp56
 70
     0
102
RTVSPost2010Prop57
140
1.0
102
RTVSPost2010PropOp57
 70
     0
102
RTVSPropertyOp0
 70
     0
102
RTVSPropertyOp1
 70
     0
102
RTVSPropertyOp2
 70
     0
102
RTVSPropertyOp3
 70
     0
102
RTVSPropertyOp4
 70
     0
102
RTVSPropertyOp5
 70
     0
102
RTVSPropertyOp6
 70
     0
102
RTVSPropertyOp7
 70
     0
102
RTVSPropertyOp8
 70
     0
102
RTVSPropertyOp9
 70
     0
102
RTVSPropertyOp10
 70
     0
102
RTVSPropertyOp11
 70
     0
102
RTVSPropertyOp12
 70
     0
102
RTVSPropertyOp13
 70
     0
102
RTVSPropertyOp14
 70
     2
102
RTVSPropertyOp15
 70
     0
102
RTVSPropertyOp16
 70
     0
102
RTVSPropertyOp17
 70
     0
102
RTVSPropertyOp18
 70
     0
102
RTVSPropertyOp19
 70
     0
102
RTVSPropertyOp20
 70
     0
102
RTVSPropertyOp21
 70
     0
102
RTVSPropertyOp22
 70
     0
102
RTVSPropertyOp23
 70
     0
102
RTVSPropertyOp24
 70
     0
102
RTVSPropertyOp25
 70
     0
102
RTVSPropertyOp26
 70
     0
102
RTVSPropertyOp27
 70
     0
102
RTVSPropertyOp28
 70
     0
102
RTVSPropertyOp29
 70
     0
102
RTVSPropertyOp30
 70
     0
102
RTVSPropertyOp31
 70
     0
102
RTVSPropertyOp32
 70
     0
102
RTVSPropertyOp33
 70
     0
102
RTVSPropertyOp34
 70
     0
102
RTVSPropertyOp35
 70
     0
102
RTVSPropertyOp36
 70
     0
102
RTVSPropertyOp37
 70
     0
102
RTVSPropertyOp38
 70
     0
102
RTVSPropertyOp39
 70
     0
102
RTVSPropertyOp40
 70
     0
102
RTVSPropertyOp41
 70
     0
102
RTVSPropertyOp42
 70
     0
102
RTVSPropertyOp43
 70
     0
102
RTVSPropertyOp44
 70
     0
102
RTVSPropertyOp45
 70
     0
102
RTVSPropertyOp46
 70
     0
102
RTVSPropertyOp47
 70
     0
102
RTVSPropertyOp48
 70
     0
102
RTVSPropertyOp49
 70
     0
102
RTVSPropertyOp50
 70
     0
102
RTVSPropertyOp51
 70
     0
102
RTVSPropertyOp52
 70
     0
102
RTVSPropertyOp53
 70
     0
102
RTVSPropertyOp54
 70
     0
102
RTVSPropertyOp55
 70
     0
102
RTVSPropertyOp56
 70
     0
102
RTVSPropertyOp57
 70
     0
102
RTVSPropertyOp58
 70
     1
102
RTVSPropertyOp59
 70
     1
102
RTVSPropertyOp60
 70
     1
102
RTVSPropertyOp61
 70
     1
102
RTVSPropertyOp62
 70
     1
  0
XRECORD
  5
4C9
102
{ACAD_REACTORS
330
4C8
102
}
330
4C8
100
AcDbXrecord
280
     1
102
RTVSPost2010Prop28
280
     0
102
RTVSPost2010PropOp28
 70
     1
102
RTVSPost2010Prop29
280
     1
102
RTVSPost2010PropOp29
 70
     1
102
RTVSPost2010Prop30
280
     1
102
RTVSPost2010PropOp30
 70
     1
102
RTVSPost2010Prop31
280
     0
102
RTVSPost2010PropOp31
 70
     1
102
RTVSPost2010Prop32
280
     0
102
RTVSPost2010PropOp32
 70
     1
102
RTVSPost2010Prop33
280
     0
102
RTVSPost2010PropOp33
 70
     1
102
RTVSPost2010Prop34
280
     0
102
RTVSPost2010PropOp34
 70
     1
102
RTVSPost2010Prop35
280
     0
102
RTVSPost2010PropOp35
 70
     1
102
RTVSPost2010Prop36
280
     0
102
RTVSPost2010PropOp36
 70
     1
102
RTVSPost2010Prop37
 90
       50
102
RTVSPost2010PropOp37
 70
     1
102
RTVSPost2010Prop38
140
0.0
102
RTVSPost2010PropOp38
 70
     1
102
RTVSPost2010Prop39
140
1.0
102
RTVSPost2010PropOp39
 70
     1
102
RTVSPost2010Prop40
 90
        0
102
RTVSPost2010PropOp40
 70
     1
102
RTVSPost2010Prop41ColorIndex
 90
       18
102
RTVSPost2010Prop41ColorRGB
 90
        0
102
RTVSPost2010PropOp41
 70
     1
102
RTVSPost2010Prop42
 90
       50
102
RTVSPost2010PropOp42
 70
     1
102
RTVSPost2010Prop43
 90
        3
102
RTVSPost2010PropOp43
 70
     1
102
RTVSPost2010Prop44ColorIndex
 90
        5
102
RTVSPost2010Prop44ColorRGB
 90
      255
102
RTVSPost2010PropOp44
 70
     1
102
RTVSPost2010Prop45
280
     0
102
RTVSPost2010PropOp45
 70
     1
102
RTVSPost2010Prop46
 90
       50
102
RTVSPost2010PropOp46
 70
     1
102
RTVSPost2010Prop47
 90
       50
102
RTVSPost2010PropOp47
 70
     1
102
RTVSPost2010Prop48
 90
       50
102
RTVSPost2010PropOp48
 70
     1
102
RTVSPost2010Prop49
280
     0
102
RTVSPost2010PropOp49
 70
     1
102
RTVSPost2010Prop50
 90
       50
102
RTVSPost2010PropOp50
 70
     1
102
RTVSPost2010Prop51ColorIndex
 90
      256
102
RTVSPost2010Prop51ColorRGB
 90
-16777216
102
RTVSPost2010PropOp51
 70
     0
102
RTVSPost2010Prop52
140
1.0
102
RTVSPost2010PropOp52
 70
     0
102
RTVSPost2010Prop53
 90
        2
102
RTVSPost2010PropOp53
 70
     1
102
RTVSPost2010Prop54
  1
strokes_ogs.tif
102
RTVSPost2010PropOp54
 70
     1
102
RTVSPost2010Prop55
280
     0
102
RTVSPost2010PropOp55
 70
     1
102
RTVSPost2010Prop56
140
1.0
102
RTVSPost2010PropOp56
 70
     1
102
RTVSPost2010Prop57
140
1.0
102
RTVSPost2010PropOp57
 70
     1
102
RTVSPropertyOp0
 70
     1
102
RTVSPropertyOp1
 70
     1
102
RTVSPropertyOp2
 70
     1
102
RTVSPropertyOp3
 70
     1
102
RTVSPropertyOp4
 70
     1
102
RTVSPropertyOp5
 70
     1
102
RTVSPropertyOp6
 70
     1
102
RTVSPropertyOp7
 70
     1
102
RTVSPropertyOp8
 70
     1
102
RTVSPropertyOp9
 70
     1
102
RTVSPropertyOp10
 70
     1
102
RTVSPropertyOp11
 70
     1
102
RTVSPropertyOp12
 70
     1
102
RTVSPropertyOp13
 70
     1
102
RTVSPropertyOp14
 70
     1
102
RTVSPropertyOp15
 70
     1
102
RTVSPropertyOp16
 70
     1
102
RTVSPropertyOp17
 70
     1
102
RTVSPropertyOp18
 70
     1
102
RTVSPropertyOp19
 70
     1
102
RTVSPropertyOp20
 70
     1
102
RTVSPropertyOp21
 70
     1
102
RTVSPropertyOp22
 70
     1
102
RTVSPropertyOp23
 70
     1
102
RTVSPropertyOp24
 70
     1
102
RTVSPropertyOp25
 70
     1
102
RTVSPropertyOp26
 70
     1
102
RTVSPropertyOp27
 70
     1
102
RTVSPropertyOp28
 70
     1
102
RTVSPropertyOp29
 70
     1
102
RTVSPropertyOp30
 70
     1
102
RTVSPropertyOp31
 70
     1
102
RTVSPropertyOp32
 70
     1
102
RTVSPropertyOp33
 70
     1
102
RTVSPropertyOp34
 70
     1
102
RTVSPropertyOp35
 70
     1
102
RTVSPropertyOp36
 70
     1
102
RTVSPropertyOp37
 70
     1
102
RTVSPropertyOp38
 70
     1
102
RTVSPropertyOp39
 70
     1
102
RTVSPropertyOp40
 70
     1
102
RTVSPropertyOp41
 70
     1
102
RTVSPropertyOp42
 70
     1
102
RTVSPropertyOp43
 70
     1
102
RTVSPropertyOp44
 70
     1
102
RTVSPropertyOp45
 70
     1
102
RTVSPropertyOp46
 70
     1
102
RTVSPropertyOp47
 70
     1
102
RTVSPropertyOp48
 70
     1
102
RTVSPropertyOp49
 70
     1
102
RTVSPropertyOp50
 70
     1
102
RTVSPropertyOp51
 70
     0
102
RTVSPropertyOp52
 70
     0
102
RTVSPropertyOp53
 70
     1
102
RTVSPropertyOp54
 70
     1
102
RTVSPropertyOp55
 70
     1
102
RTVSPropertyOp56
 70
     1
102
RTVSPropertyOp57
 70
     1
102
RTVSPropertyOp58
 70
     1
102
RTVSPropertyOp59
 70
     1
102
RTVSPropertyOp60
 70
     1
102
RTVSPropertyOp61
 70
     1
102
RTVSPropertyOp62
 70
     1
  0
XRECORD
  5
4E7
102
{ACAD_REACTORS
330
4E6
102
}
330
4E6
100
AcDbXrecord
280
     1
102
RTVSPost2010Prop28
280
     0
102
RTVSPost2010PropOp28
 70
     1
102
RTVSPost2010Prop29
280
     1
102
RTVSPost2010PropOp29
 70
     1
102
RTVSPost2010Prop30
280
     1
102
RTVSPost2010PropOp30
 70
     1
102
RTVSPost2010Prop31
280
     0
102
RTVSPost2010PropOp31
 70
     1
102
RTVSPost2010Prop32
280
     0
102
RTVSPost2010PropOp32
 70
     1
102
RTVSPost2010Prop33
280
     0
102
RTVSPost2010PropOp33
 70
     1
102
RTVSPost2010Prop34
280
     0
102
RTVSPost2010PropOp34
 70
     1
102
RTVSPost2010Prop35
280
     0
102
RTVSPost2010PropOp35
 70
     1
102
RTVSPost2010Prop36
280
     0
102
RTVSPost2010PropOp36
 70
     1
102
RTVSPost2010Prop37
 90
       50
102
RTVSPost2010PropOp37
 70
     1
102
RTVSPost2010Prop38
140
0.0
102
RTVSPost2010PropOp38
 70
     1
102
RTVSPost2010Prop39
140
1.0
102
RTVSPost2010PropOp39
 70
     1
102
RTVSPost2010Prop40
 90
        0
102
RTVSPost2010PropOp40
 70
     1
102
RTVSPost2010Prop41ColorIndex
 90
       18
102
RTVSPost2010Prop41ColorRGB
 90
        0
102
RTVSPost2010PropOp41
 70
     1
102
RTVSPost2010Prop42
 90
       50
102
RTVSPost2010PropOp42
 70
     1
102
RTVSPost2010Prop43
 90
        3
102
RTVSPost2010PropOp43
 70
     1
102
RTVSPost2010Prop44ColorIndex
 90
        5
102
RTVSPost2010Prop44ColorRGB
 90
      255
102
RTVSPost2010PropOp44
 70
     1
102
RTVSPost2010Prop45
280
     0
102
RTVSPost2010PropOp45
 70
     1
102
RTVSPost2010Prop46
 90
       50
102
RTVSPost2010PropOp46
 70
     1
102
RTVSPost2010Prop47
 90
       50
102
RTVSPost2010PropOp47
 70
     1
102
RTVSPost2010Prop48
 90
       50
102
RTVSPost2010PropOp48
 70
     1
102
RTVSPost2010Prop49
280
     0
102
RTVSPost2010PropOp49
 70
     1
102
RTVSPost2010Prop50
 90
       50
102
RTVSPost2010PropOp50
 70
     1
102
RTVSPost2010Prop51ColorIndex
 90
      256
102
RTVSPost2010Prop51ColorRGB
 90
-16777216
102
RTVSPost2010PropOp51
 70
     0
102
RTVSPost2010Prop52
140
1.0
102
RTVSPost2010PropOp52
 70
     0
102
RTVSPost2010Prop53
 90
        2
102
RTVSPost2010PropOp53
 70
     1
102
RTVSPost2010Prop54
  1
strokes_ogs.tif
102
RTVSPost2010PropOp54
 70
     1
102
RTVSPost2010Prop55
280
     0
102
RTVSPost2010PropOp55
 70
     1
102
RTVSPost2010Prop56
140
1.0
102
RTVSPost2010PropOp56
 70
     1
102
RTVSPost2010Prop57
140
1.0
102
RTVSPost2010PropOp57
 70
     1
102
RTVSPropertyOp0
 70
     1
102
RTVSPropertyOp1
 70
     1
102
RTVSPropertyOp2
 70
     1
102
RTVSPropertyOp3
 70
     1
102
RTVSPropertyOp4
 70
     1
102
RTVSPropertyOp5
 70
     1
102
RTVSPropertyOp6
 70
     1
102
RTVSPropertyOp7
 70
     1
102
RTVSPropertyOp8
 70
     1
102
RTVSPropertyOp9
 70
     1
102
RTVSPropertyOp10
 70
     1
102
RTVSPropertyOp11
 70
     1
102
RTVSPropertyOp12
 70
     1
102
RTVSPropertyOp13
 70
     1
102
RTVSPropertyOp14
 70
     1
102
RTVSPropertyOp15
 70
     1
102
RTVSPropertyOp16
 70
     1
102
RTVSPropertyOp17
 70
     1
102
RTVSPropertyOp18
 70
     1
102
RTVSPropertyOp19
 70
     1
102
RTVSPropertyOp20
 70
     1
102
RTVSPropertyOp21
 70
     1
102
RTVSPropertyOp22
 70
     1
102
RTVSPropertyOp23
 70
     1
102
RTVSPropertyOp24
 70
     1
102
RTVSPropertyOp25
 70
     1
102
RTVSPropertyOp26
 70
     1
102
RTVSPropertyOp27
 70
     1
102
RTVSPropertyOp28
 70
     1
102
RTVSPropertyOp29
 70
     1
102
RTVSPropertyOp30
 70
     1
102
RTVSPropertyOp31
 70
     1
102
RTVSPropertyOp32
 70
     1
102
RTVSPropertyOp33
 70
     1
102
RTVSPropertyOp34
 70
     1
102
RTVSPropertyOp35
 70
     1
102
RTVSPropertyOp36
 70
     1
102
RTVSPropertyOp37
 70
     1
102
RTVSPropertyOp38
 70
     1
102
RTVSPropertyOp39
 70
     1
102
RTVSPropertyOp40
 70
     1
102
RTVSPropertyOp41
 70
     1
102
RTVSPropertyOp42
 70
     1
102
RTVSPropertyOp43
 70
     1
102
RTVSPropertyOp44
 70
     1
102
RTVSPropertyOp45
 70
     1
102
RTVSPropertyOp46
 70
     1
102
RTVSPropertyOp47
 70
     1
102
RTVSPropertyOp48
 70
     1
102
RTVSPropertyOp49
 70
     1
102
RTVSPropertyOp50
 70
     1
102
RTVSPropertyOp51
 70
     0
102
RTVSPropertyOp52
 70
     0
102
RTVSPropertyOp53
 70
     1
102
RTVSPropertyOp54
 70
     1
102
RTVSPropertyOp55
 70
     1
102
RTVSPropertyOp56
 70
     1
102
RTVSPropertyOp57
 70
     1
102
RTVSPropertyOp58
 70
     1
102
RTVSPropertyOp59
 70
     1
102
RTVSPropertyOp60
 70
     1
102
RTVSPropertyOp61
 70
     1
102
RTVSPropertyOp62
 70
     1
  0
XRECORD
  5
4E5
102
{ACAD_REACTORS
330
4E4
102
}
330
4E4
100
AcDbXrecord
280
     1
102
RTVSPost2010Prop28
280
     0
102
RTVSPost2010PropOp28
 70
     1
102
RTVSPost2010Prop29
280
     1
102
RTVSPost2010PropOp29
 70
     1
102
RTVSPost2010Prop30
280
     1
102
RTVSPost2010PropOp30
 70
     1
102
RTVSPost2010Prop31
280
     0
102
RTVSPost2010PropOp31
 70
     1
102
RTVSPost2010Prop32
280
     0
102
RTVSPost2010PropOp32
 70
     1
102
RTVSPost2010Prop33
280
     0
102
RTVSPost2010PropOp33
 70
     1
102
RTVSPost2010Prop34
280
     0
102
RTVSPost2010PropOp34
 70
     1
102
RTVSPost2010Prop35
280
     0
102
RTVSPost2010PropOp35
 70
     1
102
RTVSPost2010Prop36
280
     0
102
RTVSPost2010PropOp36
 70
     1
102
RTVSPost2010Prop37
 90
       50
102
RTVSPost2010PropOp37
 70
     1
102
RTVSPost2010Prop38
140
0.0
102
RTVSPost2010PropOp38
 70
     1
102
RTVSPost2010Prop39
140
1.0
102
RTVSPost2010PropOp39
 70
     1
102
RTVSPost2010Prop40
 90
        0
102
RTVSPost2010PropOp40
 70
     1
102
RTVSPost2010Prop41ColorIndex
 90
       18
102
RTVSPost2010Prop41ColorRGB
 90
        0
102
RTVSPost2010PropOp41
 70
     1
102
RTVSPost2010Prop42
 90
       50
102
RTVSPost2010PropOp42
 70
     1
102
RTVSPost2010Prop43
 90
        3
102
RTVSPost2010PropOp43
 70
     1
102
RTVSPost2010Prop44ColorIndex
 90
        5
102
RTVSPost2010Prop44ColorRGB
 90
      255
102
RTVSPost2010PropOp44
 70
     1
102
RTVSPost2010Prop45
280
     0
102
RTVSPost2010PropOp45
 70
     1
102
RTVSPost2010Prop46
 90
       50
102
RTVSPost2010PropOp46
 70
     1
102
RTVSPost2010Prop47
 90
       50
102
RTVSPost2010PropOp47
 70
     1
102
RTVSPost2010Prop48
 90
       50
102
RTVSPost2010PropOp48
 70
     1
102
RTVSPost2010Prop49
280
     0
102
RTVSPost2010PropOp49
 70
     1
102
RTVSPost2010Prop50
 90
       50
102
RTVSPost2010PropOp50
 70
     1
102
RTVSPost2010Prop51ColorIndex
 90
      256
102
RTVSPost2010Prop51ColorRGB
 90
-16777216
102
RTVSPost2010PropOp51
 70
     0
102
RTVSPost2010Prop52
140
1.0
102
RTVSPost2010PropOp52
 70
     0
102
RTVSPost2010Prop53
 90
        2
102
RTVSPost2010PropOp53
 70
     1
102
RTVSPost2010Prop54
  1
strokes_ogs.tif
102
RTVSPost2010PropOp54
 70
     1
102
RTVSPost2010Prop55
280
     0
102
RTVSPost2010PropOp55
 70
     1
102
RTVSPost2010Prop56
140
1.0
102
RTVSPost2010PropOp56
 70
     1
102
RTVSPost2010Prop57
140
1.0
102
RTVSPost2010PropOp57
 70
     1
102
RTVSPropertyOp0
 70
     1
102
RTVSPropertyOp1
 70
     1
102
RTVSPropertyOp2
 70
     1
102
RTVSPropertyOp3
 70
     1
102
RTVSPropertyOp4
 70
     1
102
RTVSPropertyOp5
 70
     1
102
RTVSPropertyOp6
 70
     1
102
RTVSPropertyOp7
 70
     1
102
RTVSPropertyOp8
 70
     1
102
RTVSPropertyOp9
 70
     1
102
RTVSPropertyOp10
 70
     1
102
RTVSPropertyOp11
 70
     1
102
RTVSPropertyOp12
 70
     1
102
RTVSPropertyOp13
 70
     1
102
RTVSPropertyOp14
 70
     1
102
RTVSPropertyOp15
 70
     1
102
RTVSPropertyOp16
 70
     1
102
RTVSPropertyOp17
 70
     1
102
RTVSPropertyOp18
 70
     1
102
RTVSPropertyOp19
 70
     1
102
RTVSPropertyOp20
 70
     1
102
RTVSPropertyOp21
 70
     1
102
RTVSPropertyOp22
 70
     1
102
RTVSPropertyOp23
 70
     1
102
RTVSPropertyOp24
 70
     1
102
RTVSPropertyOp25
 70
     1
102
RTVSPropertyOp26
 70
     1
102
RTVSPropertyOp27
 70
     1
102
RTVSPropertyOp28
 70
     1
102
RTVSPropertyOp29
 70
     1
102
RTVSPropertyOp30
 70
     1
102
RTVSPropertyOp31
 70
     1
102
RTVSPropertyOp32
 70
     1
102
RTVSPropertyOp33
 70
     1
102
RTVSPropertyOp34
 70
     1
102
RTVSPropertyOp35
 70
     1
102
RTVSPropertyOp36
 70
     1
102
RTVSPropertyOp37
 70
     1
102
RTVSPropertyOp38
 70
     1
102
RTVSPropertyOp39
 70
     1
102
RTVSPropertyOp40
 70
     1
102
RTVSPropertyOp41
 70
     1
102
RTVSPropertyOp42
 70
     1
102
RTVSPropertyOp43
 70
     1
102
RTVSPropertyOp44
 70
     1
102
RTVSPropertyOp45
 70
     1
102
RTVSPropertyOp46
 70
     1
102
RTVSPropertyOp47
 70
     1
102
RTVSPropertyOp48
 70
     1
102
RTVSPropertyOp49
 70
     1
102
RTVSPropertyOp50
 70
     1
102
RTVSPropertyOp51
 70
     0
102
RTVSPropertyOp52
 70
     0
102
RTVSPropertyOp53
 70
     1
102
RTVSPropertyOp54
 70
     1
102
RTVSPropertyOp55
 70
     1
102
RTVSPropertyOp56
 70
     1
102
RTVSPropertyOp57
 70
     1
102
RTVSPropertyOp58
 70
     1
102
RTVSPropertyOp59
 70
     1
102
RTVSPropertyOp60
 70
     1
102
RTVSPropertyOp61
 70
     1
102
RTVSPropertyOp62
 70
     1
  0
XRECORD
  5
4DF
102
{ACAD_REACTORS
330
4DE
102
}
330
4DE
100
AcDbXrecord
280
     1
102
RTVSPost2010Prop28
280
     0
102
RTVSPost2010PropOp28
 70
     1
102
RTVSPost2010Prop29
280
     1
102
RTVSPost2010PropOp29
 70
     1
102
RTVSPost2010Prop30
280
     1
102
RTVSPost2010PropOp30
 70
     1
102
RTVSPost2010Prop31
280
     0
102
RTVSPost2010PropOp31
 70
     1
102
RTVSPost2010Prop32
280
     0
102
RTVSPost2010PropOp32
 70
     1
102
RTVSPost2010Prop33
280
     0
102
RTVSPost2010PropOp33
 70
     1
102
RTVSPost2010Prop34
280
     0
102
RTVSPost2010PropOp34
 70
     1
102
RTVSPost2010Prop35
280
     0
102
RTVSPost2010PropOp35
 70
     1
102
RTVSPost2010Prop36
280
     0
102
RTVSPost2010PropOp36
 70
     1
102
RTVSPost2010Prop37
 90
       50
102
RTVSPost2010PropOp37
 70
     1
102
RTVSPost2010Prop38
140
0.0
102
RTVSPost2010PropOp38
 70
     1
102
RTVSPost2010Prop39
140
1.0
102
RTVSPost2010PropOp39
 70
     1
102
RTVSPost2010Prop40
 90
        0
102
RTVSPost2010PropOp40
 70
     1
102
RTVSPost2010Prop41ColorIndex
 90
       18
102
RTVSPost2010Prop41ColorRGB
 90
        0
102
RTVSPost2010PropOp41
 70
     1
102
RTVSPost2010Prop42
 90
       50
102
RTVSPost2010PropOp42
 70
     1
102
RTVSPost2010Prop43
 90
        3
102
RTVSPost2010PropOp43
 70
     1
102
RTVSPost2010Prop44ColorIndex
 90
        5
102
RTVSPost2010Prop44ColorRGB
 90
      255
102
RTVSPost2010PropOp44
 70
     1
102
RTVSPost2010Prop45
280
     0
102
RTVSPost2010PropOp45
 70
     1
102
RTVSPost2010Prop46
 90
       50
102
RTVSPost2010PropOp46
 70
     1
102
RTVSPost2010Prop47
 90
       50
102
RTVSPost2010PropOp47
 70
     1
102
RTVSPost2010Prop48
 90
       50
102
RTVSPost2010PropOp48
 70
     1
102
RTVSPost2010Prop49
280
     0
102
RTVSPost2010PropOp49
 70
     1
102
RTVSPost2010Prop50
 90
       50
102
RTVSPost2010PropOp50
 70
     1
102
RTVSPost2010Prop51ColorIndex
 90
      256
102
RTVSPost2010Prop51ColorRGB
 90
-16777216
102
RTVSPost2010PropOp51
 70
     0
102
RTVSPost2010Prop52
140
1.0
102
RTVSPost2010PropOp52
 70
     0
102
RTVSPost2010Prop53
 90
        2
102
RTVSPost2010PropOp53
 70
     1
102
RTVSPost2010Prop54
  1
strokes_ogs.tif
102
RTVSPost2010PropOp54
 70
     1
102
RTVSPost2010Prop55
280
     0
102
RTVSPost2010PropOp55
 70
     1
102
RTVSPost2010Prop56
140
1.0
102
RTVSPost2010PropOp56
 70
     1
102
RTVSPost2010Prop57
140
1.0
102
RTVSPost2010PropOp57
 70
     1
102
RTVSPropertyOp0
 70
     1
102
RTVSPropertyOp1
 70
     1
102
RTVSPropertyOp2
 70
     1
102
RTVSPropertyOp3
 70
     1
102
RTVSPropertyOp4
 70
     1
102
RTVSPropertyOp5
 70
     1
102
RTVSPropertyOp6
 70
     1
102
RTVSPropertyOp7
 70
     1
102
RTVSPropertyOp8
 70
     1
102
RTVSPropertyOp9
 70
     1
102
RTVSPropertyOp10
 70
     1
102
RTVSPropertyOp11
 70
     1
102
RTVSPropertyOp12
 70
     1
102
RTVSPropertyOp13
 70
     1
102
RTVSPropertyOp14
 70
     1
102
RTVSPropertyOp15
 70
     1
102
RTVSPropertyOp16
 70
     1
102
RTVSPropertyOp17
 70
     1
102
RTVSPropertyOp18
 70
     1
102
RTVSPropertyOp19
 70
     1
102
RTVSPropertyOp20
 70
     1
102
RTVSPropertyOp21
 70
     1
102
RTVSPropertyOp22
 70
     1
102
RTVSPropertyOp23
 70
     1
102
RTVSPropertyOp24
 70
     1
102
RTVSPropertyOp25
 70
     1
102
RTVSPropertyOp26
 70
     1
102
RTVSPropertyOp27
 70
     1
102
RTVSPropertyOp28
 70
     1
102
RTVSPropertyOp29
 70
     1
102
RTVSPropertyOp30
 70
     1
102
RTVSPropertyOp31
 70
     1
102
RTVSPropertyOp32
 70
     1
102
RTVSPropertyOp33
 70
     1
102
RTVSPropertyOp34
 70
     1
102
RTVSPropertyOp35
 70
     1
102
RTVSPropertyOp36
 70
     1
102
RTVSPropertyOp37
 70
     1
102
RTVSPropertyOp38
 70
     1
102
RTVSPropertyOp39
 70
     1
102
RTVSPropertyOp40
 70
     1
102
RTVSPropertyOp41
 70
     1
102
RTVSPropertyOp42
 70
     1
102
RTVSPropertyOp43
 70
     1
102
RTVSPropertyOp44
 70
     1
102
RTVSPropertyOp45
 70
     1
102
RTVSPropertyOp46
 70
     1
102
RTVSPropertyOp47
 70
     1
102
RTVSPropertyOp48
 70
     1
102
RTVSPropertyOp49
 70
     1
102
RTVSPropertyOp50
 70
     1
102
RTVSPropertyOp51
 70
     0
102
RTVSPropertyOp52
 70
     0
102
RTVSPropertyOp53
 70
     1
102
RTVSPropertyOp54
 70
     1
102
RTVSPropertyOp55
 70
     1
102
RTVSPropertyOp56
 70
     1
102
RTVSPropertyOp57
 70
     1
102
RTVSPropertyOp58
 70
     1
102
RTVSPropertyOp59
 70
     1
102
RTVSPropertyOp60
 70
     1
102
RTVSPropertyOp61
 70
     1
102
RTVSPropertyOp62
 70
     1
  0
XRECORD
  5
4E1
102
{ACAD_REACTORS
330
4E0
102
}
330
4E0
100
AcDbXrecord
280
     1
102
RTVSPost2010Prop28
280
     0
102
RTVSPost2010PropOp28
 70
     1
102
RTVSPost2010Prop29
280
     1
102
RTVSPost2010PropOp29
 70
     1
102
RTVSPost2010Prop30
280
     1
102
RTVSPost2010PropOp30
 70
     1
102
RTVSPost2010Prop31
280
     0
102
RTVSPost2010PropOp31
 70
     1
102
RTVSPost2010Prop32
280
     0
102
RTVSPost2010PropOp32
 70
     1
102
RTVSPost2010Prop33
280
     0
102
RTVSPost2010PropOp33
 70
     1
102
RTVSPost2010Prop34
280
     0
102
RTVSPost2010PropOp34
 70
     1
102
RTVSPost2010Prop35
280
     0
102
RTVSPost2010PropOp35
 70
     1
102
RTVSPost2010Prop36
280
     0
102
RTVSPost2010PropOp36
 70
     1
102
RTVSPost2010Prop37
 90
       50
102
RTVSPost2010PropOp37
 70
     1
102
RTVSPost2010Prop38
140
0.0
102
RTVSPost2010PropOp38
 70
     1
102
RTVSPost2010Prop39
140
1.0
102
RTVSPost2010PropOp39
 70
     1
102
RTVSPost2010Prop40
 90
        0
102
RTVSPost2010PropOp40
 70
     1
102
RTVSPost2010Prop41ColorIndex
 90
       18
102
RTVSPost2010Prop41ColorRGB
 90
        0
102
RTVSPost2010PropOp41
 70
     1
102
RTVSPost2010Prop42
 90
       50
102
RTVSPost2010PropOp42
 70
     1
102
RTVSPost2010Prop43
 90
        3
102
RTVSPost2010PropOp43
 70
     1
102
RTVSPost2010Prop44ColorIndex
 90
        5
102
RTVSPost2010Prop44ColorRGB
 90
      255
102
RTVSPost2010PropOp44
 70
     1
102
RTVSPost2010Prop45
280
     0
102
RTVSPost2010PropOp45
 70
     1
102
RTVSPost2010Prop46
 90
       50
102
RTVSPost2010PropOp46
 70
     1
102
RTVSPost2010Prop47
 90
       50
102
RTVSPost2010PropOp47
 70
     1
102
RTVSPost2010Prop48
 90
       50
102
RTVSPost2010PropOp48
 70
     1
102
RTVSPost2010Prop49
280
     0
102
RTVSPost2010PropOp49
 70
     1
102
RTVSPost2010Prop50
 90
       50
102
RTVSPost2010PropOp50
 70
     1
102
RTVSPost2010Prop51ColorIndex
 90
      256
102
RTVSPost2010Prop51ColorRGB
 90
-16777216
102
RTVSPost2010PropOp51
 70
     0
102
RTVSPost2010Prop52
140
1.0
102
RTVSPost2010PropOp52
 70
     0
102
RTVSPost2010Prop53
 90
        2
102
RTVSPost2010PropOp53
 70
     1
102
RTVSPost2010Prop54
  1
strokes_ogs.tif
102
RTVSPost2010PropOp54
 70
     1
102
RTVSPost2010Prop55
280
     0
102
RTVSPost2010PropOp55
 70
     1
102
RTVSPost2010Prop56
140
1.0
102
RTVSPost2010PropOp56
 70
     1
102
RTVSPost2010Prop57
140
1.0
102
RTVSPost2010PropOp57
 70
     1
102
RTVSPropertyOp0
 70
     1
102
RTVSPropertyOp1
 70
     1
102
RTVSPropertyOp2
 70
     1
102
RTVSPropertyOp3
 70
     1
102
RTVSPropertyOp4
 70
     1
102
RTVSPropertyOp5
 70
     1
102
RTVSPropertyOp6
 70
     1
102
RTVSPropertyOp7
 70
     1
102
RTVSPropertyOp8
 70
     1
102
RTVSPropertyOp9
 70
     1
102
RTVSPropertyOp10
 70
     1
102
RTVSPropertyOp11
 70
     1
102
RTVSPropertyOp12
 70
     1
102
RTVSPropertyOp13
 70
     1
102
RTVSPropertyOp14
 70
     1
102
RTVSPropertyOp15
 70
     1
102
RTVSPropertyOp16
 70
     1
102
RTVSPropertyOp17
 70
     1
102
RTVSPropertyOp18
 70
     1
102
RTVSPropertyOp19
 70
     1
102
RTVSPropertyOp20
 70
     1
102
RTVSPropertyOp21
 70
     1
102
RTVSPropertyOp22
 70
     1
102
RTVSPropertyOp23
 70
     1
102
RTVSPropertyOp24
 70
     1
102
RTVSPropertyOp25
 70
     1
102
RTVSPropertyOp26
 70
     1
102
RTVSPropertyOp27
 70
     1
102
RTVSPropertyOp28
 70
     1
102
RTVSPropertyOp29
 70
     1
102
RTVSPropertyOp30
 70
     1
102
RTVSPropertyOp31
 70
     1
102
RTVSPropertyOp32
 70
     1
102
RTVSPropertyOp33
 70
     1
102
RTVSPropertyOp34
 70
     1
102
RTVSPropertyOp35
 70
     1
102
RTVSPropertyOp36
 70
     1
102
RTVSPropertyOp37
 70
     1
102
RTVSPropertyOp38
 70
     1
102
RTVSPropertyOp39
 70
     1
102
RTVSPropertyOp40
 70
     1
102
RTVSPropertyOp41
 70
     1
102
RTVSPropertyOp42
 70
     1
102
RTVSPropertyOp43
 70
     1
102
RTVSPropertyOp44
 70
     1
102
RTVSPropertyOp45
 70
     1
102
RTVSPropertyOp46
 70
     1
102
RTVSPropertyOp47
 70
     1
102
RTVSPropertyOp48
 70
     1
102
RTVSPropertyOp49
 70
     1
102
RTVSPropertyOp50
 70
     1
102
RTVSPropertyOp51
 70
     0
102
RTVSPropertyOp52
 70
     0
102
RTVSPropertyOp53
 70
     1
102
RTVSPropertyOp54
 70
     1
102
RTVSPropertyOp55
 70
     1
102
RTVSPropertyOp56
 70
     1
102
RTVSPropertyOp57
 70
     1
102
RTVSPropertyOp58
 70
     1
102
RTVSPropertyOp59
 70
     1
102
RTVSPropertyOp60
 70
     1
102
RTVSPropertyOp61
 70
     1
102
RTVSPropertyOp62
 70
     1
  0
XRECORD
  5
4D1
102
{ACAD_REACTORS
330
4D0
102
}
330
4D0
100
AcDbXrecord
280
     1
102
RTVSPost2010Prop28
280
     0
102
RTVSPost2010PropOp28
 70
     1
102
RTVSPost2010Prop29
280
     1
102
RTVSPost2010PropOp29
 70
     1
102
RTVSPost2010Prop30
280
     1
102
RTVSPost2010PropOp30
 70
     1
102
RTVSPost2010Prop31
280
     0
102
RTVSPost2010PropOp31
 70
     1
102
RTVSPost2010Prop32
280
     0
102
RTVSPost2010PropOp32
 70
     1
102
RTVSPost2010Prop33
280
     0
102
RTVSPost2010PropOp33
 70
     1
102
RTVSPost2010Prop34
280
     0
102
RTVSPost2010PropOp34
 70
     1
102
RTVSPost2010Prop35
280
     0
102
RTVSPost2010PropOp35
 70
     1
102
RTVSPost2010Prop36
280
     0
102
RTVSPost2010PropOp36
 70
     1
102
RTVSPost2010Prop37
 90
       50
102
RTVSPost2010PropOp37
 70
     1
102
RTVSPost2010Prop38
140
0.0
102
RTVSPost2010PropOp38
 70
     1
102
RTVSPost2010Prop39
140
1.0
102
RTVSPost2010PropOp39
 70
     1
102
RTVSPost2010Prop40
 90
        0
102
RTVSPost2010PropOp40
 70
     1
102
RTVSPost2010Prop41ColorIndex
 90
       18
102
RTVSPost2010Prop41ColorRGB
 90
        0
102
RTVSPost2010PropOp41
 70
     1
102
RTVSPost2010Prop42
 90
       50
102
RTVSPost2010PropOp42
 70
     1
102
RTVSPost2010Prop43
 90
        3
102
RTVSPost2010PropOp43
 70
     1
102
RTVSPost2010Prop44ColorIndex
 90
        5
102
RTVSPost2010Prop44ColorRGB
 90
      255
102
RTVSPost2010PropOp44
 70
     1
102
RTVSPost2010Prop45
280
     0
102
RTVSPost2010PropOp45
 70
     1
102
RTVSPost2010Prop46
 90
       50
102
RTVSPost2010PropOp46
 70
     1
102
RTVSPost2010Prop47
 90
       50
102
RTVSPost2010PropOp47
 70
     1
102
RTVSPost2010Prop48
 90
       50
102
RTVSPost2010PropOp48
 70
     1
102
RTVSPost2010Prop49
280
     0
102
RTVSPost2010PropOp49
 70
     1
102
RTVSPost2010Prop50
 90
       50
102
RTVSPost2010PropOp50
 70
     1
102
RTVSPost2010Prop51ColorIndex
 90
      256
102
RTVSPost2010Prop51ColorRGB
 90
-16777216
102
RTVSPost2010PropOp51
 70
     0
102
RTVSPost2010Prop52
140
1.0
102
RTVSPost2010PropOp52
 70
     0
102
RTVSPost2010Prop53
 90
        2
102
RTVSPost2010PropOp53
 70
     1
102
RTVSPost2010Prop54
  1
strokes_ogs.tif
102
RTVSPost2010PropOp54
 70
     1
102
RTVSPost2010Prop55
280
     0
102
RTVSPost2010PropOp55
 70
     1
102
RTVSPost2010Prop56
140
1.0
102
RTVSPost2010PropOp56
 70
     1
102
RTVSPost2010Prop57
140
1.0
102
RTVSPost2010PropOp57
 70
     1
102
RTVSPropertyOp0
 70
     1
102
RTVSPropertyOp1
 70
     1
102
RTVSPropertyOp2
 70
     1
102
RTVSPropertyOp3
 70
     1
102
RTVSPropertyOp4
 70
     1
102
RTVSPropertyOp5
 70
     1
102
RTVSPropertyOp6
 70
     1
102
RTVSPropertyOp7
 70
     1
102
RTVSPropertyOp8
 70
     1
102
RTVSPropertyOp9
 70
     1
102
RTVSPropertyOp10
 70
     1
102
RTVSPropertyOp11
 70
     1
102
RTVSPropertyOp12
 70
     1
102
RTVSPropertyOp13
 70
     1
102
RTVSPropertyOp14
 70
     1
102
RTVSPropertyOp15
 70
     1
102
RTVSPropertyOp16
 70
     1
102
RTVSPropertyOp17
 70
     1
102
RTVSPropertyOp18
 70
     1
102
RTVSPropertyOp19
 70
     1
102
RTVSPropertyOp20
 70
     1
102
RTVSPropertyOp21
 70
     1
102
RTVSPropertyOp22
 70
     1
102
RTVSPropertyOp23
 70
     1
102
RTVSPropertyOp24
 70
     1
102
RTVSPropertyOp25
 70
     1
102
RTVSPropertyOp26
 70
     1
102
RTVSPropertyOp27
 70
     1
102
RTVSPropertyOp28
 70
     1
102
RTVSPropertyOp29
 70
     1
102
RTVSPropertyOp30
 70
     1
102
RTVSPropertyOp31
 70
     1
102
RTVSPropertyOp32
 70
     1
102
RTVSPropertyOp33
 70
     1
102
RTVSPropertyOp34
 70
     1
102
RTVSPropertyOp35
 70
     1
102
RTVSPropertyOp36
 70
     1
102
RTVSPropertyOp37
 70
     1
102
RTVSPropertyOp38
 70
     1
102
RTVSPropertyOp39
 70
     1
102
RTVSPropertyOp40
 70
     1
102
RTVSPropertyOp41
 70
     1
102
RTVSPropertyOp42
 70
     1
102
RTVSPropertyOp43
 70
     1
102
RTVSPropertyOp44
 70
     1
102
RTVSPropertyOp45
 70
     1
102
RTVSPropertyOp46
 70
     1
102
RTVSPropertyOp47
 70
     1
102
RTVSPropertyOp48
 70
     1
102
RTVSPropertyOp49
 70
     1
102
RTVSPropertyOp50
 70
     1
102
RTVSPropertyOp51
 70
     0
102
RTVSPropertyOp52
 70
     0
102
RTVSPropertyOp53
 70
     1
102
RTVSPropertyOp54
 70
     1
102
RTVSPropertyOp55
 70
     1
102
RTVSPropertyOp56
 70
     1
102
RTVSPropertyOp57
 70
     1
102
RTVSPropertyOp58
 70
     1
102
RTVSPropertyOp59
 70
     1
102
RTVSPropertyOp60
 70
     1
102
RTVSPropertyOp61
 70
     1
102
RTVSPropertyOp62
 70
     1
  0
XRECORD
  5
4C3
102
{ACAD_REACTORS
330
4C2
102
}
330
4C2
100
AcDbXrecord
280
     1
102
RTVSPost2010Prop28
280
     0
102
RTVSPost2010PropOp28
 70
     1
102
RTVSPost2010Prop29
280
     1
102
RTVSPost2010PropOp29
 70
     1
102
RTVSPost2010Prop30
280
     1
102
RTVSPost2010PropOp30
 70
     1
102
RTVSPost2010Prop31
280
     0
102
RTVSPost2010PropOp31
 70
     1
102
RTVSPost2010Prop32
280
     0
102
RTVSPost2010PropOp32
 70
     1
102
RTVSPost2010Prop33
280
     0
102
RTVSPost2010PropOp33
 70
     1
102
RTVSPost2010Prop34
280
     0
102
RTVSPost2010PropOp34
 70
     1
102
RTVSPost2010Prop35
280
     0
102
RTVSPost2010PropOp35
 70
     1
102
RTVSPost2010Prop36
280
     0
102
RTVSPost2010PropOp36
 70
     1
102
RTVSPost2010Prop37
 90
       50
102
RTVSPost2010PropOp37
 70
     1
102
RTVSPost2010Prop38
140
0.0
102
RTVSPost2010PropOp38
 70
     1
102
RTVSPost2010Prop39
140
1.0
102
RTVSPost2010PropOp39
 70
     1
102
RTVSPost2010Prop40
 90
        0
102
RTVSPost2010PropOp40
 70
     1
102
RTVSPost2010Prop41ColorIndex
 90
       18
102
RTVSPost2010Prop41ColorRGB
 90
        0
102
RTVSPost2010PropOp41
 70
     1
102
RTVSPost2010Prop42
 90
       50
102
RTVSPost2010PropOp42
 70
     1
102
RTVSPost2010Prop43
 90
        3
102
RTVSPost2010PropOp43
 70
     1
102
RTVSPost2010Prop44ColorIndex
 90
        5
102
RTVSPost2010Prop44ColorRGB
 90
      255
102
RTVSPost2010PropOp44
 70
     1
102
RTVSPost2010Prop45
280
     0
102
RTVSPost2010PropOp45
 70
     1
102
RTVSPost2010Prop46
 90
       50
102
RTVSPost2010PropOp46
 70
     1
102
RTVSPost2010Prop47
 90
       50
102
RTVSPost2010PropOp47
 70
     1
102
RTVSPost2010Prop48
 90
       50
102
RTVSPost2010PropOp48
 70
     1
102
RTVSPost2010Prop49
280
     0
102
RTVSPost2010PropOp49
 70
     1
102
RTVSPost2010Prop50
 90
       50
102
RTVSPost2010PropOp50
 70
     1
102
RTVSPost2010Prop51ColorIndex
 90
      256
102
RTVSPost2010Prop51ColorRGB
 90
-16777216
102
RTVSPost2010PropOp51
 70
     0
102
RTVSPost2010Prop52
140
1.0
102
RTVSPost2010PropOp52
 70
     0
102
RTVSPost2010Prop53
 90
        2
102
RTVSPost2010PropOp53
 70
     1
102
RTVSPost2010Prop54
  1
strokes_ogs.tif
102
RTVSPost2010PropOp54
 70
     1
102
RTVSPost2010Prop55
280
     0
102
RTVSPost2010PropOp55
 70
     1
102
RTVSPost2010Prop56
140
1.0
102
RTVSPost2010PropOp56
 70
     1
102
RTVSPost2010Prop57
140
1.0
102
RTVSPost2010PropOp57
 70
     1
102
RTVSPropertyOp0
 70
     1
102
RTVSPropertyOp1
 70
     1
102
RTVSPropertyOp2
 70
     1
102
RTVSPropertyOp3
 70
     1
102
RTVSPropertyOp4
 70
     1
102
RTVSPropertyOp5
 70
     1
102
RTVSPropertyOp6
 70
     1
102
RTVSPropertyOp7
 70
     1
102
RTVSPropertyOp8
 70
     1
102
RTVSPropertyOp9
 70
     1
102
RTVSPropertyOp10
 70
     1
102
RTVSPropertyOp11
 70
     1
102
RTVSPropertyOp12
 70
     1
102
RTVSPropertyOp13
 70
     1
102
RTVSPropertyOp14
 70
     1
102
RTVSPropertyOp15
 70
     1
102
RTVSPropertyOp16
 70
     1
102
RTVSPropertyOp17
 70
     1
102
RTVSPropertyOp18
 70
     1
102
RTVSPropertyOp19
 70
     1
102
RTVSPropertyOp20
 70
     1
102
RTVSPropertyOp21
 70
     1
102
RTVSPropertyOp22
 70
     1
102
RTVSPropertyOp23
 70
     1
102
RTVSPropertyOp24
 70
     1
102
RTVSPropertyOp25
 70
     1
102
RTVSPropertyOp26
 70
     1
102
RTVSPropertyOp27
 70
     1
102
RTVSPropertyOp28
 70
     1
102
RTVSPropertyOp29
 70
     1
102
RTVSPropertyOp30
 70
     1
102
RTVSPropertyOp31
 70
     1
102
RTVSPropertyOp32
 70
     1
102
RTVSPropertyOp33
 70
     1
102
RTVSPropertyOp34
 70
     1
102
RTVSPropertyOp35
 70
     1
102
RTVSPropertyOp36
 70
     1
102
RTVSPropertyOp37
 70
     1
102
RTVSPropertyOp38
 70
     1
102
RTVSPropertyOp39
 70
     1
102
RTVSPropertyOp40
 70
     1
102
RTVSPropertyOp41
 70
     1
102
RTVSPropertyOp42
 70
     1
102
RTVSPropertyOp43
 70
     1
102
RTVSPropertyOp44
 70
     1
102
RTVSPropertyOp45
 70
     1
102
RTVSPropertyOp46
 70
     1
102
RTVSPropertyOp47
 70
     1
102
RTVSPropertyOp48
 70
     1
102
RTVSPropertyOp49
 70
     1
102
RTVSPropertyOp50
 70
     1
102
RTVSPropertyOp51
 70
     0
102
RTVSPropertyOp52
 70
     0
102
RTVSPropertyOp53
 70
     1
102
RTVSPropertyOp54
 70
     1
102
RTVSPropertyOp55
 70
     1
102
RTVSPropertyOp56
 70
     1
102
RTVSPropertyOp57
 70
     1
102
RTVSPropertyOp58
 70
     1
102
RTVSPropertyOp59
 70
     1
102
RTVSPropertyOp60
 70
     1
102
RTVSPropertyOp61
 70
     1
102
RTVSPropertyOp62
 70
     1
  0
XRECORD
  5
4E3
102
{ACAD_REACTORS
330
4E2
102
}
330
4E2
100
AcDbXrecord
280
     1
102
RTVSPost2010Prop28
280
     0
102
RTVSPost2010PropOp28
 70
     1
102
RTVSPost2010Prop29
280
     1
102
RTVSPost2010PropOp29
 70
     1
102
RTVSPost2010Prop30
280
     1
102
RTVSPost2010PropOp30
 70
     1
102
RTVSPost2010Prop31
280
     0
102
RTVSPost2010PropOp31
 70
     1
102
RTVSPost2010Prop32
280
     0
102
RTVSPost2010PropOp32
 70
     1
102
RTVSPost2010Prop33
280
     0
102
RTVSPost2010PropOp33
 70
     1
102
RTVSPost2010Prop34
280
     0
102
RTVSPost2010PropOp34
 70
     1
102
RTVSPost2010Prop35
280
     0
102
RTVSPost2010PropOp35
 70
     1
102
RTVSPost2010Prop36
280
     0
102
RTVSPost2010PropOp36
 70
     1
102
RTVSPost2010Prop37
 90
       50
102
RTVSPost2010PropOp37
 70
     1
102
RTVSPost2010Prop38
140
0.0
102
RTVSPost2010PropOp38
 70
     1
102
RTVSPost2010Prop39
140
1.0
102
RTVSPost2010PropOp39
 70
     1
102
RTVSPost2010Prop40
 90
        0
102
RTVSPost2010PropOp40
 70
     1
102
RTVSPost2010Prop41ColorIndex
 90
       18
102
RTVSPost2010Prop41ColorRGB
 90
        0
102
RTVSPost2010PropOp41
 70
     1
102
RTVSPost2010Prop42
 90
       50
102
RTVSPost2010PropOp42
 70
     1
102
RTVSPost2010Prop43
 90
        3
102
RTVSPost2010PropOp43
 70
     1
102
RTVSPost2010Prop44ColorIndex
 90
        5
102
RTVSPost2010Prop44ColorRGB
 90
      255
102
RTVSPost2010PropOp44
 70
     1
102
RTVSPost2010Prop45
280
     0
102
RTVSPost2010PropOp45
 70
     1
102
RTVSPost2010Prop46
 90
       50
102
RTVSPost2010PropOp46
 70
     1
102
RTVSPost2010Prop47
 90
       50
102
RTVSPost2010PropOp47
 70
     1
102
RTVSPost2010Prop48
 90
       50
102
RTVSPost2010PropOp48
 70
     1
102
RTVSPost2010Prop49
280
     0
102
RTVSPost2010PropOp49
 70
     1
102
RTVSPost2010Prop50
 90
       50
102
RTVSPost2010PropOp50
 70
     1
102
RTVSPost2010Prop51ColorIndex
 90
      256
102
RTVSPost2010Prop51ColorRGB
 90
-16777216
102
RTVSPost2010PropOp51
 70
     0
102
RTVSPost2010Prop52
140
1.0
102
RTVSPost2010PropOp52
 70
     0
102
RTVSPost2010Prop53
 90
        2
102
RTVSPost2010PropOp53
 70
     1
102
RTVSPost2010Prop54
  1
strokes_ogs.tif
102
RTVSPost2010PropOp54
 70
     1
102
RTVSPost2010Prop55
280
     0
102
RTVSPost2010PropOp55
 70
     1
102
RTVSPost2010Prop56
140
1.0
102
RTVSPost2010PropOp56
 70
     1
102
RTVSPost2010Prop57
140
1.0
102
RTVSPost2010PropOp57
 70
     1
102
RTVSPropertyOp0
 70
     1
102
RTVSPropertyOp1
 70
     1
102
RTVSPropertyOp2
 70
     1
102
RTVSPropertyOp3
 70
     1
102
RTVSPropertyOp4
 70
     1
102
RTVSPropertyOp5
 70
     1
102
RTVSPropertyOp6
 70
     1
102
RTVSPropertyOp7
 70
     1
102
RTVSPropertyOp8
 70
     1
102
RTVSPropertyOp9
 70
     1
102
RTVSPropertyOp10
 70
     1
102
RTVSPropertyOp11
 70
     1
102
RTVSPropertyOp12
 70
     1
102
RTVSPropertyOp13
 70
     1
102
RTVSPropertyOp14
 70
     1
102
RTVSPropertyOp15
 70
     1
102
RTVSPropertyOp16
 70
     1
102
RTVSPropertyOp17
 70
     1
102
RTVSPropertyOp18
 70
     1
102
RTVSPropertyOp19
 70
     1
102
RTVSPropertyOp20
 70
     1
102
RTVSPropertyOp21
 70
     1
102
RTVSPropertyOp22
 70
     1
102
RTVSPropertyOp23
 70
     1
102
RTVSPropertyOp24
 70
     1
102
RTVSPropertyOp25
 70
     1
102
RTVSPropertyOp26
 70
     1
102
RTVSPropertyOp27
 70
     1
102
RTVSPropertyOp28
 70
     1
102
RTVSPropertyOp29
 70
     1
102
RTVSPropertyOp30
 70
     1
102
RTVSPropertyOp31
 70
     1
102
RTVSPropertyOp32
 70
     1
102
RTVSPropertyOp33
 70
     1
102
RTVSPropertyOp34
 70
     1
102
RTVSPropertyOp35
 70
     1
102
RTVSPropertyOp36
 70
     1
102
RTVSPropertyOp37
 70
     1
102
RTVSPropertyOp38
 70
     1
102
RTVSPropertyOp39
 70
     1
102
RTVSPropertyOp40
 70
     1
102
RTVSPropertyOp41
 70
     1
102
RTVSPropertyOp42
 70
     1
102
RTVSPropertyOp43
 70
     1
102
RTVSPropertyOp44
 70
     1
102
RTVSPropertyOp45
 70
     1
102
RTVSPropertyOp46
 70
     1
102
RTVSPropertyOp47
 70
     1
102
RTVSPropertyOp48
 70
     1
102
RTVSPropertyOp49
 70
     1
102
RTVSPropertyOp50
 70
     1
102
RTVSPropertyOp51
 70
     0
102
RTVSPropertyOp52
 70
     0
102
RTVSPropertyOp53
 70
     1
102
RTVSPropertyOp54
 70
     1
102
RTVSPropertyOp55
 70
     1
102
RTVSPropertyOp56
 70
     1
102
RTVSPropertyOp57
 70
     1
102
RTVSPropertyOp58
 70
     1
102
RTVSPropertyOp59
 70
     1
102
RTVSPropertyOp60
 70
     1
102
RTVSPropertyOp61
 70
     1
102
RTVSPropertyOp62
 70
     1
  0
ENDSEC
  0
EOF
