  0
SECTION
  2
HEADER
  9
$ACADVER
  1
AC1015
  9
$ACADMAINTVER
 70
    20
  9
$DWGCODEPAGE
  3
ANSI_932
  9
$INSBASE
 10
0.0
 20
0.0
 30
0.0
  9
$EXTMIN
 10
13.56603036366772
 20
4.823469135654704
 30
0.0
  9
$EXTMAX
 10
1105.326964422622
 20
831.3188169560737
 30
0.0
  9
$LIMMIN
 10
-230.8789176940918
 20
-297.5756416320801
  9
$LIMMAX
 10
659.3040161132812
 20
408.4564971923826
  9
$ORTHOMODE
 70
     0
  9
$REGENMODE
 70
     1
  9
$FILLMODE
 70
     1
  9
$QTEXTMODE
 70
     0
  9
$MIRRTEXT
 70
     1
  9
$LTSCALE
 40
0.114129704753245
  9
$ATTMODE
 70
     1
  9
$TEXTSIZE
 40
2.5
  9
$TRACEWID
 40
1.0
  9
$TEXTSTYLE
  7
Standard
  9
$CLAYER
  8
0
  9
$CELTYPE
  6
ByLayer
  9
$CECOLOR
 62
   256
  9
$CELTSCALE
 40
1.0
  9
$DISPSILH
 70
     0
  9
$DIMSCALE
 40
1.0
  9
$DIMASZ
 40
2.5
  9
$DIMEXO
 40
0.625
  9
$DIMDLI
 40
3.75
  9
$DIMRND
 40
0.0
  9
$DIMDLE
 40
0.0
  9
$DIMEXE
 40
1.25
  9
$DIMTP
 40
0.0
  9
$DIMTM
 40
0.0
  9
$DIMTXT
 40
2.5
  9
$DIMCEN
 40
2.5
  9
$DIMTSZ
 40
0.0
  9
$DIMTOL
 70
     0
  9
$DIMLIM
 70
     0
  9
$DIMTIH
 70
     0
  9
$DIMTOH
 70
     0
  9
$DIMSE1
 70
     0
  9
$DIMSE2
 70
     0
  9
$DIMTAD
 70
     1
  9
$DIMZIN
 70
     0
  9
$DIMBLK
  1

  9
$DIMASO
 70
     1
  9
$DIMSHO
 70
     1
  9
$DIMPOST
  1

  9
$DIMAPOST
  1

  9
$DIMALT
 70
     0
  9
$DIMALTD
 70
     3
  9
$DIMALTF
 40
0.03937007874016
  9
$DIMLFAC
 40
1.0
  9
$DIMTOFL
 70
     1
  9
$DIMTVP
 40
0.0
  9
$DIMTIX
 70
     0
  9
$DIMSOXD
 70
     0
  9
$DIMSAH
 70
     0
  9
$DIMBLK1
  1

  9
$DIMBLK2
  1

  9
$DIMSTYLE
  2
Standard
  9
$DIMCLRD
 70
     0
  9
$DIMCLRE
 70
     0
  9
$DIMCLRT
 70
     0
  9
$DIMTFAC
 40
0.75
  9
$DIMGAP
 40
0.625
  9
$DIMJUST
 70
     0
  9
$DIMSD1
 70
     0
  9
$DIMSD2
 70
     0
  9
$DIMTOLJ
 70
     0
  9
$DIMTZIN
 70
     8
  9
$DIMALTZ
 70
     0
  9
$DIMALTTZ
 70
     0
  9
$DIMUPT
 70
     0
  9
$DIMDEC
 70
     2
  9
$DIMTDEC
 70
     2
  9
$DIMALTU
 70
     2
  9
$DIMALTTD
 70
     3
  9
$DIMTXSTY
  7
Standard
  9
$DIMAUNIT
 70
     0
  9
$DIMADEC
 70
     0
  9
$DIMALTRND
 40
0.0
  9
$DIMAZIN
 70
     0
  9
$DIMDSEP
 70
    46
  9
$DIMATFIT
 70
     3
  9
$DIMFRAC
 70
     0
  9
$DIMLDRBLK
  1

  9
$DIMLUNIT
 70
     2
  9
$DIMLWD
 70
    -2
  9
$DIMLWE
 70
    -2
  9
$DIMTMOVE
 70
     0
  9
$LUNITS
 70
     2
  9
$LUPREC
 70
     4
  9
$SKETCHINC
 40
1.0
  9
$FILLETRAD
 40
0.0
  9
$AUNITS
 70
     0
  9
$AUPREC
 70
     0
  9
$MENU
  1
.
  9
$ELEVATION
 40
0.0
  9
$PELEVATION
 40
0.0
  9
$THICKNESS
 40
0.0
  9
$LIMCHECK
 70
     0
  9
$CHAMFERA
 40
10.0
  9
$CHAMFERB
 40
10.0
  9
$CHAMFERC
 40
20.0
  9
$CHAMFERD
 40
0.0
  9
$SKPOLY
 70
     0
  9
$TDCREATE
 40
2455188.750000000
  9
$TDUCREATE
 40
2455188.375000000
  9
$TDUPDATE
 40
2459739.497433774
  9
$TDUUPDATE
 40
2459739.122433773
  9
$TDINDWG
 40
0.0070840046
  9
$TDUSRTIMER
 40
0.0070838426
  9
$USRTIMER
 70
     1
  9
$ANGBASE
 50
0.0
  9
$ANGDIR
 70
     0
  9
$PDMODE
 70
     0
  9
$PDSIZE
 40
0.0
  9
$PLINEWID
 40
0.0
  9
$SPLFRAME
 70
     0
  9
$SPLINETYPE
 70
     6
  9
$SPLINESEGS
 70
     8
  9
$HANDSEED
  5
4EC
  9
$SURFTAB1
 70
     6
  9
$SURFTAB2
 70
     6
  9
$SURFTYPE
 70
     6
  9
$SURFU
 70
     6
  9
$SURFV
 70
     6
  9
$UCSBASE
  2

  9
$UCSNAME
  2

  9
$UCSORG
 10
0.0
 20
0.0
 30
0.0
  9
$UCSXDIR
 10
1.0
 20
0.0
 30
0.0
  9
$UCSYDIR
 10
0.0
 20
1.0
 30
0.0
  9
$UCSORTHOREF
  2

  9
$UCSORTHOVIEW
 70
     0
  9
$UCSORGTOP
 10
0.0
 20
0.0
 30
0.0
  9
$UCSORGBOTTOM
 10
0.0
 20
0.0
 30
0.0
  9
$UCSORGLEFT
 10
0.0
 20
0.0
 30
0.0
  9
$UCSORGRIGHT
 10
0.0
 20
0.0
 30
0.0
  9
$UCSORGFRONT
 10
0.0
 20
0.0
 30
0.0
  9
$UCSORGBACK
 10
0.0
 20
0.0
 30
0.0
  9
$PUCSBASE
  2

  9
$PUCSNAME
  2

  9
$PUCSORG
 10
0.0
 20
0.0
 30
0.0
  9
$PUCSXDIR
 10
1.0
 20
0.0
 30
0.0
  9
$PUCSYDIR
 10
0.0
 20
1.0
 30
0.0
  9
$PUCSORTHOREF
  2

  9
$PUCSORTHOVIEW
 70
     0
  9
$PUCSORGTOP
 10
0.0
 20
0.0
 30
0.0
  9
$PUCSORGBOTTOM
 10
0.0
 20
0.0
 30
0.0
  9
$PUCSORGLEFT
 10
0.0
 20
0.0
 30
0.0
  9
$PUCSORGRIGHT
 10
0.0
 20
0.0
 30
0.0
  9
$PUCSORGFRONT
 10
0.0
 20
0.0
 30
0.0
  9
$PUCSORGBACK
 10
0.0
 20
0.0
 30
0.0
  9
$USERI1
 70
     0
  9
$USERI2
 70
     0
  9
$USERI3
 70
     0
  9
$USERI4
 70
     0
  9
$USERI5
 70
     0
  9
$USERR1
 40
0.0
  9
$USERR2
 40
0.0
  9
$USERR3
 40
0.0
  9
$USERR4
 40
0.0
  9
$USERR5
 40
0.0
  9
$WORLDVIEW
 70
     1
  9
$SHADEDGE
 70
     3
  9
$SHADEDIF
 70
    70
  9
$TILEMODE
 70
     1
  9
$MAXACTVP
 70
    64
  9
$PINSBASE
 10
0.0
 20
0.0
 30
0.0
  9
$PLIMCHECK
 70
     0
  9
$PEXTMIN
 10
1.000000000000000E+20
 20
1.000000000000000E+20
 30
1.000000000000000E+20
  9
$PEXTMAX
 10
-1.000000000000000E+20
 20
-1.000000000000000E+20
 30
-1.000000000000000E+20
  9
$PLIMMIN
 10
0.0
 20
0.0
  9
$PLIMMAX
 10
420.0
 20
297.0
  9
$UNITMODE
 70
     0
  9
$VISRETAIN
 70
     1
  9
$PLINEGEN
 70
     0
  9
$PSLTSCALE
 70
     1
  9
$TREEDEPTH
 70
  3020
  9
$CMLSTYLE
  2
Standard
  9
$CMLJUST
 70
     0
  9
$CMLSCALE
 40
20.0
  9
$PROXYGRAPHICS
 70
     1
  9
$MEASUREMENT
 70
     1
  9
$CELWEIGHT
370
    -1
  9
$ENDCAPS
280
     0
  9
$JOINSTYLE
280
     0
  9
$LWDISPLAY
290
     0
  9
$INSUNITS
 70
     4
  9
$HYPERLINKBASE
  1

  9
$STYLESHEET
  1

  9
$XEDIT
290
     1
  9
$CEPSNTYPE
380
     0
  9
$PSTYLEMODE
290
     1
  9
$FINGERPRINTGUID
  2
{2D263A9C-BB95-4065-87E8-78D447F699F0}
  9
$VERSIONGUID
  2
{7D14CFB1-58AE-4061-B90E-2C8A1675F816}
  9
$EXTNAMES
290
     1
  9
$PSVPSCALE
 40
0.0
  9
$OLESTARTUP
290
     0
  0
ENDSEC
  0
SECTION
  2
CLASSES
  0
CLASS
  1
ACDBDICTIONARYWDFLT
  2
AcDbDictionaryWithDefault
  3
ObjectDBX Classes
 90
        0
280
     0
281
     0
  0
CLASS
  1
VISUALSTYLE
  2
AcDbVisualStyle
  3
ObjectDBX Classes
 90
     4095
280
     0
281
     0
  0
CLASS
  1
MATERIAL
  2
AcDbMaterial
  3
ObjectDBX Classes
 90
     1153
280
     0
281
     0
  0
CLASS
  1
SCALE
  2
AcDbScale
  3
ObjectDBX Classes
 90
     1153
280
     0
281
     0
  0
CLASS
  1
TABLESTYLE
  2
AcDbTableStyle
  3
ObjectDBX Classes
 90
     4095
280
     0
281
     0
  0
CLASS
  1
MLEADERSTYLE
  2
AcDbMLeaderStyle
  3
ACDB_MLEADERSTYLE_CLASS
 90
     4095
280
     0
281
     0
  0
CLASS
  1
SUN
  2
AcDbSun
  3
SCENEOE
 90
    33921
280
     0
281
     0
  0
CLASS
  1
DICTIONARYVAR
  2
AcDbDictionaryVar
  3
ObjectDBX Classes
 90
        0
280
     0
281
     0
  0
CLASS
  1
ACDBSECTIONVIEWSTYLE
  2
AcDbSectionViewStyle
  3
ObjectDBX Classes
 90
     1025
280
     0
281
     0
  0
CLASS
  1
ACDBDETAILVIEWSTYLE
  2
AcDbDetailViewStyle
  3
ObjectDBX Classes
 90
     1025
280
     0
281
     0
  0
CLASS
  1
SORTENTSTABLE
  2
AcDbSortentsTable
  3
ObjectDBX Classes
 90
        0
280
     0
281
     0
  0
CLASS
  1
CELLSTYLEMAP
  2
AcDbCellStyleMap
  3
ObjectDBX Classes
 90
     1152
280
     0
281
     0
  0
CLASS
  1
ACDBPLACEHOLDER
  2
AcDbPlaceHolder
  3
ObjectDBX Classes
 90
        0
280
     0
281
     0
  0
CLASS
  1
LAYOUT
  2
AcDbLayout
  3
ObjectDBX Classes
 90
        0
280
     0
281
     0
  0
ENDSEC
  0
SECTION
  2
TABLES
  0
TABLE
  2
VPORT
  5
8
330
0
100
AcDbSymbolTable
 70
     1
  0
VPORT
  5
29
330
8
100
AcDbSymbolTableRecord
100
AcDbViewportTableRecord
  2
*Active
 70
     0
 10
0.0
 20
0.0
 11
1.0
 21
1.0
 12
448.8718115131201
 22
282.293901746069
 13
0.0
 23
0.0
 14
10.0
 24
10.0
 15
10.0
 25
10.0
 16
0.0
 26
0.0
 36
1.0
 17
0.0
 27
0.0
 37
0.0
 40
583.0612279720198
 41
2.204301075268817
 42
50.0
 43
0.0
 44
0.0
 50
0.0
 51
0.0
 71
     0
 72
 20000
 73
     1
 74
     3
 75
     0
 76
     0
 77
     0
 78
     0
281
     0
 65
     1
110
0.0
120
0.0
130
0.0
111
1.0
121
0.0
131
0.0
112
0.0
122
1.0
132
0.0
 79
     0
146
0.0
1001
ACAD_NAV_VCDISPLAY
1070
     3
  0
ENDTAB
  0
TABLE
  2
LTYPE
  5
5
330
0
100
AcDbSymbolTable
 70
     2
  0
LTYPE
  5
14
330
5
100
AcDbSymbolTableRecord
100
AcDbLinetypeTableRecord
  2
ByBlock
 70
     0
  3

 72
    65
 73
     0
 40
0.0
  0
LTYPE
  5
15
330
5
100
AcDbSymbolTableRecord
100
AcDbLinetypeTableRecord
  2
ByLayer
 70
     0
  3

 72
    65
 73
     0
 40
0.0
  0
LTYPE
  5
16
330
5
100
AcDbSymbolTableRecord
100
AcDbLinetypeTableRecord
  2
Continuous
 70
     0
  3
Solid line
 72
    65
 73
     0
 40
0.0
  0
LTYPE
  5
240
330
5
100
AcDbSymbolTableRecord
100
AcDbLinetypeTableRecord
  2
CENTER2
 70
     0
  3
Center (.5x) ___ _ ___ _ ___ _ ___ _ ___ _ ___
 72
    65
 73
     4
 40
28.575
 49
19.05
 74
     0
 49
-3.174999999999998
 74
     0
 49
3.174999999999998
 74
     0
 49
-3.174999999999998
 74
     0
  0
ENDTAB
  0
TABLE
  2
LAYER
  5
2
102
{ACAD_XDICTIONARY
360
246
102
}
330
0
100
AcDbSymbolTable
 70
     4
  0
LAYER
  5
10
102
{ACAD_XDICTIONARY
360
457
102
}
330
2
100
AcDbSymbolTableRecord
100
AcDbLayerTableRecord
  2
0
 70
     0
 62
     7
  6
Continuous
370
    -3
390
F
  0
LAYER
  5
66
330
2
100
AcDbSymbolTableRecord
100
AcDbLayerTableRecord
  2
Defpoints
 70
     0
 62
     7
  6
Continuous
290
     0
370
    -3
390
F
  0
LAYER
  5
241
102
{ACAD_XDICTIONARY
360
242
102
}
330
2
100
AcDbSymbolTableRecord
100
AcDbLayerTableRecord
  2
中心線
 70
     0
 62
     3
  6
CENTER2
370
    -3
390
F
  0
LAYER
  5
243
102
{ACAD_XDICTIONARY
360
244
102
}
330
2
100
AcDbSymbolTableRecord
100
AcDbLayerTableRecord
  2
実線
 70
     0
 62
     7
  6
Continuous
370
    -3
390
F
  0
ENDTAB
  0
TABLE
  2
STYLE
  5
3
330
0
100
AcDbSymbolTable
 70
     1
  0
STYLE
  5
11
330
3
100
AcDbSymbolTableRecord
100
AcDbTextStyleTableRecord
  2
Standard
 70
     0
 40
0.0
 41
1.0
 50
0.0
 71
     0
 42
2.5
  3
txt
  4
extfont2
  0
ENDTAB
  0
TABLE
  2
VIEW
  5
6
330
0
100
AcDbSymbolTable
 70
     0
  0
ENDTAB
  0
TABLE
  2
UCS
  5
7
330
0
100
AcDbSymbolTable
 70
     0
  0
ENDTAB
  0
TABLE
  2
APPID
  5
9
330
0
100
AcDbSymbolTable
 70
     3
  0
APPID
  5
12
330
9
100
AcDbSymbolTableRecord
100
AcDbRegAppTableRecord
  2
ACAD
 70
     0
  0
APPID
  5
230
330
9
100
AcDbSymbolTableRecord
100
AcDbRegAppTableRecord
  2
ACAD_MLEADERVER
 70
     0
  0
APPID
  5
245
330
9
100
AcDbSymbolTableRecord
100
AcDbRegAppTableRecord
  2
ACAD_NAV_VCDISPLAY
 70
     0
  0
ENDTAB
  0
TABLE
  2
DIMSTYLE
  5
A
330
0
100
AcDbSymbolTable
 70
     1
100
AcDbDimStyleTable
 71
     0
  0
DIMSTYLE
105
27
330
A
100
AcDbSymbolTableRecord
100
AcDbDimStyleTableRecord
  2
Standard
 70
     0
 41
2.5
 42
0.625
 43
3.75
 44
1.25
 73
     0
 74
     0
 77
     1
140
2.5
141
2.5
143
0.03937007874016
146
0.75
147
0.625
171
     3
172
     1
271
     2
272
     2
274
     3
283
     0
284
     8
340
11
  0
ENDTAB
  0
TABLE
  2
BLOCK_RECORD
  5
1
330
0
100
AcDbSymbolTable
 70
     1
  0
BLOCK_RECORD
  5
1F
102
{ACAD_XDICTIONARY
360
303
102
}
330
1
100
AcDbSymbolTableRecord
100
AcDbBlockTableRecord
  2
*Model_Space
340
22
  0
BLOCK_RECORD
  5
1B
330
1
100
AcDbSymbolTableRecord
100
AcDbBlockTableRecord
  2
*Paper_Space
340
1E
  0
BLOCK_RECORD
  5
23
330
1
100
AcDbSymbolTableRecord
100
AcDbBlockTableRecord
  2
*Paper_Space0
340
23A
  0
ENDTAB
  0
ENDSEC
  0
SECTION
  2
BLOCKS
  0
BLOCK
  5
20
330
1F
100
AcDbEntity
  8
0
100
AcDbBlockBegin
  2
*Model_Space
 70
     0
 10
0.0
 20
0.0
 30
0.0
  3
*Model_Space
  1

  0
ENDBLK
  5
21
330
1F
100
AcDbEntity
  8
0
100
AcDbBlockEnd
  0
BLOCK
  5
1C
330
1B
100
AcDbEntity
 67
     1
  8
0
100
AcDbBlockBegin
  2
*Paper_Space
 70
     0
 10
0.0
 20
0.0
 30
0.0
  3
*Paper_Space
  1

  0
ENDBLK
  5
1D
330
1B
100
AcDbEntity
 67
     1
  8
0
100
AcDbBlockEnd
  0
BLOCK
  5
24
330
23
100
AcDbEntity
 67
     1
  8
0
100
AcDbBlockBegin
  2
*Paper_Space0
 70
     0
 10
0.0
 20
0.0
 30
0.0
  3
*Paper_Space0
  1

  0
ENDBLK
  5
25
330
23
100
AcDbEntity
 67
     1
  8
0
100
AcDbBlockEnd
  0
ENDSEC
  0
SECTION
  2
ENTITIES
  0
LINE
  5
2D8
102
{ACAD_REACTORS
330
4A3
102
}
330
1F
100
AcDbEntity
  8
実線
100
AcDbLine
 10
272.2819229102697
 20
481.5199578918371
 30
0.0
 11
271.8781683099733
 21
473.6302822189887
 31
0.0
  0
LINE
  5
2D9
102
{ACAD_REACTORS
330
4A3
102
}
330
1F
100
AcDbEntity
  8
実線
100
AcDbLine
 10
296.8454963886082
 20
472.3525777876711
 30
0.0
 11
297.2492509889046
 21
480.2422534605197
 31
0.0
  0
LINE
  5
2DA
102
{ACAD_REACTORS
330
4A3
102
}
330
1F
100
AcDbEntity
  8
実線
100
AcDbLine
 10
272.2819229102697
 20
481.5199578918371
 30
0.0
 11
297.2492509889046
 21
480.2422534605197
 31
0.0
  0
LINE
  5
2DB
102
{ACAD_REACTORS
330
4A3
102
}
330
1F
100
AcDbEntity
  8
実線
100
AcDbLine
 10
303.4622167233225
 20
474.4671727872348
 30
0.0
 11
303.6155412550805
 21
477.4632521566708
 31
0.0
  0
LINE
  5
2DC
102
{ACAD_REACTORS
330
4A3
102
}
330
1F
100
AcDbEntity
  8
実線
100
AcDbLine
 10
296.9707114228774
 20
474.7993759393773
 30
0.0
 11
303.4622167233225
 21
474.4671727872348
 31
0.0
  0
LINE
  5
2DD
102
{ACAD_REACTORS
330
4A3
102
}
330
1F
100
AcDbEntity
  8
実線
100
AcDbLine
 10
303.6155412550805
 20
477.4632521566708
 30
0.0
 11
297.1240359546355
 21
477.7954553088136
 31
0.0
  0
LINE
  5
2DE
102
{ACAD_REACTORS
330
4A3
102
}
330
1F
100
AcDbEntity
  8
実線
100
AcDbLine
 10
231.5660303636677
 20
477.1234691356548
 30
0.0
 11
240.6356994924507
 21
477.1234691356548
 31
0.0
  0
LINE
  5
2DF
102
{ACAD_REACTORS
330
4A3
102
}
330
1F
100
AcDbEntity
  8
実線
100
AcDbLine
 10
240.6356994924507
 20
502.5234691356549
 30
0.0
 11
231.5660303636677
 21
502.5234691356549
 31
0.0
  0
LINE
  5
2E0
102
{ACAD_REACTORS
330
4A3
102
}
330
1F
100
AcDbEntity
  8
実線
100
AcDbLine
 10
223.5660303636677
 20
464.5734691356549
 30
0.0
 11
226.4160303636677
 21
464.5734691356549
 31
0.0
  0
LINE
  5
2E1
102
{ACAD_REACTORS
330
4A3
102
}
330
1F
100
AcDbEntity
  8
実線
100
AcDbLine
 10
226.4160303636677
 20
515.0734691356549
 30
0.0
 11
223.5660303636677
 21
515.0734691356549
 31
0.0
  0
LINE
  5
2E2
102
{ACAD_REACTORS
330
4A3
102
}
330
1F
100
AcDbEntity
  8
実線
100
AcDbLine
 10
223.5660303636677
 20
515.0734691356549
 30
0.0
 11
223.5660303636677
 21
464.5734691356549
 31
0.0
  0
LINE
  5
2E3
102
{ACAD_REACTORS
330
4A3
102
}
330
1F
100
AcDbEntity
  8
実線
100
AcDbLine
 10
231.5660303636677
 20
502.5234691356549
 30
0.0
 11
226.4160303636677
 21
515.0734691356549
 31
0.0
  0
LINE
  5
2E4
102
{ACAD_REACTORS
330
4A3
102
}
330
1F
100
AcDbEntity
  8
実線
100
AcDbLine
 10
226.4160303636677
 20
464.5734691356549
 30
0.0
 11
231.5660303636677
 21
477.1234691356548
 31
0.0
  0
LINE
  5
2E5
102
{ACAD_REACTORS
330
4A3
102
}
330
1F
100
AcDbEntity
  8
実線
100
AcDbLine
 10
226.4160303636677
 20
515.0734691356549
 30
0.0
 11
226.4160303636677
 21
464.5734691356549
 31
0.0
  0
LINE
  5
2E6
102
{ACAD_REACTORS
330
4A3
102
}
330
1F
100
AcDbEntity
  8
実線
100
AcDbLine
 10
231.5660303636677
 20
502.5234691356549
 30
0.0
 11
231.5660303636677
 21
477.1234691356548
 31
0.0
  0
LINE
  5
2E7
102
{ACAD_REACTORS
330
4A3
102
}
330
1F
100
AcDbEntity
  8
実線
100
AcDbLine
 10
271.8168384972701
 20
472.4318504712141
 30
0.0
 11
271.8781683099733
 21
473.6302822189887
 31
0.0
  0
LINE
  5
2E8
102
{ACAD_REACTORS
330
4A3
102
}
330
1F
100
AcDbEntity
  8
実線
100
AcDbLine
 10
271.8781683099733
 20
473.6302822189887
 30
0.0
 11
301.8389620043352
 21
472.0970369014075
 31
0.0
  0
LINE
  5
2E9
102
{ACAD_REACTORS
330
4A3
102
}
330
1F
100
AcDbEntity
  8
実線
100
AcDbLine
 10
301.7776321916319
 20
470.8986051536331
 30
0.0
 11
271.8168384972701
 21
472.4318504712141
 31
0.0
  0
LINE
  5
2EA
102
{ACAD_REACTORS
330
4A3
102
}
330
1F
100
AcDbEntity
  8
実線
100
AcDbLine
 10
301.8389620043352
 20
472.0970369014075
 30
0.0
 11
301.7776321916319
 21
470.8986051536331
 31
0.0
  0
CIRCLE
  5
2EB
102
{ACAD_REACTORS
330
4A3
102
}
330
1F
100
AcDbEntity
  8
実線
100
AcDbCircle
 10
278.5660303636677
 20
489.8234691356549
 30
0.0
 40
8.0
  0
LINE
  5
2EC
102
{ACAD_REACTORS
330
4A3
102
}
330
1F
100
AcDbEntity
  8
実線
100
AcDbLine
 10
325.5660303636679
 20
502.5234691356549
 30
0.0
 11
316.4963612348848
 21
502.5234691356549
 31
0.0
  0
LINE
  5
2ED
102
{ACAD_REACTORS
330
4A3
102
}
330
1F
100
AcDbEntity
  8
実線
100
AcDbLine
 10
316.4963612348848
 20
477.1234691356548
 30
0.0
 11
325.5660303636679
 21
477.1234691356548
 31
0.0
  0
LINE
  5
2EE
102
{ACAD_REACTORS
330
4A3
102
}
330
1F
100
AcDbEntity
  8
実線
100
AcDbLine
 10
325.5660303636679
 20
477.1234691356548
 30
0.0
 11
330.7160303636678
 21
464.5734691356549
 31
0.0
  0
LINE
  5
2EF
102
{ACAD_REACTORS
330
4A3
102
}
330
1F
100
AcDbEntity
  8
実線
100
AcDbLine
 10
330.7160303636678
 20
515.0734691356549
 30
0.0
 11
325.5660303636679
 21
502.5234691356549
 31
0.0
  0
LINE
  5
2F0
102
{ACAD_REACTORS
330
4A3
102
}
330
1F
100
AcDbEntity
  8
実線
100
AcDbLine
 10
325.5660303636679
 20
477.1234691356548
 30
0.0
 11
325.5660303636679
 21
502.5234691356549
 31
0.0
  0
LINE
  5
2F1
102
{ACAD_REACTORS
330
4A3
102
}
330
1F
100
AcDbEntity
  8
実線
100
AcDbLine
 10
333.5660303636679
 20
515.0734691356549
 30
0.0
 11
330.7160303636678
 21
515.0734691356549
 31
0.0
  0
LINE
  5
2F2
102
{ACAD_REACTORS
330
4A3
102
}
330
1F
100
AcDbEntity
  8
実線
100
AcDbLine
 10
330.7160303636678
 20
464.5734691356549
 30
0.0
 11
333.5660303636679
 21
464.5734691356549
 31
0.0
  0
LINE
  5
2F3
102
{ACAD_REACTORS
330
4A3
102
}
330
1F
100
AcDbEntity
  8
実線
100
AcDbLine
 10
333.5660303636679
 20
464.5734691356549
 30
0.0
 11
333.5660303636679
 21
515.0734691356549
 31
0.0
  0
LINE
  5
2F4
102
{ACAD_REACTORS
330
4A3
102
}
330
1F
100
AcDbEntity
  8
実線
100
AcDbLine
 10
330.7160303636678
 20
464.5734691356549
 30
0.0
 11
330.7160303636678
 21
515.0734691356549
 31
0.0
  0
LINE
  5
2F5
102
{ACAD_REACTORS
330
4A3
102
}
330
1F
100
AcDbEntity
  8
実線
100
AcDbLine
 10
281.3284636802738
 20
462.6329226534351
 30
0.0
 11
271.34153244882
 21
463.1440044259619
 31
0.0
  0
LINE
  5
2F6
102
{ACAD_REACTORS
330
4A3
102
}
330
1F
100
AcDbEntity
  8
実線
100
AcDbLine
 10
271.34153244882
 20
463.1440044259619
 30
0.0
 11
271.8168384972701
 21
472.4318504712141
 31
0.0
  0
CIRCLE
  5
2F9
102
{ACAD_REACTORS
330
4A3
102
}
330
1F
100
AcDbEntity
  8
実線
100
AcDbCircle
 10
275.7660303636678
 20
467.423469135655
 30
0.0
 40
2.0
  0
LINE
  5
2FA
102
{ACAD_REACTORS
330
4A3
102
}
330
1F
100
AcDbEntity
  8
実線
100
AcDbLine
 10
281.803769728724
 20
471.9207686986871
 30
0.0
 11
281.3284636802738
 21
462.6329226534351
 31
0.0
  0
CIRCLE
  5
2FB
102
{ACAD_REACTORS
330
4A3
102
}
330
1F
100
AcDbEntity
  8
実線
100
AcDbCircle
 10
278.5660303636677
 20
489.8234691356549
 30
0.0
 40
40.0
  0
LINE
  5
2FC
102
{ACAD_REACTORS
330
4A3
102
}
330
1F
100
AcDbEntity
  8
実線
100
AcDbLine
 10
292.2557853731776
 20
480.4977943467832
 30
0.0
 11
292.3375584567819
 21
482.0957033438158
 31
0.0
  0
ARC
  5
2FF
102
{ACAD_REACTORS
330
4A3
102
}
330
1F
100
AcDbEntity
  8
実線
100
AcDbCircle
 10
297.9255458620144
 20
477.8045034231686
 30
0.0
 40
2.0
100
AcDbArc
 50
355.6378971050076
 51
110.6486193207707
  0
LINE
  5
300
102
{ACAD_REACTORS
330
4A3
102
}
330
1F
100
AcDbEntity
  8
実線
100
AcDbLine
 10
301.9641770386043
 20
474.5438350531137
 30
0.0
 11
301.8389620043352
 21
472.0970369014075
 31
0.0
  0
LINE
  5
301
102
{ACAD_REACTORS
330
4A3
102
}
330
1F
100
AcDbEntity
  8
実線
100
AcDbLine
 10
302.3244896882358
 20
481.5846215712887
 30
0.0
 11
302.1175015703624
 21
477.5399144225501
 31
0.0
  0
LINE
  5
302
102
{ACAD_REACTORS
330
4A3
102
}
330
1F
100
AcDbEntity
  8
実線
100
AcDbLine
 10
292.3375584567819
 20
482.0957033438158
 30
0.0
 11
302.3244896882358
 21
481.5846215712887
 31
0.0
  0
LINE
  5
305
102
{ACAD_REACTORS
330
451
102
}
330
1F
100
AcDbEntity
  8
実線
100
AcDbLine
 10
231.5660303636677
 20
37.12346913565483
 30
0.0
 11
250.5660303636678
 21
37.12346913565483
 31
0.0
  0
LINE
  5
306
102
{ACAD_REACTORS
330
451
102
}
330
1F
100
AcDbEntity
  8
実線
100
AcDbLine
 10
250.5660303636678
 20
62.52346913565483
 30
0.0
 11
231.5660303636677
 21
62.52346913565483
 31
0.0
  0
LINE
  5
307
102
{ACAD_REACTORS
330
451
102
}
330
1F
100
AcDbEntity
  8
実線
100
AcDbLine
 10
223.5660303636677
 20
24.57346913565482
 30
0.0
 11
223.5660303636677
 21
75.07346913565482
 31
0.0
  0
LINE
  5
308
102
{ACAD_REACTORS
330
451
102
}
330
1F
100
AcDbEntity
  8
実線
100
AcDbLine
 10
223.5660303636677
 20
24.57346913565482
 30
0.0
 11
226.4160303636677
 21
24.57346913565482
 31
0.0
  0
LINE
  5
309
102
{ACAD_REACTORS
330
451
102
}
330
1F
100
AcDbEntity
  8
実線
100
AcDbLine
 10
226.4160303636677
 20
75.07346913565482
 30
0.0
 11
223.5660303636677
 21
75.07346913565482
 31
0.0
  0
LINE
  5
30A
102
{ACAD_REACTORS
330
451
102
}
330
1F
100
AcDbEntity
  8
実線
100
AcDbLine
 10
226.4160303636677
 20
24.57346913565482
 30
0.0
 11
226.4160303636677
 21
75.07346913565482
 31
0.0
  0
LINE
  5
30B
102
{ACAD_REACTORS
330
451
102
}
330
1F
100
AcDbEntity
  8
実線
100
AcDbLine
 10
231.5660303636677
 20
37.12346913565483
 30
0.0
 11
231.5660303636677
 21
62.52346913565483
 31
0.0
  0
LINE
  5
30C
102
{ACAD_REACTORS
330
451
102
}
330
1F
100
AcDbEntity
  8
実線
100
AcDbLine
 10
231.5660303636677
 20
62.52346913565483
 30
0.0
 11
226.4160303636677
 21
75.07346913565482
 31
0.0
  0
LINE
  5
30D
102
{ACAD_REACTORS
330
451
102
}
330
1F
100
AcDbEntity
  8
実線
100
AcDbLine
 10
226.4160303636677
 20
24.57346913565482
 30
0.0
 11
231.5660303636677
 21
37.12346913565483
 31
0.0
  0
CIRCLE
  5
30E
102
{ACAD_REACTORS
330
451
102
}
330
1F
100
AcDbEntity
  8
実線
100
AcDbCircle
 10
278.5660303636677
 20
49.82346913565482
 30
0.0
 40
25.25
  0
LINE
  5
30F
102
{ACAD_REACTORS
330
451
102
}
330
1F
100
AcDbEntity
  8
実線
100
AcDbLine
 10
325.5660303636679
 20
62.52346913565483
 30
0.0
 11
306.5660303636678
 21
62.52346913565483
 31
0.0
  0
LINE
  5
310
102
{ACAD_REACTORS
330
451
102
}
330
1F
100
AcDbEntity
  8
実線
100
AcDbLine
 10
306.5660303636678
 20
37.12346913565483
 30
0.0
 11
325.5660303636679
 21
37.12346913565483
 31
0.0
  0
LINE
  5
311
102
{ACAD_REACTORS
330
451
102
}
330
1F
100
AcDbEntity
  8
実線
100
AcDbLine
 10
325.5660303636679
 20
62.52346913565483
 30
0.0
 11
325.5660303636679
 21
37.12346913565483
 31
0.0
  0
LINE
  5
312
102
{ACAD_REACTORS
330
451
102
}
330
1F
100
AcDbEntity
  8
実線
100
AcDbLine
 10
325.5660303636679
 20
37.12346913565483
 30
0.0
 11
330.7160303636678
 21
24.57346913565493
 31
0.0
  0
LINE
  5
313
102
{ACAD_REACTORS
330
451
102
}
330
1F
100
AcDbEntity
  8
実線
100
AcDbLine
 10
330.7160303636678
 20
75.07346913565482
 30
0.0
 11
325.5660303636679
 21
62.52346913565483
 31
0.0
  0
LINE
  5
314
102
{ACAD_REACTORS
330
451
102
}
330
1F
100
AcDbEntity
  8
実線
100
AcDbLine
 10
333.5660303636679
 20
75.07346913565482
 30
0.0
 11
333.5660303636679
 21
24.57346913565482
 31
0.0
  0
LINE
  5
315
102
{ACAD_REACTORS
330
451
102
}
330
1F
100
AcDbEntity
  8
実線
100
AcDbLine
 10
330.7160303636678
 20
75.07346913565482
 30
0.0
 11
330.7160303636678
 21
24.57346913565482
 31
0.0
  0
LINE
  5
316
102
{ACAD_REACTORS
330
451
102
}
330
1F
100
AcDbEntity
  8
実線
100
AcDbLine
 10
333.5660303636679
 20
75.07346913565482
 30
0.0
 11
330.7160303636678
 21
75.07346913565482
 31
0.0
  0
LINE
  5
317
102
{ACAD_REACTORS
330
451
102
}
330
1F
100
AcDbEntity
  8
実線
100
AcDbLine
 10
330.7160303636678
 20
24.57346913565482
 30
0.0
 11
333.5660303636679
 21
24.57346913565482
 31
0.0
  0
LINE
  5
318
102
{ACAD_REACTORS
330
451
102
}
330
1F
100
AcDbEntity
  8
実線
100
AcDbLine
 10
306.5660303636677
 20
21.82346913565482
 30
0.0
 11
250.5660303636678
 21
21.82346913565482
 31
0.0
  0
LINE
  5
319
102
{ACAD_REACTORS
330
451
102
}
330
1F
100
AcDbEntity
  8
実線
100
AcDbLine
 10
306.5660303636677
 20
21.82346913565482
 30
0.0
 11
306.5660303636677
 21
77.82346913565482
 31
0.0
  0
LINE
  5
31A
102
{ACAD_REACTORS
330
451
102
}
330
1F
100
AcDbEntity
  8
実線
100
AcDbLine
 10
250.5660303636678
 20
77.82346913565482
 30
0.0
 11
306.5660303636677
 21
77.82346913565482
 31
0.0
  0
LINE
  5
31B
102
{ACAD_REACTORS
330
451
102
}
330
1F
100
AcDbEntity
  8
実線
100
AcDbLine
 10
250.5660303636678
 20
77.82346913565482
 30
0.0
 11
250.5660303636678
 21
21.82346913565482
 31
0.0
  0
LINE
  5
31C
102
{ACAD_REACTORS
330
451
102
}
330
1F
100
AcDbEntity
  8
実線
100
AcDbLine
 10
290.1088103754321
 20
27.36624914741913
 30
0.0
 11
284.5660303636678
 21
21.82346913565482
 31
0.0
  0
ARC
  5
31D
102
{ACAD_REACTORS
330
451
102
}
330
1F
100
AcDbEntity
  8
実線
100
AcDbCircle
 10
252.3528269280713
 20
78.82346913565482
 30
0.0
 40
15.0
100
AcDbArc
 50
270.0
 51
294.1465641633519
  0
LINE
  5
31E
102
{ACAD_REACTORS
330
451
102
}
330
1F
100
AcDbEntity
  8
実線
100
AcDbLine
 10
250.5660303636678
 20
35.82346913565482
 30
0.0
 11
252.3528269280713
 21
35.82346913565482
 31
0.0
  0
ARC
  5
31F
102
{ACAD_REACTORS
330
451
102
}
330
1F
100
AcDbEntity
  8
実線
100
AcDbCircle
 10
252.3528269280713
 20
20.82346913565482
 30
0.0
 40
15.0
100
AcDbArc
 50
65.85343583664812
 51
90.0
  0
ARC
  5
320
102
{ACAD_REACTORS
330
451
102
}
330
1F
100
AcDbEntity
  8
実線
100
AcDbCircle
 10
304.7792337992642
 20
78.82346913565482
 30
0.0
 40
15.0
100
AcDbArc
 50
245.8534358366481
 51
270.0
  0
LINE
  5
321
102
{ACAD_REACTORS
330
451
102
}
330
1F
100
AcDbEntity
  8
実線
100
AcDbLine
 10
290.1088103754321
 20
72.28068912389062
 30
0.0
 11
284.5660303636678
 21
77.82346913565482
 31
0.0
  0
LINE
  5
322
102
{ACAD_REACTORS
330
451
102
}
330
1F
100
AcDbEntity
  8
実線
100
AcDbLine
 10
267.0232503519035
 20
72.28068912389062
 30
0.0
 11
272.5660303636677
 21
77.82346913565482
 31
0.0
  0
LINE
  5
323
102
{ACAD_REACTORS
330
451
102
}
330
1F
100
AcDbEntity
  8
実線
100
AcDbLine
 10
250.5660303636678
 20
63.82346913565482
 30
0.0
 11
252.3528269280713
 21
63.82346913565482
 31
0.0
  0
LINE
  5
324
102
{ACAD_REACTORS
330
451
102
}
330
1F
100
AcDbEntity
  8
実線
100
AcDbLine
 10
267.0232503519033
 20
27.36624914741913
 30
0.0
 11
272.5660303636677
 21
21.82346913565482
 31
0.0
  0
ARC
  5
325
102
{ACAD_REACTORS
330
451
102
}
330
1F
100
AcDbEntity
  8
実線
100
AcDbCircle
 10
304.7792337992642
 20
20.82346913565482
 30
0.0
 40
15.0
100
AcDbArc
 50
90.0
 51
114.1465641633519
  0
LINE
  5
326
102
{ACAD_REACTORS
330
451
102
}
330
1F
100
AcDbEntity
  8
実線
100
AcDbLine
 10
306.5660303636677
 20
35.82346913565482
 30
0.0
 11
304.7792337992642
 21
35.82346913565482
 31
0.0
  0
LINE
  5
327
102
{ACAD_REACTORS
330
451
102
}
330
1F
100
AcDbEntity
  8
実線
100
AcDbLine
 10
306.5660303636677
 20
63.82346913565482
 30
0.0
 11
304.7792337992642
 21
63.82346913565482
 31
0.0
  0
ARC
  5
328
102
{ACAD_REACTORS
330
451
102
}
330
1F
100
AcDbEntity
  8
実線
100
AcDbCircle
 10
278.5660303636677
 20
49.82346913565482
 30
0.0
 40
40.0
100
AcDbArc
 50
18.51180266809907
 51
161.4881973319009
  0
ARC
  5
329
102
{ACAD_REACTORS
330
451
102
}
330
1F
100
AcDbEntity
  8
実線
100
AcDbCircle
 10
278.5660303636677
 20
49.82346913565482
 30
0.0
 40
40.0
100
AcDbArc
 50
198.5118026680991
 51
341.4881973319009
  0
LINE
  5
32A
102
{ACAD_REACTORS
330
451
102
}
330
1F
100
AcDbEntity
  8
実線
100
AcDbLine
 10
306.5660303636677
 20
21.82346913565482
 30
0.0
 11
306.8503016111296
 21
21.53919788819292
 31
0.0
  0
LINE
  5
32B
102
{ACAD_REACTORS
330
451
102
}
330
1F
100
AcDbEntity
  8
実線
100
AcDbLine
 10
306.8503016111296
 20
78.10774038311672
 30
0.0
 11
306.5660303636677
 21
77.82346913565482
 31
0.0
  0
LINE
  5
32C
102
{ACAD_REACTORS
330
451
102
}
330
1F
100
AcDbEntity
  8
実線
100
AcDbLine
 10
250.5660303636678
 20
21.82346913565482
 30
0.0
 11
250.2817591162059
 21
21.53919788819292
 31
0.0
  0
LINE
  5
32D
102
{ACAD_REACTORS
330
451
102
}
330
1F
100
AcDbEntity
  8
実線
100
AcDbLine
 10
250.5660303636678
 20
77.82346913565493
 30
0.0
 11
250.2817591162059
 21
78.10774038311683
 31
0.0
  0
LINE
  5
32E
102
{ACAD_REACTORS
330
452
102
}
330
1F
100
AcDbEntity
  8
実線
100
AcDbLine
 10
699.8828097384307
 20
356.3734691356549
 30
0.0
 11
725.2538924173616
 21
356.3734691356549
 31
0.0
  0
LINE
  5
32F
102
{ACAD_REACTORS
330
452
102
}
330
1F
100
AcDbEntity
  8
実線
100
AcDbLine
 10
712.5660303636676
 20
348.4734691356548
 30
0.0
 11
699.8828097384307
 21
348.4734691356548
 31
0.0
  0
LINE
  5
330
102
{ACAD_REACTORS
330
452
102
}
330
1F
100
AcDbEntity
  8
実線
100
AcDbLine
 10
724.5660303636677
 20
348.4734691356548
 30
0.0
 11
725.2538924173616
 21
348.4734691356548
 31
0.0
  0
LINE
  5
331
102
{ACAD_REACTORS
330
452
102
}
330
1F
100
AcDbEntity
  8
実線
100
AcDbLine
 10
699.8828097384307
 20
356.3734691356549
 30
0.0
 11
699.8828097384307
 21
348.4734691356548
 31
0.0
  0
LINE
  5
332
102
{ACAD_REACTORS
330
452
102
}
330
1F
100
AcDbEntity
  8
実線
100
AcDbLine
 10
724.8501378170656
 20
355.4234691356549
 30
0.0
 11
724.8501378170656
 21
356.3734691356549
 31
0.0
  0
LINE
  5
333
102
{ACAD_REACTORS
330
452
102
}
330
1F
100
AcDbEntity
  8
実線
100
AcDbLine
 10
724.8501378170656
 20
348.4734691356548
 30
0.0
 11
724.8501378170656
 21
348.9234691356549
 31
0.0
  0
LINE
  5
334
102
{ACAD_REACTORS
330
452
102
}
330
1F
100
AcDbEntity
  8
実線
100
AcDbLine
 10
699.8828097384307
 20
353.9234691356548
 30
0.0
 11
693.5931817381337
 21
353.9234691356548
 31
0.0
  0
LINE
  5
335
102
{ACAD_REACTORS
330
452
102
}
330
1F
100
AcDbEntity
  8
実線
100
AcDbLine
 10
693.5931817381337
 20
350.9234691356549
 30
0.0
 11
699.8828097384307
 21
350.9234691356549
 31
0.0
  0
ELLIPSE
  5
336
102
{ACAD_REACTORS
330
452
102
}
330
1F
100
AcDbEntity
  8
実線
100
AcDbEllipse
 10
693.5931817381337
 20
352.4234691356548
 30
0.0
 11
0.0
 21
1.5
 31
0.0
210
0.0
220
0.0
230
1.0
 40
0.051108177252701
 41
0.0
 42
3.14159265358979
  0
LINE
  5
337
102
{ACAD_REACTORS
330
452
102
}
330
1F
100
AcDbEntity
  8
実線
100
AcDbLine
 10
699.8828097384307
 20
343.4234691356548
 30
0.0
 11
693.5931817381337
 21
343.4234691356548
 31
0.0
  0
LINE
  5
338
102
{ACAD_REACTORS
330
452
102
}
330
1F
100
AcDbEntity
  8
実線
100
AcDbLine
 10
693.5931817381337
 20
340.4234691356549
 30
0.0
 11
699.8828097384307
 21
340.4234691356549
 31
0.0
  0
ELLIPSE
  5
339
102
{ACAD_REACTORS
330
452
102
}
330
1F
100
AcDbEntity
  8
実線
100
AcDbEllipse
 10
693.5931817381337
 20
341.9234691356548
 30
0.0
 11
0.0
 21
1.5
 31
0.0
210
0.0
220
0.0
230
1.0
 40
0.051108177252701
 41
0.0
 42
3.14159265358979
  0
LINE
  5
33A
102
{ACAD_REACTORS
330
452
102
}
330
1F
100
AcDbEntity
  8
実線
100
AcDbLine
 10
725.2538924173616
 20
337.9734691356548
 30
0.0
 11
724.5660303636677
 21
337.9734691356548
 31
0.0
  0
LINE
  5
33B
102
{ACAD_REACTORS
330
452
102
}
330
1F
100
AcDbEntity
  8
実線
100
AcDbLine
 10
725.2538924173616
 20
345.8734691356549
 30
0.0
 11
724.5660303636677
 21
345.8734691356549
 31
0.0
  0
LINE
  5
33C
102
{ACAD_REACTORS
330
452
102
}
330
1F
100
AcDbEntity
  8
実線
100
AcDbLine
 10
712.5660303636676
 20
337.9734691356548
 30
0.0
 11
699.8828097384307
 21
337.9734691356548
 31
0.0
  0
LINE
  5
33D
102
{ACAD_REACTORS
330
452
102
}
330
1F
100
AcDbEntity
  8
実線
100
AcDbLine
 10
712.5660303636676
 20
345.8734691356549
 30
0.0
 11
699.8828097384307
 21
345.8734691356549
 31
0.0
  0
LINE
  5
33E
102
{ACAD_REACTORS
330
452
102
}
330
1F
100
AcDbEntity
  8
実線
100
AcDbLine
 10
699.8828097384307
 20
345.8734691356549
 30
0.0
 11
699.8828097384307
 21
337.9734691356548
 31
0.0
  0
LINE
  5
33F
102
{ACAD_REACTORS
330
452
102
}
330
1F
100
AcDbEntity
  8
実線
100
AcDbLine
 10
724.8501378170656
 20
337.9734691356548
 30
0.0
 11
724.8501378170656
 21
345.8734691356549
 31
0.0
  0
LINE
  5
340
102
{ACAD_REACTORS
330
452
102
}
330
1F
100
AcDbEntity
  8
実線
100
AcDbLine
 10
765.5660303636677
 20
222.5234691356549
 30
0.0
 11
746.5660303636678
 21
222.5234691356549
 31
0.0
  0
LINE
  5
341
102
{ACAD_REACTORS
330
452
102
}
330
1F
100
AcDbEntity
  8
実線
100
AcDbLine
 10
746.5660303636678
 20
197.1234691356549
 30
0.0
 11
765.5660303636677
 21
197.1234691356549
 31
0.0
  0
LINE
  5
342
102
{ACAD_REACTORS
330
452
102
}
330
1F
100
AcDbEntity
  8
実線
100
AcDbLine
 10
773.5660303636677
 20
184.5734691356549
 30
0.0
 11
773.5660303636677
 21
235.0734691356549
 31
0.0
  0
LINE
  5
343
102
{ACAD_REACTORS
330
452
102
}
330
1F
100
AcDbEntity
  8
実線
100
AcDbLine
 10
773.5660303636677
 20
235.0734691356549
 30
0.0
 11
770.7160303636676
 21
235.0734691356549
 31
0.0
  0
LINE
  5
344
102
{ACAD_REACTORS
330
452
102
}
330
1F
100
AcDbEntity
  8
実線
100
AcDbLine
 10
770.7160303636676
 20
184.5734691356549
 30
0.0
 11
773.5660303636677
 21
184.5734691356549
 31
0.0
  0
LINE
  5
345
102
{ACAD_REACTORS
330
452
102
}
330
1F
100
AcDbEntity
  8
実線
100
AcDbLine
 10
770.7160303636676
 20
184.5734691356549
 30
0.0
 11
770.7160303636676
 21
235.0734691356549
 31
0.0
  0
LINE
  5
346
102
{ACAD_REACTORS
330
452
102
}
330
1F
100
AcDbEntity
  8
実線
100
AcDbLine
 10
765.5660303636677
 20
197.1234691356549
 30
0.0
 11
765.5660303636677
 21
222.5234691356549
 31
0.0
  0
LINE
  5
347
102
{ACAD_REACTORS
330
452
102
}
330
1F
100
AcDbEntity
  8
実線
100
AcDbLine
 10
765.5660303636677
 20
197.1234691356549
 30
0.0
 11
770.7160303636676
 21
184.5734691356549
 31
0.0
  0
LINE
  5
348
102
{ACAD_REACTORS
330
452
102
}
330
1F
100
AcDbEntity
  8
実線
100
AcDbLine
 10
770.7160303636676
 20
235.0734691356549
 30
0.0
 11
765.5660303636677
 21
222.5234691356549
 31
0.0
  0
LINE
  5
349
102
{ACAD_REACTORS
330
452
102
}
330
1F
100
AcDbEntity
  8
実線
100
AcDbLine
 10
731.2660303636678
 20
187.8234691356549
 30
0.0
 11
731.2660303636678
 21
195.3234691356549
 31
0.0
  0
LINE
  5
34A
102
{ACAD_REACTORS
330
452
102
}
330
1F
100
AcDbEntity
  8
実線
100
AcDbLine
 10
705.8660303636677
 20
195.3234691356549
 30
0.0
 11
705.8660303636677
 21
187.8234691356549
 31
0.0
  0
LINE
  5
34B
102
{ACAD_REACTORS
330
452
102
}
330
1F
100
AcDbEntity
  8
実線
100
AcDbLine
 10
693.3160303636676
 20
179.8234691356548
 30
0.0
 11
743.8160303636678
 21
179.8234691356548
 31
0.0
  0
LINE
  5
34C
102
{ACAD_REACTORS
330
452
102
}
330
1F
100
AcDbEntity
  8
実線
100
AcDbLine
 10
743.8160303636678
 20
179.8234691356548
 30
0.0
 11
743.8160303636678
 21
182.6734691356549
 31
0.0
  0
LINE
  5
34D
102
{ACAD_REACTORS
330
452
102
}
330
1F
100
AcDbEntity
  8
実線
100
AcDbLine
 10
693.3160303636676
 20
182.6734691356549
 30
0.0
 11
693.3160303636676
 21
179.8234691356548
 31
0.0
  0
LINE
  5
34E
102
{ACAD_REACTORS
330
452
102
}
330
1F
100
AcDbEntity
  8
実線
100
AcDbLine
 10
693.3160303636676
 20
182.6734691356549
 30
0.0
 11
743.8160303636678
 21
182.6734691356549
 31
0.0
  0
LINE
  5
34F
102
{ACAD_REACTORS
330
452
102
}
330
1F
100
AcDbEntity
  8
実線
100
AcDbLine
 10
705.8660303636677
 20
187.8234691356549
 30
0.0
 11
731.2660303636678
 21
187.8234691356549
 31
0.0
  0
LINE
  5
350
102
{ACAD_REACTORS
330
452
102
}
330
1F
100
AcDbEntity
  8
実線
100
AcDbLine
 10
705.8660303636677
 20
187.8234691356549
 30
0.0
 11
693.3160303636676
 21
182.6734691356549
 31
0.0
  0
LINE
  5
351
102
{ACAD_REACTORS
330
452
102
}
330
1F
100
AcDbEntity
  8
実線
100
AcDbLine
 10
743.8160303636678
 20
182.6734691356549
 30
0.0
 11
731.2660303636678
 21
187.8234691356549
 31
0.0
  0
LINE
  5
352
102
{ACAD_REACTORS
330
452
102
}
330
1F
100
AcDbEntity
  8
実線
100
AcDbLine
 10
725.3152222300648
 20
359.4234691356549
 30
0.0
 11
695.2930987229997
 21
359.4234691356549
 31
0.0
  0
LINE
  5
353
102
{ACAD_REACTORS
330
452
102
}
330
1F
100
AcDbEntity
  8
実線
100
AcDbLine
 10
725.3152222300648
 20
355.4234691356549
 30
0.0
 11
725.3152222300648
 21
359.4234691356549
 31
0.0
  0
LINE
  5
354
102
{ACAD_REACTORS
330
452
102
}
330
1F
100
AcDbEntity
  8
実線
100
AcDbLine
 10
725.3152222300648
 20
348.9234691356549
 30
0.0
 11
725.3152222300648
 21
334.4234691356549
 31
0.0
  0
LINE
  5
355
102
{ACAD_REACTORS
330
452
102
}
330
1F
100
AcDbEntity
  8
実線
100
AcDbLine
 10
725.2538924173616
 20
359.4234691356549
 30
0.0
 11
725.2538924173616
 21
355.4234691356549
 31
0.0
  0
LINE
  5
356
102
{ACAD_REACTORS
330
452
102
}
330
1F
100
AcDbEntity
  8
実線
100
AcDbLine
 10
725.2538924173616
 20
348.9234691356549
 30
0.0
 11
725.2538924173616
 21
334.4234691356549
 31
0.0
  0
LINE
  5
357
102
{ACAD_REACTORS
330
452
102
}
330
1F
100
AcDbEntity
  8
実線
100
AcDbLine
 10
695.2930987229997
 20
353.9234691356548
 30
0.0
 11
695.2930987229997
 21
359.4234691356549
 31
0.0
  0
LINE
  5
358
102
{ACAD_REACTORS
330
452
102
}
330
1F
100
AcDbEntity
  8
実線
100
AcDbLine
 10
695.2930987229997
 20
343.4234691356548
 30
0.0
 11
695.2930987229997
 21
350.9234691356549
 31
0.0
  0
LINE
  5
359
102
{ACAD_REACTORS
330
452
102
}
330
1F
100
AcDbEntity
  8
実線
100
AcDbLine
 10
695.2930987229997
 20
335.6234691356549
 30
0.0
 11
695.2930987229997
 21
340.4234691356549
 31
0.0
  0
LINE
  5
35A
102
{ACAD_REACTORS
330
452
102
}
330
1F
100
AcDbEntity
  8
実線
100
AcDbLine
 10
710.5660303636676
 20
355.4234691356549
 30
0.0
 11
726.5660303636678
 21
355.4234691356549
 31
0.0
  0
LINE
  5
35B
102
{ACAD_REACTORS
330
452
102
}
330
1F
100
AcDbEntity
  8
実線
100
AcDbLine
 10
726.5660303636678
 20
348.9234691356549
 30
0.0
 11
726.5660303636678
 21
355.4234691356549
 31
0.0
  0
LINE
  5
35C
102
{ACAD_REACTORS
330
452
102
}
330
1F
100
AcDbEntity
  8
実線
100
AcDbLine
 10
710.5660303636676
 20
355.4234691356549
 30
0.0
 11
710.5660303636676
 21
348.9234691356549
 31
0.0
  0
LINE
  5
35D
102
{ACAD_REACTORS
330
452
102
}
330
1F
100
AcDbEntity
  8
実線
100
AcDbLine
 10
726.5660303636678
 20
348.9234691356549
 30
0.0
 11
710.5660303636676
 21
348.9234691356549
 31
0.0
  0
LINE
  5
35E
102
{ACAD_REACTORS
330
452
102
}
330
1F
100
AcDbEntity
  8
実線
100
AcDbLine
 10
678.5660303636675
 20
329.4234691356549
 30
0.0
 11
758.5660303636678
 21
329.4234691356549
 31
0.0
  0
LINE
  5
35F
102
{ACAD_REACTORS
330
452
102
}
330
1F
100
AcDbEntity
  8
実線
100
AcDbLine
 10
758.5660303636678
 20
243.5234691356549
 30
0.0
 11
758.5660303636678
 21
329.4234691356549
 31
0.0
  0
LINE
  5
360
102
{ACAD_REACTORS
330
452
102
}
330
1F
100
AcDbEntity
  8
実線
100
AcDbLine
 10
678.5660303636675
 20
329.4234691356549
 30
0.0
 11
678.5660303636675
 21
243.5234691356549
 31
0.0
  0
LINE
  5
361
102
{ACAD_REACTORS
330
452
102
}
330
1F
100
AcDbEntity
  8
実線
100
AcDbLine
 10
758.5660303636678
 20
243.5234691356549
 30
0.0
 11
678.5660303636675
 21
243.5234691356549
 31
0.0
  0
LINE
  5
362
102
{ACAD_REACTORS
330
452
102
}
330
1F
100
AcDbEntity
  8
実線
100
AcDbLine
 10
724.5660303636677
 20
334.4234691356549
 30
0.0
 11
724.5660303636677
 21
348.9234691356549
 31
0.0
  0
LINE
  5
363
102
{ACAD_REACTORS
330
452
102
}
330
1F
100
AcDbEntity
  8
実線
100
AcDbLine
 10
712.5660303636676
 20
348.9234691356549
 30
0.0
 11
712.5660303636676
 21
334.4234691356549
 31
0.0
  0
LINE
  5
364
102
{ACAD_REACTORS
330
452
102
}
330
1F
100
AcDbEntity
  8
実線
100
AcDbLine
 10
671.5660303636675
 20
197.1234691356549
 30
0.0
 11
690.5660303636675
 21
197.1234691356549
 31
0.0
  0
LINE
  5
365
102
{ACAD_REACTORS
330
452
102
}
330
1F
100
AcDbEntity
  8
実線
100
AcDbLine
 10
690.5660303636675
 20
222.5234691356549
 30
0.0
 11
671.5660303636675
 21
222.5234691356549
 31
0.0
  0
LINE
  5
366
102
{ACAD_REACTORS
330
452
102
}
330
1F
100
AcDbEntity
  8
実線
100
AcDbLine
 10
671.5660303636675
 20
222.5234691356549
 30
0.0
 11
666.4160303636675
 21
235.0734691356549
 31
0.0
  0
LINE
  5
367
102
{ACAD_REACTORS
330
452
102
}
330
1F
100
AcDbEntity
  8
実線
100
AcDbLine
 10
666.4160303636675
 20
184.5734691356549
 30
0.0
 11
671.5660303636675
 21
197.1234691356549
 31
0.0
  0
LINE
  5
368
102
{ACAD_REACTORS
330
452
102
}
330
1F
100
AcDbEntity
  8
実線
100
AcDbLine
 10
671.5660303636675
 20
222.5234691356549
 30
0.0
 11
671.5660303636675
 21
197.1234691356549
 31
0.0
  0
LINE
  5
369
102
{ACAD_REACTORS
330
452
102
}
330
1F
100
AcDbEntity
  8
実線
100
AcDbLine
 10
663.5660303636676
 20
184.5734691356549
 30
0.0
 11
666.4160303636675
 21
184.5734691356549
 31
0.0
  0
LINE
  5
36A
102
{ACAD_REACTORS
330
452
102
}
330
1F
100
AcDbEntity
  8
実線
100
AcDbLine
 10
666.4160303636675
 20
235.0734691356549
 30
0.0
 11
663.5660303636676
 21
235.0734691356549
 31
0.0
  0
LINE
  5
36B
102
{ACAD_REACTORS
330
452
102
}
330
1F
100
AcDbEntity
  8
実線
100
AcDbLine
 10
663.5660303636676
 20
184.5734691356549
 30
0.0
 11
663.5660303636676
 21
235.0734691356549
 31
0.0
  0
LINE
  5
36C
102
{ACAD_REACTORS
330
452
102
}
330
1F
100
AcDbEntity
  8
実線
100
AcDbLine
 10
666.4160303636675
 20
184.5734691356549
 30
0.0
 11
666.4160303636675
 21
235.0734691356549
 31
0.0
  0
LINE
  5
36D
102
{ACAD_REACTORS
330
452
102
}
330
1F
100
AcDbEntity
  8
実線
100
AcDbLine
 10
690.5660303636675
 20
195.3234691356549
 30
0.0
 11
746.5660303636678
 21
195.3234691356549
 31
0.0
  0
LINE
  5
36E
102
{ACAD_REACTORS
330
452
102
}
330
1F
100
AcDbEntity
  8
実線
100
AcDbLine
 10
690.5660303636675
 20
195.3234691356549
 30
0.0
 11
690.5660303636675
 21
230.5234691356549
 31
0.0
  0
LINE
  5
36F
102
{ACAD_REACTORS
330
452
102
}
330
1F
100
AcDbEntity
  8
実線
100
AcDbLine
 10
746.5660303636678
 20
195.3234691356549
 30
0.0
 11
746.5660303636678
 21
230.5234691356549
 31
0.0
  0
LINE
  5
370
102
{ACAD_REACTORS
330
452
102
}
330
1F
100
AcDbEntity
  8
実線
100
AcDbLine
 10
724.5660303636677
 20
220.5234691356549
 30
0.0
 11
746.5660303636678
 21
220.5234691356549
 31
0.0
  0
LINE
  5
371
102
{ACAD_REACTORS
330
452
102
}
330
1F
100
AcDbEntity
  8
実線
100
AcDbLine
 10
724.5660303636677
 20
195.3234691356549
 30
0.0
 11
724.5660303636677
 21
220.5234691356549
 31
0.0
  0
LINE
  5
372
102
{ACAD_REACTORS
330
452
102
}
330
1F
100
AcDbEntity
  8
実線
100
AcDbLine
 10
746.5660303636678
 20
230.5234691356549
 30
0.0
 11
690.5660303636675
 21
230.5234691356549
 31
0.0
  0
LINE
  5
373
102
{ACAD_REACTORS
330
452
102
}
330
1F
100
AcDbEntity
  8
実線
100
AcDbLine
 10
712.5660303636676
 20
220.5234691356549
 30
0.0
 11
690.5660303636675
 21
220.5234691356549
 31
0.0
  0
LINE
  5
374
102
{ACAD_REACTORS
330
452
102
}
330
1F
100
AcDbEntity
  8
実線
100
AcDbLine
 10
712.5660303636676
 20
195.3234691356549
 30
0.0
 11
712.5660303636676
 21
220.5234691356549
 31
0.0
  0
LINE
  5
375
102
{ACAD_REACTORS
330
452
102
}
330
1F
100
AcDbEntity
  8
実線
100
AcDbLine
 10
725.7905282785145
 20
334.4234691356549
 30
0.0
 11
725.7905282785145
 21
335.6234691356549
 31
0.0
  0
LINE
  5
376
102
{ACAD_REACTORS
330
452
102
}
330
1F
100
AcDbEntity
  8
実線
100
AcDbLine
 10
725.7905282785145
 20
335.6234691356549
 30
0.0
 11
725.3152222300648
 21
335.6234691356549
 31
0.0
  0
LINE
  5
377
102
{ACAD_REACTORS
330
452
102
}
330
1F
100
AcDbEntity
  8
実線
100
AcDbLine
 10
683.5660303636675
 20
334.4234691356549
 30
0.0
 11
753.5660303629279
 21
334.4234691356549
 31
0.0
  0
ARC
  5
378
102
{ACAD_REACTORS
330
452
102
}
330
1F
100
AcDbEntity
  8
実線
100
AcDbCircle
 10
753.5660303636677
 20
329.4234691356549
 30
0.0
 40
5.0
100
AcDbArc
 50
0.0
 51
90.0
  0
ARC
  5
379
102
{ACAD_REACTORS
330
452
102
}
330
1F
100
AcDbEntity
  8
実線
100
AcDbCircle
 10
683.5660303636675
 20
329.4234691356549
 30
0.0
 40
5.0
100
AcDbArc
 50
90.0
 51
180.0
  0
LINE
  5
37A
102
{ACAD_REACTORS
330
452
102
}
330
1F
100
AcDbEntity
  8
実線
100
AcDbLine
 10
694.8075710390996
 20
335.6234691356549
 30
0.0
 11
705.2800299544536
 21
335.6234691356549
 31
0.0
  0
LINE
  5
37B
102
{ACAD_REACTORS
330
452
102
}
330
1F
100
AcDbEntity
  8
実線
100
AcDbLine
 10
694.8075710390996
 20
334.4234691356549
 30
0.0
 11
694.8075710390996
 21
335.6234691356549
 31
0.0
  0
LINE
  5
37C
102
{ACAD_REACTORS
330
452
102
}
330
1F
100
AcDbEntity
  8
実線
100
AcDbLine
 10
705.2800299544536
 20
334.4234691356549
 30
0.0
 11
705.2800299544536
 21
335.6234691356549
 31
0.0
  0
LINE
  5
37D
102
{ACAD_REACTORS
330
452
102
}
330
1F
100
AcDbEntity
  8
実線
100
AcDbLine
 10
704.7945022705537
 20
334.4234691356549
 30
0.0
 11
704.7945022705537
 21
335.6234691356549
 31
0.0
  0
LINE
  5
37E
102
{ACAD_REACTORS
330
452
102
}
330
1F
100
AcDbEntity
  8
実線
100
AcDbLine
 10
690.5660303636675
 20
230.5234691356549
 30
0.0
 11
678.5660303636675
 21
242.5234691356548
 31
0.0
  0
LINE
  5
37F
102
{ACAD_REACTORS
330
452
102
}
330
1F
100
AcDbEntity
  8
実線
100
AcDbLine
 10
746.5660303636678
 20
230.5234691356549
 30
0.0
 11
758.5660303636678
 21
242.5234691356549
 31
0.0
  0
ARC
  5
380
102
{ACAD_REACTORS
330
452
102
}
330
1F
100
AcDbEntity
  8
実線
100
AcDbCircle
 10
718.5660303636677
 20
202.5234691356549
 30
0.0
 40
40.0
100
AcDbArc
 50
45.0
 51
135.0
  0
LINE
  5
381
102
{ACAD_REACTORS
330
452
102
}
330
1F
100
AcDbEntity
  8
実線
100
AcDbLine
 10
758.5660303636678
 20
242.5234691356549
 30
0.0
 11
758.5660303636678
 21
243.5234691356549
 31
0.0
  0
LINE
  5
382
102
{ACAD_REACTORS
330
452
102
}
330
1F
100
AcDbEntity
  8
実線
100
AcDbLine
 10
678.5660303636675
 20
243.5234691356549
 30
0.0
 11
678.5660303636675
 21
242.5234691356549
 31
0.0
  0
LINE
  5
383
102
{ACAD_REACTORS
330
453
102
}
330
1F
100
AcDbEntity
  8
実線
100
AcDbLine
 10
490.26251911985
 20
348.4734691356548
 30
0.0
 11
481.0951390156839
 21
348.4734691356548
 31
0.0
  0
LINE
  5
384
102
{ACAD_REACTORS
330
453
102
}
330
1F
100
AcDbEntity
  8
実線
100
AcDbLine
 10
490.26251911985
 20
356.3734691356549
 30
0.0
 11
481.0951390156839
 21
356.3734691356549
 31
0.0
  0
LINE
  5
385
102
{ACAD_REACTORS
330
453
102
}
330
1F
100
AcDbEntity
  8
実線
100
AcDbLine
 10
490.26251911985
 20
348.4734691356548
 30
0.0
 11
490.26251911985
 21
356.3734691356549
 31
0.0
  0
LINE
  5
386
102
{ACAD_REACTORS
330
453
102
}
330
1F
100
AcDbEntity
  8
実線
100
AcDbLine
 10
488.9848146885325
 20
356.3734691356549
 30
0.0
 11
488.9848146885325
 21
348.4734691356548
 31
0.0
  0
LINE
  5
387
102
{ACAD_REACTORS
330
453
102
}
330
1F
100
AcDbEntity
  8
実線
100
AcDbLine
 10
481.0951390156839
 20
348.4734691356548
 30
0.0
 11
481.0951390156839
 21
356.3734691356549
 31
0.0
  0
ELLIPSE
  5
388
102
{ACAD_REACTORS
330
453
102
}
330
1F
100
AcDbEntity
  8
実線
100
AcDbEllipse
 10
484.7077736999656
 20
352.4234691356548
 30
0.0
 11
0.0
 21
1.5
 31
0.0
210
0.0
220
0.0
230
1.0
 40
0.9986931231453969
 41
0.0
 42
1.570796326794897
  0
ELLIPSE
  5
389
102
{ACAD_REACTORS
330
453
102
}
330
1F
100
AcDbEntity
  8
実線
100
AcDbEllipse
 10
485.039976852108
 20
352.4234691356548
 30
0.0
 11
0.0
 21
1.5
 31
0.0
210
0.0
220
0.0
230
1.0
 40
0.9986931231453969
 41
4.71238898038469
 42
6.283185307179584
  0
LINE
  5
38A
102
{ACAD_REACTORS
330
453
102
}
330
1F
100
AcDbEntity
  8
実線
100
AcDbLine
 10
485.039976852108
 20
353.9234691356548
 30
0.0
 11
484.7077736999656
 21
353.9234691356548
 31
0.0
  0
LINE
  5
38B
102
{ACAD_REACTORS
330
453
102
}
330
1F
100
AcDbEntity
  8
実線
100
AcDbLine
 10
484.7077736999656
 20
350.9234691356549
 30
0.0
 11
485.039976852108
 21
350.9234691356549
 31
0.0
  0
ELLIPSE
  5
38C
102
{ACAD_REACTORS
330
453
102
}
330
1F
100
AcDbEntity
  8
実線
100
AcDbEllipse
 10
484.7077736999656
 20
352.4234691356548
 30
0.0
 11
0.0
 21
1.5
 31
0.0
210
0.0
220
0.0
230
1.0
 40
0.9986931231453969
 41
3.141592653589792
 42
6.283185307179584
  0
ELLIPSE
  5
38D
102
{ACAD_REACTORS
330
453
102
}
330
1F
100
AcDbEntity
  8
実線
100
AcDbEllipse
 10
484.7077736999656
 20
352.4234691356548
 30
0.0
 11
0.0
 21
1.5
 31
0.0
210
0.0
220
0.0
230
1.0
 40
0.9986931231453969
 41
1.570796326794897
 42
3.141592653589792
  0
ELLIPSE
  5
38E
102
{ACAD_REACTORS
330
453
102
}
330
1F
100
AcDbEntity
  8
実線
100
AcDbEllipse
 10
485.039976852108
 20
352.4234691356548
 30
0.0
 11
0.0
 21
1.5
 31
0.0
210
0.0
220
0.0
230
1.0
 40
0.9986931231453969
 41
3.141592653589792
 42
4.71238898038469
  0
ELLIPSE
  5
38F
102
{ACAD_REACTORS
330
453
102
}
330
1F
100
AcDbEntity
  8
実線
100
AcDbEllipse
 10
485.039976852108
 20
341.9234691356548
 30
0.0
 11
0.0
 21
1.5
 31
0.0
210
0.0
220
0.0
230
1.0
 40
0.9986931231453969
 41
4.71238898038469
 42
6.283185307179584
  0
LINE
  5
390
102
{ACAD_REACTORS
330
453
102
}
330
1F
100
AcDbEntity
  8
実線
100
AcDbLine
 10
485.039976852108
 20
343.4234691356548
 30
0.0
 11
484.7077736999656
 21
343.4234691356548
 31
0.0
  0
LINE
  5
391
102
{ACAD_REACTORS
330
453
102
}
330
1F
100
AcDbEntity
  8
実線
100
AcDbLine
 10
484.7077736999656
 20
340.4234691356549
 30
0.0
 11
485.039976852108
 21
340.4234691356549
 31
0.0
  0
ELLIPSE
  5
392
102
{ACAD_REACTORS
330
453
102
}
330
1F
100
AcDbEntity
  8
実線
100
AcDbEllipse
 10
484.7077736999656
 20
341.9234691356548
 30
0.0
 11
0.0
 21
1.5
 31
0.0
210
0.0
220
0.0
230
1.0
 40
0.9986931231453969
 41
3.141592653589792
 42
6.283185307179584
  0
ELLIPSE
  5
393
102
{ACAD_REACTORS
330
453
102
}
330
1F
100
AcDbEntity
  8
実線
100
AcDbEllipse
 10
484.7077736999656
 20
341.9234691356548
 30
0.0
 11
0.0
 21
1.5
 31
0.0
210
0.0
220
0.0
230
1.0
 40
0.9986931231453969
 41
1.570796326794897
 42
3.141592653589792
  0
ELLIPSE
  5
394
102
{ACAD_REACTORS
330
453
102
}
330
1F
100
AcDbEntity
  8
実線
100
AcDbEllipse
 10
485.039976852108
 20
341.9234691356548
 30
0.0
 11
0.0
 21
1.5
 31
0.0
210
0.0
220
0.0
230
1.0
 40
0.9986931231453969
 41
3.141592653589792
 42
4.71238898038469
  0
ELLIPSE
  5
395
102
{ACAD_REACTORS
330
453
102
}
330
1F
100
AcDbEntity
  8
実線
100
AcDbEllipse
 10
484.7077736999656
 20
341.9234691356548
 30
0.0
 11
0.0
 21
1.5
 31
0.0
210
0.0
220
0.0
230
1.0
 40
0.9986931231453969
 41
0.0
 42
1.570796326794897
  0
LINE
  5
396
102
{ACAD_REACTORS
330
453
102
}
330
1F
100
AcDbEntity
  8
実線
100
AcDbLine
 10
481.0951390156839
 20
337.9734691356548
 30
0.0
 11
490.26251911985
 21
337.9734691356548
 31
0.0
  0
LINE
  5
397
102
{ACAD_REACTORS
330
453
102
}
330
1F
100
AcDbEntity
  8
実線
100
AcDbLine
 10
481.0951390156839
 20
345.8734691356549
 30
0.0
 11
490.26251911985
 21
345.8734691356549
 31
0.0
  0
LINE
  5
398
102
{ACAD_REACTORS
330
453
102
}
330
1F
100
AcDbEntity
  8
実線
100
AcDbLine
 10
481.0951390156839
 20
337.9734691356548
 30
0.0
 11
481.0951390156839
 21
345.8734691356549
 31
0.0
  0
LINE
  5
399
102
{ACAD_REACTORS
330
453
102
}
330
1F
100
AcDbEntity
  8
実線
100
AcDbLine
 10
488.9848146885325
 20
345.8734691356549
 30
0.0
 11
488.9848146885325
 21
337.9734691356548
 31
0.0
  0
LINE
  5
39A
102
{ACAD_REACTORS
330
453
102
}
330
1F
100
AcDbEntity
  8
実線
100
AcDbLine
 10
490.26251911985
 20
337.9734691356548
 30
0.0
 11
490.26251911985
 21
345.8734691356549
 31
0.0
  0
LINE
  5
39B
102
{ACAD_REACTORS
330
453
102
}
330
1F
100
AcDbEntity
  8
実線
100
AcDbLine
 10
511.2660303636675
 20
187.8234691356549
 30
0.0
 11
511.2660303636675
 21
187.9998007914009
 31
0.0
  0
LINE
  5
39C
102
{ACAD_REACTORS
330
453
102
}
330
1F
100
AcDbEntity
  8
実線
100
AcDbLine
 10
485.8660303636676
 20
187.9998007914009
 30
0.0
 11
485.8660303636676
 21
187.8234691356549
 31
0.0
  0
LINE
  5
39D
102
{ACAD_REACTORS
330
453
102
}
330
1F
100
AcDbEntity
  8
実線
100
AcDbLine
 10
510.9580640950613
 20
187.8234691356549
 30
0.0
 11
511.2660303636675
 21
187.8234691356549
 31
0.0
  0
LINE
  5
39E
102
{ACAD_REACTORS
330
453
102
}
330
1F
100
AcDbEntity
  8
実線
100
AcDbLine
 10
485.8660303636676
 20
187.8234691356549
 30
0.0
 11
473.3160303636675
 21
182.6734691356549
 31
0.0
  0
LINE
  5
39F
102
{ACAD_REACTORS
330
453
102
}
330
1F
100
AcDbEntity
  8
実線
100
AcDbLine
 10
523.8160303636675
 20
182.6734691356549
 30
0.0
 11
511.2660303636675
 21
187.8234691356549
 31
0.0
  0
LINE
  5
3A0
102
{ACAD_REACTORS
330
453
102
}
330
1F
100
AcDbEntity
  8
実線
100
AcDbLine
 10
485.8660303636676
 20
187.8234691356549
 30
0.0
 11
486.173996632274
 21
187.8234691356549
 31
0.0
  0
LINE
  5
3A1
102
{ACAD_REACTORS
330
453
102
}
330
1F
100
AcDbEntity
  8
実線
100
AcDbLine
 10
523.8160303636675
 20
179.8234691356548
 30
0.0
 11
473.3160303636675
 21
179.8234691356548
 31
0.0
  0
LINE
  5
3A2
102
{ACAD_REACTORS
330
453
102
}
330
1F
100
AcDbEntity
  8
実線
100
AcDbLine
 10
523.8160303636675
 20
182.6734691356549
 30
0.0
 11
473.3160303636675
 21
182.6734691356549
 31
0.0
  0
LINE
  5
3A3
102
{ACAD_REACTORS
330
453
102
}
330
1F
100
AcDbEntity
  8
実線
100
AcDbLine
 10
523.8160303636675
 20
179.8234691356548
 30
0.0
 11
523.8160303636675
 21
182.6734691356549
 31
0.0
  0
LINE
  5
3A4
102
{ACAD_REACTORS
330
453
102
}
330
1F
100
AcDbEntity
  8
実線
100
AcDbLine
 10
473.3160303636675
 20
182.6734691356549
 30
0.0
 11
473.3160303636675
 21
179.8234691356548
 31
0.0
  0
LINE
  5
3A5
102
{ACAD_REACTORS
330
453
102
}
330
1F
100
AcDbEntity
  8
実線
100
AcDbLine
 10
482.3728434470011
 20
359.4234691356549
 30
0.0
 11
479.6411663816457
 21
359.4234691356549
 31
0.0
  0
LINE
  5
3A6
102
{ACAD_REACTORS
330
453
102
}
330
1F
100
AcDbEntity
  8
実線
100
AcDbLine
 10
482.3728434470011
 20
356.3734691356549
 30
0.0
 11
482.3728434470011
 21
359.4234691356549
 31
0.0
  0
LINE
  5
3A7
102
{ACAD_REACTORS
330
453
102
}
330
1F
100
AcDbEntity
  8
実線
100
AcDbLine
 10
482.3728434470011
 20
345.8734691356549
 30
0.0
 11
482.3728434470011
 21
348.4734691356548
 31
0.0
  0
LINE
  5
3A8
102
{ACAD_REACTORS
330
453
102
}
330
1F
100
AcDbEntity
  8
実線
100
AcDbLine
 10
482.3728434470011
 20
335.6234691356549
 30
0.0
 11
482.3728434470011
 21
337.9734691356548
 31
0.0
  0
LINE
  5
3A9
102
{ACAD_REACTORS
330
453
102
}
330
1F
100
AcDbEntity
  8
実線
100
AcDbLine
 10
480.8395981294203
 20
359.4234691356549
 30
0.0
 11
480.8395981294203
 21
334.4234691356549
 31
0.0
  0
LINE
  5
3AA
102
{ACAD_REACTORS
330
453
102
}
330
1F
100
AcDbEntity
  8
実線
100
AcDbLine
 10
479.6411663816457
 20
334.4234691356549
 30
0.0
 11
479.6411663816457
 21
359.4234691356549
 31
0.0
  0
LINE
  5
3AB
102
{ACAD_REACTORS
330
453
102
}
330
1F
100
AcDbEntity
  8
実線
100
AcDbLine
 10
506.5660303636675
 20
355.4234691356549
 30
0.0
 11
490.5660303636675
 21
355.4234691356549
 31
0.0
  0
LINE
  5
3AC
102
{ACAD_REACTORS
330
453
102
}
330
1F
100
AcDbEntity
  8
実線
100
AcDbLine
 10
490.5660303636675
 20
348.9234691356549
 30
0.0
 11
506.5660303636675
 21
348.9234691356549
 31
0.0
  0
LINE
  5
3AD
102
{ACAD_REACTORS
330
453
102
}
330
1F
100
AcDbEntity
  8
実線
100
AcDbLine
 10
506.5660303636675
 20
348.9234691356549
 30
0.0
 11
506.5660303636675
 21
355.4234691356549
 31
0.0
  0
LINE
  5
3AE
102
{ACAD_REACTORS
330
453
102
}
330
1F
100
AcDbEntity
  8
実線
100
AcDbLine
 10
490.5660303636675
 20
355.4234691356549
 30
0.0
 11
490.5660303636675
 21
348.9234691356549
 31
0.0
  0
LINE
  5
3AF
102
{ACAD_REACTORS
330
453
102
}
330
1F
100
AcDbEntity
  8
実線
100
AcDbLine
 10
538.5660303636675
 20
329.4234691356549
 30
0.0
 11
458.5660303636675
 21
329.4234691356549
 31
0.0
  0
LINE
  5
3B0
102
{ACAD_REACTORS
330
453
102
}
330
1F
100
AcDbEntity
  8
実線
100
AcDbLine
 10
538.5660303636675
 20
243.5234691356549
 30
0.0
 11
538.5660303636675
 21
329.4234691356549
 31
0.0
  0
LINE
  5
3B1
102
{ACAD_REACTORS
330
453
102
}
330
1F
100
AcDbEntity
  8
実線
100
AcDbLine
 10
458.5660303636675
 20
329.4234691356549
 30
0.0
 11
458.5660303636675
 21
243.5234691356549
 31
0.0
  0
LINE
  5
3B2
102
{ACAD_REACTORS
330
453
102
}
330
1F
100
AcDbEntity
  8
実線
100
AcDbLine
 10
504.5660303636675
 20
334.4234691356549
 30
0.0
 11
504.5660303636675
 21
348.9234691356549
 31
0.0
  0
LINE
  5
3B3
102
{ACAD_REACTORS
330
453
102
}
330
1F
100
AcDbEntity
  8
実線
100
AcDbLine
 10
492.5660303636675
 20
348.9234691356549
 30
0.0
 11
492.5660303636675
 21
334.4234691356549
 31
0.0
  0
CIRCLE
  5
3B4
102
{ACAD_REACTORS
330
453
102
}
330
1F
100
AcDbEntity
  8
実線
100
AcDbCircle
 10
498.5660303636676
 20
209.8234691356549
 30
0.0
 40
25.25
  0
LINE
  5
3B5
102
{ACAD_REACTORS
330
453
102
}
330
1F
100
AcDbEntity
  8
実線
100
AcDbLine
 10
519.2375687679566
 20
195.3234691356549
 30
0.0
 11
526.5660303636675
 21
195.3234691356549
 31
0.0
  0
LINE
  5
3B6
102
{ACAD_REACTORS
330
453
102
}
330
1F
100
AcDbEntity
  8
実線
100
AcDbLine
 10
526.5660303636675
 20
195.3234691356549
 30
0.0
 11
526.5660303636675
 21
230.5234691356549
 31
0.0
  0
LINE
  5
3B7
102
{ACAD_REACTORS
330
453
102
}
330
1F
100
AcDbEntity
  8
実線
100
AcDbLine
 10
477.8944919593786
 20
195.3234691356549
 30
0.0
 11
470.5660303636675
 21
195.3234691356549
 31
0.0
  0
LINE
  5
3B8
102
{ACAD_REACTORS
330
453
102
}
330
1F
100
AcDbEntity
  8
実線
100
AcDbLine
 10
470.5660303636675
 20
195.3234691356549
 30
0.0
 11
470.5660303636675
 21
230.5234691356549
 31
0.0
  0
LINE
  5
3B9
102
{ACAD_REACTORS
330
453
102
}
330
1F
100
AcDbEntity
  8
実線
100
AcDbLine
 10
470.5660303636675
 20
220.5234691356549
 30
0.0
 11
475.6952520647115
 21
220.5234691356549
 31
0.0
  0
LINE
  5
3BA
102
{ACAD_REACTORS
330
453
102
}
330
1F
100
AcDbEntity
  8
実線
100
AcDbLine
 10
526.5660303636675
 20
220.5234691356549
 30
0.0
 11
521.4368086626238
 21
220.5234691356549
 31
0.0
  0
LINE
  5
3BB
102
{ACAD_REACTORS
330
453
102
}
330
1F
100
AcDbEntity
  8
実線
100
AcDbLine
 10
484.1066908213512
 20
230.5234691356549
 30
0.0
 11
470.5660303636675
 21
230.5234691356549
 31
0.0
  0
LINE
  5
3BC
102
{ACAD_REACTORS
330
453
102
}
330
1F
100
AcDbEntity
  8
実線
100
AcDbLine
 10
526.5660303636675
 20
230.5234691356549
 30
0.0
 11
513.0253699059842
 21
230.5234691356549
 31
0.0
  0
LINE
  5
3BD
102
{ACAD_REACTORS
330
453
102
}
330
1F
100
AcDbEntity
  8
実線
100
AcDbLine
 10
479.6411663816457
 20
335.6234691356549
 30
0.0
 11
471.3754838814476
 21
335.6234691356549
 31
0.0
  0
LINE
  5
3BE
102
{ACAD_REACTORS
330
453
102
}
330
1F
100
AcDbEntity
  8
実線
100
AcDbLine
 10
471.3754838814476
 20
334.4234691356549
 30
0.0
 11
471.3754838814476
 21
335.6234691356549
 31
0.0
  0
LINE
  5
3BF
102
{ACAD_REACTORS
330
453
102
}
330
1F
100
AcDbEntity
  8
実線
100
AcDbLine
 10
533.5660303636675
 20
334.4234691356549
 30
0.0
 11
463.5660303636675
 21
334.4234691356549
 31
0.0
  0
ARC
  5
3C0
102
{ACAD_REACTORS
330
453
102
}
330
1F
100
AcDbEntity
  8
実線
100
AcDbCircle
 10
533.5660303636675
 20
329.4234691356549
 30
0.0
 40
5.0
100
AcDbArc
 50
0.0
 51
90.0
  0
ARC
  5
3C1
102
{ACAD_REACTORS
330
453
102
}
330
1F
100
AcDbEntity
  8
実線
100
AcDbCircle
 10
463.5660303636675
 20
329.4234691356549
 30
0.0
 40
5.0
100
AcDbArc
 50
90.0
 51
180.0
  0
LINE
  5
3C2
102
{ACAD_REACTORS
330
453
102
}
330
1F
100
AcDbEntity
  8
実線
100
AcDbLine
 10
490.8382645718286
 20
335.6234691356549
 30
0.0
 11
480.8395981294203
 21
335.6234691356549
 31
0.0
  0
LINE
  5
3C3
102
{ACAD_REACTORS
330
453
102
}
330
1F
100
AcDbEntity
  8
実線
100
AcDbLine
 10
490.8382645718286
 20
334.4234691356549
 30
0.0
 11
490.8382645718286
 21
335.6234691356549
 31
0.0
  0
LINE
  5
3C4
102
{ACAD_REACTORS
330
453
102
}
330
1F
100
AcDbEntity
  8
実線
100
AcDbLine
 10
490.3271827993014
 20
334.4234691356549
 30
0.0
 11
490.3271827993014
 21
335.6234691356549
 31
0.0
  0
LINE
  5
3C5
102
{ACAD_REACTORS
330
453
102
}
330
1F
100
AcDbEntity
  8
実線
100
AcDbLine
 10
458.5660303636675
 20
242.5234691356549
 30
0.0
 11
470.5660303636675
 21
230.5234691356549
 31
0.0
  0
LINE
  5
3C6
102
{ACAD_REACTORS
330
453
102
}
330
1F
100
AcDbEntity
  8
実線
100
AcDbLine
 10
538.5660303636675
 20
242.5234691356549
 30
0.0
 11
538.5660303636675
 21
243.5234691356549
 31
0.0
  0
LINE
  5
3C7
102
{ACAD_REACTORS
330
453
102
}
330
1F
100
AcDbEntity
  8
実線
100
AcDbLine
 10
458.5660303636675
 20
243.5234691356549
 30
0.0
 11
458.5660303636675
 21
242.5234691356549
 31
0.0
  0
LINE
  5
3C8
102
{ACAD_REACTORS
330
453
102
}
330
1F
100
AcDbEntity
  8
実線
100
AcDbLine
 10
538.5660303636675
 20
242.5234691356549
 30
0.0
 11
526.5660303636675
 21
230.5234691356549
 31
0.0
  0
LINE
  5
3C9
102
{ACAD_REACTORS
330
453
102
}
330
1F
100
AcDbEntity
  8
実線
100
AcDbLine
 10
538.5660303636675
 20
243.5234691356549
 30
0.0
 11
458.5660303636675
 21
243.5234691356549
 31
0.0
  0
ARC
  5
3CA
102
{ACAD_REACTORS
330
453
102
}
330
1F
100
AcDbEntity
  8
実線
100
AcDbCircle
 10
498.5660303636676
 20
202.5234691356549
 30
0.0
 40
40.0
100
AcDbArc
 50
45.0
 51
135.0
  0
LINE
  5
3CB
102
{ACAD_REACTORS
330
455
102
}
330
1F
100
AcDbEntity
  8
実線
100
AcDbLine
 10
66.8695416074853
 20
356.3734691356549
 30
0.0
 11
74.75921728033387
 21
356.3734691356549
 31
0.0
  0
LINE
  5
3CC
102
{ACAD_REACTORS
330
455
102
}
330
1F
100
AcDbEntity
  8
実線
100
AcDbLine
 10
74.75921728033387
 20
348.4734691356548
 30
0.0
 11
66.8695416074853
 21
348.4734691356548
 31
0.0
  0
LINE
  5
3CD
102
{ACAD_REACTORS
330
455
102
}
330
1F
100
AcDbEntity
  8
実線
100
AcDbLine
 10
66.8695416074853
 20
348.4734691356548
 30
0.0
 11
66.8695416074853
 21
356.3734691356549
 31
0.0
  0
LINE
  5
3CE
102
{ACAD_REACTORS
330
455
102
}
330
1F
100
AcDbEntity
  8
実線
100
AcDbLine
 10
66.8695416074853
 20
345.8734691356549
 30
0.0
 11
74.75921728033387
 21
345.8734691356549
 31
0.0
  0
LINE
  5
3CF
102
{ACAD_REACTORS
330
455
102
}
330
1F
100
AcDbEntity
  8
実線
100
AcDbLine
 10
66.8695416074853
 20
337.9734691356548
 30
0.0
 11
66.8695416074853
 21
345.8734691356549
 31
0.0
  0
LINE
  5
3D0
102
{ACAD_REACTORS
330
455
102
}
330
1F
100
AcDbEntity
  8
実線
100
AcDbLine
 10
74.75921728033387
 20
337.9734691356548
 30
0.0
 11
66.8695416074853
 21
337.9734691356548
 31
0.0
  0
CIRCLE
  5
3D1
102
{ACAD_REACTORS
330
455
102
}
330
1F
100
AcDbEntity
  8
実線
100
AcDbCircle
 10
58.56603036366767
 20
209.8234691356548
 30
0.0
 40
25.25
  0
LINE
  5
3D2
102
{ACAD_REACTORS
330
455
102
}
330
1F
100
AcDbEntity
  8
実線
100
AcDbLine
 10
71.26603036366765
 20
187.8234691356548
 30
0.0
 11
71.26603036366765
 21
187.9998007914008
 31
0.0
  0
LINE
  5
3D3
102
{ACAD_REACTORS
330
455
102
}
330
1F
100
AcDbEntity
  8
実線
100
AcDbLine
 10
45.86603036366767
 20
187.9998007914008
 30
0.0
 11
45.86603036366767
 21
187.8234691356548
 31
0.0
  0
LINE
  5
3D4
102
{ACAD_REACTORS
330
455
102
}
330
1F
100
AcDbEntity
  8
実線
100
AcDbLine
 10
83.81603036366767
 20
179.8234691356548
 30
0.0
 11
83.81603036366767
 21
182.6734691356548
 31
0.0
  0
LINE
  5
3D5
102
{ACAD_REACTORS
330
455
102
}
330
1F
100
AcDbEntity
  8
実線
100
AcDbLine
 10
33.31603036366769
 20
182.6734691356548
 30
0.0
 11
33.31603036366769
 21
179.8234691356548
 31
0.0
  0
LINE
  5
3D6
102
{ACAD_REACTORS
330
455
102
}
330
1F
100
AcDbEntity
  8
実線
100
AcDbLine
 10
33.31603036366769
 20
179.8234691356548
 30
0.0
 11
83.81603036366767
 21
179.8234691356548
 31
0.0
  0
LINE
  5
3D7
102
{ACAD_REACTORS
330
455
102
}
330
1F
100
AcDbEntity
  8
実線
100
AcDbLine
 10
45.86603036366767
 20
187.8234691356548
 30
0.0
 11
33.31603036366769
 21
182.6734691356548
 31
0.0
  0
LINE
  5
3D8
102
{ACAD_REACTORS
330
455
102
}
330
1F
100
AcDbEntity
  8
実線
100
AcDbLine
 10
83.81603036366767
 20
182.6734691356548
 30
0.0
 11
71.26603036366765
 21
187.8234691356548
 31
0.0
  0
LINE
  5
3D9
102
{ACAD_REACTORS
330
455
102
}
330
1F
100
AcDbEntity
  8
実線
100
AcDbLine
 10
33.31603036366769
 20
182.6734691356548
 30
0.0
 11
83.81603036366767
 21
182.6734691356548
 31
0.0
  0
LINE
  5
3DA
102
{ACAD_REACTORS
330
455
102
}
330
1F
100
AcDbEntity
  8
実線
100
AcDbLine
 10
70.95806409506138
 20
187.8234691356548
 30
0.0
 11
71.26603036366765
 21
187.8234691356548
 31
0.0
  0
LINE
  5
3DB
102
{ACAD_REACTORS
330
455
102
}
330
1F
100
AcDbEntity
  8
実線
100
AcDbLine
 10
45.86603036366767
 20
187.8234691356548
 30
0.0
 11
46.17399663227397
 21
187.8234691356548
 31
0.0
  0
LINE
  5
3DC
102
{ACAD_REACTORS
330
455
102
}
330
1F
100
AcDbEntity
  8
実線
100
AcDbLine
 10
77.49089434568952
 20
335.6234691356549
 30
0.0
 11
77.49089434568952
 21
359.4234691356549
 31
0.0
  0
LINE
  5
3DD
102
{ACAD_REACTORS
330
455
102
}
330
1F
100
AcDbEntity
  8
実線
100
AcDbLine
 10
77.49089434568952
 20
359.4234691356549
 30
0.0
 11
74.75921728033387
 21
359.4234691356549
 31
0.0
  0
LINE
  5
3DE
102
{ACAD_REACTORS
330
455
102
}
330
1F
100
AcDbEntity
  8
実線
100
AcDbLine
 10
75.95764902810834
 20
359.4234691356549
 30
0.0
 11
75.95764902810834
 21
334.4234691356549
 31
0.0
  0
LINE
  5
3DF
102
{ACAD_REACTORS
330
455
102
}
330
1F
100
AcDbEntity
  8
実線
100
AcDbLine
 10
74.75921728033387
 20
359.4234691356549
 30
0.0
 11
74.75921728033387
 21
334.4234691356549
 31
0.0
  0
LINE
  5
3E0
102
{ACAD_REACTORS
330
455
102
}
330
1F
100
AcDbEntity
  8
実線
100
AcDbLine
 10
66.56603036366766
 20
348.9234691356549
 30
0.0
 11
66.56603036366766
 21
355.4234691356549
 31
0.0
  0
LINE
  5
3E1
102
{ACAD_REACTORS
330
455
102
}
330
1F
100
AcDbEntity
  8
実線
100
AcDbLine
 10
50.56603036366763
 20
355.4234691356549
 30
0.0
 11
50.56603036366763
 21
348.9234691356549
 31
0.0
  0
LINE
  5
3E2
102
{ACAD_REACTORS
330
455
102
}
330
1F
100
AcDbEntity
  8
実線
100
AcDbLine
 10
66.56603036366766
 20
355.4234691356549
 30
0.0
 11
50.56603036366763
 21
355.4234691356549
 31
0.0
  0
LINE
  5
3E3
102
{ACAD_REACTORS
330
455
102
}
330
1F
100
AcDbEntity
  8
実線
100
AcDbLine
 10
50.56603036366763
 20
348.9234691356549
 30
0.0
 11
66.56603036366766
 21
348.9234691356549
 31
0.0
  0
LINE
  5
3E4
102
{ACAD_REACTORS
330
455
102
}
330
1F
100
AcDbEntity
  8
実線
100
AcDbLine
 10
98.56603036366767
 20
243.5234691356549
 30
0.0
 11
98.56603036366767
 21
329.4234691356548
 31
0.0
  0
LINE
  5
3E5
102
{ACAD_REACTORS
330
455
102
}
330
1F
100
AcDbEntity
  8
実線
100
AcDbLine
 10
18.56603036366755
 20
329.4234691356548
 30
0.0
 11
18.56603036366755
 21
243.5234691356549
 31
0.0
  0
LINE
  5
3E6
102
{ACAD_REACTORS
330
455
102
}
330
1F
100
AcDbEntity
  8
実線
100
AcDbLine
 10
98.56603036366767
 20
329.4234691356548
 30
0.0
 11
18.56603036366755
 21
329.4234691356548
 31
0.0
  0
LINE
  5
3E7
102
{ACAD_REACTORS
330
455
102
}
330
1F
100
AcDbEntity
  8
実線
100
AcDbLine
 10
98.56603036366767
 20
243.5234691356549
 30
0.0
 11
18.56603036366755
 21
243.5234691356549
 31
0.0
  0
LINE
  5
3E8
102
{ACAD_REACTORS
330
455
102
}
330
1F
100
AcDbEntity
  8
実線
100
AcDbLine
 10
64.56603036366766
 20
334.4234691356549
 30
0.0
 11
64.56603036366766
 21
348.9234691356549
 31
0.0
  0
LINE
  5
3E9
102
{ACAD_REACTORS
330
455
102
}
330
1F
100
AcDbEntity
  8
実線
100
AcDbLine
 10
52.56603036366763
 20
348.9234691356549
 30
0.0
 11
52.56603036366763
 21
334.4234691356549
 31
0.0
  0
LINE
  5
3EA
102
{ACAD_REACTORS
330
455
102
}
330
1F
100
AcDbEntity
  8
実線
100
AcDbLine
 10
86.56603036366766
 20
195.3234691356548
 30
0.0
 11
86.56603036366766
 21
230.5234691356549
 31
0.0
  0
LINE
  5
3EB
102
{ACAD_REACTORS
330
455
102
}
330
1F
100
AcDbEntity
  8
実線
100
AcDbLine
 10
79.23756876795676
 20
195.3234691356548
 30
0.0
 11
86.56603036366766
 21
195.3234691356548
 31
0.0
  0
LINE
  5
3EC
102
{ACAD_REACTORS
330
455
102
}
330
1F
100
AcDbEntity
  8
実線
100
AcDbLine
 10
30.56603036366769
 20
195.3234691356548
 30
0.0
 11
30.56603036366769
 21
230.5234691356549
 31
0.0
  0
LINE
  5
3ED
102
{ACAD_REACTORS
330
455
102
}
330
1F
100
AcDbEntity
  8
実線
100
AcDbLine
 10
37.89449195937848
 20
195.3234691356548
 30
0.0
 11
30.56603036366769
 21
195.3234691356548
 31
0.0
  0
LINE
  5
3EE
102
{ACAD_REACTORS
330
455
102
}
330
1F
100
AcDbEntity
  8
実線
100
AcDbLine
 10
86.56603036366766
 20
220.5234691356549
 30
0.0
 11
81.43680866262366
 21
220.5234691356549
 31
0.0
  0
LINE
  5
3EF
102
{ACAD_REACTORS
330
455
102
}
330
1F
100
AcDbEntity
  8
実線
100
AcDbLine
 10
30.56603036366769
 20
220.5234691356549
 30
0.0
 11
35.69525206471158
 21
220.5234691356549
 31
0.0
  0
LINE
  5
3F0
102
{ACAD_REACTORS
330
455
102
}
330
1F
100
AcDbEntity
  8
実線
100
AcDbLine
 10
44.10669082135109
 20
230.5234691356549
 30
0.0
 11
30.56603036366769
 21
230.5234691356549
 31
0.0
  0
LINE
  5
3F1
102
{ACAD_REACTORS
330
455
102
}
330
1F
100
AcDbEntity
  8
実線
100
AcDbLine
 10
75.95764902810834
 20
335.6234691356549
 30
0.0
 11
85.7565768458876
 21
335.6234691356549
 31
0.0
  0
LINE
  5
3F2
102
{ACAD_REACTORS
330
455
102
}
330
1F
100
AcDbEntity
  8
実線
100
AcDbLine
 10
85.7565768458876
 20
334.4234691356549
 30
0.0
 11
85.7565768458876
 21
335.6234691356549
 31
0.0
  0
LINE
  5
3F3
102
{ACAD_REACTORS
330
455
102
}
330
1F
100
AcDbEntity
  8
実線
100
AcDbLine
 10
85.24549507336059
 20
334.4234691356549
 30
0.0
 11
85.24549507336059
 21
335.6234691356549
 31
0.0
  0
LINE
  5
3F4
102
{ACAD_REACTORS
330
455
102
}
330
1F
100
AcDbEntity
  8
実線
100
AcDbLine
 10
23.56603036366769
 20
334.4234691356549
 30
0.0
 11
93.56603036366767
 21
334.4234691356549
 31
0.0
  0
ARC
  5
3F5
102
{ACAD_REACTORS
330
455
102
}
330
1F
100
AcDbEntity
  8
実線
100
AcDbCircle
 10
93.56603036366767
 20
329.4234691356548
 30
0.0
 40
5.0
100
AcDbArc
 50
0.0
 51
90.0
  0
ARC
  5
3F6
102
{ACAD_REACTORS
330
455
102
}
330
1F
100
AcDbEntity
  8
実線
100
AcDbCircle
 10
23.56603036366769
 20
329.4234691356548
 30
0.0
 40
5.0
100
AcDbArc
 50
90.0
 51
180.0
  0
LINE
  5
3F7
102
{ACAD_REACTORS
330
455
102
}
330
1F
100
AcDbEntity
  8
実線
100
AcDbLine
 10
74.75921728033387
 20
335.6234691356549
 30
0.0
 11
66.2937961555067
 21
335.6234691356549
 31
0.0
  0
LINE
  5
3F8
102
{ACAD_REACTORS
330
455
102
}
330
1F
100
AcDbEntity
  8
実線
100
AcDbLine
 10
66.2937961555067
 20
334.4234691356549
 30
0.0
 11
66.2937961555067
 21
335.6234691356549
 31
0.0
  0
LINE
  5
3F9
102
{ACAD_REACTORS
330
455
102
}
330
1F
100
AcDbEntity
  8
実線
100
AcDbLine
 10
30.56603036366769
 20
230.5234691356549
 30
0.0
 11
18.56603036366755
 21
242.5234691356549
 31
0.0
  0
LINE
  5
3FA
102
{ACAD_REACTORS
330
455
102
}
330
1F
100
AcDbEntity
  8
実線
100
AcDbLine
 10
73.02536990598423
 20
230.5234691356549
 30
0.0
 11
86.56603036366766
 21
230.5234691356549
 31
0.0
  0
LINE
  5
3FB
102
{ACAD_REACTORS
330
455
102
}
330
1F
100
AcDbEntity
  8
実線
100
AcDbLine
 10
86.56603036366766
 20
230.5234691356549
 30
0.0
 11
98.56603036366767
 21
242.5234691356549
 31
0.0
  0
ARC
  5
3FC
102
{ACAD_REACTORS
330
455
102
}
330
1F
100
AcDbEntity
  8
実線
100
AcDbCircle
 10
58.56603036366767
 20
202.5234691356549
 30
0.0
 40
40.0
100
AcDbArc
 50
45.0
 51
135.0
  0
LINE
  5
3FD
102
{ACAD_REACTORS
330
455
102
}
330
1F
100
AcDbEntity
  8
実線
100
AcDbLine
 10
98.56603036366767
 20
242.5234691356549
 30
0.0
 11
98.56603036366767
 21
243.5234691356549
 31
0.0
  0
LINE
  5
3FE
102
{ACAD_REACTORS
330
455
102
}
330
1F
100
AcDbEntity
  8
実線
100
AcDbLine
 10
18.56603036366755
 20
243.5234691356549
 30
0.0
 11
18.56603036366755
 21
242.5234691356549
 31
0.0
  0
LINE
  5
3FF
102
{ACAD_REACTORS
330
454
102
}
330
1F
100
AcDbEntity
  8
実線
100
AcDbLine
 10
301.8389620043352
 20
350.9234691356549
 30
0.0
 11
303.5388789892015
 21
350.9234691356549
 31
0.0
  0
LINE
  5
400
102
{ACAD_REACTORS
330
454
102
}
330
1F
100
AcDbEntity
  8
実線
100
AcDbLine
 10
303.5388789892015
 20
353.9234691356548
 30
0.0
 11
301.8389620043352
 21
353.9234691356548
 31
0.0
  0
ELLIPSE
  5
401
102
{ACAD_REACTORS
330
454
102
}
330
1F
100
AcDbEntity
  8
実線
100
AcDbEllipse
 10
303.5388789892015
 20
352.4234691356548
 30
0.0
 11
0.0
 21
1.5
 31
0.0
210
0.0
220
0.0
230
1.0
 40
0.051108177252701
 41
3.14159265358979
 42
6.283185307179584
  0
ELLIPSE
  5
402
102
{ACAD_REACTORS
330
454
102
}
330
1F
100
AcDbEntity
  8
実線
100
AcDbEllipse
 10
303.5388789892015
 20
352.4234691356548
 30
0.0
 11
0.0
 21
1.5
 31
0.0
210
0.0
220
0.0
230
1.0
 40
0.051108177252701
 41
1.570796326794897
 42
3.14159265358979
  0
ELLIPSE
  5
403
102
{ACAD_REACTORS
330
454
102
}
330
1F
100
AcDbEntity
  8
実線
100
AcDbEllipse
 10
303.5388789892015
 20
352.4234691356548
 30
0.0
 11
0.0
 21
1.5
 31
0.0
210
0.0
220
0.0
230
1.0
 40
0.051108177252701
 41
0.0
 42
1.570796326794897
  0
ELLIPSE
  5
404
102
{ACAD_REACTORS
330
454
102
}
330
1F
100
AcDbEntity
  8
実線
100
AcDbEllipse
 10
303.5388789892015
 20
341.9234691356548
 30
0.0
 11
0.0
 21
1.5
 31
0.0
210
0.0
220
0.0
230
1.0
 40
0.051108177252701
 41
0.0
 42
1.570796326794897
  0
LINE
  5
405
102
{ACAD_REACTORS
330
454
102
}
330
1F
100
AcDbEntity
  8
実線
100
AcDbLine
 10
301.8389620043352
 20
340.4234691356549
 30
0.0
 11
303.5388789892015
 21
340.4234691356549
 31
0.0
  0
LINE
  5
406
102
{ACAD_REACTORS
330
454
102
}
330
1F
100
AcDbEntity
  8
実線
100
AcDbLine
 10
303.5388789892015
 20
343.4234691356548
 30
0.0
 11
301.8389620043352
 21
343.4234691356548
 31
0.0
  0
ELLIPSE
  5
407
102
{ACAD_REACTORS
330
454
102
}
330
1F
100
AcDbEntity
  8
実線
100
AcDbEllipse
 10
303.5388789892015
 20
341.9234691356548
 30
0.0
 11
0.0
 21
1.5
 31
0.0
210
0.0
220
0.0
230
1.0
 40
0.051108177252701
 41
3.14159265358979
 42
6.283185307179584
  0
ELLIPSE
  5
408
102
{ACAD_REACTORS
330
454
102
}
330
1F
100
AcDbEntity
  8
実線
100
AcDbEllipse
 10
303.5388789892015
 20
341.9234691356548
 30
0.0
 11
0.0
 21
1.5
 31
0.0
210
0.0
220
0.0
230
1.0
 40
0.051108177252701
 41
1.570796326794897
 42
3.14159265358979
  0
LINE
  5
409
102
{ACAD_REACTORS
330
454
102
}
330
1F
100
AcDbEntity
  8
実線
100
AcDbLine
 10
231.5660303636677
 20
197.1234691356548
 30
0.0
 11
250.5660303636678
 21
197.1234691356548
 31
0.0
  0
LINE
  5
40A
102
{ACAD_REACTORS
330
454
102
}
330
1F
100
AcDbEntity
  8
実線
100
AcDbLine
 10
250.5660303636678
 20
222.5234691356549
 30
0.0
 11
231.5660303636677
 21
222.5234691356549
 31
0.0
  0
LINE
  5
40B
102
{ACAD_REACTORS
330
454
102
}
330
1F
100
AcDbEntity
  8
実線
100
AcDbLine
 10
231.5660303636677
 20
222.5234691356549
 30
0.0
 11
226.4160303636677
 21
235.0734691356548
 31
0.0
  0
LINE
  5
40C
102
{ACAD_REACTORS
330
454
102
}
330
1F
100
AcDbEntity
  8
実線
100
AcDbLine
 10
226.4160303636677
 20
184.5734691356548
 30
0.0
 11
231.5660303636677
 21
197.1234691356548
 31
0.0
  0
LINE
  5
40D
102
{ACAD_REACTORS
330
454
102
}
330
1F
100
AcDbEntity
  8
実線
100
AcDbLine
 10
231.5660303636677
 20
222.5234691356549
 30
0.0
 11
231.5660303636677
 21
197.1234691356548
 31
0.0
  0
LINE
  5
40E
102
{ACAD_REACTORS
330
454
102
}
330
1F
100
AcDbEntity
  8
実線
100
AcDbLine
 10
223.5660303636677
 20
184.5734691356548
 30
0.0
 11
226.4160303636677
 21
184.5734691356548
 31
0.0
  0
LINE
  5
40F
102
{ACAD_REACTORS
330
454
102
}
330
1F
100
AcDbEntity
  8
実線
100
AcDbLine
 10
226.4160303636677
 20
235.0734691356548
 30
0.0
 11
223.5660303636677
 21
235.0734691356548
 31
0.0
  0
LINE
  5
410
102
{ACAD_REACTORS
330
454
102
}
330
1F
100
AcDbEntity
  8
実線
100
AcDbLine
 10
223.5660303636677
 20
184.5734691356548
 30
0.0
 11
223.5660303636677
 21
235.0734691356548
 31
0.0
  0
LINE
  5
411
102
{ACAD_REACTORS
330
454
102
}
330
1F
100
AcDbEntity
  8
実線
100
AcDbLine
 10
226.4160303636677
 20
184.5734691356548
 30
0.0
 11
226.4160303636677
 21
235.0734691356548
 31
0.0
  0
LINE
  5
412
102
{ACAD_REACTORS
330
454
102
}
330
1F
100
AcDbEntity
  8
実線
100
AcDbLine
 10
291.2660303636678
 20
187.8234691356548
 30
0.0
 11
291.2660303636678
 21
195.3234691356548
 31
0.0
  0
LINE
  5
413
102
{ACAD_REACTORS
330
454
102
}
330
1F
100
AcDbEntity
  8
実線
100
AcDbLine
 10
265.8660303636677
 20
195.3234691356548
 30
0.0
 11
265.8660303636677
 21
187.8234691356548
 31
0.0
  0
LINE
  5
414
102
{ACAD_REACTORS
330
454
102
}
330
1F
100
AcDbEntity
  8
実線
100
AcDbLine
 10
265.8660303636677
 20
187.8234691356548
 30
0.0
 11
253.3160303636678
 21
182.6734691356548
 31
0.0
  0
LINE
  5
415
102
{ACAD_REACTORS
330
454
102
}
330
1F
100
AcDbEntity
  8
実線
100
AcDbLine
 10
303.8160303636677
 20
182.6734691356548
 30
0.0
 11
291.2660303636678
 21
187.8234691356548
 31
0.0
  0
LINE
  5
416
102
{ACAD_REACTORS
330
454
102
}
330
1F
100
AcDbEntity
  8
実線
100
AcDbLine
 10
265.8660303636677
 20
187.8234691356548
 30
0.0
 11
291.2660303636678
 21
187.8234691356548
 31
0.0
  0
LINE
  5
417
102
{ACAD_REACTORS
330
454
102
}
330
1F
100
AcDbEntity
  8
実線
100
AcDbLine
 10
303.8160303636677
 20
179.8234691356548
 30
0.0
 11
303.8160303636677
 21
182.6734691356548
 31
0.0
  0
LINE
  5
418
102
{ACAD_REACTORS
330
454
102
}
330
1F
100
AcDbEntity
  8
実線
100
AcDbLine
 10
253.3160303636678
 20
182.6734691356548
 30
0.0
 11
253.3160303636678
 21
179.8234691356548
 31
0.0
  0
LINE
  5
419
102
{ACAD_REACTORS
330
454
102
}
330
1F
100
AcDbEntity
  8
実線
100
AcDbLine
 10
303.8160303636677
 20
179.8234691356548
 30
0.0
 11
253.3160303636678
 21
179.8234691356548
 31
0.0
  0
LINE
  5
41A
102
{ACAD_REACTORS
330
454
102
}
330
1F
100
AcDbEntity
  8
実線
100
AcDbLine
 10
303.8160303636677
 20
182.6734691356548
 30
0.0
 11
253.3160303636678
 21
182.6734691356548
 31
0.0
  0
LINE
  5
41B
102
{ACAD_REACTORS
330
454
102
}
330
1F
100
AcDbEntity
  8
実線
100
AcDbLine
 10
301.8389620043352
 20
359.4234691356549
 30
0.0
 11
301.8389620043352
 21
334.4234691356549
 31
0.0
  0
LINE
  5
41C
102
{ACAD_REACTORS
330
454
102
}
330
1F
100
AcDbEntity
  8
実線
100
AcDbLine
 10
301.8389620043352
 20
359.4234691356549
 30
0.0
 11
271.8168384972701
 21
359.4234691356549
 31
0.0
  0
LINE
  5
41D
102
{ACAD_REACTORS
330
454
102
}
330
1F
100
AcDbEntity
  8
実線
100
AcDbLine
 10
301.7776321916319
 20
334.4234691356549
 30
0.0
 11
301.7776321916319
 21
359.4234691356549
 31
0.0
  0
LINE
  5
41E
102
{ACAD_REACTORS
330
454
102
}
330
1F
100
AcDbEntity
  8
実線
100
AcDbLine
 10
271.8168384972701
 20
335.6234691356549
 30
0.0
 11
271.8168384972701
 21
359.4234691356549
 31
0.0
  0
LINE
  5
41F
102
{ACAD_REACTORS
330
454
102
}
330
1F
100
AcDbEntity
  8
実線
100
AcDbLine
 10
270.5660303636678
 20
355.4234691356549
 30
0.0
 11
270.5660303636678
 21
348.9234691356549
 31
0.0
  0
LINE
  5
420
102
{ACAD_REACTORS
330
454
102
}
330
1F
100
AcDbEntity
  8
実線
100
AcDbLine
 10
271.8168384972701
 20
355.4234691356549
 30
0.0
 11
270.5660303636678
 21
355.4234691356549
 31
0.0
  0
LINE
  5
421
102
{ACAD_REACTORS
330
454
102
}
330
1F
100
AcDbEntity
  8
実線
100
AcDbLine
 10
271.8168384972701
 20
348.9234691356549
 30
0.0
 11
270.5660303636678
 21
348.9234691356549
 31
0.0
  0
LINE
  5
422
102
{ACAD_REACTORS
330
454
102
}
330
1F
100
AcDbEntity
  8
実線
100
AcDbLine
 10
318.5660303636677
 20
243.5234691356549
 30
0.0
 11
238.5660303636678
 21
243.5234691356549
 31
0.0
  0
LINE
  5
423
102
{ACAD_REACTORS
330
454
102
}
330
1F
100
AcDbEntity
  8
実線
100
AcDbLine
 10
318.5660303636677
 20
243.5234691356549
 30
0.0
 11
318.5660303636677
 21
329.4234691356548
 31
0.0
  0
LINE
  5
424
102
{ACAD_REACTORS
330
454
102
}
330
1F
100
AcDbEntity
  8
実線
100
AcDbLine
 10
238.5660303636678
 20
329.4234691356548
 30
0.0
 11
238.5660303636678
 21
243.5234691356549
 31
0.0
  0
LINE
  5
425
102
{ACAD_REACTORS
330
454
102
}
330
1F
100
AcDbEntity
  8
実線
100
AcDbLine
 10
318.5660303636677
 20
329.4234691356548
 30
0.0
 11
238.5660303636678
 21
329.4234691356548
 31
0.0
  0
LINE
  5
426
102
{ACAD_REACTORS
330
454
102
}
330
1F
100
AcDbEntity
  8
実線
100
AcDbLine
 10
325.5660303636679
 20
222.5234691356549
 30
0.0
 11
306.5660303636678
 21
222.5234691356549
 31
0.0
  0
LINE
  5
427
102
{ACAD_REACTORS
330
454
102
}
330
1F
100
AcDbEntity
  8
実線
100
AcDbLine
 10
306.5660303636678
 20
197.1234691356548
 30
0.0
 11
325.5660303636679
 21
197.1234691356548
 31
0.0
  0
LINE
  5
428
102
{ACAD_REACTORS
330
454
102
}
330
1F
100
AcDbEntity
  8
実線
100
AcDbLine
 10
333.5660303636679
 20
184.5734691356548
 30
0.0
 11
333.5660303636679
 21
235.0734691356548
 31
0.0
  0
LINE
  5
429
102
{ACAD_REACTORS
330
454
102
}
330
1F
100
AcDbEntity
  8
実線
100
AcDbLine
 10
333.5660303636679
 20
235.0734691356548
 30
0.0
 11
330.7160303636678
 21
235.0734691356548
 31
0.0
  0
LINE
  5
42A
102
{ACAD_REACTORS
330
454
102
}
330
1F
100
AcDbEntity
  8
実線
100
AcDbLine
 10
330.7160303636678
 20
184.5734691356548
 30
0.0
 11
333.5660303636679
 21
184.5734691356548
 31
0.0
  0
LINE
  5
42B
102
{ACAD_REACTORS
330
454
102
}
330
1F
100
AcDbEntity
  8
実線
100
AcDbLine
 10
330.7160303636678
 20
184.5734691356548
 30
0.0
 11
330.7160303636678
 21
235.0734691356548
 31
0.0
  0
LINE
  5
42C
102
{ACAD_REACTORS
330
454
102
}
330
1F
100
AcDbEntity
  8
実線
100
AcDbLine
 10
325.5660303636679
 20
197.1234691356548
 30
0.0
 11
325.5660303636679
 21
222.5234691356549
 31
0.0
  0
LINE
  5
42D
102
{ACAD_REACTORS
330
454
102
}
330
1F
100
AcDbEntity
  8
実線
100
AcDbLine
 10
325.5660303636679
 20
197.1234691356548
 30
0.0
 11
330.7160303636678
 21
184.5734691356548
 31
0.0
  0
LINE
  5
42E
102
{ACAD_REACTORS
330
454
102
}
330
1F
100
AcDbEntity
  8
実線
100
AcDbLine
 10
330.7160303636678
 20
235.0734691356548
 30
0.0
 11
325.5660303636679
 21
222.5234691356549
 31
0.0
  0
LINE
  5
42F
102
{ACAD_REACTORS
330
454
102
}
330
1F
100
AcDbEntity
  8
実線
100
AcDbLine
 10
250.5660303636678
 20
195.3234691356548
 30
0.0
 11
306.5660303636677
 21
195.3234691356548
 31
0.0
  0
LINE
  5
430
102
{ACAD_REACTORS
330
454
102
}
330
1F
100
AcDbEntity
  8
実線
100
AcDbLine
 10
250.5660303636678
 20
195.3234691356548
 30
0.0
 11
250.5660303636678
 21
230.5234691356549
 31
0.0
  0
LINE
  5
431
102
{ACAD_REACTORS
330
454
102
}
330
1F
100
AcDbEntity
  8
実線
100
AcDbLine
 10
306.5660303636677
 20
195.3234691356548
 30
0.0
 11
306.5660303636677
 21
230.5234691356549
 31
0.0
  0
LINE
  5
432
102
{ACAD_REACTORS
330
454
102
}
330
1F
100
AcDbEntity
  8
実線
100
AcDbLine
 10
284.5660303636678
 20
220.5234691356549
 30
0.0
 11
306.5660303636677
 21
220.5234691356549
 31
0.0
  0
LINE
  5
433
102
{ACAD_REACTORS
330
454
102
}
330
1F
100
AcDbEntity
  8
実線
100
AcDbLine
 10
306.5660303636677
 20
230.5234691356549
 30
0.0
 11
250.5660303636678
 21
230.5234691356549
 31
0.0
  0
LINE
  5
434
102
{ACAD_REACTORS
330
454
102
}
330
1F
100
AcDbEntity
  8
実線
100
AcDbLine
 10
272.5660303636677
 20
220.5234691356549
 30
0.0
 11
250.5660303636678
 21
220.5234691356549
 31
0.0
  0
LINE
  5
435
102
{ACAD_REACTORS
330
454
102
}
330
1F
100
AcDbEntity
  8
実線
100
AcDbLine
 10
284.5660303636678
 20
195.3234691356548
 30
0.0
 11
284.5660303636678
 21
220.5234691356549
 31
0.0
  0
LINE
  5
436
102
{ACAD_REACTORS
330
454
102
}
330
1F
100
AcDbEntity
  8
実線
100
AcDbLine
 10
272.5660303636677
 20
195.3234691356548
 30
0.0
 11
272.5660303636677
 21
220.5234691356549
 31
0.0
  0
LINE
  5
437
102
{ACAD_REACTORS
330
454
102
}
330
1F
100
AcDbEntity
  8
実線
100
AcDbLine
 10
281.803769728724
 20
335.6234691356549
 30
0.0
 11
271.34153244882
 21
335.6234691356549
 31
0.0
  0
LINE
  5
438
102
{ACAD_REACTORS
330
454
102
}
330
1F
100
AcDbEntity
  8
実線
100
AcDbLine
 10
281.803769728724
 20
334.4234691356549
 30
0.0
 11
281.803769728724
 21
335.6234691356549
 31
0.0
  0
LINE
  5
439
102
{ACAD_REACTORS
330
454
102
}
330
1F
100
AcDbEntity
  8
実線
100
AcDbLine
 10
281.3284636802738
 20
334.4234691356549
 30
0.0
 11
281.3284636802738
 21
335.6234691356549
 31
0.0
  0
LINE
  5
43A
102
{ACAD_REACTORS
330
454
102
}
330
1F
100
AcDbEntity
  8
実線
100
AcDbLine
 10
271.34153244882
 20
334.4234691356549
 30
0.0
 11
271.34153244882
 21
335.6234691356549
 31
0.0
  0
LINE
  5
43B
102
{ACAD_REACTORS
330
454
102
}
330
1F
100
AcDbEntity
  8
実線
100
AcDbLine
 10
313.5660303636678
 20
334.4234691356549
 30
0.0
 11
243.5660303636677
 21
334.4234691356549
 31
0.0
  0
ARC
  5
43C
102
{ACAD_REACTORS
330
454
102
}
330
1F
100
AcDbEntity
  8
実線
100
AcDbCircle
 10
313.5660303636678
 20
329.4234691356548
 30
0.0
 40
5.0
100
AcDbArc
 50
0.0
 51
90.0
  0
ARC
  5
43D
102
{ACAD_REACTORS
330
454
102
}
330
1F
100
AcDbEntity
  8
実線
100
AcDbCircle
 10
243.5660303636677
 20
329.4234691356548
 30
0.0
 40
5.0
100
AcDbArc
 50
90.0
 51
180.0
  0
LINE
  5
43E
102
{ACAD_REACTORS
330
454
102
}
330
1F
100
AcDbEntity
  8
実線
100
AcDbLine
 10
302.3244896882358
 20
334.4234691356549
 30
0.0
 11
302.3244896882358
 21
335.6234691356549
 31
0.0
  0
LINE
  5
43F
102
{ACAD_REACTORS
330
454
102
}
330
1F
100
AcDbEntity
  8
実線
100
AcDbLine
 10
302.3244896882358
 20
335.6234691356549
 30
0.0
 11
301.8389620043352
 21
335.6234691356549
 31
0.0
  0
LINE
  5
440
102
{ACAD_REACTORS
330
454
102
}
330
1F
100
AcDbEntity
  8
実線
100
AcDbLine
 10
250.5660303636678
 20
230.5234691356549
 30
0.0
 11
238.5660303636678
 21
242.5234691356549
 31
0.0
  0
LINE
  5
441
102
{ACAD_REACTORS
330
454
102
}
330
1F
100
AcDbEntity
  8
実線
100
AcDbLine
 10
306.5660303636677
 20
230.5234691356549
 30
0.0
 11
318.5660303636678
 21
242.5234691356547
 31
0.0
  0
ARC
  5
442
102
{ACAD_REACTORS
330
454
102
}
330
1F
100
AcDbEntity
  8
実線
100
AcDbCircle
 10
278.5660303636677
 20
202.5234691356549
 30
0.0
 40
40.0
100
AcDbArc
 50
45.0
 51
135.0
  0
LINE
  5
443
102
{ACAD_REACTORS
330
454
102
}
330
1F
100
AcDbEntity
  8
実線
100
AcDbLine
 10
318.5660303636677
 20
242.5234691356549
 30
0.0
 11
318.5660303636677
 21
243.5234691356549
 31
0.0
  0
LINE
  5
444
102
{ACAD_REACTORS
330
454
102
}
330
1F
100
AcDbEntity
  8
実線
100
AcDbLine
 10
238.5660303636678
 20
243.5234691356549
 30
0.0
 11
238.5660303636678
 21
242.5234691356549
 31
0.0
  0
LINE
  5
445
102
{ACAD_REACTORS
330
451
102
}
330
1F
100
AcDbEntity
  8
中心線
100
AcDbLine
 10
221.5660303636677
 20
49.82346913565485
 30
0.0
 11
335.5660303636676
 21
49.82346913565482
 31
0.0
  0
LINE
  5
446
102
{ACAD_REACTORS
330
451
102
}
330
1F
100
AcDbEntity
  8
中心線
100
AcDbLine
 10
278.5660303636678
 20
4.823469135654704
 30
0.0
 11
278.5660303636678
 21
94.8234691356547
 31
0.0
  0
LINE
  5
447
102
{ACAD_REACTORS
330
4A3
102
}
330
1F
100
AcDbEntity
  8
中心線
100
AcDbLine
 10
221.5660303636677
 20
489.8234691356549
 30
0.0
 11
335.5660303636678
 21
489.8234691356549
 31
0.0
  0
LINE
  5
448
102
{ACAD_REACTORS
330
4A3
102
}
330
1F
100
AcDbEntity
  8
中心線
100
AcDbLine
 10
278.5660303636677
 20
444.8234691356548
 30
0.0
 11
278.5660303636677
 21
534.8234691356548
 31
0.0
  0
LINE
  5
449
102
{ACAD_REACTORS
330
452
102
}
330
1F
100
AcDbEntity
  8
中心線
100
AcDbLine
 10
718.5660303636677
 20
164.8234691356549
 30
0.0
 11
718.5660303636677
 21
366.591614142696
 31
0.0
  0
LINE
  5
44A
102
{ACAD_REACTORS
330
452
102
}
330
1F
100
AcDbEntity
  8
中心線
100
AcDbLine
 10
661.5660303636675
 20
209.8234691356549
 30
0.0
 11
775.5660303636675
 21
209.8234691356549
 31
0.0
  0
LINE
  5
44B
102
{ACAD_REACTORS
330
453
102
}
330
1F
100
AcDbEntity
  8
中心線
100
AcDbLine
 10
498.5660303636676
 20
164.8234691356549
 30
0.0
 11
498.5660303636676
 21
366.591614142696
 31
0.0
  0
LINE
  5
44C
102
{ACAD_REACTORS
330
453
102
}
330
1F
100
AcDbEntity
  8
中心線
100
AcDbLine
 10
453.5660303636675
 20
209.8234691356549
 30
0.0
 11
543.5660303636675
 21
209.8234691356549
 31
0.0
  0
LINE
  5
44D
102
{ACAD_REACTORS
330
454
102
}
330
1F
100
AcDbEntity
  8
中心線
100
AcDbLine
 10
278.5660303636677
 20
164.8234691356548
 30
0.0
 11
278.5660303636677
 21
366.591614142696
 31
0.0
  0
LINE
  5
44E
102
{ACAD_REACTORS
330
454
102
}
330
1F
100
AcDbEntity
  8
中心線
100
AcDbLine
 10
221.5660303636676
 20
209.8234691356548
 30
0.0
 11
335.5660303636676
 21
209.8234691356548
 31
0.0
  0
LINE
  5
44F
102
{ACAD_REACTORS
330
455
102
}
330
1F
100
AcDbEntity
  8
中心線
100
AcDbLine
 10
58.56603036366767
 20
164.8234691356548
 30
0.0
 11
58.56603036366767
 21
366.591614142696
 31
0.0
  0
LINE
  5
450
102
{ACAD_REACTORS
330
455
102
}
330
1F
100
AcDbEntity
  8
中心線
100
AcDbLine
 10
13.56603036366772
 20
209.8234691356548
 30
0.0
 11
103.5660303636677
 21
209.8234691356548
 31
0.0
  0
ENDSEC
  0
SECTION
  2
OBJECTS
  0
DICTIONARY
  5
C
330
0
100
AcDbDictionary
281
     1
  3
ACAD_CIP_PREVIOUS_PRODUCT_INFO
350
23F
  3
ACAD_COLOR
350
235
  3
ACAD_DETAILVIEWSTYLE
350
238
  3
ACAD_GROUP
350
D
  3
ACAD_LAYOUT
350
1A
  3
ACAD_MATERIAL
350
43
  3
ACAD_MLEADERSTYLE
350
5B
  3
ACAD_MLINESTYLE
350
17
  3
ACAD_PLOTSETTINGS
350
19
  3
ACAD_PLOTSTYLENAME
350
E
  3
ACAD_SCALELIST
350
47
  3
ACAD_SECTIONVIEWSTYLE
350
236
  3
ACAD_TABLESTYLE
350
59
  3
ACAD_VISUALSTYLE
350
2A
  3
ACDB_RECOMPOSE_DATA
350
4AF
  3
AcDbVariableDictionary
350
1EA
  3
DWGPROPS
350
4B0
  0
DICTIONARY
  5
246
330
2
100
AcDbDictionary
280
     1
281
     1
  3
ACAD_LAYERSTATES
360
247
  0
DICTIONARY
  5
457
330
10
100
AcDbDictionary
280
     1
281
     1
  3
ADSK_XREC_LAYER_RECONCILED
360
458
  0
DICTIONARY
  5
242
330
241
100
AcDbDictionary
280
     1
281
     1
  3
ADSK_XREC_LAYER_RECONCILED
360
459
  0
DICTIONARY
  5
244
330
243
100
AcDbDictionary
280
     1
281
     1
  3
ADSK_XREC_LAYER_RECONCILED
360
45A
  0
DICTIONARY
  5
303
330
1F
100
AcDbDictionary
280
     1
281
     1
  3
ACAD_SORTENTS
360
304
  0
XRECORD
  5
23F
102
{ACAD_REACTORS
330
C
102
}
330
C
100
AcDbXrecord
280
     1
300
ACDLT
300
2016
300
ACDLT_F_S
  0
DICTIONARY
  5
235
102
{ACAD_REACTORS
330
C
102
}
330
C
100
AcDbDictionary
281
     1
  0
DICTIONARY
  5
238
102
{ACAD_REACTORS
330
C
102
}
330
C
100
AcDbDictionary
281
     1
  3
Metric50
350
239
  0
DICTIONARY
  5
D
102
{ACAD_REACTORS
330
C
102
}
330
C
100
AcDbDictionary
281
     1
  3
*A1
350
451
  3
*A2
350
452
  3
*A3
350
453
  3
*A4
350
454
  3
*A5
350
455
  3
*A7
350
4A3
  0
DICTIONARY
  5
1A
102
{ACAD_REACTORS
330
C
102
}
330
C
100
AcDbDictionary
281
     1
  3
Layout1
350
1E
  3
Model
350
22
  3
レイアウト1
350
23A
  0
DICTIONARY
  5
43
102
{ACAD_REACTORS
330
C
102
}
330
C
100
AcDbDictionary
281
     1
  3
ByBlock
350
45
  3
ByLayer
350
44
  3
Global
350
46
  0
DICTIONARY
  5
5B
102
{ACAD_REACTORS
330
C
102
}
330
C
100
AcDbDictionary
281
     1
  3
Standard
350
5C
  0
DICTIONARY
  5
17
102
{ACAD_REACTORS
330
C
102
}
330
C
100
AcDbDictionary
281
     1
  3
Standard
350
18
  0
DICTIONARY
  5
19
102
{ACAD_REACTORS
330
C
102
}
330
C
100
AcDbDictionary
281
     1
  0
ACDBDICTIONARYWDFLT
  5
E
102
{ACAD_REACTORS
330
C
102
}
330
C
100
AcDbDictionary
281
     1
  3
Normal
350
F
100
AcDbDictionaryWithDefault
340
F
  0
DICTIONARY
  5
47
102
{ACAD_REACTORS
330
C
102
}
330
C
100
AcDbDictionary
281
     1
  3
A0
350
48
  3
A1
350
49
  3
A2
350
4A
  3
A3
350
4B
  3
A4
350
4C
  3
A5
350
4D
  3
A6
350
4E
  3
A7
350
4F
  3
A8
350
50
  3
A9
350
51
  3
B0
350
52
  3
B1
350
53
  3
B2
350
54
  3
B3
350
55
  3
B4
350
56
  3
B5
350
57
  3
B6
350
58
  0
DICTIONARY
  5
236
102
{ACAD_REACTORS
330
C
102
}
330
C
100
AcDbDictionary
281
     1
  3
Metric50
350
237
  0
DICTIONARY
  5
59
102
{ACAD_REACTORS
330
C
102
}
330
C
100
AcDbDictionary
281
     1
  3
Standard
350
5A
  0
DICTIONARY
  5
2A
102
{ACAD_REACTORS
330
C
102
}
330
C
100
AcDbDictionary
281
     1
  3
2dWireframe
350
2F
  3
Basic
350
32
  3
Brighten
350
36
  3
ColorChange
350
3A
  3
Conceptual
350
34
  3
Dim
350
35
  3
EdgeColorOff
350
3D
  3
Facepattern
350
39
  3
Flat
350
2B
  3
FlatWithEdges
350
2C
  3
Gouraud
350
2D
  3
GouraudWithEdges
350
2E
  3
Hidden
350
31
  3
JitterOff
350
3B
  3
Linepattern
350
38
  3
OverhangOff
350
3C
  3
Realistic
350
33
  3
Shaded
350
42
  3
Shaded with edges
350
41
  3
Shades of Gray
350
3E
  3
Sketchy
350
3F
  3
Thicken
350
37
  3
Wireframe
350
30
  3
X-Ray
350
40
  0
XRECORD
  5
4AF
102
{ACAD_REACTORS
330
C
102
}
330
C
100
AcDbXrecord
280
     1
 90
        1
330
5A
  0
DICTIONARY
  5
1EA
102
{ACAD_REACTORS
330
C
102
}
330
C
100
AcDbDictionary
281
     1
  3
CANNOSCALE
350
1F8
  3
CENTEREXE
350
1F1
  3
CENTERLTYPEFILE
350
1F2
  3
CMLEADERSTYLE
350
1EC
  3
CTABLESTYLE
350
1EB
  3
CVIEWDETAILSTYLE
350
45B
  3
CVIEWSECTIONSTYLE
350
45C
  3
DIMASSOC
350
1F3
  3
HIDETEXT
350
1F4
  3
INDEXCTL
350
4A7
  3
LAYEREVAL
350
45E
  3
LAYERNOTIFY
350
45F
  3
LIGHTINGUNITS
350
45D
  3
LOFTANG1
350
4AA
  3
LOFTANG2
350
4AB
  3
LONGITUDE
350
4AC
  3
MSLTSCALE
350
1F9
  3
PSOLHEIGHT
350
4A9
  3
PSOLWIDTH
350
4A8
  3
SORTENTS
350
4A6
  3
XCLIPFRAME
350
4AD
  0
XRECORD
  5
4B0
102
{ACAD_REACTORS
330
C
102
}
330
C
100
AcDbXrecord
280
     1
  1
DWGPROPS COOKIE
  2

  3

  4

  6
File was created by TR2_DExp
  7

  8
fujino
  9

300
=
301
=
302
=
303
=
304
=
305
=
306
=
307
=
308
=
309
=
 40
0.0070831481481481
 41
2455188.75
 42
2459739.497433774
  1

 90
        0
  0
DICTIONARY
  5
247
102
{ACAD_REACTORS
330
246
102
}
330
246
100
AcDbDictionary
281
     1
  0
XRECORD
  5
458
102
{ACAD_REACTORS
330
457
102
}
330
457
100
AcDbXrecord
280
     1
290
     1
  0
XRECORD
  5
459
102
{ACAD_REACTORS
330
242
102
}
330
242
100
AcDbXrecord
280
     1
290
     1
  0
XRECORD
  5
45A
102
{ACAD_REACTORS
330
244
102
}
330
244
100
AcDbXrecord
280
     1
290
     1
  0
SORTENTSTABLE
  5
304
102
{ACAD_REACTORS
330
303
102
}
330
303
100
AcDbSortentsTable
330
1F
331
306
  5
3AD
331
302
  5
3FF
331
2F9
  5
3F6
331
336
  5
35F
331
332
  5
35B
331
36D
  5
396
331
32E
  5
357
331
32A
  5
3D1
331
369
  5
392
331
3A6
  5
332
331
3A2
  5
32E
331
414
  5
2A8
331
44F
  5
44F
331
39E
  5
32A
331
3DD
  5
2EB
331
410
  5
2A4
331
3D9
  5
2E7
331
44B
  5
44B
331
40C
  5
2A0
331
39A
  5
326
331
408
  5
29C
331
2F5
  5
3F2
331
2F1
  5
3EE
331
2ED
  5
3EA
331
2E9
  5
3E6
331
326
  5
3CD
331
365
  5
38E
331
322
  5
3C9
331
361
  5
38A
331
35D
  5
386
331
31E
  5
3C5
331
31A
  5
3C1
331
359
  5
382
331
447
  5
447
331
396
  5
322
331
3D5
  5
2E3
331
392
  5
31E
331
3D1
  5
2DF
331
404
  5
298
331
443
  5
2D7
331
43F
  5
2D3
331
38E
  5
31A
331
3CD
  5
2DB
331
400
  5
294
331
3C9
  5
355
331
3FC
  5
30C
331
43B
  5
2CF
331
38A
  5
316
331
3F8
  5
308
331
2E5
  5
3E2
331
2E1
  5
3DE
331
2DD
  5
3DA
331
2D9
  5
3D6
331
316
  5
3BD
331
355
  5
37E
331
312
  5
3B9
331
351
  5
37A
331
34D
  5
376
331
30E
  5
3B5
331
30A
  5
3B1
331
349
  5
372
331
3C5
  5
351
331
437
  5
2CB
331
386
  5
312
331
382
  5
3AB
331
3C1
  5
34D
331
3F4
  5
302
331
433
  5
2C7
331
42F
  5
2C3
331
37E
  5
3A7
331
3BD
  5
349
331
3F0
  5
2FE
331
3EC
  5
2FA
331
42B
  5
2BF
331
37A
  5
3A3
331
3B9
  5
345
331
3E8
  5
2F6
331
345
  5
36E
331
341
  5
36A
331
33D
  5
366
331
339
  5
362
331
3B5
  5
341
331
427
  5
2BB
331
376
  5
39F
331
372
  5
39B
331
3B1
  5
33D
331
3E4
  5
2F2
331
423
  5
2B7
331
41F
  5
2B3
331
3AD
  5
339
331
3E0
  5
2EE
331
41B
  5
2AF
331
3A9
  5
335
331
305
  5
3AC
331
301
  5
3FE
331
2FC
  5
3F9
331
335
  5
35E
331
331
  5
35A
331
32D
  5
3D4
331
36C
  5
395
331
329
  5
3D0
331
368
  5
391
331
3A5
  5
331
331
417
  5
2AB
331
3A1
  5
32D
331
413
  5
2A7
331
44E
  5
44E
331
40F
  5
2A3
331
39D
  5
329
331
3DC
  5
2EA
331
3D8
  5
2E6
331
44A
  5
44A
331
40B
  5
29F
331
399
  5
325
331
2F4
  5
3F1
331
2F0
  5
3ED
331
2EC
  5
3E9
331
2E8
  5
3E5
331
325
  5
3CC
331
364
  5
38D
331
360
  5
389
331
321
  5
3C8
331
35C
  5
385
331
31D
  5
3C4
331
319
  5
3C0
331
358
  5
381
331
446
  5
446
331
395
  5
321
331
3D4
  5
2E2
331
407
  5
29B
331
442
  5
2D6
331
391
  5
31D
331
3D0
  5
2DE
331
403
  5
297
331
43E
  5
2D2
331
38D
  5
319
331
3CC
  5
2DA
331
3FF
  5
293
331
3C8
  5
354
331
3FB
  5
30B
331
43A
  5
2CE
331
389
  5
315
331
2E4
  5
3E1
331
2E0
  5
3DD
331
2DC
  5
3D9
331
2D8
  5
3D5
331
315
  5
3BC
331
354
  5
37D
331
311
  5
3B8
331
350
  5
379
331
34C
  5
375
331
30D
  5
3B4
331
309
  5
3B0
331
348
  5
371
331
385
  5
311
331
3C4
  5
350
331
3F7
  5
307
331
436
  5
2CA
331
381
  5
3AA
331
3C0
  5
34C
331
3F3
  5
301
331
432
  5
2C6
331
42E
  5
2C2
331
37D
  5
3A6
331
3BC
  5
348
331
3EF
  5
2FD
331
3B8
  5
344
331
3EB
  5
2F9
331
42A
  5
2BE
331
379
  5
3A2
331
344
  5
36D
331
340
  5
369
331
33C
  5
365
331
338
  5
361
331
3B4
  5
340
331
3E7
  5
2F5
331
426
  5
2BA
331
375
  5
39E
331
371
  5
39A
331
3B0
  5
33C
331
3E3
  5
2F1
331
422
  5
2B6
331
41E
  5
2B2
331
3AC
  5
338
331
41A
  5
2AE
331
3A8
  5
334
331
300
  5
3FD
331
2FF
  5
3FC
331
2FB
  5
3F8
331
334
  5
35D
331
36F
  5
398
331
330
  5
359
331
32C
  5
3D3
331
36B
  5
394
331
328
  5
3CF
331
3A4
  5
330
331
416
  5
2AA
331
3A0
  5
32C
331
3DF
  5
2ED
331
412
  5
2A6
331
44D
  5
44D
331
40E
  5
2A2
331
39C
  5
328
331
3DB
  5
2E9
331
449
  5
449
331
40A
  5
29E
331
398
  5
324
331
2F3
  5
3F0
331
2EF
  5
3EC
331
2EB
  5
3E8
331
367
  5
390
331
324
  5
3CB
331
363
  5
38C
331
35F
  5
388
331
320
  5
3C7
331
31C
  5
3C3
331
35B
  5
384
331
318
  5
3BF
331
3D7
  5
2E5
331
445
  5
445
331
394
  5
320
331
3D3
  5
2E1
331
406
  5
29A
331
441
  5
2D5
331
390
  5
31C
331
3CF
  5
2DD
331
402
  5
296
331
3FE
  5
30E
331
43D
  5
2D1
331
38C
  5
318
331
3CB
  5
2D9
331
3FA
  5
30A
331
439
  5
2CD
331
388
  5
314
331
2E7
  5
3E4
331
2E3
  5
3E0
331
2DF
  5
3DC
331
2DB
  5
3D8
331
357
  5
380
331
450
  5
450
331
314
  5
3BB
331
353
  5
37C
331
34F
  5
378
331
310
  5
3B7
331
34B
  5
374
331
30C
  5
3B3
331
308
  5
3AF
331
3C7
  5
353
331
384
  5
310
331
3C3
  5
34F
331
3F6
  5
306
331
435
  5
2C9
331
431
  5
2C5
331
380
  5
3A9
331
3BF
  5
34B
331
3F2
  5
300
331
42D
  5
2C1
331
37C
  5
3A5
331
3BB
  5
347
331
3EE
  5
2FC
331
3EA
  5
2F8
331
429
  5
2BD
331
378
  5
3A1
331
347
  5
370
331
343
  5
36C
331
33F
  5
368
331
33B
  5
364
331
3B7
  5
343
331
374
  5
39D
331
3B3
  5
33F
331
3E6
  5
2F4
331
425
  5
2B9
331
370
  5
399
331
3AF
  5
33B
331
3E2
  5
2F0
331
421
  5
2B5
331
41D
  5
2B1
331
3AB
  5
337
331
419
  5
2AD
331
307
  5
3AE
331
2FA
  5
3F7
331
337
  5
360
331
333
  5
35C
331
36E
  5
397
331
32F
  5
358
331
32B
  5
3D2
331
36A
  5
393
331
3A7
  5
333
331
3A3
  5
32F
331
415
  5
2A9
331
39F
  5
32B
331
3DE
  5
2EC
331
411
  5
2A5
331
3DA
  5
2E8
331
44C
  5
44C
331
40D
  5
2A1
331
39B
  5
327
331
448
  5
448
331
409
  5
29D
331
2F6
  5
3F3
331
2F2
  5
3EF
331
2EE
  5
3EB
331
2EA
  5
3E7
331
327
  5
3CE
331
366
  5
38F
331
323
  5
3CA
331
362
  5
38B
331
35E
  5
387
331
31F
  5
3C6
331
31B
  5
3C2
331
35A
  5
383
331
3D6
  5
2E4
331
397
  5
323
331
393
  5
31F
331
3D2
  5
2E0
331
405
  5
299
331
444
  5
2D8
331
440
  5
2D4
331
38F
  5
31B
331
3CE
  5
2DC
331
401
  5
295
331
3FD
  5
30D
331
43C
  5
2D0
331
38B
  5
317
331
3CA
  5
356
331
3F9
  5
309
331
438
  5
2CC
331
2E6
  5
3E3
331
2E2
  5
3DF
331
2DE
  5
3DB
331
2DA
  5
3D7
331
317
  5
3BE
331
356
  5
37F
331
313
  5
3BA
331
352
  5
37B
331
34E
  5
377
331
30F
  5
3B6
331
30B
  5
3B2
331
34A
  5
373
331
3C6
  5
352
331
387
  5
313
331
383
  5
30F
331
3C2
  5
34E
331
3F5
  5
305
331
434
  5
2C8
331
430
  5
2C4
331
37F
  5
3A8
331
3BE
  5
34A
331
3F1
  5
2FF
331
3ED
  5
2FB
331
42C
  5
2C0
331
37B
  5
3A4
331
3BA
  5
346
331
3E9
  5
2F7
331
428
  5
2BC
331
346
  5
36F
331
342
  5
36B
331
33E
  5
367
331
33A
  5
363
331
3B6
  5
342
331
377
  5
3A0
331
373
  5
39C
331
3B2
  5
33E
331
3E5
  5
2F3
331
424
  5
2B8
331
420
  5
2B4
331
3AE
  5
33A
331
3E1
  5
2EF
331
41C
  5
2B0
331
3AA
  5
336
331
418
  5
2AC
  0
ACDBDETAILVIEWSTYLE
  5
239
102
{ACAD_XDICTIONARY
360
4E8
102
}
102
{ACAD_REACTORS
330
238
102
}
330
238
100
AcDbModelDocViewStyle
 70
     0
  3
Metric50
290
     0
100
AcDbDetailViewStyle
 70
     0
 71
     0
 90
        3
 71
     1
340
11
 40
5.0
340
0
 40
5.0
300

 40
0.0
280
     1
 71
     2
340
16
 90
       25
 71
     3
340
11
 40
5.0
 90
        0
 40
15.0
 90
        1
300
%<\AcVar ViewDetailId>% (%<\AcVar ViewScale \f "%sn">%)
 71
     4
340
16
 90
       25
340
16
 90
       25
280
     0
  0
GROUP
  5
451
102
{ACAD_REACTORS
330
D
102
}
330
D
100
AcDbGroup
300

 70
     1
 71
     1
340
446
340
445
340
32D
340
32C
340
32B
340
32A
340
329
340
328
340
327
340
326
340
325
340
324
340
323
340
322
340
321
340
320
340
31F
340
31E
340
31D
340
31C
340
31B
340
31A
340
319
340
318
340
317
340
316
340
315
340
314
340
313
340
312
340
311
340
310
340
30F
340
30E
340
30D
340
30C
340
30B
340
30A
340
309
340
308
340
307
340
306
340
305
  0
GROUP
  5
452
102
{ACAD_REACTORS
330
D
102
}
330
D
100
AcDbGroup
300

 70
     1
 71
     1
340
44A
340
449
340
382
340
381
340
380
340
37F
340
37E
340
37D
340
37C
340
37B
340
37A
340
379
340
378
340
377
340
376
340
375
340
374
340
373
340
372
340
371
340
370
340
36F
340
36E
340
36D
340
36C
340
36B
340
36A
340
369
340
368
340
367
340
366
340
365
340
364
340
363
340
362
340
361
340
360
340
35F
340
35E
340
35D
340
35C
340
35B
340
35A
340
359
340
358
340
357
340
356
340
355
340
354
340
353
340
352
340
351
340
350
340
34F
340
34E
340
34D
340
34C
340
34B
340
34A
340
349
340
348
340
347
340
346
340
345
340
344
340
343
340
342
340
341
340
340
340
33F
340
33E
340
33D
340
33C
340
33B
340
33A
340
339
340
338
340
337
340
336
340
335
340
334
340
333
340
332
340
331
340
330
340
32F
340
32E
  0
GROUP
  5
453
102
{ACAD_REACTORS
330
D
102
}
330
D
100
AcDbGroup
300

 70
     1
 71
     1
340
44C
340
44B
340
3CA
340
3C9
340
3C8
340
3C7
340
3C6
340
3C5
340
3C4
340
3C3
340
3C2
340
3C1
340
3C0
340
3BF
340
3BE
340
3BD
340
3BC
340
3BB
340
3BA
340
3B9
340
3B8
340
3B7
340
3B6
340
3B5
340
3B4
340
3B3
340
3B2
340
3B1
340
3B0
340
3AF
340
3AE
340
3AD
340
3AC
340
3AB
340
3AA
340
3A9
340
3A8
340
3A7
340
3A6
340
3A5
340
3A4
340
3A3
340
3A2
340
3A1
340
3A0
340
39F
340
39E
340
39D
340
39C
340
39B
340
39A
340
399
340
398
340
397
340
396
340
395
340
394
340
393
340
392
340
391
340
390
340
38F
340
38E
340
38D
340
38C
340
38B
340
38A
340
389
340
388
340
387
340
386
340
385
340
384
340
383
  0
GROUP
  5
454
102
{ACAD_REACTORS
330
D
102
}
330
D
100
AcDbGroup
300

 70
     1
 71
     1
340
44E
340
44D
340
444
340
443
340
442
340
441
340
440
340
43F
340
43E
340
43D
340
43C
340
43B
340
43A
340
439
340
438
340
437
340
436
340
435
340
434
340
433
340
432
340
431
340
430
340
42F
340
42E
340
42D
340
42C
340
42B
340
42A
340
429
340
428
340
427
340
426
340
425
340
424
340
423
340
422
340
421
340
420
340
41F
340
41E
340
41D
340
41C
340
41B
340
41A
340
419
340
418
340
417
340
416
340
415
340
414
340
413
340
412
340
411
340
410
340
40F
340
40E
340
40D
340
40C
340
40B
340
40A
340
409
340
408
340
407
340
406
340
405
340
404
340
403
340
402
340
401
340
400
340
3FF
  0
GROUP
  5
455
102
{ACAD_REACTORS
330
D
102
}
330
D
100
AcDbGroup
300

 70
     1
 71
     1
340
450
340
44F
340
3FE
340
3FD
340
3FC
340
3FB
340
3FA
340
3F9
340
3F8
340
3F7
340
3F6
340
3F5
340
3F4
340
3F3
340
3F2
340
3F1
340
3F0
340
3EF
340
3EE
340
3ED
340
3EC
340
3EB
340
3EA
340
3E9
340
3E8
340
3E7
340
3E6
340
3E5
340
3E4
340
3E3
340
3E2
340
3E1
340
3E0
340
3DF
340
3DE
340
3DD
340
3DC
340
3DB
340
3DA
340
3D9
340
3D8
340
3D7
340
3D6
340
3D5
340
3D4
340
3D3
340
3D2
340
3D1
340
3D0
340
3CF
340
3CE
340
3CD
340
3CC
340
3CB
  0
GROUP
  5
4A3
102
{ACAD_REACTORS
330
D
102
}
330
D
100
AcDbGroup
300

 70
     1
 71
     1
340
448
340
447
340
302
340
301
340
300
340
2FF
340
2FC
340
2FB
340
2FA
340
2F9
340
2F6
340
2F5
340
2F4
340
2F3
340
2F2
340
2F1
340
2F0
340
2EF
340
2EE
340
2ED
340
2EC
340
2EB
340
2EA
340
2E9
340
2E8
340
2E7
340
2E6
340
2E5
340
2E4
340
2E3
340
2E2
340
2E1
340
2E0
340
2DF
340
2DE
340
2DD
340
2DC
340
2DB
340
2DA
340
2D9
340
2D8
  0
LAYOUT
  5
1E
102
{ACAD_XDICTIONARY
360
4B1
102
}
102
{ACAD_REACTORS
330
1A
102
}
330
1A
100
AcDbPlotSettings
  1

  2
none_device
  4

  6

 40
0.0
 41
0.0
 42
0.0
 43
0.0
 44
0.0
 45
0.0
 46
0.0
 47
0.0
 48
0.0
 49
0.0
140
0.0
141
0.0
142
1.0
143
1.0
 70
   688
 72
     1
 73
     0
 74
     5
  7

 75
    16
147
1.0
148
0.0
149
0.0
100
AcDbLayout
  1
Layout1
 70
     1
 71
     1
 10
0.0
 20
0.0
 11
420.0
 21
297.0
 12
0.0
 22
0.0
 32
0.0
 14
1.000000000000000E+20
 24
1.000000000000000E+20
 34
1.000000000000000E+20
 15
-1.000000000000000E+20
 25
-1.000000000000000E+20
 35
-1.000000000000000E+20
146
0.0
 13
0.0
 23
0.0
 33
0.0
 16
1.0
 26
0.0
 36
0.0
 17
0.0
 27
1.0
 37
0.0
 76
     0
330
1B
  0
LAYOUT
  5
22
102
{ACAD_XDICTIONARY
360
4B3
102
}
102
{ACAD_REACTORS
330
1A
102
}
330
1A
100
AcDbPlotSettings
  1

  2
none_device
  4
Letter_(8.50_x_11.00_Inches)
  6

 40
6.349999999999998
 41
6.349999999999998
 42
6.350005079999998
 43
6.350005079999998
 44
215.9
 45
279.4
 46
0.0
 47
0.0
 48
0.0
 49
0.0
140
0.0
141
0.0
142
1.0
143
1.0
 70
  1712
 72
     1
 73
     0
 74
     0
  7

 75
     0
147
1.0
148
0.0
149
0.0
100
AcDbLayout
  1
Model
 70
     1
 71
     0
 10
-230.8789176940918
 20
-297.5756416320801
 11
659.3040161132812
 21
408.4564971923826
 12
0.0
 22
0.0
 32
0.0
 14
-230.8789176940918
 24
-297.5756416320801
 34
0.0
 15
659.3040161132812
 25
408.4564971923826
 35
0.0
146
0.0
 13
0.0
 23
0.0
 33
0.0
 16
1.0
 26
0.0
 36
0.0
 17
0.0
 27
1.0
 37
0.0
 76
     0
330
1F
331
29
  0
LAYOUT
  5
23A
102
{ACAD_XDICTIONARY
360
4EA
102
}
102
{ACAD_REACTORS
330
1A
102
}
330
1A
100
AcDbPlotSettings
  1

  2
青梅 FX DocuCentre-V C2275 T2
  4

  6

 40
0.0
 41
0.0
 42
0.0
 43
0.0
 44
0.0
 45
0.0
 46
0.0
 47
0.0
 48
0.0
 49
0.0
140
0.0
141
0.0
142
1.0
143
1.0
 70
   688
 72
     0
 73
     0
 74
     5
  7
AutoCAD_PEN.ctb
 75
    16
147
1.0
148
0.0
149
0.0
100
AcDbLayout
  1
レイアウト1
 70
     1
 71
     2
 10
0.0
 20
0.0
 11
12.0
 21
9.0
 12
0.0
 22
0.0
 32
0.0
 14
0.0
 24
0.0
 34
0.0
 15
0.0
 25
0.0
 35
0.0
146
0.0
 13
0.0
 23
0.0
 33
0.0
 16
1.0
 26
0.0
 36
0.0
 17
0.0
 27
1.0
 37
0.0
 76
     0
330
23
  0
MATERIAL
  5
45
102
{ACAD_XDICTIONARY
360
22C
102
}
102
{ACAD_REACTORS
330
43
102
}
330
43
100
AcDbMaterial
  1
ByBlock
  0
MATERIAL
  5
44
102
{ACAD_XDICTIONARY
360
22A
102
}
102
{ACAD_REACTORS
330
43
102
}
330
43
100
AcDbMaterial
  1
ByLayer
  0
MATERIAL
  5
46
102
{ACAD_XDICTIONARY
360
22E
102
}
102
{ACAD_REACTORS
330
43
102
}
330
43
100
AcDbMaterial
  1
Global
  0
MLEADERSTYLE
  5
5C
102
{ACAD_REACTORS
330
5B
102
}
330
5B
100
AcDbMLeaderStyle
170
     2
171
     1
172
     0
 90
        2
 40
0.0
 41
0.0
173
     1
 91
-1056964608
340
14
 92
       -2
290
     1
 42
2.0
291
     1
 43
8.0
  3
Standard
 44
4.0
300

342
11
174
     1
178
     6
175
     1
176
     0
 93
-1056964608
 45
4.0
292
     0
297
     0
 46
4.0
 94
-1056964608
 47
1.0
 49
1.0
140
1.0
293
     1
141
0.0
294
     1
177
     0
142
1.0
295
     0
296
     0
143
3.75
1001
ACAD_MLEADERVER
1070
     2
  0
MLINESTYLE
  5
18
102
{ACAD_REACTORS
330
17
102
}
330
17
100
AcDbMlineStyle
  2
STANDARD
 70
     0
  3

 62
   256
 51
90.0
 52
90.0
 71
     2
 49
0.5
 62
   256
  6
BYLAYER
 49
-0.5
 62
   256
  6
BYLAYER
  0
ACDBPLACEHOLDER
  5
F
102
{ACAD_REACTORS
330
E
102
}
330
E
  0
SCALE
  5
48
102
{ACAD_REACTORS
330
47
102
}
330
47
100
AcDbScale
 70
     0
300
1:1
140
1.0
141
1.0
290
     1
  0
SCALE
  5
49
102
{ACAD_REACTORS
330
47
102
}
330
47
100
AcDbScale
 70
     0
300
1:2
140
1.0
141
2.0
290
     0
  0
SCALE
  5
4A
102
{ACAD_REACTORS
330
47
102
}
330
47
100
AcDbScale
 70
     0
300
1:4
140
1.0
141
4.0
290
     0
  0
SCALE
  5
4B
102
{ACAD_REACTORS
330
47
102
}
330
47
100
AcDbScale
 70
     0
300
1:5
140
1.0
141
5.0
290
     0
  0
SCALE
  5
4C
102
{ACAD_REACTORS
330
47
102
}
330
47
100
AcDbScale
 70
     0
300
1:8
140
1.0
141
8.0
290
     0
  0
SCALE
  5
4D
102
{ACAD_REACTORS
330
47
102
}
330
47
100
AcDbScale
 70
     0
300
1:10
140
1.0
141
10.0
290
     0
  0
SCALE
  5
4E
102
{ACAD_REACTORS
330
47
102
}
330
47
100
AcDbScale
 70
     0
300
1:16
140
1.0
141
16.0
290
     0
  0
SCALE
  5
4F
102
{ACAD_REACTORS
330
47
102
}
330
47
100
AcDbScale
 70
     0
300
1:20
140
1.0
141
20.0
290
     0
  0
SCALE
  5
50
102
{ACAD_REACTORS
330
47
102
}
330
47
100
AcDbScale
 70
     0
300
1:30
140
1.0
141
30.0
290
     0
  0
SCALE
  5
51
102
{ACAD_REACTORS
330
47
102
}
330
47
100
AcDbScale
 70
     0
300
1:40
140
1.0
141
40.0
290
     0
  0
SCALE
  5
52
102
{ACAD_REACTORS
330
47
102
}
330
47
100
AcDbScale
 70
     0
300
1:50
140
1.0
141
50.0
290
     0
  0
SCALE
  5
53
102
{ACAD_REACTORS
330
47
102
}
330
47
100
AcDbScale
 70
     0
300
1:100
140
1.0
141
100.0
290
     0
  0
SCALE
  5
54
102
{ACAD_REACTORS
330
47
102
}
330
47
100
AcDbScale
 70
     0
300
2:1
140
2.0
141
1.0
290
     0
  0
SCALE
  5
55
102
{ACAD_REACTORS
330
47
102
}
330
47
100
AcDbScale
 70
     0
300
4:1
140
4.0
141
1.0
290
     0
  0
SCALE
  5
56
102
{ACAD_REACTORS
330
47
102
}
330
47
100
AcDbScale
 70
     0
300
8:1
140
8.0
141
1.0
290
     0
  0
SCALE
  5
57
102
{ACAD_REACTORS
330
47
102
}
330
47
100
AcDbScale
 70
     0
300
10:1
140
10.0
141
1.0
290
     0
  0
SCALE
  5
58
102
{ACAD_REACTORS
330
47
102
}
330
47
100
AcDbScale
 70
     0
300
100:1
140
100.0
141
1.0
290
     0
  0
ACDBSECTIONVIEWSTYLE
  5
237
102
{ACAD_XDICTIONARY
360
4E6
102
}
102
{ACAD_REACTORS
330
236
102
}
330
236
100
AcDbModelDocViewStyle
 70
     0
  3
Metric50
290
     0
100
AcDbSectionViewStyle
 70
     0
 71
     0
 90
      102
 71
     1
340
11
 40
5.0
340
0
340
0
 40
5.0
300
I, O, Q, S, X, Z
 40
10.0
 90
        0
 40
2.5
 90
        0
 71
     2
340
16
 90
       25
340
16
 90
       50
 40
5.0
 40
2.5
 40
5.0
 71
     3
340
11
 40
5.0
 90
        0
 40
15.0
 90
        1
300
%<\AcVar ViewSectionStartId>%-%<\AcVar ViewSectionEndId>% (%<\AcVar ViewScale \f "%sn">%)
 71
     4
300
ANSI31
 40
1.0
 90
        0
290
     0
290
     0
 90
        6
 40
0.0
 40
1.570796326794896
 40
0.2617993877991494
 40
1.308996938995747
 40
-0.2617993877991494
 40
1.832595714594045
  0
TABLESTYLE
  5
5A
102
{ACAD_XDICTIONARY
360
460
102
}
102
{ACAD_REACTORS
330
59
102
}
330
59
100
AcDbTableStyle
  3
Standard
 70
     0
 71
     0
 40
1.5
 41
1.5
280
     0
281
     0
  7
Standard
140
4.5
170
     2
 62
     0
 63
     7
283
     0
274
    -2
284
     1
 64
     0
275
    -2
285
     1
 65
     0
276
    -2
286
     1
 66
     0
277
    -2
287
     1
 67
     0
278
    -2
288
     1
 68
     0
279
    -2
289
     1
 69
     0
  7
Standard
140
6.0
170
     5
 62
     0
 63
     7
283
     0
274
    -2
284
     1
 64
     0
275
    -2
285
     1
 65
     0
276
    -2
286
     1
 66
     0
277
    -2
287
     1
 67
     0
278
    -2
288
     1
 68
     0
279
    -2
289
     1
 69
     0
  7
Standard
140
4.5
170
     5
 62
     0
 63
     7
283
     0
274
    -2
284
     1
 64
     0
275
    -2
285
     1
 65
     0
276
    -2
286
     1
 66
     0
277
    -2
287
     1
 67
     0
278
    -2
288
     1
 68
     0
279
    -2
289
     1
 69
     0
  0
VISUALSTYLE
  5
2F
102
{ACAD_XDICTIONARY
360
4BD
102
}
102
{ACAD_REACTORS
330
2A
102
}
330
2A
100
AcDbVisualStyle
  2

 70
     4
 71
     0
 72
     2
 73
     0
 90
        0
 40
-0.6
 41
-30.0
 62
     5
 63
     7
 74
     1
 91
        4
 64
     7
 65
   257
 75
     1
175
     1
 42
1.0
 92
        0
 66
   257
 43
1.0
 76
     1
 77
     6
 78
     2
 67
     7
 79
     5
170
     0
171
     0
290
     0
174
     0
 93
        1
 44
0.0
173
     0
291
     0
 45
0.0
1001
ACAD
1000
AcDbSavedByObjectVersion
1070
     0
  0
VISUALSTYLE
  5
32
102
{ACAD_XDICTIONARY
360
4C3
102
}
102
{ACAD_REACTORS
330
2A
102
}
330
2A
100
AcDbVisualStyle
  2

 70
     7
 71
     1
 72
     0
 73
     1
 90
        0
 40
-0.6
 41
-30.0
 62
     5
 63
     7
 74
     0
 91
        4
 64
     7
 65
   257
 75
     1
175
     1
 42
1.0
 92
        8
 66
     7
 43
1.0
 76
     1
 77
     6
 78
     2
 67
     7
 79
     5
170
     0
171
     0
290
     0
174
     0
 93
        1
 44
0.0
173
     0
291
     1
 45
0.0
1001
ACAD
1000
AcDbSavedByObjectVersion
1070
     0
  0
VISUALSTYLE
  5
36
102
{ACAD_XDICTIONARY
360
4CB
102
}
102
{ACAD_REACTORS
330
2A
102
}
330
2A
100
AcDbVisualStyle
  2

 70
    12
 71
     2
 72
     2
 73
     0
 90
        0
 40
-0.6
 41
-30.0
 62
     5
 63
     7
 74
     1
 91
        4
 64
     7
 65
   257
 75
     1
175
     1
 42
1.0
 92
        8
 66
     7
 43
1.0
 76
     1
 77
     6
 78
     2
 67
     7
 79
     5
170
     0
171
     0
290
     0
174
     0
 93
        1
 44
50.0
173
     0
291
     1
 45
0.0
1001
ACAD
1000
AcDbSavedByObjectVersion
1070
     0
  0
VISUALSTYLE
  5
3A
102
{ACAD_XDICTIONARY
360
4D3
102
}
102
{ACAD_REACTORS
330
2A
102
}
330
2A
100
AcDbVisualStyle
  2

 70
    16
 71
     2
 72
     2
 73
     3
 90
        0
 40
-0.6
 41
-30.0
 62
     5
 63
     8
 74
     1
 91
        4
 64
     7
 65
   257
 75
     1
175
     1
 42
1.0
 92
        8
 66
     8
 43
1.0
 76
     1
 77
     6
 78
     2
 67
     7
 79
     5
170
     0
171
     0
290
     0
174
     0
 93
        1
 44
0.0
173
     0
291
     1
 45
0.0
1001
ACAD
1000
AcDbSavedByObjectVersion
1070
     0
  0
VISUALSTYLE
  5
34
102
{ACAD_XDICTIONARY
360
4C7
102
}
102
{ACAD_REACTORS
330
2A
102
}
330
2A
100
AcDbVisualStyle
  2

 70
     9
 71
     3
 72
     2
 73
     0
 90
        0
 40
-0.6
 41
-30.0
 62
     5
 63
     7
 74
     2
 91
        2
 64
     7
 65
   257
 75
     1
175
     1
 42
179.0
 92
        8
 66
     7
 43
1.0
 76
     1
 77
     6
 78
     2
 67
     7
 79
     3
170
     0
171
     0
290
     0
174
     0
 93
        1
 44
0.0
173
     0
291
     0
 45
0.0
1001
ACAD
1000
AcDbSavedByObjectVersion
1070
     0
  0
VISUALSTYLE
  5
35
102
{ACAD_XDICTIONARY
360
4C9
102
}
102
{ACAD_REACTORS
330
2A
102
}
330
2A
100
AcDbVisualStyle
  2

 70
    11
 71
     2
 72
     2
 73
     0
 90
        0
 40
-0.6
 41
-30.0
 62
     5
 63
     7
 74
     1
 91
        4
 64
     7
 65
   257
 75
     1
175
     1
 42
1.0
 92
        8
 66
     7
 43
1.0
 76
     1
 77
     6
 78
     2
 67
     7
 79
     5
170
     0
171
     0
290
     0
174
     0
 93
        1
 44
-50.0
173
     0
291
     1
 45
0.0
1001
ACAD
1000
AcDbSavedByObjectVersion
1070
     0
  0
VISUALSTYLE
  5
3D
102
{ACAD_XDICTIONARY
360
4D9
102
}
102
{ACAD_REACTORS
330
2A
102
}
330
2A
100
AcDbVisualStyle
  2

 70
    22
 71
     2
 72
     2
 73
     0
 90
        0
 40
-0.6
 41
-30.0
 62
     5
 63
     7
 74
     1
 91
        4
 64
     7
 65
   257
 75
     1
175
     1
 42
1.0
 92
        8
 66
     7
 43
1.0
 76
     1
 77
     6
 78
     2
 67
     7
 79
     5
170
     0
171
     0
290
     0
174
     0
 93
        1
 44
0.0
173
     0
291
     1
 45
0.0
1001
ACAD
1000
AcDbSavedByObjectVersion
1070
     0
  0
VISUALSTYLE
  5
39
102
{ACAD_XDICTIONARY
360
4D1
102
}
102
{ACAD_REACTORS
330
2A
102
}
330
2A
100
AcDbVisualStyle
  2

 70
    15
 71
     2
 72
     2
 73
     0
 90
        0
 40
-0.6
 41
-30.0
 62
     5
 63
     7
 74
     1
 91
        4
 64
     7
 65
   257
 75
     1
175
     1
 42
1.0
 92
        8
 66
     7
 43
1.0
 76
     1
 77
     6
 78
     2
 67
     7
 79
     5
170
     0
171
     0
290
     0
174
     0
 93
        1
 44
0.0
173
     0
291
     1
 45
0.0
1001
ACAD
1000
AcDbSavedByObjectVersion
1070
     0
  0
VISUALSTYLE
  5
2B
102
{ACAD_XDICTIONARY
360
4B5
102
}
102
{ACAD_REACTORS
330
2A
102
}
330
2A
100
AcDbVisualStyle
  2

 70
     0
 71
     2
 72
     1
 73
     1
 90
        2
 40
-0.6
 41
30.0
 62
     5
 63
     7
 74
     0
 91
        0
 64
     7
 65
   257
 75
     1
175
     1
 42
1.0
 92
        8
 66
     7
 43
1.0
 76
     1
 77
     6
 78
     2
 67
     7
 79
     5
170
     0
171
     0
290
     0
174
     0
 93
       13
 44
0.0
173
     0
291
     1
 45
0.0
1001
ACAD
1000
AcDbSavedByObjectVersion
1070
     0
  0
VISUALSTYLE
  5
2C
102
{ACAD_XDICTIONARY
360
4B7
102
}
102
{ACAD_REACTORS
330
2A
102
}
330
2A
100
AcDbVisualStyle
  2

 70
     1
 71
     2
 72
     1
 73
     1
 90
        2
 40
-0.6
 41
30.0
 62
     5
 63
     7
 74
     1
 91
        0
 64
     7
 65
   257
 75
     1
175
     1
 42
1.0
 92
        0
 66
   257
 43
1.0
 76
     1
 77
     6
 78
     2
 67
     7
 79
     5
170
     0
171
     0
290
     0
174
     0
 93
       13
 44
0.0
173
     0
291
     1
 45
0.0
1001
ACAD
1000
AcDbSavedByObjectVersion
1070
     0
  0
VISUALSTYLE
  5
2D
102
{ACAD_XDICTIONARY
360
4B9
102
}
102
{ACAD_REACTORS
330
2A
102
}
330
2A
100
AcDbVisualStyle
  2

 70
     2
 71
     2
 72
     2
 73
     1
 90
        2
 40
-0.6
 41
30.0
 62
     5
 63
     7
 74
     0
 91
        0
 64
     7
 65
   257
 75
     1
175
     1
 42
1.0
 92
        0
 66
     7
 43
1.0
 76
     1
 77
     6
 78
     2
 67
     7
 79
     5
170
     0
171
     0
290
     0
174
     0
 93
       13
 44
0.0
173
     0
291
     1
 45
0.0
1001
ACAD
1000
AcDbSavedByObjectVersion
1070
     0
  0
VISUALSTYLE
  5
2E
102
{ACAD_XDICTIONARY
360
4BB
102
}
102
{ACAD_REACTORS
330
2A
102
}
330
2A
100
AcDbVisualStyle
  2

 70
     3
 71
     2
 72
     2
 73
     1
 90
        2
 40
-0.6
 41
30.0
 62
     5
 63
     7
 74
     1
 91
        0
 64
     7
 65
   257
 75
     1
175
     1
 42
1.0
 92
        0
 66
   257
 43
1.0
 76
     1
 77
     6
 78
     2
 67
     7
 79
     5
170
     0
171
     0
290
     0
174
     0
 93
       13
 44
0.0
173
     0
291
     1
 45
0.0
1001
ACAD
1000
AcDbSavedByObjectVersion
1070
     0
  0
VISUALSTYLE
  5
31
102
{ACAD_XDICTIONARY
360
4C1
102
}
102
{ACAD_REACTORS
330
2A
102
}
330
2A
100
AcDbVisualStyle
  2

 70
     6
 71
     1
 72
     2
 73
     2
 90
        0
 40
-0.6
 41
-30.0
 62
     5
 63
     7
 74
     2
 91
        2
 64
     7
 65
   257
 75
     2
175
     1
 42
40.0
 92
        0
 66
   257
 43
1.0
 76
     1
 77
     6
 78
     2
 67
     7
 79
     3
170
     0
171
     0
290
     0
174
     0
 93
        1
 44
0.0
173
     0
291
     0
 45
0.0
1001
ACAD
1000
AcDbSavedByObjectVersion
1070
     0
  0
VISUALSTYLE
  5
3B
102
{ACAD_XDICTIONARY
360
4D5
102
}
102
{ACAD_REACTORS
330
2A
102
}
330
2A
100
AcDbVisualStyle
  2

 70
    20
 71
     2
 72
     2
 73
     0
 90
        0
 40
-0.6
 41
-30.0
 62
     5
 63
     7
 74
     1
 91
        4
 64
     7
 65
   257
 75
     1
175
     1
 42
1.0
 92
       10
 66
     7
 43
1.0
 76
     1
 77
     6
 78
     2
 67
     7
 79
     5
170
     0
171
     0
290
     0
174
     0
 93
        1
 44
0.0
173
     0
291
     1
 45
0.0
1001
ACAD
1000
AcDbSavedByObjectVersion
1070
     0
  0
VISUALSTYLE
  5
38
102
{ACAD_XDICTIONARY
360
4CF
102
}
102
{ACAD_REACTORS
330
2A
102
}
330
2A
100
AcDbVisualStyle
  2

 70
    14
 71
     2
 72
     2
 73
     0
 90
        0
 40
-0.6
 41
-30.0
 62
     5
 63
     7
 74
     1
 91
        4
 64
     7
 65
   257
 75
     7
175
     7
 42
1.0
 92
        8
 66
     7
 43
1.0
 76
     1
 77
     6
 78
     2
 67
     7
 79
     5
170
     0
171
     0
290
     0
174
     0
 93
        1
 44
0.0
173
     0
291
     1
 45
0.0
1001
ACAD
1000
AcDbSavedByObjectVersion
1070
     0
  0
VISUALSTYLE
  5
3C
102
{ACAD_XDICTIONARY
360
4D7
102
}
102
{ACAD_REACTORS
330
2A
102
}
330
2A
100
AcDbVisualStyle
  2

 70
    21
 71
     2
 72
     2
 73
     0
 90
        0
 40
-0.6
 41
-30.0
 62
     5
 63
     7
 74
     1
 91
        4
 64
     7
 65
   257
 75
     1
175
     1
 42
1.0
 92
        9
 66
     7
 43
1.0
 76
     1
 77
     6
 78
     2
 67
     7
 79
     5
170
     0
171
     0
290
     0
174
     0
 93
        1
 44
0.0
173
     0
291
     1
 45
0.0
1001
ACAD
1000
AcDbSavedByObjectVersion
1070
     0
  0
VISUALSTYLE
  5
33
102
{ACAD_XDICTIONARY
360
4C5
102
}
102
{ACAD_REACTORS
330
2A
102
}
330
2A
100
AcDbVisualStyle
  2

 70
     8
 71
     2
 72
     3
 73
     0
 90
        2
 40
-0.6
 41
30.0
 62
     5
 63
     7
 74
     0
 91
        0
 64
     7
 65
   257
 75
     1
175
     1
 42
1.0
 92
        8
 66
   257
 43
1.0
 76
     1
 77
     6
 78
     2
 67
     7
 79
     3
170
     0
171
     0
290
     0
174
     0
 93
       13
 44
0.0
173
     0
291
     0
 45
0.0
1001
ACAD
1000
AcDbSavedByObjectVersion
1070
     0
  0
VISUALSTYLE
  5
42
102
{ACAD_XDICTIONARY
360
4E3
102
}
102
{ACAD_REACTORS
330
2A
102
}
330
2A
100
AcDbVisualStyle
  2

 70
    27
 71
     2
 72
     2
 73
     1
 90
        2
 40
-0.6
 41
30.0
 62
     5
 63
     7
 74
     0
 91
        4
 64
     7
 65
   257
 75
     1
175
     1
 42
1.0
 92
        8
 66
   257
 43
1.0
 76
     1
 77
     6
 78
     2
 67
     8
 79
     3
170
     0
171
     0
290
     0
174
     0
 93
        5
 44
0.0
173
     0
291
     0
 45
0.0
1001
ACAD
1000
AcDbSavedByObjectVersion
1070
     0
  0
VISUALSTYLE
  5
41
102
{ACAD_XDICTIONARY
360
4E1
102
}
102
{ACAD_REACTORS
330
2A
102
}
330
2A
100
AcDbVisualStyle
  2

 70
    26
 71
     2
 72
     2
 73
     1
 90
        2
 40
-0.6
 41
30.0
 62
     5
 63
     7
 74
     1
 91
       10
 64
     7
 65
   257
 75
     2
175
     1
 42
1.0
 92
        8
 66
   257
 43
1.0
 76
     1
 77
     6
 78
     2
 67
     7
 79
     3
170
     0
171
     0
290
     0
174
     0
 93
        5
 44
0.0
173
     0
291
     0
 45
0.0
1001
ACAD
1000
AcDbSavedByObjectVersion
1070
     0
  0
VISUALSTYLE
  5
3E
102
{ACAD_XDICTIONARY
360
4DB
102
}
102
{ACAD_REACTORS
330
2A
102
}
330
2A
100
AcDbVisualStyle
  2

 70
    23
 71
     2
 72
     2
 73
     3
 90
        0
 40
-0.6
 41
-30.0
 62
     5
 63
     7
 74
     2
 91
        2
 64
     7
 65
     7
 75
     1
175
     1
 42
40.0
 92
        8
 66
     7
 43
1.0
 76
     1
 77
     6
 78
     2
 67
     7
 79
     3
170
     0
171
     0
290
     0
174
     0
 93
        1
 44
0.0
173
     0
291
     0
 45
0.0
1001
ACAD
1000
AcDbSavedByObjectVersion
1070
     0
  0
VISUALSTYLE
  5
3F
102
{ACAD_XDICTIONARY
360
4DD
102
}
102
{ACAD_REACTORS
330
2A
102
}
330
2A
100
AcDbVisualStyle
  2

 70
    24
 71
     1
 72
     2
 73
     2
 90
        0
 40
-0.6
 41
-30.0
 62
     5
 63
     7
 74
     2
 91
        2
 64
     7
 65
     7
 75
     1
175
     1
 42
40.0
 92
       11
 66
     7
 43
1.0
 76
     1
 77
     6
 78
     2
 67
     7
 79
     6
170
     0
171
     0
290
     0
174
     0
 93
        1
 44
0.0
173
     0
291
     0
 45
0.0
1001
ACAD
1000
AcDbSavedByObjectVersion
1070
     0
  0
VISUALSTYLE
  5
37
102
{ACAD_XDICTIONARY
360
4CD
102
}
102
{ACAD_REACTORS
330
2A
102
}
330
2A
100
AcDbVisualStyle
  2

 70
    13
 71
     2
 72
     2
 73
     0
 90
        0
 40
-0.6
 41
-30.0
 62
     5
 63
     7
 74
     1
 91
        4
 64
     7
 65
   257
 75
     1
175
     1
 42
1.0
 92
       12
 66
     7
 43
1.0
 76
     1
 77
     6
 78
     2
 67
     7
 79
     5
170
     0
171
     0
290
     0
174
     0
 93
        1
 44
0.0
173
     0
291
     1
 45
0.0
1001
ACAD
1000
AcDbSavedByObjectVersion
1070
     0
  0
VISUALSTYLE
  5
30
102
{ACAD_XDICTIONARY
360
4BF
102
}
102
{ACAD_REACTORS
330
2A
102
}
330
2A
100
AcDbVisualStyle
  2

 70
     5
 71
     0
 72
     2
 73
     0
 90
        0
 40
-0.6
 41
-30.0
 62
     5
 63
     7
 74
     1
 91
        4
 64
     7
 65
   257
 75
     1
175
     1
 42
1.0
 92
        0
 66
   257
 43
1.0
 76
     1
 77
     6
 78
     2
 67
     7
 79
     3
170
     0
171
     0
290
     0
174
     0
 93
        1
 44
0.0
173
     0
291
     0
 45
0.0
1001
ACAD
1000
AcDbSavedByObjectVersion
1070
     0
  0
VISUALSTYLE
  5
40
102
{ACAD_XDICTIONARY
360
4DF
102
}
102
{ACAD_REACTORS
330
2A
102
}
330
2A
100
AcDbVisualStyle
  2

 70
    25
 71
     2
 72
     2
 73
     1
 90
        1
 40
0.5
 41
-30.0
 62
     5
 63
     7
 74
     1
 91
        0
 64
     7
 65
   257
 75
     1
175
     1
 42
1.0
 92
        8
 66
     7
 43
1.0
 76
     1
 77
     6
 78
     2
 67
     7
 79
     3
170
     0
171
     0
290
     0
174
     0
 93
       13
 44
0.0
173
     0
291
     0
 45
0.0
1001
ACAD
1000
AcDbSavedByObjectVersion
1070
     0
  0
DICTIONARYVAR
  5
1F8
102
{ACAD_REACTORS
330
1EA
102
}
330
1EA
100
DictionaryVariables
280
     0
  1
1:1
  0
DICTIONARYVAR
  5
1F1
102
{ACAD_REACTORS
330
1EA
102
}
330
1EA
100
DictionaryVariables
280
     0
  1
3.500000
  0
DICTIONARYVAR
  5
1F2
102
{ACAD_REACTORS
330
1EA
102
}
330
1EA
100
DictionaryVariables
280
     0
  1
acadiso.lin
  0
DICTIONARYVAR
  5
1EC
102
{ACAD_REACTORS
330
1EA
102
}
330
1EA
100
DictionaryVariables
280
     0
  1
STANDARD
  0
DICTIONARYVAR
  5
1EB
102
{ACAD_REACTORS
330
1EA
102
}
330
1EA
100
DictionaryVariables
280
     0
  1
STANDARD
  0
DICTIONARYVAR
  5
45B
102
{ACAD_REACTORS
330
1EA
102
}
330
1EA
100
DictionaryVariables
280
     0
  1
Metric50
  0
DICTIONARYVAR
  5
45C
102
{ACAD_REACTORS
330
1EA
102
}
330
1EA
100
DictionaryVariables
280
     0
  1
Metric50
  0
DICTIONARYVAR
  5
1F3
102
{ACAD_REACTORS
330
1EA
102
}
330
1EA
100
DictionaryVariables
280
     0
  1
2
  0
DICTIONARYVAR
  5
1F4
102
{ACAD_REACTORS
330
1EA
102
}
330
1EA
100
DictionaryVariables
280
     0
  1
1
  0
DICTIONARYVAR
  5
4A7
102
{ACAD_REACTORS
330
1EA
102
}
330
1EA
100
DictionaryVariables
280
     0
  1
0
  0
DICTIONARYVAR
  5
45E
102
{ACAD_REACTORS
330
1EA
102
}
330
1EA
100
DictionaryVariables
280
     0
  1
1
  0
DICTIONARYVAR
  5
45F
102
{ACAD_REACTORS
330
1EA
102
}
330
1EA
100
DictionaryVariables
280
     0
  1
15
  0
DICTIONARYVAR
  5
45D
102
{ACAD_REACTORS
330
1EA
102
}
330
1EA
100
DictionaryVariables
280
     0
  1
0
  0
DICTIONARYVAR
  5
4AA
102
{ACAD_REACTORS
330
1EA
102
}
330
1EA
100
DictionaryVariables
280
     0
  1
1.570796
  0
DICTIONARYVAR
  5
4AB
102
{ACAD_REACTORS
330
1EA
102
}
330
1EA
100
DictionaryVariables
280
     0
  1
1.570796
  0
DICTIONARYVAR
  5
4AC
102
{ACAD_REACTORS
330
1EA
102
}
330
1EA
100
DictionaryVariables
280
     0
  1
-122.394000
  0
DICTIONARYVAR
  5
1F9
102
{ACAD_REACTORS
330
1EA
102
}
330
1EA
100
DictionaryVariables
280
     0
  1
1
  0
DICTIONARYVAR
  5
4A9
102
{ACAD_REACTORS
330
1EA
102
}
330
1EA
100
DictionaryVariables
280
     0
  1
80.000000
  0
DICTIONARYVAR
  5
4A8
102
{ACAD_REACTORS
330
1EA
102
}
330
1EA
100
DictionaryVariables
280
     0
  1
5.000000
  0
DICTIONARYVAR
  5
4A6
102
{ACAD_REACTORS
330
1EA
102
}
330
1EA
100
DictionaryVariables
280
     0
  1
127
  0
DICTIONARYVAR
  5
4AD
102
{ACAD_REACTORS
330
1EA
102
}
330
1EA
100
DictionaryVariables
280
     0
  1
2
  0
DICTIONARY
  5
4E8
330
239
100
AcDbDictionary
280
     1
281
     1
  3
ACAD_XREC_ROUNDTRIP
360
4E9
  0
DICTIONARY
  5
4B1
330
1E
100
AcDbDictionary
280
     1
281
     1
  3
ACAD_XREC_ROUNDTRIP
360
4B2
  0
DICTIONARY
  5
4B3
330
22
100
AcDbDictionary
280
     1
281
     1
  3
ACAD_XREC_ROUNDTRIP
360
4B4
  0
DICTIONARY
  5
4EA
330
23A
100
AcDbDictionary
280
     1
281
     1
  3
ACAD_XREC_ROUNDTRIP
360
4EB
  0
DICTIONARY
  5
22C
330
45
100
AcDbDictionary
280
     1
281
     1
  3
ACAD_XREC_ROUNDTRIP
360
22D
  0
DICTIONARY
  5
22A
330
44
100
AcDbDictionary
280
     1
281
     1
  3
ACAD_XREC_ROUNDTRIP
360
22B
  0
DICTIONARY
  5
22E
330
46
100
AcDbDictionary
280
     1
281
     1
  3
ACAD_XREC_ROUNDTRIP
360
22F
  0
DICTIONARY
  5
4E6
330
237
100
AcDbDictionary
280
     1
281
     1
  3
ACAD_XREC_ROUNDTRIP
360
4E7
  0
DICTIONARY
  5
460
330
5A
100
AcDbDictionary
280
     1
281
     1
  3
ACAD_ROUNDTRIP_2008_TABLESTYLE_CELLSTYLEMAP
360
4AE
  3
ACAD_XREC_ROUNDTRIP
360
4E5
  0
DICTIONARY
  5
4BD
330
2F
100
AcDbDictionary
280
     1
281
     1
  3
ACAD_XREC_ROUNDTRIP
360
4BE
  0
DICTIONARY
  5
4C3
330
32
100
AcDbDictionary
280
     1
281
     1
  3
ACAD_XREC_ROUNDTRIP
360
4C4
  0
DICTIONARY
  5
4CB
330
36
100
AcDbDictionary
280
     1
281
     1
  3
ACAD_XREC_ROUNDTRIP
360
4CC
  0
DICTIONARY
  5
4D3
330
3A
100
AcDbDictionary
280
     1
281
     1
  3
ACAD_XREC_ROUNDTRIP
360
4D4
  0
DICTIONARY
  5
4C7
330
34
100
AcDbDictionary
280
     1
281
     1
  3
ACAD_XREC_ROUNDTRIP
360
4C8
  0
DICTIONARY
  5
4C9
330
35
100
AcDbDictionary
280
     1
281
     1
  3
ACAD_XREC_ROUNDTRIP
360
4CA
  0
DICTIONARY
  5
4D9
330
3D
100
AcDbDictionary
280
     1
281
     1
  3
ACAD_XREC_ROUNDTRIP
360
4DA
  0
DICTIONARY
  5
4D1
330
39
100
AcDbDictionary
280
     1
281
     1
  3
ACAD_XREC_ROUNDTRIP
360
4D2
  0
DICTIONARY
  5
4B5
330
2B
100
AcDbDictionary
280
     1
281
     1
  3
ACAD_XREC_ROUNDTRIP
360
4B6
  0
DICTIONARY
  5
4B7
330
2C
100
AcDbDictionary
280
     1
281
     1
  3
ACAD_XREC_ROUNDTRIP
360
4B8
  0
DICTIONARY
  5
4B9
330
2D
100
AcDbDictionary
280
     1
281
     1
  3
ACAD_XREC_ROUNDTRIP
360
4BA
  0
DICTIONARY
  5
4BB
330
2E
100
AcDbDictionary
280
     1
281
     1
  3
ACAD_XREC_ROUNDTRIP
360
4BC
  0
DICTIONARY
  5
4C1
330
31
100
AcDbDictionary
280
     1
281
     1
  3
ACAD_XREC_ROUNDTRIP
360
4C2
  0
DICTIONARY
  5
4D5
330
3B
100
AcDbDictionary
280
     1
281
     1
  3
ACAD_XREC_ROUNDTRIP
360
4D6
  0
DICTIONARY
  5
4CF
330
38
100
AcDbDictionary
280
     1
281
     1
  3
ACAD_XREC_ROUNDTRIP
360
4D0
  0
DICTIONARY
  5
4D7
330
3C
100
AcDbDictionary
280
     1
281
     1
  3
ACAD_XREC_ROUNDTRIP
360
4D8
  0
DICTIONARY
  5
4C5
330
33
100
AcDbDictionary
280
     1
281
     1
  3
ACAD_XREC_ROUNDTRIP
360
4C6
  0
DICTIONARY
  5
4E3
330
42
100
AcDbDictionary
280
     1
281
     1
  3
ACAD_XREC_ROUNDTRIP
360
4E4
  0
DICTIONARY
  5
4E1
330
41
100
AcDbDictionary
280
     1
281
     1
  3
ACAD_XREC_ROUNDTRIP
360
4E2
  0
DICTIONARY
  5
4DB
330
3E
100
AcDbDictionary
280
     1
281
     1
  3
ACAD_XREC_ROUNDTRIP
360
4DC
  0
DICTIONARY
  5
4DD
330
3F
100
AcDbDictionary
280
     1
281
     1
  3
ACAD_XREC_ROUNDTRIP
360
4DE
  0
DICTIONARY
  5
4CD
330
37
100
AcDbDictionary
280
     1
281
     1
  3
ACAD_XREC_ROUNDTRIP
360
4CE
  0
DICTIONARY
  5
4BF
330
30
100
AcDbDictionary
280
     1
281
     1
  3
ACAD_XREC_ROUNDTRIP
360
4C0
  0
DICTIONARY
  5
4DF
330
40
100
AcDbDictionary
280
     1
281
     1
  3
ACAD_XREC_ROUNDTRIP
360
4E0
  0
XRECORD
  5
4E9
102
{ACAD_REACTORS
330
4E8
102
}
330
4E8
100
AcDbXrecord
280
     1
102
DISPLAYNAME
  1
Metric50
102
FLAGS
 90
        0
  0
XRECORD
  5
4B2
102
{ACAD_REACTORS
330
4B1
102
}
330
4B1
100
AcDbXrecord
280
     1
102
SHADEPLOT
 70
     0
102
SHADEPLOTRESLEVEL
 70
     2
102
SHADEPLOTCUSTOMDPI
 70
   300
  0
XRECORD
  5
4B4
102
{ACAD_REACTORS
330
4B3
102
}
330
4B3
100
AcDbXrecord
280
     1
102
SHADEPLOT
 70
     0
102
SHADEPLOTRESLEVEL
 70
     2
102
SHADEPLOTCUSTOMDPI
 70
   300
  0
XRECORD
  5
4EB
102
{ACAD_REACTORS
330
4EA
102
}
330
4EA
100
AcDbXrecord
280
     1
102
SHADEPLOT
 70
     0
102
SHADEPLOTRESLEVEL
 70
     2
102
SHADEPLOTCUSTOMDPI
 70
   300
  0
XRECORD
  5
22D
102
{ACAD_REACTORS
330
22C
102
}
330
22C
100
AcDbXrecord
280
     1
102
MATERIAL
148
0.0
149
0.0
149
0.0
 93
        0
 94
      127
282
     0
 72
     1
 77
     1
171
     1
175
     1
179
     1
273
     0
  0
XRECORD
  5
22B
102
{ACAD_REACTORS
330
22A
102
}
330
22A
100
AcDbXrecord
280
     1
102
MATERIAL
148
0.0
149
0.0
149
0.0
 93
        0
 94
      127
282
     0
 72
     1
 77
     1
171
     1
175
     1
179
     1
273
     0
  0
XRECORD
  5
22F
102
{ACAD_REACTORS
330
22E
102
}
330
22E
100
AcDbXrecord
280
     1
102
MATERIAL
148
0.0
149
0.0
149
0.0
 93
        0
 94
      127
282
     0
 72
     1
 77
     1
171
     1
175
     1
179
     1
273
     0
  0
XRECORD
  5
4E7
102
{ACAD_REACTORS
330
4E6
102
}
330
4E6
100
AcDbXrecord
280
     1
102
DISPLAYNAME
  1
Metric50
102
FLAGS
 90
        0
  0
CELLSTYLEMAP
  5
4AE
102
{ACAD_REACTORS
330
460
102
}
330
460
100
AcDbCellStyleMap
 90
        3
300
CELLSTYLE
  1
TABLEFORMAT_BEGIN
 90
        5
170
     1
 91
        0
 92
    32768
 62
   257
 93
        1
300
CONTENTFORMAT
  1
CONTENTFORMAT_BEGIN
 90
        0
 91
        0
 92
        4
 93
        0
300

 40
0.0
140
1.0
 94
        5
 62
     0
340
11
144
6.0
309
CONTENTFORMAT_END
171
     1
301
MARGIN
  1
CELLMARGIN_BEGIN
 40
1.5
 40
1.5
 40
1.5
 40
1.5
 40
0.18
 40
0.18
309
CELLMARGIN_END
 94
        6
 95
        1
302
GRIDFORMAT
  1
GRIDFORMAT_BEGIN
 90
        0
 91
        1
 62
     0
 92
       -2
340
0
 93
        0
 40
0.045
309
GRIDFORMAT_END
 95
        2
302
GRIDFORMAT
  1
GRIDFORMAT_BEGIN
 90
        0
 91
        1
 62
     0
 92
       -2
340
0
 93
        0
 40
0.045
309
GRIDFORMAT_END
 95
        4
302
GRIDFORMAT
  1
GRIDFORMAT_BEGIN
 90
        0
 91
        1
 62
     0
 92
       -2
340
0
 93
        0
 40
0.045
309
GRIDFORMAT_END
 95
        8
302
GRIDFORMAT
  1
GRIDFORMAT_BEGIN
 90
        0
 91
        1
 62
     0
 92
       -2
340
0
 93
        0
 40
0.045
309
GRIDFORMAT_END
 95
       16
302
GRIDFORMAT
  1
GRIDFORMAT_BEGIN
 90
        0
 91
        1
 62
     0
 92
       -2
340
0
 93
        0
 40
0.045
309
GRIDFORMAT_END
 95
       32
302
GRIDFORMAT
  1
GRIDFORMAT_BEGIN
 90
        0
 91
        1
 62
     0
 92
       -2
340
0
 93
        0
 40
0.045
309
GRIDFORMAT_END
309
TABLEFORMAT_END
  1
CELLSTYLE_BEGIN
 90
        1
 91
        1
300
_TITLE
309
CELLSTYLE_END
300
CELLSTYLE
  1
TABLEFORMAT_BEGIN
 90
        5
170
     1
 91
        0
 92
        0
 62
   257
 93
        1
300
CONTENTFORMAT
  1
CONTENTFORMAT_BEGIN
 90
        0
 91
        0
 92
        4
 93
        0
300

 40
0.0
140
1.0
 94
        5
 62
     0
340
11
144
4.5
309
CONTENTFORMAT_END
171
     1
301
MARGIN
  1
CELLMARGIN_BEGIN
 40
1.5
 40
1.5
 40
1.5
 40
1.5
 40
0.18
 40
0.18
309
CELLMARGIN_END
 94
        6
 95
        1
302
GRIDFORMAT
  1
GRIDFORMAT_BEGIN
 90
        0
 91
        1
 62
     0
 92
       -2
340
0
 93
        0
 40
0.045
309
GRIDFORMAT_END
 95
        2
302
GRIDFORMAT
  1
GRIDFORMAT_BEGIN
 90
        0
 91
        1
 62
     0
 92
       -2
340
0
 93
        0
 40
0.045
309
GRIDFORMAT_END
 95
        4
302
GRIDFORMAT
  1
GRIDFORMAT_BEGIN
 90
        0
 91
        1
 62
     0
 92
       -2
340
0
 93
        0
 40
0.045
309
GRIDFORMAT_END
 95
        8
302
GRIDFORMAT
  1
GRIDFORMAT_BEGIN
 90
        0
 91
        1
 62
     0
 92
       -2
340
0
 93
        0
 40
0.045
309
GRIDFORMAT_END
 95
       16
302
GRIDFORMAT
  1
GRIDFORMAT_BEGIN
 90
        0
 91
        1
 62
     0
 92
       -2
340
0
 93
        0
 40
0.045
309
GRIDFORMAT_END
 95
       32
302
GRIDFORMAT
  1
GRIDFORMAT_BEGIN
 90
        0
 91
        1
 62
     0
 92
       -2
340
0
 93
        0
 40
0.045
309
GRIDFORMAT_END
309
TABLEFORMAT_END
  1
CELLSTYLE_BEGIN
 90
        2
 91
        1
300
_HEADER
309
CELLSTYLE_END
300
CELLSTYLE
  1
TABLEFORMAT_BEGIN
 90
        5
170
     1
 91
        0
 92
        0
 62
   257
 93
        1
300
CONTENTFORMAT
  1
CONTENTFORMAT_BEGIN
 90
        0
 91
        0
 92
        4
 93
        0
300

 40
0.0
140
1.0
 94
        2
 62
     0
340
11
144
4.5
309
CONTENTFORMAT_END
171
     1
301
MARGIN
  1
CELLMARGIN_BEGIN
 40
1.5
 40
1.5
 40
1.5
 40
1.5
 40
0.18
 40
0.18
309
CELLMARGIN_END
 94
        6
 95
        1
302
GRIDFORMAT
  1
GRIDFORMAT_BEGIN
 90
        0
 91
        1
 62
     0
 92
       -2
340
0
 93
        0
 40
0.045
309
GRIDFORMAT_END
 95
        2
302
GRIDFORMAT
  1
GRIDFORMAT_BEGIN
 90
        0
 91
        1
 62
     0
 92
       -2
340
0
 93
        0
 40
0.045
309
GRIDFORMAT_END
 95
        4
302
GRIDFORMAT
  1
GRIDFORMAT_BEGIN
 90
        0
 91
        1
 62
     0
 92
       -2
340
0
 93
        0
 40
0.045
309
GRIDFORMAT_END
 95
        8
302
GRIDFORMAT
  1
GRIDFORMAT_BEGIN
 90
        0
 91
        1
 62
     0
 92
       -2
340
0
 93
        0
 40
0.045
309
GRIDFORMAT_END
 95
       16
302
GRIDFORMAT
  1
GRIDFORMAT_BEGIN
 90
        0
 91
        1
 62
     0
 92
       -2
340
0
 93
        0
 40
0.045
309
GRIDFORMAT_END
 95
       32
302
GRIDFORMAT
  1
GRIDFORMAT_BEGIN
 90
        0
 91
        1
 62
     0
 92
       -2
340
0
 93
        0
 40
0.045
309
GRIDFORMAT_END
309
TABLEFORMAT_END
  1
CELLSTYLE_BEGIN
 90
        3
 91
        2
300
_DATA
309
CELLSTYLE_END
  0
XRECORD
  5
4E5
102
{ACAD_REACTORS
330
460
102
}
330
460
100
AcDbXrecord
280
     1
102
ACAD_ROUNDTRIP_PRE2007_TABLESTYLE
 90
        4
 91
        0
  1

 92
        4
 93
        0
  2

 94
        4
 95
        0
  3

  0
XRECORD
  5
4BE
102
{ACAD_REACTORS
330
4BD
102
}
330
4BD
100
AcDbXrecord
280
     1
102
RTVSPost2010Prop28
280
     1
102
RTVSPost2010PropOp28
 70
     1
102
RTVSPost2010Prop29
280
     1
102
RTVSPost2010PropOp29
 70
     1
102
RTVSPost2010Prop30
280
     0
102
RTVSPost2010PropOp30
 70
     1
102
RTVSPost2010Prop31
280
     0
102
RTVSPost2010PropOp31
 70
     1
102
RTVSPost2010Prop32
280
     0
102
RTVSPost2010PropOp32
 70
     1
102
RTVSPost2010Prop33
280
     0
102
RTVSPost2010PropOp33
 70
     1
102
RTVSPost2010Prop34
280
     0
102
RTVSPost2010PropOp34
 70
     1
102
RTVSPost2010Prop35
280
     0
102
RTVSPost2010PropOp35
 70
     1
102
RTVSPost2010Prop36
280
     0
102
RTVSPost2010PropOp36
 70
     1
102
RTVSPost2010Prop37
 90
       50
102
RTVSPost2010PropOp37
 70
     1
102
RTVSPost2010Prop38
140
0.0
102
RTVSPost2010PropOp38
 70
     1
102
RTVSPost2010Prop39
140
1.0
102
RTVSPost2010PropOp39
 70
     1
102
RTVSPost2010Prop40
 90
        0
102
RTVSPost2010PropOp40
 70
     1
102
RTVSPost2010Prop41ColorIndex
 90
       18
102
RTVSPost2010Prop41ColorRGB
 90
        0
102
RTVSPost2010PropOp41
 70
     1
102
RTVSPost2010Prop42
 90
       50
102
RTVSPost2010PropOp42
 70
     1
102
RTVSPost2010Prop43
 90
        3
102
RTVSPost2010PropOp43
 70
     1
102
RTVSPost2010Prop44ColorIndex
 90
        5
102
RTVSPost2010Prop44ColorRGB
 90
      255
102
RTVSPost2010PropOp44
 70
     1
102
RTVSPost2010Prop45
280
     0
102
RTVSPost2010PropOp45
 70
     1
102
RTVSPost2010Prop46
 90
       50
102
RTVSPost2010PropOp46
 70
     1
102
RTVSPost2010Prop47
 90
       50
102
RTVSPost2010PropOp47
 70
     1
102
RTVSPost2010Prop48
 90
       50
102
RTVSPost2010PropOp48
 70
     1
102
RTVSPost2010Prop49
280
     0
102
RTVSPost2010PropOp49
 70
     1
102
RTVSPost2010Prop50
 90
       50
102
RTVSPost2010PropOp50
 70
     1
102
RTVSPost2010Prop51ColorIndex
 90
      256
102
RTVSPost2010Prop51ColorRGB
 90
-16777216
102
RTVSPost2010PropOp51
 70
     0
102
RTVSPost2010Prop52
140
1.0
102
RTVSPost2010PropOp52
 70
     0
102
RTVSPost2010Prop53
 90
        2
102
RTVSPost2010PropOp53
 70
     1
102
RTVSPost2010Prop54
  1
strokes_ogs.tif
102
RTVSPost2010PropOp54
 70
     1
102
RTVSPost2010Prop55
280
     0
102
RTVSPost2010PropOp55
 70
     1
102
RTVSPost2010Prop56
140
1.0
102
RTVSPost2010PropOp56
 70
     1
102
RTVSPost2010Prop57
140
1.0
102
RTVSPost2010PropOp57
 70
     1
102
RTVSPropertyOp0
 70
     1
102
RTVSPropertyOp1
 70
     1
102
RTVSPropertyOp2
 70
     1
102
RTVSPropertyOp3
 70
     1
102
RTVSPropertyOp4
 70
     1
102
RTVSPropertyOp5
 70
     1
102
RTVSPropertyOp6
 70
     1
102
RTVSPropertyOp7
 70
     1
102
RTVSPropertyOp8
 70
     1
102
RTVSPropertyOp9
 70
     1
102
RTVSPropertyOp10
 70
     1
102
RTVSPropertyOp11
 70
     1
102
RTVSPropertyOp12
 70
     1
102
RTVSPropertyOp13
 70
     1
102
RTVSPropertyOp14
 70
     1
102
RTVSPropertyOp15
 70
     1
102
RTVSPropertyOp16
 70
     1
102
RTVSPropertyOp17
 70
     1
102
RTVSPropertyOp18
 70
     1
102
RTVSPropertyOp19
 70
     1
102
RTVSPropertyOp20
 70
     1
102
RTVSPropertyOp21
 70
     1
102
RTVSPropertyOp22
 70
     1
102
RTVSPropertyOp23
 70
     1
102
RTVSPropertyOp24
 70
     1
102
RTVSPropertyOp25
 70
     1
102
RTVSPropertyOp26
 70
     1
102
RTVSPropertyOp27
 70
     1
102
RTVSPropertyOp28
 70
     1
102
RTVSPropertyOp29
 70
     1
102
RTVSPropertyOp30
 70
     1
102
RTVSPropertyOp31
 70
     1
102
RTVSPropertyOp32
 70
     1
102
RTVSPropertyOp33
 70
     1
102
RTVSPropertyOp34
 70
     1
102
RTVSPropertyOp35
 70
     1
102
RTVSPropertyOp36
 70
     1
102
RTVSPropertyOp37
 70
     1
102
RTVSPropertyOp38
 70
     1
102
RTVSPropertyOp39
 70
     1
102
RTVSPropertyOp40
 70
     1
102
RTVSPropertyOp41
 70
     1
102
RTVSPropertyOp42
 70
     1
102
RTVSPropertyOp43
 70
     1
102
RTVSPropertyOp44
 70
     1
102
RTVSPropertyOp45
 70
     1
102
RTVSPropertyOp46
 70
     1
102
RTVSPropertyOp47
 70
     1
102
RTVSPropertyOp48
 70
     1
102
RTVSPropertyOp49
 70
     1
102
RTVSPropertyOp50
 70
     1
102
RTVSPropertyOp51
 70
     0
102
RTVSPropertyOp52
 70
     0
102
RTVSPropertyOp53
 70
     1
102
RTVSPropertyOp54
 70
     1
102
RTVSPropertyOp55
 70
     1
102
RTVSPropertyOp56
 70
     1
102
RTVSPropertyOp57
 70
     1
102
RTVSPropertyOp58
 70
     1
102
RTVSPropertyOp59
 70
     1
102
RTVSPropertyOp60
 70
     1
102
RTVSPropertyOp61
 70
     1
102
RTVSPropertyOp62
 70
     1
  0
XRECORD
  5
4C4
102
{ACAD_REACTORS
330
4C3
102
}
330
4C3
100
AcDbXrecord
280
     1
102
RTVSPost2010Prop28
280
     0
102
RTVSPost2010PropOp28
 70
     1
102
RTVSPost2010Prop29
280
     1
102
RTVSPost2010PropOp29
 70
     1
102
RTVSPost2010Prop30
280
     1
102
RTVSPost2010PropOp30
 70
     1
102
RTVSPost2010Prop31
280
     0
102
RTVSPost2010PropOp31
 70
     1
102
RTVSPost2010Prop32
280
     0
102
RTVSPost2010PropOp32
 70
     1
102
RTVSPost2010Prop33
280
     0
102
RTVSPost2010PropOp33
 70
     1
102
RTVSPost2010Prop34
280
     0
102
RTVSPost2010PropOp34
 70
     1
102
RTVSPost2010Prop35
280
     0
102
RTVSPost2010PropOp35
 70
     1
102
RTVSPost2010Prop36
280
     0
102
RTVSPost2010PropOp36
 70
     1
102
RTVSPost2010Prop37
 90
       50
102
RTVSPost2010PropOp37
 70
     1
102
RTVSPost2010Prop38
140
0.0
102
RTVSPost2010PropOp38
 70
     1
102
RTVSPost2010Prop39
140
1.0
102
RTVSPost2010PropOp39
 70
     1
102
RTVSPost2010Prop40
 90
        0
102
RTVSPost2010PropOp40
 70
     1
102
RTVSPost2010Prop41ColorIndex
 90
       18
102
RTVSPost2010Prop41ColorRGB
 90
        0
102
RTVSPost2010PropOp41
 70
     1
102
RTVSPost2010Prop42
 90
       50
102
RTVSPost2010PropOp42
 70
     1
102
RTVSPost2010Prop43
 90
        3
102
RTVSPost2010PropOp43
 70
     1
102
RTVSPost2010Prop44ColorIndex
 90
        5
102
RTVSPost2010Prop44ColorRGB
 90
      255
102
RTVSPost2010PropOp44
 70
     1
102
RTVSPost2010Prop45
280
     0
102
RTVSPost2010PropOp45
 70
     1
102
RTVSPost2010Prop46
 90
       50
102
RTVSPost2010PropOp46
 70
     1
102
RTVSPost2010Prop47
 90
       50
102
RTVSPost2010PropOp47
 70
     1
102
RTVSPost2010Prop48
 90
       50
102
RTVSPost2010PropOp48
 70
     1
102
RTVSPost2010Prop49
280
     0
102
RTVSPost2010PropOp49
 70
     1
102
RTVSPost2010Prop50
 90
       50
102
RTVSPost2010PropOp50
 70
     1
102
RTVSPost2010Prop51ColorIndex
 90
      256
102
RTVSPost2010Prop51ColorRGB
 90
-16777216
102
RTVSPost2010PropOp51
 70
     0
102
RTVSPost2010Prop52
140
1.0
102
RTVSPost2010PropOp52
 70
     0
102
RTVSPost2010Prop53
 90
        2
102
RTVSPost2010PropOp53
 70
     1
102
RTVSPost2010Prop54
  1
strokes_ogs.tif
102
RTVSPost2010PropOp54
 70
     1
102
RTVSPost2010Prop55
280
     0
102
RTVSPost2010PropOp55
 70
     1
102
RTVSPost2010Prop56
140
1.0
102
RTVSPost2010PropOp56
 70
     1
102
RTVSPost2010Prop57
140
1.0
102
RTVSPost2010PropOp57
 70
     1
102
RTVSPropertyOp0
 70
     1
102
RTVSPropertyOp1
 70
     1
102
RTVSPropertyOp2
 70
     1
102
RTVSPropertyOp3
 70
     1
102
RTVSPropertyOp4
 70
     1
102
RTVSPropertyOp5
 70
     1
102
RTVSPropertyOp6
 70
     1
102
RTVSPropertyOp7
 70
     1
102
RTVSPropertyOp8
 70
     1
102
RTVSPropertyOp9
 70
     1
102
RTVSPropertyOp10
 70
     1
102
RTVSPropertyOp11
 70
     1
102
RTVSPropertyOp12
 70
     1
102
RTVSPropertyOp13
 70
     1
102
RTVSPropertyOp14
 70
     1
102
RTVSPropertyOp15
 70
     1
102
RTVSPropertyOp16
 70
     1
102
RTVSPropertyOp17
 70
     1
102
RTVSPropertyOp18
 70
     1
102
RTVSPropertyOp19
 70
     1
102
RTVSPropertyOp20
 70
     1
102
RTVSPropertyOp21
 70
     1
102
RTVSPropertyOp22
 70
     1
102
RTVSPropertyOp23
 70
     1
102
RTVSPropertyOp24
 70
     1
102
RTVSPropertyOp25
 70
     1
102
RTVSPropertyOp26
 70
     1
102
RTVSPropertyOp27
 70
     1
102
RTVSPropertyOp28
 70
     1
102
RTVSPropertyOp29
 70
     1
102
RTVSPropertyOp30
 70
     1
102
RTVSPropertyOp31
 70
     1
102
RTVSPropertyOp32
 70
     1
102
RTVSPropertyOp33
 70
     1
102
RTVSPropertyOp34
 70
     1
102
RTVSPropertyOp35
 70
     1
102
RTVSPropertyOp36
 70
     1
102
RTVSPropertyOp37
 70
     1
102
RTVSPropertyOp38
 70
     1
102
RTVSPropertyOp39
 70
     1
102
RTVSPropertyOp40
 70
     1
102
RTVSPropertyOp41
 70
     1
102
RTVSPropertyOp42
 70
     1
102
RTVSPropertyOp43
 70
     1
102
RTVSPropertyOp44
 70
     1
102
RTVSPropertyOp45
 70
     1
102
RTVSPropertyOp46
 70
     1
102
RTVSPropertyOp47
 70
     1
102
RTVSPropertyOp48
 70
     1
102
RTVSPropertyOp49
 70
     1
102
RTVSPropertyOp50
 70
     1
102
RTVSPropertyOp51
 70
     0
102
RTVSPropertyOp52
 70
     0
102
RTVSPropertyOp53
 70
     1
102
RTVSPropertyOp54
 70
     1
102
RTVSPropertyOp55
 70
     1
102
RTVSPropertyOp56
 70
     1
102
RTVSPropertyOp57
 70
     1
102
RTVSPropertyOp58
 70
     1
102
RTVSPropertyOp59
 70
     1
102
RTVSPropertyOp60
 70
     1
102
RTVSPropertyOp61
 70
     1
102
RTVSPropertyOp62
 70
     1
  0
XRECORD
  5
4CC
102
{ACAD_REACTORS
330
4CB
102
}
330
4CB
100
AcDbXrecord
280
     1
102
RTVSPost2010Prop28
280
     0
102
RTVSPost2010PropOp28
 70
     1
102
RTVSPost2010Prop29
280
     1
102
RTVSPost2010PropOp29
 70
     1
102
RTVSPost2010Prop30
280
     1
102
RTVSPost2010PropOp30
 70
     1
102
RTVSPost2010Prop31
280
     0
102
RTVSPost2010PropOp31
 70
     1
102
RTVSPost2010Prop32
280
     0
102
RTVSPost2010PropOp32
 70
     1
102
RTVSPost2010Prop33
280
     0
102
RTVSPost2010PropOp33
 70
     1
102
RTVSPost2010Prop34
280
     0
102
RTVSPost2010PropOp34
 70
     1
102
RTVSPost2010Prop35
280
     0
102
RTVSPost2010PropOp35
 70
     1
102
RTVSPost2010Prop36
280
     0
102
RTVSPost2010PropOp36
 70
     1
102
RTVSPost2010Prop37
 90
       50
102
RTVSPost2010PropOp37
 70
     1
102
RTVSPost2010Prop38
140
0.0
102
RTVSPost2010PropOp38
 70
     1
102
RTVSPost2010Prop39
140
1.0
102
RTVSPost2010PropOp39
 70
     1
102
RTVSPost2010Prop40
 90
        0
102
RTVSPost2010PropOp40
 70
     1
102
RTVSPost2010Prop41ColorIndex
 90
       18
102
RTVSPost2010Prop41ColorRGB
 90
        0
102
RTVSPost2010PropOp41
 70
     1
102
RTVSPost2010Prop42
 90
       50
102
RTVSPost2010PropOp42
 70
     1
102
RTVSPost2010Prop43
 90
        3
102
RTVSPost2010PropOp43
 70
     1
102
RTVSPost2010Prop44ColorIndex
 90
        5
102
RTVSPost2010Prop44ColorRGB
 90
      255
102
RTVSPost2010PropOp44
 70
     1
102
RTVSPost2010Prop45
280
     0
102
RTVSPost2010PropOp45
 70
     1
102
RTVSPost2010Prop46
 90
       50
102
RTVSPost2010PropOp46
 70
     1
102
RTVSPost2010Prop47
 90
       50
102
RTVSPost2010PropOp47
 70
     1
102
RTVSPost2010Prop48
 90
       50
102
RTVSPost2010PropOp48
 70
     1
102
RTVSPost2010Prop49
280
     0
102
RTVSPost2010PropOp49
 70
     1
102
RTVSPost2010Prop50
 90
       50
102
RTVSPost2010PropOp50
 70
     1
102
RTVSPost2010Prop51ColorIndex
 90
      256
102
RTVSPost2010Prop51ColorRGB
 90
-16777216
102
RTVSPost2010PropOp51
 70
     0
102
RTVSPost2010Prop52
140
1.0
102
RTVSPost2010PropOp52
 70
     0
102
RTVSPost2010Prop53
 90
        2
102
RTVSPost2010PropOp53
 70
     1
102
RTVSPost2010Prop54
  1
strokes_ogs.tif
102
RTVSPost2010PropOp54
 70
     1
102
RTVSPost2010Prop55
280
     0
102
RTVSPost2010PropOp55
 70
     1
102
RTVSPost2010Prop56
140
1.0
102
RTVSPost2010PropOp56
 70
     1
102
RTVSPost2010Prop57
140
1.0
102
RTVSPost2010PropOp57
 70
     1
102
RTVSPropertyOp0
 70
     1
102
RTVSPropertyOp1
 70
     1
102
RTVSPropertyOp2
 70
     1
102
RTVSPropertyOp3
 70
     1
102
RTVSPropertyOp4
 70
     1
102
RTVSPropertyOp5
 70
     1
102
RTVSPropertyOp6
 70
     1
102
RTVSPropertyOp7
 70
     1
102
RTVSPropertyOp8
 70
     1
102
RTVSPropertyOp9
 70
     1
102
RTVSPropertyOp10
 70
     1
102
RTVSPropertyOp11
 70
     1
102
RTVSPropertyOp12
 70
     1
102
RTVSPropertyOp13
 70
     1
102
RTVSPropertyOp14
 70
     1
102
RTVSPropertyOp15
 70
     1
102
RTVSPropertyOp16
 70
     1
102
RTVSPropertyOp17
 70
     1
102
RTVSPropertyOp18
 70
     1
102
RTVSPropertyOp19
 70
     1
102
RTVSPropertyOp20
 70
     1
102
RTVSPropertyOp21
 70
     1
102
RTVSPropertyOp22
 70
     1
102
RTVSPropertyOp23
 70
     1
102
RTVSPropertyOp24
 70
     1
102
RTVSPropertyOp25
 70
     1
102
RTVSPropertyOp26
 70
     1
102
RTVSPropertyOp27
 70
     1
102
RTVSPropertyOp28
 70
     1
102
RTVSPropertyOp29
 70
     1
102
RTVSPropertyOp30
 70
     1
102
RTVSPropertyOp31
 70
     1
102
RTVSPropertyOp32
 70
     1
102
RTVSPropertyOp33
 70
     1
102
RTVSPropertyOp34
 70
     1
102
RTVSPropertyOp35
 70
     1
102
RTVSPropertyOp36
 70
     1
102
RTVSPropertyOp37
 70
     1
102
RTVSPropertyOp38
 70
     1
102
RTVSPropertyOp39
 70
     1
102
RTVSPropertyOp40
 70
     1
102
RTVSPropertyOp41
 70
     1
102
RTVSPropertyOp42
 70
     1
102
RTVSPropertyOp43
 70
     1
102
RTVSPropertyOp44
 70
     1
102
RTVSPropertyOp45
 70
     1
102
RTVSPropertyOp46
 70
     1
102
RTVSPropertyOp47
 70
     1
102
RTVSPropertyOp48
 70
     1
102
RTVSPropertyOp49
 70
     1
102
RTVSPropertyOp50
 70
     1
102
RTVSPropertyOp51
 70
     0
102
RTVSPropertyOp52
 70
     0
102
RTVSPropertyOp53
 70
     1
102
RTVSPropertyOp54
 70
     1
102
RTVSPropertyOp55
 70
     1
102
RTVSPropertyOp56
 70
     1
102
RTVSPropertyOp57
 70
     1
102
RTVSPropertyOp58
 70
     1
102
RTVSPropertyOp59
 70
     1
102
RTVSPropertyOp60
 70
     1
102
RTVSPropertyOp61
 70
     1
102
RTVSPropertyOp62
 70
     1
  0
XRECORD
  5
4D4
102
{ACAD_REACTORS
330
4D3
102
}
330
4D3
100
AcDbXrecord
280
     1
102
RTVSPost2010Prop28
280
     0
102
RTVSPost2010PropOp28
 70
     1
102
RTVSPost2010Prop29
280
     1
102
RTVSPost2010PropOp29
 70
     1
102
RTVSPost2010Prop30
280
     1
102
RTVSPost2010PropOp30
 70
     1
102
RTVSPost2010Prop31
280
     0
102
RTVSPost2010PropOp31
 70
     1
102
RTVSPost2010Prop32
280
     0
102
RTVSPost2010PropOp32
 70
     1
102
RTVSPost2010Prop33
280
     0
102
RTVSPost2010PropOp33
 70
     1
102
RTVSPost2010Prop34
280
     0
102
RTVSPost2010PropOp34
 70
     1
102
RTVSPost2010Prop35
280
     0
102
RTVSPost2010PropOp35
 70
     1
102
RTVSPost2010Prop36
280
     0
102
RTVSPost2010PropOp36
 70
     1
102
RTVSPost2010Prop37
 90
       50
102
RTVSPost2010PropOp37
 70
     1
102
RTVSPost2010Prop38
140
0.0
102
RTVSPost2010PropOp38
 70
     1
102
RTVSPost2010Prop39
140
1.0
102
RTVSPost2010PropOp39
 70
     1
102
RTVSPost2010Prop40
 90
        0
102
RTVSPost2010PropOp40
 70
     1
102
RTVSPost2010Prop41ColorIndex
 90
       18
102
RTVSPost2010Prop41ColorRGB
 90
        0
102
RTVSPost2010PropOp41
 70
     1
102
RTVSPost2010Prop42
 90
       50
102
RTVSPost2010PropOp42
 70
     1
102
RTVSPost2010Prop43
 90
        3
102
RTVSPost2010PropOp43
 70
     1
102
RTVSPost2010Prop44ColorIndex
 90
        5
102
RTVSPost2010Prop44ColorRGB
 90
      255
102
RTVSPost2010PropOp44
 70
     1
102
RTVSPost2010Prop45
280
     0
102
RTVSPost2010PropOp45
 70
     1
102
RTVSPost2010Prop46
 90
       50
102
RTVSPost2010PropOp46
 70
     1
102
RTVSPost2010Prop47
 90
       50
102
RTVSPost2010PropOp47
 70
     1
102
RTVSPost2010Prop48
 90
       50
102
RTVSPost2010PropOp48
 70
     1
102
RTVSPost2010Prop49
280
     0
102
RTVSPost2010PropOp49
 70
     1
102
RTVSPost2010Prop50
 90
       50
102
RTVSPost2010PropOp50
 70
     1
102
RTVSPost2010Prop51ColorIndex
 90
      256
102
RTVSPost2010Prop51ColorRGB
 90
-16777216
102
RTVSPost2010PropOp51
 70
     0
102
RTVSPost2010Prop52
140
1.0
102
RTVSPost2010PropOp52
 70
     0
102
RTVSPost2010Prop53
 90
        2
102
RTVSPost2010PropOp53
 70
     1
102
RTVSPost2010Prop54
  1
strokes_ogs.tif
102
RTVSPost2010PropOp54
 70
     1
102
RTVSPost2010Prop55
280
     0
102
RTVSPost2010PropOp55
 70
     1
102
RTVSPost2010Prop56
140
1.0
102
RTVSPost2010PropOp56
 70
     1
102
RTVSPost2010Prop57
140
1.0
102
RTVSPost2010PropOp57
 70
     1
102
RTVSPropertyOp0
 70
     1
102
RTVSPropertyOp1
 70
     1
102
RTVSPropertyOp2
 70
     1
102
RTVSPropertyOp3
 70
     1
102
RTVSPropertyOp4
 70
     1
102
RTVSPropertyOp5
 70
     1
102
RTVSPropertyOp6
 70
     1
102
RTVSPropertyOp7
 70
     1
102
RTVSPropertyOp8
 70
     1
102
RTVSPropertyOp9
 70
     1
102
RTVSPropertyOp10
 70
     1
102
RTVSPropertyOp11
 70
     1
102
RTVSPropertyOp12
 70
     1
102
RTVSPropertyOp13
 70
     1
102
RTVSPropertyOp14
 70
     1
102
RTVSPropertyOp15
 70
     1
102
RTVSPropertyOp16
 70
     1
102
RTVSPropertyOp17
 70
     1
102
RTVSPropertyOp18
 70
     1
102
RTVSPropertyOp19
 70
     1
102
RTVSPropertyOp20
 70
     1
102
RTVSPropertyOp21
 70
     1
102
RTVSPropertyOp22
 70
     1
102
RTVSPropertyOp23
 70
     1
102
RTVSPropertyOp24
 70
     1
102
RTVSPropertyOp25
 70
     1
102
RTVSPropertyOp26
 70
     1
102
RTVSPropertyOp27
 70
     1
102
RTVSPropertyOp28
 70
     1
102
RTVSPropertyOp29
 70
     1
102
RTVSPropertyOp30
 70
     1
102
RTVSPropertyOp31
 70
     1
102
RTVSPropertyOp32
 70
     1
102
RTVSPropertyOp33
 70
     1
102
RTVSPropertyOp34
 70
     1
102
RTVSPropertyOp35
 70
     1
102
RTVSPropertyOp36
 70
     1
102
RTVSPropertyOp37
 70
     1
102
RTVSPropertyOp38
 70
     1
102
RTVSPropertyOp39
 70
     1
102
RTVSPropertyOp40
 70
     1
102
RTVSPropertyOp41
 70
     1
102
RTVSPropertyOp42
 70
     1
102
RTVSPropertyOp43
 70
     1
102
RTVSPropertyOp44
 70
     1
102
RTVSPropertyOp45
 70
     1
102
RTVSPropertyOp46
 70
     1
102
RTVSPropertyOp47
 70
     1
102
RTVSPropertyOp48
 70
     1
102
RTVSPropertyOp49
 70
     1
102
RTVSPropertyOp50
 70
     1
102
RTVSPropertyOp51
 70
     0
102
RTVSPropertyOp52
 70
     0
102
RTVSPropertyOp53
 70
     1
102
RTVSPropertyOp54
 70
     1
102
RTVSPropertyOp55
 70
     1
102
RTVSPropertyOp56
 70
     1
102
RTVSPropertyOp57
 70
     1
102
RTVSPropertyOp58
 70
     1
102
RTVSPropertyOp59
 70
     1
102
RTVSPropertyOp60
 70
     1
102
RTVSPropertyOp61
 70
     1
102
RTVSPropertyOp62
 70
     1
  0
XRECORD
  5
4C8
102
{ACAD_REACTORS
330
4C7
102
}
330
4C7
100
AcDbXrecord
280
     1
102
RTVSPost2010Prop28
280
     0
102
RTVSPost2010PropOp28
 70
     1
102
RTVSPost2010Prop29
280
     1
102
RTVSPost2010PropOp29
 70
     1
102
RTVSPost2010Prop30
280
     1
102
RTVSPost2010PropOp30
 70
     1
102
RTVSPost2010Prop31
280
     0
102
RTVSPost2010PropOp31
 70
     1
102
RTVSPost2010Prop32
280
     0
102
RTVSPost2010PropOp32
 70
     1
102
RTVSPost2010Prop33
280
     0
102
RTVSPost2010PropOp33
 70
     1
102
RTVSPost2010Prop34
280
     0
102
RTVSPost2010PropOp34
 70
     1
102
RTVSPost2010Prop35
280
     0
102
RTVSPost2010PropOp35
 70
     1
102
RTVSPost2010Prop36
280
     0
102
RTVSPost2010PropOp36
 70
     1
102
RTVSPost2010Prop37
 90
       50
102
RTVSPost2010PropOp37
 70
     1
102
RTVSPost2010Prop38
140
0.0
102
RTVSPost2010PropOp38
 70
     1
102
RTVSPost2010Prop39
140
1.0
102
RTVSPost2010PropOp39
 70
     1
102
RTVSPost2010Prop40
 90
        0
102
RTVSPost2010PropOp40
 70
     1
102
RTVSPost2010Prop41ColorIndex
 90
       18
102
RTVSPost2010Prop41ColorRGB
 90
        0
102
RTVSPost2010PropOp41
 70
     1
102
RTVSPost2010Prop42
 90
       50
102
RTVSPost2010PropOp42
 70
     1
102
RTVSPost2010Prop43
 90
        3
102
RTVSPost2010PropOp43
 70
     1
102
RTVSPost2010Prop44ColorIndex
 90
        5
102
RTVSPost2010Prop44ColorRGB
 90
      255
102
RTVSPost2010PropOp44
 70
     1
102
RTVSPost2010Prop45
280
     0
102
RTVSPost2010PropOp45
 70
     1
102
RTVSPost2010Prop46
 90
       50
102
RTVSPost2010PropOp46
 70
     1
102
RTVSPost2010Prop47
 90
       50
102
RTVSPost2010PropOp47
 70
     1
102
RTVSPost2010Prop48
 90
       50
102
RTVSPost2010PropOp48
 70
     1
102
RTVSPost2010Prop49
280
     0
102
RTVSPost2010PropOp49
 70
     1
102
RTVSPost2010Prop50
 90
       50
102
RTVSPost2010PropOp50
 70
     1
102
RTVSPost2010Prop51ColorIndex
 90
      256
102
RTVSPost2010Prop51ColorRGB
 90
-16777216
102
RTVSPost2010PropOp51
 70
     0
102
RTVSPost2010Prop52
140
1.0
102
RTVSPost2010PropOp52
 70
     0
102
RTVSPost2010Prop53
 90
        2
102
RTVSPost2010PropOp53
 70
     1
102
RTVSPost2010Prop54
  1
strokes_ogs.tif
102
RTVSPost2010PropOp54
 70
     1
102
RTVSPost2010Prop55
280
     0
102
RTVSPost2010PropOp55
 70
     1
102
RTVSPost2010Prop56
140
1.0
102
RTVSPost2010PropOp56
 70
     1
102
RTVSPost2010Prop57
140
1.0
102
RTVSPost2010PropOp57
 70
     1
102
RTVSPropertyOp0
 70
     1
102
RTVSPropertyOp1
 70
     1
102
RTVSPropertyOp2
 70
     1
102
RTVSPropertyOp3
 70
     1
102
RTVSPropertyOp4
 70
     1
102
RTVSPropertyOp5
 70
     1
102
RTVSPropertyOp6
 70
     1
102
RTVSPropertyOp7
 70
     1
102
RTVSPropertyOp8
 70
     1
102
RTVSPropertyOp9
 70
     1
102
RTVSPropertyOp10
 70
     1
102
RTVSPropertyOp11
 70
     1
102
RTVSPropertyOp12
 70
     1
102
RTVSPropertyOp13
 70
     1
102
RTVSPropertyOp14
 70
     1
102
RTVSPropertyOp15
 70
     1
102
RTVSPropertyOp16
 70
     1
102
RTVSPropertyOp17
 70
     1
102
RTVSPropertyOp18
 70
     1
102
RTVSPropertyOp19
 70
     1
102
RTVSPropertyOp20
 70
     1
102
RTVSPropertyOp21
 70
     1
102
RTVSPropertyOp22
 70
     1
102
RTVSPropertyOp23
 70
     1
102
RTVSPropertyOp24
 70
     1
102
RTVSPropertyOp25
 70
     1
102
RTVSPropertyOp26
 70
     1
102
RTVSPropertyOp27
 70
     1
102
RTVSPropertyOp28
 70
     1
102
RTVSPropertyOp29
 70
     1
102
RTVSPropertyOp30
 70
     1
102
RTVSPropertyOp31
 70
     1
102
RTVSPropertyOp32
 70
     1
102
RTVSPropertyOp33
 70
     1
102
RTVSPropertyOp34
 70
     1
102
RTVSPropertyOp35
 70
     1
102
RTVSPropertyOp36
 70
     1
102
RTVSPropertyOp37
 70
     1
102
RTVSPropertyOp38
 70
     1
102
RTVSPropertyOp39
 70
     1
102
RTVSPropertyOp40
 70
     1
102
RTVSPropertyOp41
 70
     1
102
RTVSPropertyOp42
 70
     1
102
RTVSPropertyOp43
 70
     1
102
RTVSPropertyOp44
 70
     1
102
RTVSPropertyOp45
 70
     1
102
RTVSPropertyOp46
 70
     1
102
RTVSPropertyOp47
 70
     1
102
RTVSPropertyOp48
 70
     1
102
RTVSPropertyOp49
 70
     1
102
RTVSPropertyOp50
 70
     1
102
RTVSPropertyOp51
 70
     0
102
RTVSPropertyOp52
 70
     0
102
RTVSPropertyOp53
 70
     1
102
RTVSPropertyOp54
 70
     1
102
RTVSPropertyOp55
 70
     1
102
RTVSPropertyOp56
 70
     1
102
RTVSPropertyOp57
 70
     1
102
RTVSPropertyOp58
 70
     1
102
RTVSPropertyOp59
 70
     1
102
RTVSPropertyOp60
 70
     1
102
RTVSPropertyOp61
 70
     1
102
RTVSPropertyOp62
 70
     1
  0
XRECORD
  5
4CA
102
{ACAD_REACTORS
330
4C9
102
}
330
4C9
100
AcDbXrecord
280
     1
102
RTVSPost2010Prop28
280
     0
102
RTVSPost2010PropOp28
 70
     1
102
RTVSPost2010Prop29
280
     1
102
RTVSPost2010PropOp29
 70
     1
102
RTVSPost2010Prop30
280
     1
102
RTVSPost2010PropOp30
 70
     1
102
RTVSPost2010Prop31
280
     0
102
RTVSPost2010PropOp31
 70
     1
102
RTVSPost2010Prop32
280
     0
102
RTVSPost2010PropOp32
 70
     1
102
RTVSPost2010Prop33
280
     0
102
RTVSPost2010PropOp33
 70
     1
102
RTVSPost2010Prop34
280
     0
102
RTVSPost2010PropOp34
 70
     1
102
RTVSPost2010Prop35
280
     0
102
RTVSPost2010PropOp35
 70
     1
102
RTVSPost2010Prop36
280
     0
102
RTVSPost2010PropOp36
 70
     1
102
RTVSPost2010Prop37
 90
       50
102
RTVSPost2010PropOp37
 70
     1
102
RTVSPost2010Prop38
140
0.0
102
RTVSPost2010PropOp38
 70
     1
102
RTVSPost2010Prop39
140
1.0
102
RTVSPost2010PropOp39
 70
     1
102
RTVSPost2010Prop40
 90
        0
102
RTVSPost2010PropOp40
 70
     1
102
RTVSPost2010Prop41ColorIndex
 90
       18
102
RTVSPost2010Prop41ColorRGB
 90
        0
102
RTVSPost2010PropOp41
 70
     1
102
RTVSPost2010Prop42
 90
       50
102
RTVSPost2010PropOp42
 70
     1
102
RTVSPost2010Prop43
 90
        3
102
RTVSPost2010PropOp43
 70
     1
102
RTVSPost2010Prop44ColorIndex
 90
        5
102
RTVSPost2010Prop44ColorRGB
 90
      255
102
RTVSPost2010PropOp44
 70
     1
102
RTVSPost2010Prop45
280
     0
102
RTVSPost2010PropOp45
 70
     1
102
RTVSPost2010Prop46
 90
       50
102
RTVSPost2010PropOp46
 70
     1
102
RTVSPost2010Prop47
 90
       50
102
RTVSPost2010PropOp47
 70
     1
102
RTVSPost2010Prop48
 90
       50
102
RTVSPost2010PropOp48
 70
     1
102
RTVSPost2010Prop49
280
     0
102
RTVSPost2010PropOp49
 70
     1
102
RTVSPost2010Prop50
 90
       50
102
RTVSPost2010PropOp50
 70
     1
102
RTVSPost2010Prop51ColorIndex
 90
      256
102
RTVSPost2010Prop51ColorRGB
 90
-16777216
102
RTVSPost2010PropOp51
 70
     0
102
RTVSPost2010Prop52
140
1.0
102
RTVSPost2010PropOp52
 70
     0
102
RTVSPost2010Prop53
 90
        2
102
RTVSPost2010PropOp53
 70
     1
102
RTVSPost2010Prop54
  1
strokes_ogs.tif
102
RTVSPost2010PropOp54
 70
     1
102
RTVSPost2010Prop55
280
     0
102
RTVSPost2010PropOp55
 70
     1
102
RTVSPost2010Prop56
140
1.0
102
RTVSPost2010PropOp56
 70
     1
102
RTVSPost2010Prop57
140
1.0
102
RTVSPost2010PropOp57
 70
     1
102
RTVSPropertyOp0
 70
     1
102
RTVSPropertyOp1
 70
     1
102
RTVSPropertyOp2
 70
     1
102
RTVSPropertyOp3
 70
     1
102
RTVSPropertyOp4
 70
     1
102
RTVSPropertyOp5
 70
     1
102
RTVSPropertyOp6
 70
     1
102
RTVSPropertyOp7
 70
     1
102
RTVSPropertyOp8
 70
     1
102
RTVSPropertyOp9
 70
     1
102
RTVSPropertyOp10
 70
     1
102
RTVSPropertyOp11
 70
     1
102
RTVSPropertyOp12
 70
     1
102
RTVSPropertyOp13
 70
     1
102
RTVSPropertyOp14
 70
     1
102
RTVSPropertyOp15
 70
     1
102
RTVSPropertyOp16
 70
     1
102
RTVSPropertyOp17
 70
     1
102
RTVSPropertyOp18
 70
     1
102
RTVSPropertyOp19
 70
     1
102
RTVSPropertyOp20
 70
     1
102
RTVSPropertyOp21
 70
     1
102
RTVSPropertyOp22
 70
     1
102
RTVSPropertyOp23
 70
     1
102
RTVSPropertyOp24
 70
     1
102
RTVSPropertyOp25
 70
     1
102
RTVSPropertyOp26
 70
     1
102
RTVSPropertyOp27
 70
     1
102
RTVSPropertyOp28
 70
     1
102
RTVSPropertyOp29
 70
     1
102
RTVSPropertyOp30
 70
     1
102
RTVSPropertyOp31
 70
     1
102
RTVSPropertyOp32
 70
     1
102
RTVSPropertyOp33
 70
     1
102
RTVSPropertyOp34
 70
     1
102
RTVSPropertyOp35
 70
     1
102
RTVSPropertyOp36
 70
     1
102
RTVSPropertyOp37
 70
     1
102
RTVSPropertyOp38
 70
     1
102
RTVSPropertyOp39
 70
     1
102
RTVSPropertyOp40
 70
     1
102
RTVSPropertyOp41
 70
     1
102
RTVSPropertyOp42
 70
     1
102
RTVSPropertyOp43
 70
     1
102
RTVSPropertyOp44
 70
     1
102
RTVSPropertyOp45
 70
     1
102
RTVSPropertyOp46
 70
     1
102
RTVSPropertyOp47
 70
     1
102
RTVSPropertyOp48
 70
     1
102
RTVSPropertyOp49
 70
     1
102
RTVSPropertyOp50
 70
     1
102
RTVSPropertyOp51
 70
     0
102
RTVSPropertyOp52
 70
     0
102
RTVSPropertyOp53
 70
     1
102
RTVSPropertyOp54
 70
     1
102
RTVSPropertyOp55
 70
     1
102
RTVSPropertyOp56
 70
     1
102
RTVSPropertyOp57
 70
     1
102
RTVSPropertyOp58
 70
     1
102
RTVSPropertyOp59
 70
     1
102
RTVSPropertyOp60
 70
     1
102
RTVSPropertyOp61
 70
     1
102
RTVSPropertyOp62
 70
     1
  0
XRECORD
  5
4DA
102
{ACAD_REACTORS
330
4D9
102
}
330
4D9
100
AcDbXrecord
280
     1
102
RTVSPost2010Prop28
280
     0
102
RTVSPost2010PropOp28
 70
     0
102
RTVSPost2010Prop29
280
     1
102
RTVSPost2010PropOp29
 70
     0
102
RTVSPost2010Prop30
280
     1
102
RTVSPost2010PropOp30
 70
     0
102
RTVSPost2010Prop31
280
     0
102
RTVSPost2010PropOp31
 70
     0
102
RTVSPost2010Prop32
280
     0
102
RTVSPost2010PropOp32
 70
     0
102
RTVSPost2010Prop33
280
     0
102
RTVSPost2010PropOp33
 70
     0
102
RTVSPost2010Prop34
280
     0
102
RTVSPost2010PropOp34
 70
     0
102
RTVSPost2010Prop35
280
     0
102
RTVSPost2010PropOp35
 70
     0
102
RTVSPost2010Prop36
280
     0
102
RTVSPost2010PropOp36
 70
     0
102
RTVSPost2010Prop37
 90
       50
102
RTVSPost2010PropOp37
 70
     0
102
RTVSPost2010Prop38
140
0.0
102
RTVSPost2010PropOp38
 70
     0
102
RTVSPost2010Prop39
140
1.0
102
RTVSPost2010PropOp39
 70
     0
102
RTVSPost2010Prop40
 90
        0
102
RTVSPost2010PropOp40
 70
     0
102
RTVSPost2010Prop41ColorIndex
 90
       18
102
RTVSPost2010Prop41ColorRGB
 90
        0
102
RTVSPost2010PropOp41
 70
     0
102
RTVSPost2010Prop42
 90
       50
102
RTVSPost2010PropOp42
 70
     0
102
RTVSPost2010Prop43
 90
        3
102
RTVSPost2010PropOp43
 70
     0
102
RTVSPost2010Prop44ColorIndex
 90
        5
102
RTVSPost2010Prop44ColorRGB
 90
      255
102
RTVSPost2010PropOp44
 70
     0
102
RTVSPost2010Prop45
280
     0
102
RTVSPost2010PropOp45
 70
     0
102
RTVSPost2010Prop46
 90
       50
102
RTVSPost2010PropOp46
 70
     0
102
RTVSPost2010Prop47
 90
       50
102
RTVSPost2010PropOp47
 70
     0
102
RTVSPost2010Prop48
 90
       50
102
RTVSPost2010PropOp48
 70
     0
102
RTVSPost2010Prop49
280
     0
102
RTVSPost2010PropOp49
 70
     0
102
RTVSPost2010Prop50
 90
       50
102
RTVSPost2010PropOp50
 70
     0
102
RTVSPost2010Prop51ColorIndex
 90
      256
102
RTVSPost2010Prop51ColorRGB
 90
-16777216
102
RTVSPost2010PropOp51
 70
     0
102
RTVSPost2010Prop52
140
1.0
102
RTVSPost2010PropOp52
 70
     0
102
RTVSPost2010Prop53
 90
        2
102
RTVSPost2010PropOp53
 70
     0
102
RTVSPost2010Prop54
  1
strokes_ogs.tif
102
RTVSPost2010PropOp54
 70
     0
102
RTVSPost2010Prop55
280
     0
102
RTVSPost2010PropOp55
 70
     0
102
RTVSPost2010Prop56
140
1.0
102
RTVSPost2010PropOp56
 70
     0
102
RTVSPost2010Prop57
140
1.0
102
RTVSPost2010PropOp57
 70
     0
102
RTVSPropertyOp0
 70
     0
102
RTVSPropertyOp1
 70
     0
102
RTVSPropertyOp2
 70
     0
102
RTVSPropertyOp3
 70
     0
102
RTVSPropertyOp4
 70
     0
102
RTVSPropertyOp5
 70
     0
102
RTVSPropertyOp6
 70
     0
102
RTVSPropertyOp7
 70
     0
102
RTVSPropertyOp8
 70
     0
102
RTVSPropertyOp9
 70
     0
102
RTVSPropertyOp10
 70
     0
102
RTVSPropertyOp11
 70
     0
102
RTVSPropertyOp12
 70
     0
102
RTVSPropertyOp13
 70
     0
102
RTVSPropertyOp14
 70
     2
102
RTVSPropertyOp15
 70
     0
102
RTVSPropertyOp16
 70
     0
102
RTVSPropertyOp17
 70
     0
102
RTVSPropertyOp18
 70
     0
102
RTVSPropertyOp19
 70
     0
102
RTVSPropertyOp20
 70
     0
102
RTVSPropertyOp21
 70
     0
102
RTVSPropertyOp22
 70
     0
102
RTVSPropertyOp23
 70
     0
102
RTVSPropertyOp24
 70
     0
102
RTVSPropertyOp25
 70
     0
102
RTVSPropertyOp26
 70
     0
102
RTVSPropertyOp27
 70
     0
102
RTVSPropertyOp28
 70
     0
102
RTVSPropertyOp29
 70
     0
102
RTVSPropertyOp30
 70
     0
102
RTVSPropertyOp31
 70
     0
102
RTVSPropertyOp32
 70
     0
102
RTVSPropertyOp33
 70
     0
102
RTVSPropertyOp34
 70
     0
102
RTVSPropertyOp35
 70
     0
102
RTVSPropertyOp36
 70
     0
102
RTVSPropertyOp37
 70
     0
102
RTVSPropertyOp38
 70
     0
102
RTVSPropertyOp39
 70
     0
102
RTVSPropertyOp40
 70
     0
102
RTVSPropertyOp41
 70
     0
102
RTVSPropertyOp42
 70
     0
102
RTVSPropertyOp43
 70
     0
102
RTVSPropertyOp44
 70
     0
102
RTVSPropertyOp45
 70
     0
102
RTVSPropertyOp46
 70
     0
102
RTVSPropertyOp47
 70
     0
102
RTVSPropertyOp48
 70
     0
102
RTVSPropertyOp49
 70
     0
102
RTVSPropertyOp50
 70
     0
102
RTVSPropertyOp51
 70
     0
102
RTVSPropertyOp52
 70
     0
102
RTVSPropertyOp53
 70
     0
102
RTVSPropertyOp54
 70
     0
102
RTVSPropertyOp55
 70
     0
102
RTVSPropertyOp56
 70
     0
102
RTVSPropertyOp57
 70
     0
102
RTVSPropertyOp58
 70
     1
102
RTVSPropertyOp59
 70
     1
102
RTVSPropertyOp60
 70
     1
102
RTVSPropertyOp61
 70
     1
102
RTVSPropertyOp62
 70
     1
  0
XRECORD
  5
4D2
102
{ACAD_REACTORS
330
4D1
102
}
330
4D1
100
AcDbXrecord
280
     1
102
RTVSPost2010Prop28
280
     0
102
RTVSPost2010PropOp28
 70
     1
102
RTVSPost2010Prop29
280
     1
102
RTVSPost2010PropOp29
 70
     1
102
RTVSPost2010Prop30
280
     1
102
RTVSPost2010PropOp30
 70
     1
102
RTVSPost2010Prop31
280
     0
102
RTVSPost2010PropOp31
 70
     1
102
RTVSPost2010Prop32
280
     0
102
RTVSPost2010PropOp32
 70
     1
102
RTVSPost2010Prop33
280
     0
102
RTVSPost2010PropOp33
 70
     1
102
RTVSPost2010Prop34
280
     0
102
RTVSPost2010PropOp34
 70
     1
102
RTVSPost2010Prop35
280
     0
102
RTVSPost2010PropOp35
 70
     1
102
RTVSPost2010Prop36
280
     0
102
RTVSPost2010PropOp36
 70
     1
102
RTVSPost2010Prop37
 90
       50
102
RTVSPost2010PropOp37
 70
     1
102
RTVSPost2010Prop38
140
0.0
102
RTVSPost2010PropOp38
 70
     1
102
RTVSPost2010Prop39
140
1.0
102
RTVSPost2010PropOp39
 70
     1
102
RTVSPost2010Prop40
 90
        0
102
RTVSPost2010PropOp40
 70
     1
102
RTVSPost2010Prop41ColorIndex
 90
       18
102
RTVSPost2010Prop41ColorRGB
 90
        0
102
RTVSPost2010PropOp41
 70
     1
102
RTVSPost2010Prop42
 90
       50
102
RTVSPost2010PropOp42
 70
     1
102
RTVSPost2010Prop43
 90
        3
102
RTVSPost2010PropOp43
 70
     1
102
RTVSPost2010Prop44ColorIndex
 90
        5
102
RTVSPost2010Prop44ColorRGB
 90
      255
102
RTVSPost2010PropOp44
 70
     1
102
RTVSPost2010Prop45
280
     0
102
RTVSPost2010PropOp45
 70
     1
102
RTVSPost2010Prop46
 90
       50
102
RTVSPost2010PropOp46
 70
     1
102
RTVSPost2010Prop47
 90
       50
102
RTVSPost2010PropOp47
 70
     1
102
RTVSPost2010Prop48
 90
       50
102
RTVSPost2010PropOp48
 70
     1
102
RTVSPost2010Prop49
280
     0
102
RTVSPost2010PropOp49
 70
     1
102
RTVSPost2010Prop50
 90
       50
102
RTVSPost2010PropOp50
 70
     1
102
RTVSPost2010Prop51ColorIndex
 90
      256
102
RTVSPost2010Prop51ColorRGB
 90
-16777216
102
RTVSPost2010PropOp51
 70
     0
102
RTVSPost2010Prop52
140
1.0
102
RTVSPost2010PropOp52
 70
     0
102
RTVSPost2010Prop53
 90
        2
102
RTVSPost2010PropOp53
 70
     1
102
RTVSPost2010Prop54
  1
strokes_ogs.tif
102
RTVSPost2010PropOp54
 70
     1
102
RTVSPost2010Prop55
280
     0
102
RTVSPost2010PropOp55
 70
     1
102
RTVSPost2010Prop56
140
1.0
102
RTVSPost2010PropOp56
 70
     1
102
RTVSPost2010Prop57
140
1.0
102
RTVSPost2010PropOp57
 70
     1
102
RTVSPropertyOp0
 70
     1
102
RTVSPropertyOp1
 70
     1
102
RTVSPropertyOp2
 70
     1
102
RTVSPropertyOp3
 70
     1
102
RTVSPropertyOp4
 70
     1
102
RTVSPropertyOp5
 70
     1
102
RTVSPropertyOp6
 70
     1
102
RTVSPropertyOp7
 70
     1
102
RTVSPropertyOp8
 70
     1
102
RTVSPropertyOp9
 70
     1
102
RTVSPropertyOp10
 70
     1
102
RTVSPropertyOp11
 70
     1
102
RTVSPropertyOp12
 70
     1
102
RTVSPropertyOp13
 70
     1
102
RTVSPropertyOp14
 70
     1
102
RTVSPropertyOp15
 70
     1
102
RTVSPropertyOp16
 70
     1
102
RTVSPropertyOp17
 70
     1
102
RTVSPropertyOp18
 70
     1
102
RTVSPropertyOp19
 70
     1
102
RTVSPropertyOp20
 70
     1
102
RTVSPropertyOp21
 70
     1
102
RTVSPropertyOp22
 70
     1
102
RTVSPropertyOp23
 70
     1
102
RTVSPropertyOp24
 70
     1
102
RTVSPropertyOp25
 70
     1
102
RTVSPropertyOp26
 70
     1
102
RTVSPropertyOp27
 70
     1
102
RTVSPropertyOp28
 70
     1
102
RTVSPropertyOp29
 70
     1
102
RTVSPropertyOp30
 70
     1
102
RTVSPropertyOp31
 70
     1
102
RTVSPropertyOp32
 70
     1
102
RTVSPropertyOp33
 70
     1
102
RTVSPropertyOp34
 70
     1
102
RTVSPropertyOp35
 70
     1
102
RTVSPropertyOp36
 70
     1
102
RTVSPropertyOp37
 70
     1
102
RTVSPropertyOp38
 70
     1
102
RTVSPropertyOp39
 70
     1
102
RTVSPropertyOp40
 70
     1
102
RTVSPropertyOp41
 70
     1
102
RTVSPropertyOp42
 70
     1
102
RTVSPropertyOp43
 70
     1
102
RTVSPropertyOp44
 70
     1
102
RTVSPropertyOp45
 70
     1
102
RTVSPropertyOp46
 70
     1
102
RTVSPropertyOp47
 70
     1
102
RTVSPropertyOp48
 70
     1
102
RTVSPropertyOp49
 70
     1
102
RTVSPropertyOp50
 70
     1
102
RTVSPropertyOp51
 70
     0
102
RTVSPropertyOp52
 70
     0
102
RTVSPropertyOp53
 70
     1
102
RTVSPropertyOp54
 70
     1
102
RTVSPropertyOp55
 70
     1
102
RTVSPropertyOp56
 70
     1
102
RTVSPropertyOp57
 70
     1
102
RTVSPropertyOp58
 70
     1
102
RTVSPropertyOp59
 70
     1
102
RTVSPropertyOp60
 70
     1
102
RTVSPropertyOp61
 70
     1
102
RTVSPropertyOp62
 70
     1
  0
XRECORD
  5
4B6
102
{ACAD_REACTORS
330
4B5
102
}
330
4B5
100
AcDbXrecord
280
     1
102
RTVSPost2010Prop28
280
     0
102
RTVSPost2010PropOp28
 70
     1
102
RTVSPost2010Prop29
280
     1
102
RTVSPost2010PropOp29
 70
     1
102
RTVSPost2010Prop30
280
     1
102
RTVSPost2010PropOp30
 70
     1
102
RTVSPost2010Prop31
280
     0
102
RTVSPost2010PropOp31
 70
     1
102
RTVSPost2010Prop32
280
     0
102
RTVSPost2010PropOp32
 70
     1
102
RTVSPost2010Prop33
280
     0
102
RTVSPost2010PropOp33
 70
     1
102
RTVSPost2010Prop34
280
     0
102
RTVSPost2010PropOp34
 70
     1
102
RTVSPost2010Prop35
280
     0
102
RTVSPost2010PropOp35
 70
     1
102
RTVSPost2010Prop36
280
     0
102
RTVSPost2010PropOp36
 70
     1
102
RTVSPost2010Prop37
 90
       50
102
RTVSPost2010PropOp37
 70
     1
102
RTVSPost2010Prop38
140
0.0
102
RTVSPost2010PropOp38
 70
     1
102
RTVSPost2010Prop39
140
1.0
102
RTVSPost2010PropOp39
 70
     1
102
RTVSPost2010Prop40
 90
        0
102
RTVSPost2010PropOp40
 70
     1
102
RTVSPost2010Prop41ColorIndex
 90
       18
102
RTVSPost2010Prop41ColorRGB
 90
        0
102
RTVSPost2010PropOp41
 70
     1
102
RTVSPost2010Prop42
 90
       50
102
RTVSPost2010PropOp42
 70
     1
102
RTVSPost2010Prop43
 90
        3
102
RTVSPost2010PropOp43
 70
     1
102
RTVSPost2010Prop44ColorIndex
 90
        5
102
RTVSPost2010Prop44ColorRGB
 90
      255
102
RTVSPost2010PropOp44
 70
     1
102
RTVSPost2010Prop45
280
     0
102
RTVSPost2010PropOp45
 70
     1
102
RTVSPost2010Prop46
 90
       50
102
RTVSPost2010PropOp46
 70
     1
102
RTVSPost2010Prop47
 90
       50
102
RTVSPost2010PropOp47
 70
     1
102
RTVSPost2010Prop48
 90
       50
102
RTVSPost2010PropOp48
 70
     1
102
RTVSPost2010Prop49
280
     0
102
RTVSPost2010PropOp49
 70
     1
102
RTVSPost2010Prop50
 90
       50
102
RTVSPost2010PropOp50
 70
     1
102
RTVSPost2010Prop51ColorIndex
 90
      256
102
RTVSPost2010Prop51ColorRGB
 90
-16777216
102
RTVSPost2010PropOp51
 70
     0
102
RTVSPost2010Prop52
140
1.0
102
RTVSPost2010PropOp52
 70
     0
102
RTVSPost2010Prop53
 90
        2
102
RTVSPost2010PropOp53
 70
     1
102
RTVSPost2010Prop54
  1
strokes_ogs.tif
102
RTVSPost2010PropOp54
 70
     1
102
RTVSPost2010Prop55
280
     0
102
RTVSPost2010PropOp55
 70
     1
102
RTVSPost2010Prop56
140
1.0
102
RTVSPost2010PropOp56
 70
     1
102
RTVSPost2010Prop57
140
1.0
102
RTVSPost2010PropOp57
 70
     1
102
RTVSPropertyOp0
 70
     1
102
RTVSPropertyOp1
 70
     1
102
RTVSPropertyOp2
 70
     1
102
RTVSPropertyOp3
 70
     1
102
RTVSPropertyOp4
 70
     1
102
RTVSPropertyOp5
 70
     1
102
RTVSPropertyOp6
 70
     1
102
RTVSPropertyOp7
 70
     1
102
RTVSPropertyOp8
 70
     1
102
RTVSPropertyOp9
 70
     1
102
RTVSPropertyOp10
 70
     1
102
RTVSPropertyOp11
 70
     1
102
RTVSPropertyOp12
 70
     1
102
RTVSPropertyOp13
 70
     1
102
RTVSPropertyOp14
 70
     1
102
RTVSPropertyOp15
 70
     1
102
RTVSPropertyOp16
 70
     1
102
RTVSPropertyOp17
 70
     1
102
RTVSPropertyOp18
 70
     1
102
RTVSPropertyOp19
 70
     1
102
RTVSPropertyOp20
 70
     1
102
RTVSPropertyOp21
 70
     1
102
RTVSPropertyOp22
 70
     1
102
RTVSPropertyOp23
 70
     1
102
RTVSPropertyOp24
 70
     1
102
RTVSPropertyOp25
 70
     1
102
RTVSPropertyOp26
 70
     1
102
RTVSPropertyOp27
 70
     1
102
RTVSPropertyOp28
 70
     1
102
RTVSPropertyOp29
 70
     1
102
RTVSPropertyOp30
 70
     1
102
RTVSPropertyOp31
 70
     1
102
RTVSPropertyOp32
 70
     1
102
RTVSPropertyOp33
 70
     1
102
RTVSPropertyOp34
 70
     1
102
RTVSPropertyOp35
 70
     1
102
RTVSPropertyOp36
 70
     1
102
RTVSPropertyOp37
 70
     1
102
RTVSPropertyOp38
 70
     1
102
RTVSPropertyOp39
 70
     1
102
RTVSPropertyOp40
 70
     1
102
RTVSPropertyOp41
 70
     1
102
RTVSPropertyOp42
 70
     1
102
RTVSPropertyOp43
 70
     1
102
RTVSPropertyOp44
 70
     1
102
RTVSPropertyOp45
 70
     1
102
RTVSPropertyOp46
 70
     1
102
RTVSPropertyOp47
 70
     1
102
RTVSPropertyOp48
 70
     1
102
RTVSPropertyOp49
 70
     1
102
RTVSPropertyOp50
 70
     1
102
RTVSPropertyOp51
 70
     0
102
RTVSPropertyOp52
 70
     0
102
RTVSPropertyOp53
 70
     1
102
RTVSPropertyOp54
 70
     1
102
RTVSPropertyOp55
 70
     1
102
RTVSPropertyOp56
 70
     1
102
RTVSPropertyOp57
 70
     1
102
RTVSPropertyOp58
 70
     1
102
RTVSPropertyOp59
 70
     1
102
RTVSPropertyOp60
 70
     1
102
RTVSPropertyOp61
 70
     1
102
RTVSPropertyOp62
 70
     1
  0
XRECORD
  5
4B8
102
{ACAD_REACTORS
330
4B7
102
}
330
4B7
100
AcDbXrecord
280
     1
102
RTVSPost2010Prop28
280
     0
102
RTVSPost2010PropOp28
 70
     1
102
RTVSPost2010Prop29
280
     1
102
RTVSPost2010PropOp29
 70
     1
102
RTVSPost2010Prop30
280
     1
102
RTVSPost2010PropOp30
 70
     1
102
RTVSPost2010Prop31
280
     0
102
RTVSPost2010PropOp31
 70
     1
102
RTVSPost2010Prop32
280
     0
102
RTVSPost2010PropOp32
 70
     1
102
RTVSPost2010Prop33
280
     0
102
RTVSPost2010PropOp33
 70
     1
102
RTVSPost2010Prop34
280
     0
102
RTVSPost2010PropOp34
 70
     1
102
RTVSPost2010Prop35
280
     0
102
RTVSPost2010PropOp35
 70
     1
102
RTVSPost2010Prop36
280
     0
102
RTVSPost2010PropOp36
 70
     1
102
RTVSPost2010Prop37
 90
       50
102
RTVSPost2010PropOp37
 70
     1
102
RTVSPost2010Prop38
140
0.0
102
RTVSPost2010PropOp38
 70
     1
102
RTVSPost2010Prop39
140
1.0
102
RTVSPost2010PropOp39
 70
     1
102
RTVSPost2010Prop40
 90
        0
102
RTVSPost2010PropOp40
 70
     1
102
RTVSPost2010Prop41ColorIndex
 90
       18
102
RTVSPost2010Prop41ColorRGB
 90
        0
102
RTVSPost2010PropOp41
 70
     1
102
RTVSPost2010Prop42
 90
       50
102
RTVSPost2010PropOp42
 70
     1
102
RTVSPost2010Prop43
 90
        3
102
RTVSPost2010PropOp43
 70
     1
102
RTVSPost2010Prop44ColorIndex
 90
        5
102
RTVSPost2010Prop44ColorRGB
 90
      255
102
RTVSPost2010PropOp44
 70
     1
102
RTVSPost2010Prop45
280
     0
102
RTVSPost2010PropOp45
 70
     1
102
RTVSPost2010Prop46
 90
       50
102
RTVSPost2010PropOp46
 70
     1
102
RTVSPost2010Prop47
 90
       50
102
RTVSPost2010PropOp47
 70
     1
102
RTVSPost2010Prop48
 90
       50
102
RTVSPost2010PropOp48
 70
     1
102
RTVSPost2010Prop49
280
     0
102
RTVSPost2010PropOp49
 70
     1
102
RTVSPost2010Prop50
 90
       50
102
RTVSPost2010PropOp50
 70
     1
102
RTVSPost2010Prop51ColorIndex
 90
      256
102
RTVSPost2010Prop51ColorRGB
 90
-16777216
102
RTVSPost2010PropOp51
 70
     0
102
RTVSPost2010Prop52
140
1.0
102
RTVSPost2010PropOp52
 70
     0
102
RTVSPost2010Prop53
 90
        2
102
RTVSPost2010PropOp53
 70
     1
102
RTVSPost2010Prop54
  1
strokes_ogs.tif
102
RTVSPost2010PropOp54
 70
     1
102
RTVSPost2010Prop55
280
     0
102
RTVSPost2010PropOp55
 70
     1
102
RTVSPost2010Prop56
140
1.0
102
RTVSPost2010PropOp56
 70
     1
102
RTVSPost2010Prop57
140
1.0
102
RTVSPost2010PropOp57
 70
     1
102
RTVSPropertyOp0
 70
     1
102
RTVSPropertyOp1
 70
     1
102
RTVSPropertyOp2
 70
     1
102
RTVSPropertyOp3
 70
     1
102
RTVSPropertyOp4
 70
     1
102
RTVSPropertyOp5
 70
     1
102
RTVSPropertyOp6
 70
     1
102
RTVSPropertyOp7
 70
     1
102
RTVSPropertyOp8
 70
     1
102
RTVSPropertyOp9
 70
     1
102
RTVSPropertyOp10
 70
     1
102
RTVSPropertyOp11
 70
     1
102
RTVSPropertyOp12
 70
     1
102
RTVSPropertyOp13
 70
     1
102
RTVSPropertyOp14
 70
     1
102
RTVSPropertyOp15
 70
     1
102
RTVSPropertyOp16
 70
     1
102
RTVSPropertyOp17
 70
     1
102
RTVSPropertyOp18
 70
     1
102
RTVSPropertyOp19
 70
     1
102
RTVSPropertyOp20
 70
     1
102
RTVSPropertyOp21
 70
     1
102
RTVSPropertyOp22
 70
     1
102
RTVSPropertyOp23
 70
     1
102
RTVSPropertyOp24
 70
     1
102
RTVSPropertyOp25
 70
     1
102
RTVSPropertyOp26
 70
     1
102
RTVSPropertyOp27
 70
     1
102
RTVSPropertyOp28
 70
     1
102
RTVSPropertyOp29
 70
     1
102
RTVSPropertyOp30
 70
     1
102
RTVSPropertyOp31
 70
     1
102
RTVSPropertyOp32
 70
     1
102
RTVSPropertyOp33
 70
     1
102
RTVSPropertyOp34
 70
     1
102
RTVSPropertyOp35
 70
     1
102
RTVSPropertyOp36
 70
     1
102
RTVSPropertyOp37
 70
     1
102
RTVSPropertyOp38
 70
     1
102
RTVSPropertyOp39
 70
     1
102
RTVSPropertyOp40
 70
     1
102
RTVSPropertyOp41
 70
     1
102
RTVSPropertyOp42
 70
     1
102
RTVSPropertyOp43
 70
     1
102
RTVSPropertyOp44
 70
     1
102
RTVSPropertyOp45
 70
     1
102
RTVSPropertyOp46
 70
     1
102
RTVSPropertyOp47
 70
     1
102
RTVSPropertyOp48
 70
     1
102
RTVSPropertyOp49
 70
     1
102
RTVSPropertyOp50
 70
     1
102
RTVSPropertyOp51
 70
     0
102
RTVSPropertyOp52
 70
     0
102
RTVSPropertyOp53
 70
     1
102
RTVSPropertyOp54
 70
     1
102
RTVSPropertyOp55
 70
     1
102
RTVSPropertyOp56
 70
     1
102
RTVSPropertyOp57
 70
     1
102
RTVSPropertyOp58
 70
     1
102
RTVSPropertyOp59
 70
     1
102
RTVSPropertyOp60
 70
     1
102
RTVSPropertyOp61
 70
     1
102
RTVSPropertyOp62
 70
     1
  0
XRECORD
  5
4BA
102
{ACAD_REACTORS
330
4B9
102
}
330
4B9
100
AcDbXrecord
280
     1
102
RTVSPost2010Prop28
280
     0
102
RTVSPost2010PropOp28
 70
     1
102
RTVSPost2010Prop29
280
     1
102
RTVSPost2010PropOp29
 70
     1
102
RTVSPost2010Prop30
280
     1
102
RTVSPost2010PropOp30
 70
     1
102
RTVSPost2010Prop31
280
     0
102
RTVSPost2010PropOp31
 70
     1
102
RTVSPost2010Prop32
280
     0
102
RTVSPost2010PropOp32
 70
     1
102
RTVSPost2010Prop33
280
     0
102
RTVSPost2010PropOp33
 70
     1
102
RTVSPost2010Prop34
280
     0
102
RTVSPost2010PropOp34
 70
     1
102
RTVSPost2010Prop35
280
     0
102
RTVSPost2010PropOp35
 70
     1
102
RTVSPost2010Prop36
280
     0
102
RTVSPost2010PropOp36
 70
     1
102
RTVSPost2010Prop37
 90
       50
102
RTVSPost2010PropOp37
 70
     1
102
RTVSPost2010Prop38
140
0.0
102
RTVSPost2010PropOp38
 70
     1
102
RTVSPost2010Prop39
140
1.0
102
RTVSPost2010PropOp39
 70
     1
102
RTVSPost2010Prop40
 90
        0
102
RTVSPost2010PropOp40
 70
     1
102
RTVSPost2010Prop41ColorIndex
 90
       18
102
RTVSPost2010Prop41ColorRGB
 90
        0
102
RTVSPost2010PropOp41
 70
     1
102
RTVSPost2010Prop42
 90
       50
102
RTVSPost2010PropOp42
 70
     1
102
RTVSPost2010Prop43
 90
        3
102
RTVSPost2010PropOp43
 70
     1
102
RTVSPost2010Prop44ColorIndex
 90
        5
102
RTVSPost2010Prop44ColorRGB
 90
      255
102
RTVSPost2010PropOp44
 70
     1
102
RTVSPost2010Prop45
280
     0
102
RTVSPost2010PropOp45
 70
     1
102
RTVSPost2010Prop46
 90
       50
102
RTVSPost2010PropOp46
 70
     1
102
RTVSPost2010Prop47
 90
       50
102
RTVSPost2010PropOp47
 70
     1
102
RTVSPost2010Prop48
 90
       50
102
RTVSPost2010PropOp48
 70
     1
102
RTVSPost2010Prop49
280
     0
102
RTVSPost2010PropOp49
 70
     1
102
RTVSPost2010Prop50
 90
       50
102
RTVSPost2010PropOp50
 70
     1
102
RTVSPost2010Prop51ColorIndex
 90
      256
102
RTVSPost2010Prop51ColorRGB
 90
-16777216
102
RTVSPost2010PropOp51
 70
     0
102
RTVSPost2010Prop52
140
1.0
102
RTVSPost2010PropOp52
 70
     0
102
RTVSPost2010Prop53
 90
        2
102
RTVSPost2010PropOp53
 70
     1
102
RTVSPost2010Prop54
  1
strokes_ogs.tif
102
RTVSPost2010PropOp54
 70
     1
102
RTVSPost2010Prop55
280
     0
102
RTVSPost2010PropOp55
 70
     1
102
RTVSPost2010Prop56
140
1.0
102
RTVSPost2010PropOp56
 70
     1
102
RTVSPost2010Prop57
140
1.0
102
RTVSPost2010PropOp57
 70
     1
102
RTVSPropertyOp0
 70
     1
102
RTVSPropertyOp1
 70
     1
102
RTVSPropertyOp2
 70
     1
102
RTVSPropertyOp3
 70
     1
102
RTVSPropertyOp4
 70
     1
102
RTVSPropertyOp5
 70
     1
102
RTVSPropertyOp6
 70
     1
102
RTVSPropertyOp7
 70
     1
102
RTVSPropertyOp8
 70
     1
102
RTVSPropertyOp9
 70
     1
102
RTVSPropertyOp10
 70
     1
102
RTVSPropertyOp11
 70
     1
102
RTVSPropertyOp12
 70
     1
102
RTVSPropertyOp13
 70
     1
102
RTVSPropertyOp14
 70
     1
102
RTVSPropertyOp15
 70
     1
102
RTVSPropertyOp16
 70
     1
102
RTVSPropertyOp17
 70
     1
102
RTVSPropertyOp18
 70
     1
102
RTVSPropertyOp19
 70
     1
102
RTVSPropertyOp20
 70
     1
102
RTVSPropertyOp21
 70
     1
102
RTVSPropertyOp22
 70
     1
102
RTVSPropertyOp23
 70
     1
102
RTVSPropertyOp24
 70
     1
102
RTVSPropertyOp25
 70
     1
102
RTVSPropertyOp26
 70
     1
102
RTVSPropertyOp27
 70
     1
102
RTVSPropertyOp28
 70
     1
102
RTVSPropertyOp29
 70
     1
102
RTVSPropertyOp30
 70
     1
102
RTVSPropertyOp31
 70
     1
102
RTVSPropertyOp32
 70
     1
102
RTVSPropertyOp33
 70
     1
102
RTVSPropertyOp34
 70
     1
102
RTVSPropertyOp35
 70
     1
102
RTVSPropertyOp36
 70
     1
102
RTVSPropertyOp37
 70
     1
102
RTVSPropertyOp38
 70
     1
102
RTVSPropertyOp39
 70
     1
102
RTVSPropertyOp40
 70
     1
102
RTVSPropertyOp41
 70
     1
102
RTVSPropertyOp42
 70
     1
102
RTVSPropertyOp43
 70
     1
102
RTVSPropertyOp44
 70
     1
102
RTVSPropertyOp45
 70
     1
102
RTVSPropertyOp46
 70
     1
102
RTVSPropertyOp47
 70
     1
102
RTVSPropertyOp48
 70
     1
102
RTVSPropertyOp49
 70
     1
102
RTVSPropertyOp50
 70
     1
102
RTVSPropertyOp51
 70
     0
102
RTVSPropertyOp52
 70
     0
102
RTVSPropertyOp53
 70
     1
102
RTVSPropertyOp54
 70
     1
102
RTVSPropertyOp55
 70
     1
102
RTVSPropertyOp56
 70
     1
102
RTVSPropertyOp57
 70
     1
102
RTVSPropertyOp58
 70
     1
102
RTVSPropertyOp59
 70
     1
102
RTVSPropertyOp60
 70
     1
102
RTVSPropertyOp61
 70
     1
102
RTVSPropertyOp62
 70
     1
  0
XRECORD
  5
4BC
102
{ACAD_REACTORS
330
4BB
102
}
330
4BB
100
AcDbXrecord
280
     1
102
RTVSPost2010Prop28
280
     0
102
RTVSPost2010PropOp28
 70
     1
102
RTVSPost2010Prop29
280
     1
102
RTVSPost2010PropOp29
 70
     1
102
RTVSPost2010Prop30
280
     1
102
RTVSPost2010PropOp30
 70
     1
102
RTVSPost2010Prop31
280
     0
102
RTVSPost2010PropOp31
 70
     1
102
RTVSPost2010Prop32
280
     0
102
RTVSPost2010PropOp32
 70
     1
102
RTVSPost2010Prop33
280
     0
102
RTVSPost2010PropOp33
 70
     1
102
RTVSPost2010Prop34
280
     0
102
RTVSPost2010PropOp34
 70
     1
102
RTVSPost2010Prop35
280
     0
102
RTVSPost2010PropOp35
 70
     1
102
RTVSPost2010Prop36
280
     0
102
RTVSPost2010PropOp36
 70
     1
102
RTVSPost2010Prop37
 90
       50
102
RTVSPost2010PropOp37
 70
     1
102
RTVSPost2010Prop38
140
0.0
102
RTVSPost2010PropOp38
 70
     1
102
RTVSPost2010Prop39
140
1.0
102
RTVSPost2010PropOp39
 70
     1
102
RTVSPost2010Prop40
 90
        0
102
RTVSPost2010PropOp40
 70
     1
102
RTVSPost2010Prop41ColorIndex
 90
       18
102
RTVSPost2010Prop41ColorRGB
 90
        0
102
RTVSPost2010PropOp41
 70
     1
102
RTVSPost2010Prop42
 90
       50
102
RTVSPost2010PropOp42
 70
     1
102
RTVSPost2010Prop43
 90
        3
102
RTVSPost2010PropOp43
 70
     1
102
RTVSPost2010Prop44ColorIndex
 90
        5
102
RTVSPost2010Prop44ColorRGB
 90
      255
102
RTVSPost2010PropOp44
 70
     1
102
RTVSPost2010Prop45
280
     0
102
RTVSPost2010PropOp45
 70
     1
102
RTVSPost2010Prop46
 90
       50
102
RTVSPost2010PropOp46
 70
     1
102
RTVSPost2010Prop47
 90
       50
102
RTVSPost2010PropOp47
 70
     1
102
RTVSPost2010Prop48
 90
       50
102
RTVSPost2010PropOp48
 70
     1
102
RTVSPost2010Prop49
280
     0
102
RTVSPost2010PropOp49
 70
     1
102
RTVSPost2010Prop50
 90
       50
102
RTVSPost2010PropOp50
 70
     1
102
RTVSPost2010Prop51ColorIndex
 90
      256
102
RTVSPost2010Prop51ColorRGB
 90
-16777216
102
RTVSPost2010PropOp51
 70
     0
102
RTVSPost2010Prop52
140
1.0
102
RTVSPost2010PropOp52
 70
     0
102
RTVSPost2010Prop53
 90
        2
102
RTVSPost2010PropOp53
 70
     1
102
RTVSPost2010Prop54
  1
strokes_ogs.tif
102
RTVSPost2010PropOp54
 70
     1
102
RTVSPost2010Prop55
280
     0
102
RTVSPost2010PropOp55
 70
     1
102
RTVSPost2010Prop56
140
1.0
102
RTVSPost2010PropOp56
 70
     1
102
RTVSPost2010Prop57
140
1.0
102
RTVSPost2010PropOp57
 70
     1
102
RTVSPropertyOp0
 70
     1
102
RTVSPropertyOp1
 70
     1
102
RTVSPropertyOp2
 70
     1
102
RTVSPropertyOp3
 70
     1
102
RTVSPropertyOp4
 70
     1
102
RTVSPropertyOp5
 70
     1
102
RTVSPropertyOp6
 70
     1
102
RTVSPropertyOp7
 70
     1
102
RTVSPropertyOp8
 70
     1
102
RTVSPropertyOp9
 70
     1
102
RTVSPropertyOp10
 70
     1
102
RTVSPropertyOp11
 70
     1
102
RTVSPropertyOp12
 70
     1
102
RTVSPropertyOp13
 70
     1
102
RTVSPropertyOp14
 70
     1
102
RTVSPropertyOp15
 70
     1
102
RTVSPropertyOp16
 70
     1
102
RTVSPropertyOp17
 70
     1
102
RTVSPropertyOp18
 70
     1
102
RTVSPropertyOp19
 70
     1
102
RTVSPropertyOp20
 70
     1
102
RTVSPropertyOp21
 70
     1
102
RTVSPropertyOp22
 70
     1
102
RTVSPropertyOp23
 70
     1
102
RTVSPropertyOp24
 70
     1
102
RTVSPropertyOp25
 70
     1
102
RTVSPropertyOp26
 70
     1
102
RTVSPropertyOp27
 70
     1
102
RTVSPropertyOp28
 70
     1
102
RTVSPropertyOp29
 70
     1
102
RTVSPropertyOp30
 70
     1
102
RTVSPropertyOp31
 70
     1
102
RTVSPropertyOp32
 70
     1
102
RTVSPropertyOp33
 70
     1
102
RTVSPropertyOp34
 70
     1
102
RTVSPropertyOp35
 70
     1
102
RTVSPropertyOp36
 70
     1
102
RTVSPropertyOp37
 70
     1
102
RTVSPropertyOp38
 70
     1
102
RTVSPropertyOp39
 70
     1
102
RTVSPropertyOp40
 70
     1
102
RTVSPropertyOp41
 70
     1
102
RTVSPropertyOp42
 70
     1
102
RTVSPropertyOp43
 70
     1
102
RTVSPropertyOp44
 70
     1
102
RTVSPropertyOp45
 70
     1
102
RTVSPropertyOp46
 70
     1
102
RTVSPropertyOp47
 70
     1
102
RTVSPropertyOp48
 70
     1
102
RTVSPropertyOp49
 70
     1
102
RTVSPropertyOp50
 70
     1
102
RTVSPropertyOp51
 70
     0
102
RTVSPropertyOp52
 70
     0
102
RTVSPropertyOp53
 70
     1
102
RTVSPropertyOp54
 70
     1
102
RTVSPropertyOp55
 70
     1
102
RTVSPropertyOp56
 70
     1
102
RTVSPropertyOp57
 70
     1
102
RTVSPropertyOp58
 70
     1
102
RTVSPropertyOp59
 70
     1
102
RTVSPropertyOp60
 70
     1
102
RTVSPropertyOp61
 70
     1
102
RTVSPropertyOp62
 70
     1
  0
XRECORD
  5
4C2
102
{ACAD_REACTORS
330
4C1
102
}
330
4C1
100
AcDbXrecord
280
     1
102
RTVSPost2010Prop28
280
     0
102
RTVSPost2010PropOp28
 70
     1
102
RTVSPost2010Prop29
280
     1
102
RTVSPost2010PropOp29
 70
     1
102
RTVSPost2010Prop30
280
     1
102
RTVSPost2010PropOp30
 70
     1
102
RTVSPost2010Prop31
280
     0
102
RTVSPost2010PropOp31
 70
     1
102
RTVSPost2010Prop32
280
     0
102
RTVSPost2010PropOp32
 70
     1
102
RTVSPost2010Prop33
280
     0
102
RTVSPost2010PropOp33
 70
     1
102
RTVSPost2010Prop34
280
     0
102
RTVSPost2010PropOp34
 70
     1
102
RTVSPost2010Prop35
280
     0
102
RTVSPost2010PropOp35
 70
     1
102
RTVSPost2010Prop36
280
     0
102
RTVSPost2010PropOp36
 70
     1
102
RTVSPost2010Prop37
 90
       50
102
RTVSPost2010PropOp37
 70
     1
102
RTVSPost2010Prop38
140
0.0
102
RTVSPost2010PropOp38
 70
     1
102
RTVSPost2010Prop39
140
1.0
102
RTVSPost2010PropOp39
 70
     1
102
RTVSPost2010Prop40
 90
        0
102
RTVSPost2010PropOp40
 70
     1
102
RTVSPost2010Prop41ColorIndex
 90
       18
102
RTVSPost2010Prop41ColorRGB
 90
        0
102
RTVSPost2010PropOp41
 70
     1
102
RTVSPost2010Prop42
 90
       50
102
RTVSPost2010PropOp42
 70
     1
102
RTVSPost2010Prop43
 90
        3
102
RTVSPost2010PropOp43
 70
     1
102
RTVSPost2010Prop44ColorIndex
 90
        5
102
RTVSPost2010Prop44ColorRGB
 90
      255
102
RTVSPost2010PropOp44
 70
     1
102
RTVSPost2010Prop45
280
     0
102
RTVSPost2010PropOp45
 70
     1
102
RTVSPost2010Prop46
 90
       50
102
RTVSPost2010PropOp46
 70
     1
102
RTVSPost2010Prop47
 90
       50
102
RTVSPost2010PropOp47
 70
     1
102
RTVSPost2010Prop48
 90
       50
102
RTVSPost2010PropOp48
 70
     1
102
RTVSPost2010Prop49
280
     0
102
RTVSPost2010PropOp49
 70
     1
102
RTVSPost2010Prop50
 90
       50
102
RTVSPost2010PropOp50
 70
     1
102
RTVSPost2010Prop51ColorIndex
 90
      256
102
RTVSPost2010Prop51ColorRGB
 90
-16777216
102
RTVSPost2010PropOp51
 70
     0
102
RTVSPost2010Prop52
140
1.0
102
RTVSPost2010PropOp52
 70
     0
102
RTVSPost2010Prop53
 90
        2
102
RTVSPost2010PropOp53
 70
     1
102
RTVSPost2010Prop54
  1
strokes_ogs.tif
102
RTVSPost2010PropOp54
 70
     1
102
RTVSPost2010Prop55
280
     0
102
RTVSPost2010PropOp55
 70
     1
102
RTVSPost2010Prop56
140
1.0
102
RTVSPost2010PropOp56
 70
     1
102
RTVSPost2010Prop57
140
1.0
102
RTVSPost2010PropOp57
 70
     1
102
RTVSPropertyOp0
 70
     1
102
RTVSPropertyOp1
 70
     1
102
RTVSPropertyOp2
 70
     1
102
RTVSPropertyOp3
 70
     1
102
RTVSPropertyOp4
 70
     1
102
RTVSPropertyOp5
 70
     1
102
RTVSPropertyOp6
 70
     1
102
RTVSPropertyOp7
 70
     1
102
RTVSPropertyOp8
 70
     1
102
RTVSPropertyOp9
 70
     1
102
RTVSPropertyOp10
 70
     1
102
RTVSPropertyOp11
 70
     1
102
RTVSPropertyOp12
 70
     1
102
RTVSPropertyOp13
 70
     1
102
RTVSPropertyOp14
 70
     1
102
RTVSPropertyOp15
 70
     1
102
RTVSPropertyOp16
 70
     1
102
RTVSPropertyOp17
 70
     1
102
RTVSPropertyOp18
 70
     1
102
RTVSPropertyOp19
 70
     1
102
RTVSPropertyOp20
 70
     1
102
RTVSPropertyOp21
 70
     1
102
RTVSPropertyOp22
 70
     1
102
RTVSPropertyOp23
 70
     1
102
RTVSPropertyOp24
 70
     1
102
RTVSPropertyOp25
 70
     1
102
RTVSPropertyOp26
 70
     1
102
RTVSPropertyOp27
 70
     1
102
RTVSPropertyOp28
 70
     1
102
RTVSPropertyOp29
 70
     1
102
RTVSPropertyOp30
 70
     1
102
RTVSPropertyOp31
 70
     1
102
RTVSPropertyOp32
 70
     1
102
RTVSPropertyOp33
 70
     1
102
RTVSPropertyOp34
 70
     1
102
RTVSPropertyOp35
 70
     1
102
RTVSPropertyOp36
 70
     1
102
RTVSPropertyOp37
 70
     1
102
RTVSPropertyOp38
 70
     1
102
RTVSPropertyOp39
 70
     1
102
RTVSPropertyOp40
 70
     1
102
RTVSPropertyOp41
 70
     1
102
RTVSPropertyOp42
 70
     1
102
RTVSPropertyOp43
 70
     1
102
RTVSPropertyOp44
 70
     1
102
RTVSPropertyOp45
 70
     1
102
RTVSPropertyOp46
 70
     1
102
RTVSPropertyOp47
 70
     1
102
RTVSPropertyOp48
 70
     1
102
RTVSPropertyOp49
 70
     1
102
RTVSPropertyOp50
 70
     1
102
RTVSPropertyOp51
 70
     0
102
RTVSPropertyOp52
 70
     0
102
RTVSPropertyOp53
 70
     1
102
RTVSPropertyOp54
 70
     1
102
RTVSPropertyOp55
 70
     1
102
RTVSPropertyOp56
 70
     1
102
RTVSPropertyOp57
 70
     1
102
RTVSPropertyOp58
 70
     1
102
RTVSPropertyOp59
 70
     1
102
RTVSPropertyOp60
 70
     1
102
RTVSPropertyOp61
 70
     1
102
RTVSPropertyOp62
 70
     1
  0
XRECORD
  5
4D6
102
{ACAD_REACTORS
330
4D5
102
}
330
4D5
100
AcDbXrecord
280
     1
102
RTVSPost2010Prop28
280
     0
102
RTVSPost2010PropOp28
 70
     0
102
RTVSPost2010Prop29
280
     1
102
RTVSPost2010PropOp29
 70
     0
102
RTVSPost2010Prop30
280
     1
102
RTVSPost2010PropOp30
 70
     0
102
RTVSPost2010Prop31
280
     0
102
RTVSPost2010PropOp31
 70
     0
102
RTVSPost2010Prop32
280
     0
102
RTVSPost2010PropOp32
 70
     0
102
RTVSPost2010Prop33
280
     0
102
RTVSPost2010PropOp33
 70
     0
102
RTVSPost2010Prop34
280
     0
102
RTVSPost2010PropOp34
 70
     0
102
RTVSPost2010Prop35
280
     0
102
RTVSPost2010PropOp35
 70
     0
102
RTVSPost2010Prop36
280
     0
102
RTVSPost2010PropOp36
 70
     0
102
RTVSPost2010Prop37
 90
       50
102
RTVSPost2010PropOp37
 70
     0
102
RTVSPost2010Prop38
140
0.0
102
RTVSPost2010PropOp38
 70
     0
102
RTVSPost2010Prop39
140
1.0
102
RTVSPost2010PropOp39
 70
     0
102
RTVSPost2010Prop40
 90
        0
102
RTVSPost2010PropOp40
 70
     0
102
RTVSPost2010Prop41ColorIndex
 90
       18
102
RTVSPost2010Prop41ColorRGB
 90
        0
102
RTVSPost2010PropOp41
 70
     0
102
RTVSPost2010Prop42
 90
       50
102
RTVSPost2010PropOp42
 70
     0
102
RTVSPost2010Prop43
 90
        3
102
RTVSPost2010PropOp43
 70
     0
102
RTVSPost2010Prop44ColorIndex
 90
        5
102
RTVSPost2010Prop44ColorRGB
 90
      255
102
RTVSPost2010PropOp44
 70
     0
102
RTVSPost2010Prop45
280
     0
102
RTVSPost2010PropOp45
 70
     0
102
RTVSPost2010Prop46
 90
       50
102
RTVSPost2010PropOp46
 70
     0
102
RTVSPost2010Prop47
 90
       50
102
RTVSPost2010PropOp47
 70
     0
102
RTVSPost2010Prop48
 90
       50
102
RTVSPost2010PropOp48
 70
     0
102
RTVSPost2010Prop49
280
     0
102
RTVSPost2010PropOp49
 70
     0
102
RTVSPost2010Prop50
 90
       50
102
RTVSPost2010PropOp50
 70
     0
102
RTVSPost2010Prop51ColorIndex
 90
      256
102
RTVSPost2010Prop51ColorRGB
 90
-16777216
102
RTVSPost2010PropOp51
 70
     0
102
RTVSPost2010Prop52
140
1.0
102
RTVSPost2010PropOp52
 70
     0
102
RTVSPost2010Prop53
 90
        2
102
RTVSPost2010PropOp53
 70
     0
102
RTVSPost2010Prop54
  1
strokes_ogs.tif
102
RTVSPost2010PropOp54
 70
     0
102
RTVSPost2010Prop55
280
     0
102
RTVSPost2010PropOp55
 70
     0
102
RTVSPost2010Prop56
140
1.0
102
RTVSPost2010PropOp56
 70
     0
102
RTVSPost2010Prop57
140
1.0
102
RTVSPost2010PropOp57
 70
     0
102
RTVSPropertyOp0
 70
     0
102
RTVSPropertyOp1
 70
     0
102
RTVSPropertyOp2
 70
     0
102
RTVSPropertyOp3
 70
     0
102
RTVSPropertyOp4
 70
     0
102
RTVSPropertyOp5
 70
     0
102
RTVSPropertyOp6
 70
     0
102
RTVSPropertyOp7
 70
     0
102
RTVSPropertyOp8
 70
     0
102
RTVSPropertyOp9
 70
     0
102
RTVSPropertyOp10
 70
     0
102
RTVSPropertyOp11
 70
     0
102
RTVSPropertyOp12
 70
     0
102
RTVSPropertyOp13
 70
     0
102
RTVSPropertyOp14
 70
     2
102
RTVSPropertyOp15
 70
     0
102
RTVSPropertyOp16
 70
     0
102
RTVSPropertyOp17
 70
     0
102
RTVSPropertyOp18
 70
     0
102
RTVSPropertyOp19
 70
     0
102
RTVSPropertyOp20
 70
     0
102
RTVSPropertyOp21
 70
     0
102
RTVSPropertyOp22
 70
     0
102
RTVSPropertyOp23
 70
     0
102
RTVSPropertyOp24
 70
     0
102
RTVSPropertyOp25
 70
     0
102
RTVSPropertyOp26
 70
     0
102
RTVSPropertyOp27
 70
     0
102
RTVSPropertyOp28
 70
     0
102
RTVSPropertyOp29
 70
     0
102
RTVSPropertyOp30
 70
     0
102
RTVSPropertyOp31
 70
     0
102
RTVSPropertyOp32
 70
     0
102
RTVSPropertyOp33
 70
     0
102
RTVSPropertyOp34
 70
     0
102
RTVSPropertyOp35
 70
     0
102
RTVSPropertyOp36
 70
     0
102
RTVSPropertyOp37
 70
     0
102
RTVSPropertyOp38
 70
     0
102
RTVSPropertyOp39
 70
     0
102
RTVSPropertyOp40
 70
     0
102
RTVSPropertyOp41
 70
     0
102
RTVSPropertyOp42
 70
     0
102
RTVSPropertyOp43
 70
     0
102
RTVSPropertyOp44
 70
     0
102
RTVSPropertyOp45
 70
     0
102
RTVSPropertyOp46
 70
     0
102
RTVSPropertyOp47
 70
     0
102
RTVSPropertyOp48
 70
     0
102
RTVSPropertyOp49
 70
     0
102
RTVSPropertyOp50
 70
     0
102
RTVSPropertyOp51
 70
     0
102
RTVSPropertyOp52
 70
     0
102
RTVSPropertyOp53
 70
     0
102
RTVSPropertyOp54
 70
     0
102
RTVSPropertyOp55
 70
     0
102
RTVSPropertyOp56
 70
     0
102
RTVSPropertyOp57
 70
     0
102
RTVSPropertyOp58
 70
     1
102
RTVSPropertyOp59
 70
     1
102
RTVSPropertyOp60
 70
     1
102
RTVSPropertyOp61
 70
     1
102
RTVSPropertyOp62
 70
     1
  0
XRECORD
  5
4D0
102
{ACAD_REACTORS
330
4CF
102
}
330
4CF
100
AcDbXrecord
280
     1
102
RTVSPost2010Prop28
280
     0
102
RTVSPost2010PropOp28
 70
     1
102
RTVSPost2010Prop29
280
     1
102
RTVSPost2010PropOp29
 70
     1
102
RTVSPost2010Prop30
280
     1
102
RTVSPost2010PropOp30
 70
     1
102
RTVSPost2010Prop31
280
     0
102
RTVSPost2010PropOp31
 70
     1
102
RTVSPost2010Prop32
280
     0
102
RTVSPost2010PropOp32
 70
     1
102
RTVSPost2010Prop33
280
     0
102
RTVSPost2010PropOp33
 70
     1
102
RTVSPost2010Prop34
280
     0
102
RTVSPost2010PropOp34
 70
     1
102
RTVSPost2010Prop35
280
     0
102
RTVSPost2010PropOp35
 70
     1
102
RTVSPost2010Prop36
280
     0
102
RTVSPost2010PropOp36
 70
     1
102
RTVSPost2010Prop37
 90
       50
102
RTVSPost2010PropOp37
 70
     1
102
RTVSPost2010Prop38
140
0.0
102
RTVSPost2010PropOp38
 70
     1
102
RTVSPost2010Prop39
140
1.0
102
RTVSPost2010PropOp39
 70
     1
102
RTVSPost2010Prop40
 90
        0
102
RTVSPost2010PropOp40
 70
     1
102
RTVSPost2010Prop41ColorIndex
 90
       18
102
RTVSPost2010Prop41ColorRGB
 90
        0
102
RTVSPost2010PropOp41
 70
     1
102
RTVSPost2010Prop42
 90
       50
102
RTVSPost2010PropOp42
 70
     1
102
RTVSPost2010Prop43
 90
        3
102
RTVSPost2010PropOp43
 70
     1
102
RTVSPost2010Prop44ColorIndex
 90
        5
102
RTVSPost2010Prop44ColorRGB
 90
      255
102
RTVSPost2010PropOp44
 70
     1
102
RTVSPost2010Prop45
280
     0
102
RTVSPost2010PropOp45
 70
     1
102
RTVSPost2010Prop46
 90
       50
102
RTVSPost2010PropOp46
 70
     1
102
RTVSPost2010Prop47
 90
       50
102
RTVSPost2010PropOp47
 70
     1
102
RTVSPost2010Prop48
 90
       50
102
RTVSPost2010PropOp48
 70
     1
102
RTVSPost2010Prop49
280
     0
102
RTVSPost2010PropOp49
 70
     1
102
RTVSPost2010Prop50
 90
       50
102
RTVSPost2010PropOp50
 70
     1
102
RTVSPost2010Prop51ColorIndex
 90
      256
102
RTVSPost2010Prop51ColorRGB
 90
-16777216
102
RTVSPost2010PropOp51
 70
     0
102
RTVSPost2010Prop52
140
1.0
102
RTVSPost2010PropOp52
 70
     0
102
RTVSPost2010Prop53
 90
        2
102
RTVSPost2010PropOp53
 70
     1
102
RTVSPost2010Prop54
  1
strokes_ogs.tif
102
RTVSPost2010PropOp54
 70
     1
102
RTVSPost2010Prop55
280
     0
102
RTVSPost2010PropOp55
 70
     1
102
RTVSPost2010Prop56
140
1.0
102
RTVSPost2010PropOp56
 70
     1
102
RTVSPost2010Prop57
140
1.0
102
RTVSPost2010PropOp57
 70
     1
102
RTVSPropertyOp0
 70
     1
102
RTVSPropertyOp1
 70
     1
102
RTVSPropertyOp2
 70
     1
102
RTVSPropertyOp3
 70
     1
102
RTVSPropertyOp4
 70
     1
102
RTVSPropertyOp5
 70
     1
102
RTVSPropertyOp6
 70
     1
102
RTVSPropertyOp7
 70
     1
102
RTVSPropertyOp8
 70
     1
102
RTVSPropertyOp9
 70
     1
102
RTVSPropertyOp10
 70
     1
102
RTVSPropertyOp11
 70
     1
102
RTVSPropertyOp12
 70
     1
102
RTVSPropertyOp13
 70
     1
102
RTVSPropertyOp14
 70
     1
102
RTVSPropertyOp15
 70
     1
102
RTVSPropertyOp16
 70
     1
102
RTVSPropertyOp17
 70
     1
102
RTVSPropertyOp18
 70
     1
102
RTVSPropertyOp19
 70
     1
102
RTVSPropertyOp20
 70
     1
102
RTVSPropertyOp21
 70
     1
102
RTVSPropertyOp22
 70
     1
102
RTVSPropertyOp23
 70
     1
102
RTVSPropertyOp24
 70
     1
102
RTVSPropertyOp25
 70
     1
102
RTVSPropertyOp26
 70
     1
102
RTVSPropertyOp27
 70
     1
102
RTVSPropertyOp28
 70
     1
102
RTVSPropertyOp29
 70
     1
102
RTVSPropertyOp30
 70
     1
102
RTVSPropertyOp31
 70
     1
102
RTVSPropertyOp32
 70
     1
102
RTVSPropertyOp33
 70
     1
102
RTVSPropertyOp34
 70
     1
102
RTVSPropertyOp35
 70
     1
102
RTVSPropertyOp36
 70
     1
102
RTVSPropertyOp37
 70
     1
102
RTVSPropertyOp38
 70
     1
102
RTVSPropertyOp39
 70
     1
102
RTVSPropertyOp40
 70
     1
102
RTVSPropertyOp41
 70
     1
102
RTVSPropertyOp42
 70
     1
102
RTVSPropertyOp43
 70
     1
102
RTVSPropertyOp44
 70
     1
102
RTVSPropertyOp45
 70
     1
102
RTVSPropertyOp46
 70
     1
102
RTVSPropertyOp47
 70
     1
102
RTVSPropertyOp48
 70
     1
102
RTVSPropertyOp49
 70
     1
102
RTVSPropertyOp50
 70
     1
102
RTVSPropertyOp51
 70
     0
102
RTVSPropertyOp52
 70
     0
102
RTVSPropertyOp53
 70
     1
102
RTVSPropertyOp54
 70
     1
102
RTVSPropertyOp55
 70
     1
102
RTVSPropertyOp56
 70
     1
102
RTVSPropertyOp57
 70
     1
102
RTVSPropertyOp58
 70
     1
102
RTVSPropertyOp59
 70
     1
102
RTVSPropertyOp60
 70
     1
102
RTVSPropertyOp61
 70
     1
102
RTVSPropertyOp62
 70
     1
  0
XRECORD
  5
4D8
102
{ACAD_REACTORS
330
4D7
102
}
330
4D7
100
AcDbXrecord
280
     1
102
RTVSPost2010Prop28
280
     0
102
RTVSPost2010PropOp28
 70
     0
102
RTVSPost2010Prop29
280
     1
102
RTVSPost2010PropOp29
 70
     0
102
RTVSPost2010Prop30
280
     1
102
RTVSPost2010PropOp30
 70
     0
102
RTVSPost2010Prop31
280
     0
102
RTVSPost2010PropOp31
 70
     0
102
RTVSPost2010Prop32
280
     0
102
RTVSPost2010PropOp32
 70
     0
102
RTVSPost2010Prop33
280
     0
102
RTVSPost2010PropOp33
 70
     0
102
RTVSPost2010Prop34
280
     0
102
RTVSPost2010PropOp34
 70
     0
102
RTVSPost2010Prop35
280
     0
102
RTVSPost2010PropOp35
 70
     0
102
RTVSPost2010Prop36
280
     0
102
RTVSPost2010PropOp36
 70
     0
102
RTVSPost2010Prop37
 90
       50
102
RTVSPost2010PropOp37
 70
     0
102
RTVSPost2010Prop38
140
0.0
102
RTVSPost2010PropOp38
 70
     0
102
RTVSPost2010Prop39
140
1.0
102
RTVSPost2010PropOp39
 70
     0
102
RTVSPost2010Prop40
 90
        0
102
RTVSPost2010PropOp40
 70
     0
102
RTVSPost2010Prop41ColorIndex
 90
       18
102
RTVSPost2010Prop41ColorRGB
 90
        0
102
RTVSPost2010PropOp41
 70
     0
102
RTVSPost2010Prop42
 90
       50
102
RTVSPost2010PropOp42
 70
     0
102
RTVSPost2010Prop43
 90
        3
102
RTVSPost2010PropOp43
 70
     0
102
RTVSPost2010Prop44ColorIndex
 90
        5
102
RTVSPost2010Prop44ColorRGB
 90
      255
102
RTVSPost2010PropOp44
 70
     0
102
RTVSPost2010Prop45
280
     0
102
RTVSPost2010PropOp45
 70
     0
102
RTVSPost2010Prop46
 90
       50
102
RTVSPost2010PropOp46
 70
     0
102
RTVSPost2010Prop47
 90
       50
102
RTVSPost2010PropOp47
 70
     0
102
RTVSPost2010Prop48
 90
       50
102
RTVSPost2010PropOp48
 70
     0
102
RTVSPost2010Prop49
280
     0
102
RTVSPost2010PropOp49
 70
     0
102
RTVSPost2010Prop50
 90
       50
102
RTVSPost2010PropOp50
 70
     0
102
RTVSPost2010Prop51ColorIndex
 90
      256
102
RTVSPost2010Prop51ColorRGB
 90
-16777216
102
RTVSPost2010PropOp51
 70
     0
102
RTVSPost2010Prop52
140
1.0
102
RTVSPost2010PropOp52
 70
     0
102
RTVSPost2010Prop53
 90
        2
102
RTVSPost2010PropOp53
 70
     0
102
RTVSPost2010Prop54
  1
strokes_ogs.tif
102
RTVSPost2010PropOp54
 70
     0
102
RTVSPost2010Prop55
280
     0
102
RTVSPost2010PropOp55
 70
     0
102
RTVSPost2010Prop56
140
1.0
102
RTVSPost2010PropOp56
 70
     0
102
RTVSPost2010Prop57
140
1.0
102
RTVSPost2010PropOp57
 70
     0
102
RTVSPropertyOp0
 70
     0
102
RTVSPropertyOp1
 70
     0
102
RTVSPropertyOp2
 70
     0
102
RTVSPropertyOp3
 70
     0
102
RTVSPropertyOp4
 70
     0
102
RTVSPropertyOp5
 70
     0
102
RTVSPropertyOp6
 70
     0
102
RTVSPropertyOp7
 70
     0
102
RTVSPropertyOp8
 70
     0
102
RTVSPropertyOp9
 70
     0
102
RTVSPropertyOp10
 70
     0
102
RTVSPropertyOp11
 70
     0
102
RTVSPropertyOp12
 70
     0
102
RTVSPropertyOp13
 70
     0
102
RTVSPropertyOp14
 70
     2
102
RTVSPropertyOp15
 70
     0
102
RTVSPropertyOp16
 70
     0
102
RTVSPropertyOp17
 70
     0
102
RTVSPropertyOp18
 70
     0
102
RTVSPropertyOp19
 70
     0
102
RTVSPropertyOp20
 70
     0
102
RTVSPropertyOp21
 70
     0
102
RTVSPropertyOp22
 70
     0
102
RTVSPropertyOp23
 70
     0
102
RTVSPropertyOp24
 70
     0
102
RTVSPropertyOp25
 70
     0
102
RTVSPropertyOp26
 70
     0
102
RTVSPropertyOp27
 70
     0
102
RTVSPropertyOp28
 70
     0
102
RTVSPropertyOp29
 70
     0
102
RTVSPropertyOp30
 70
     0
102
RTVSPropertyOp31
 70
     0
102
RTVSPropertyOp32
 70
     0
102
RTVSPropertyOp33
 70
     0
102
RTVSPropertyOp34
 70
     0
102
RTVSPropertyOp35
 70
     0
102
RTVSPropertyOp36
 70
     0
102
RTVSPropertyOp37
 70
     0
102
RTVSPropertyOp38
 70
     0
102
RTVSPropertyOp39
 70
     0
102
RTVSPropertyOp40
 70
     0
102
RTVSPropertyOp41
 70
     0
102
RTVSPropertyOp42
 70
     0
102
RTVSPropertyOp43
 70
     0
102
RTVSPropertyOp44
 70
     0
102
RTVSPropertyOp45
 70
     0
102
RTVSPropertyOp46
 70
     0
102
RTVSPropertyOp47
 70
     0
102
RTVSPropertyOp48
 70
     0
102
RTVSPropertyOp49
 70
     0
102
RTVSPropertyOp50
 70
     0
102
RTVSPropertyOp51
 70
     0
102
RTVSPropertyOp52
 70
     0
102
RTVSPropertyOp53
 70
     0
102
RTVSPropertyOp54
 70
     0
102
RTVSPropertyOp55
 70
     0
102
RTVSPropertyOp56
 70
     0
102
RTVSPropertyOp57
 70
     0
102
RTVSPropertyOp58
 70
     1
102
RTVSPropertyOp59
 70
     1
102
RTVSPropertyOp60
 70
     1
102
RTVSPropertyOp61
 70
     1
102
RTVSPropertyOp62
 70
     1
  0
XRECORD
  5
4C6
102
{ACAD_REACTORS
330
4C5
102
}
330
4C5
100
AcDbXrecord
280
     1
102
RTVSPost2010Prop28
280
     0
102
RTVSPost2010PropOp28
 70
     1
102
RTVSPost2010Prop29
280
     1
102
RTVSPost2010PropOp29
 70
     1
102
RTVSPost2010Prop30
280
     1
102
RTVSPost2010PropOp30
 70
     1
102
RTVSPost2010Prop31
280
     0
102
RTVSPost2010PropOp31
 70
     1
102
RTVSPost2010Prop32
280
     0
102
RTVSPost2010PropOp32
 70
     1
102
RTVSPost2010Prop33
280
     0
102
RTVSPost2010PropOp33
 70
     1
102
RTVSPost2010Prop34
280
     0
102
RTVSPost2010PropOp34
 70
     1
102
RTVSPost2010Prop35
280
     0
102
RTVSPost2010PropOp35
 70
     1
102
RTVSPost2010Prop36
280
     0
102
RTVSPost2010PropOp36
 70
     1
102
RTVSPost2010Prop37
 90
       50
102
RTVSPost2010PropOp37
 70
     1
102
RTVSPost2010Prop38
140
0.0
102
RTVSPost2010PropOp38
 70
     1
102
RTVSPost2010Prop39
140
1.0
102
RTVSPost2010PropOp39
 70
     1
102
RTVSPost2010Prop40
 90
        0
102
RTVSPost2010PropOp40
 70
     1
102
RTVSPost2010Prop41ColorIndex
 90
       18
102
RTVSPost2010Prop41ColorRGB
 90
        0
102
RTVSPost2010PropOp41
 70
     1
102
RTVSPost2010Prop42
 90
       50
102
RTVSPost2010PropOp42
 70
     1
102
RTVSPost2010Prop43
 90
        3
102
RTVSPost2010PropOp43
 70
     1
102
RTVSPost2010Prop44ColorIndex
 90
        5
102
RTVSPost2010Prop44ColorRGB
 90
      255
102
RTVSPost2010PropOp44
 70
     1
102
RTVSPost2010Prop45
280
     0
102
RTVSPost2010PropOp45
 70
     1
102
RTVSPost2010Prop46
 90
       50
102
RTVSPost2010PropOp46
 70
     1
102
RTVSPost2010Prop47
 90
       50
102
RTVSPost2010PropOp47
 70
     1
102
RTVSPost2010Prop48
 90
       50
102
RTVSPost2010PropOp48
 70
     1
102
RTVSPost2010Prop49
280
     0
102
RTVSPost2010PropOp49
 70
     1
102
RTVSPost2010Prop50
 90
       50
102
RTVSPost2010PropOp50
 70
     1
102
RTVSPost2010Prop51ColorIndex
 90
      256
102
RTVSPost2010Prop51ColorRGB
 90
-16777216
102
RTVSPost2010PropOp51
 70
     0
102
RTVSPost2010Prop52
140
1.0
102
RTVSPost2010PropOp52
 70
     0
102
RTVSPost2010Prop53
 90
        2
102
RTVSPost2010PropOp53
 70
     1
102
RTVSPost2010Prop54
  1
strokes_ogs.tif
102
RTVSPost2010PropOp54
 70
     1
102
RTVSPost2010Prop55
280
     0
102
RTVSPost2010PropOp55
 70
     1
102
RTVSPost2010Prop56
140
1.0
102
RTVSPost2010PropOp56
 70
     1
102
RTVSPost2010Prop57
140
1.0
102
RTVSPost2010PropOp57
 70
     1
102
RTVSPropertyOp0
 70
     1
102
RTVSPropertyOp1
 70
     1
102
RTVSPropertyOp2
 70
     1
102
RTVSPropertyOp3
 70
     1
102
RTVSPropertyOp4
 70
     1
102
RTVSPropertyOp5
 70
     1
102
RTVSPropertyOp6
 70
     1
102
RTVSPropertyOp7
 70
     1
102
RTVSPropertyOp8
 70
     1
102
RTVSPropertyOp9
 70
     1
102
RTVSPropertyOp10
 70
     1
102
RTVSPropertyOp11
 70
     1
102
RTVSPropertyOp12
 70
     1
102
RTVSPropertyOp13
 70
     1
102
RTVSPropertyOp14
 70
     1
102
RTVSPropertyOp15
 70
     1
102
RTVSPropertyOp16
 70
     1
102
RTVSPropertyOp17
 70
     1
102
RTVSPropertyOp18
 70
     1
102
RTVSPropertyOp19
 70
     1
102
RTVSPropertyOp20
 70
     1
102
RTVSPropertyOp21
 70
     1
102
RTVSPropertyOp22
 70
     1
102
RTVSPropertyOp23
 70
     1
102
RTVSPropertyOp24
 70
     1
102
RTVSPropertyOp25
 70
     1
102
RTVSPropertyOp26
 70
     1
102
RTVSPropertyOp27
 70
     1
102
RTVSPropertyOp28
 70
     1
102
RTVSPropertyOp29
 70
     1
102
RTVSPropertyOp30
 70
     1
102
RTVSPropertyOp31
 70
     1
102
RTVSPropertyOp32
 70
     1
102
RTVSPropertyOp33
 70
     1
102
RTVSPropertyOp34
 70
     1
102
RTVSPropertyOp35
 70
     1
102
RTVSPropertyOp36
 70
     1
102
RTVSPropertyOp37
 70
     1
102
RTVSPropertyOp38
 70
     1
102
RTVSPropertyOp39
 70
     1
102
RTVSPropertyOp40
 70
     1
102
RTVSPropertyOp41
 70
     1
102
RTVSPropertyOp42
 70
     1
102
RTVSPropertyOp43
 70
     1
102
RTVSPropertyOp44
 70
     1
102
RTVSPropertyOp45
 70
     1
102
RTVSPropertyOp46
 70
     1
102
RTVSPropertyOp47
 70
     1
102
RTVSPropertyOp48
 70
     1
102
RTVSPropertyOp49
 70
     1
102
RTVSPropertyOp50
 70
     1
102
RTVSPropertyOp51
 70
     0
102
RTVSPropertyOp52
 70
     0
102
RTVSPropertyOp53
 70
     1
102
RTVSPropertyOp54
 70
     1
102
RTVSPropertyOp55
 70
     1
102
RTVSPropertyOp56
 70
     1
102
RTVSPropertyOp57
 70
     1
102
RTVSPropertyOp58
 70
     1
102
RTVSPropertyOp59
 70
     1
102
RTVSPropertyOp60
 70
     1
102
RTVSPropertyOp61
 70
     1
102
RTVSPropertyOp62
 70
     1
  0
XRECORD
  5
4E4
102
{ACAD_REACTORS
330
4E3
102
}
330
4E3
100
AcDbXrecord
280
     1
102
RTVSPost2010Prop28
280
     0
102
RTVSPost2010PropOp28
 70
     1
102
RTVSPost2010Prop29
280
     1
102
RTVSPost2010PropOp29
 70
     1
102
RTVSPost2010Prop30
280
     1
102
RTVSPost2010PropOp30
 70
     1
102
RTVSPost2010Prop31
280
     0
102
RTVSPost2010PropOp31
 70
     1
102
RTVSPost2010Prop32
280
     0
102
RTVSPost2010PropOp32
 70
     1
102
RTVSPost2010Prop33
280
     0
102
RTVSPost2010PropOp33
 70
     1
102
RTVSPost2010Prop34
280
     0
102
RTVSPost2010PropOp34
 70
     1
102
RTVSPost2010Prop35
280
     0
102
RTVSPost2010PropOp35
 70
     1
102
RTVSPost2010Prop36
280
     0
102
RTVSPost2010PropOp36
 70
     1
102
RTVSPost2010Prop37
 90
       50
102
RTVSPost2010PropOp37
 70
     1
102
RTVSPost2010Prop38
140
0.0
102
RTVSPost2010PropOp38
 70
     1
102
RTVSPost2010Prop39
140
1.0
102
RTVSPost2010PropOp39
 70
     1
102
RTVSPost2010Prop40
 90
        0
102
RTVSPost2010PropOp40
 70
     1
102
RTVSPost2010Prop41ColorIndex
 90
       18
102
RTVSPost2010Prop41ColorRGB
 90
        0
102
RTVSPost2010PropOp41
 70
     1
102
RTVSPost2010Prop42
 90
       50
102
RTVSPost2010PropOp42
 70
     1
102
RTVSPost2010Prop43
 90
        3
102
RTVSPost2010PropOp43
 70
     1
102
RTVSPost2010Prop44ColorIndex
 90
        5
102
RTVSPost2010Prop44ColorRGB
 90
      255
102
RTVSPost2010PropOp44
 70
     1
102
RTVSPost2010Prop45
280
     0
102
RTVSPost2010PropOp45
 70
     1
102
RTVSPost2010Prop46
 90
       50
102
RTVSPost2010PropOp46
 70
     1
102
RTVSPost2010Prop47
 90
       50
102
RTVSPost2010PropOp47
 70
     1
102
RTVSPost2010Prop48
 90
       50
102
RTVSPost2010PropOp48
 70
     1
102
RTVSPost2010Prop49
280
     0
102
RTVSPost2010PropOp49
 70
     1
102
RTVSPost2010Prop50
 90
       50
102
RTVSPost2010PropOp50
 70
     1
102
RTVSPost2010Prop51ColorIndex
 90
      256
102
RTVSPost2010Prop51ColorRGB
 90
-16777216
102
RTVSPost2010PropOp51
 70
     0
102
RTVSPost2010Prop52
140
1.0
102
RTVSPost2010PropOp52
 70
     0
102
RTVSPost2010Prop53
 90
        2
102
RTVSPost2010PropOp53
 70
     1
102
RTVSPost2010Prop54
  1
strokes_ogs.tif
102
RTVSPost2010PropOp54
 70
     1
102
RTVSPost2010Prop55
280
     0
102
RTVSPost2010PropOp55
 70
     1
102
RTVSPost2010Prop56
140
1.0
102
RTVSPost2010PropOp56
 70
     1
102
RTVSPost2010Prop57
140
1.0
102
RTVSPost2010PropOp57
 70
     1
102
RTVSPropertyOp0
 70
     1
102
RTVSPropertyOp1
 70
     1
102
RTVSPropertyOp2
 70
     1
102
RTVSPropertyOp3
 70
     1
102
RTVSPropertyOp4
 70
     1
102
RTVSPropertyOp5
 70
     1
102
RTVSPropertyOp6
 70
     1
102
RTVSPropertyOp7
 70
     1
102
RTVSPropertyOp8
 70
     1
102
RTVSPropertyOp9
 70
     1
102
RTVSPropertyOp10
 70
     1
102
RTVSPropertyOp11
 70
     1
102
RTVSPropertyOp12
 70
     1
102
RTVSPropertyOp13
 70
     1
102
RTVSPropertyOp14
 70
     1
102
RTVSPropertyOp15
 70
     1
102
RTVSPropertyOp16
 70
     1
102
RTVSPropertyOp17
 70
     1
102
RTVSPropertyOp18
 70
     1
102
RTVSPropertyOp19
 70
     1
102
RTVSPropertyOp20
 70
     1
102
RTVSPropertyOp21
 70
     1
102
RTVSPropertyOp22
 70
     1
102
RTVSPropertyOp23
 70
     1
102
RTVSPropertyOp24
 70
     1
102
RTVSPropertyOp25
 70
     1
102
RTVSPropertyOp26
 70
     1
102
RTVSPropertyOp27
 70
     1
102
RTVSPropertyOp28
 70
     1
102
RTVSPropertyOp29
 70
     1
102
RTVSPropertyOp30
 70
     1
102
RTVSPropertyOp31
 70
     1
102
RTVSPropertyOp32
 70
     1
102
RTVSPropertyOp33
 70
     1
102
RTVSPropertyOp34
 70
     1
102
RTVSPropertyOp35
 70
     1
102
RTVSPropertyOp36
 70
     1
102
RTVSPropertyOp37
 70
     1
102
RTVSPropertyOp38
 70
     1
102
RTVSPropertyOp39
 70
     1
102
RTVSPropertyOp40
 70
     1
102
RTVSPropertyOp41
 70
     1
102
RTVSPropertyOp42
 70
     1
102
RTVSPropertyOp43
 70
     1
102
RTVSPropertyOp44
 70
     1
102
RTVSPropertyOp45
 70
     1
102
RTVSPropertyOp46
 70
     1
102
RTVSPropertyOp47
 70
     1
102
RTVSPropertyOp48
 70
     1
102
RTVSPropertyOp49
 70
     1
102
RTVSPropertyOp50
 70
     1
102
RTVSPropertyOp51
 70
     0
102
RTVSPropertyOp52
 70
     0
102
RTVSPropertyOp53
 70
     1
102
RTVSPropertyOp54
 70
     1
102
RTVSPropertyOp55
 70
     1
102
RTVSPropertyOp56
 70
     1
102
RTVSPropertyOp57
 70
     1
102
RTVSPropertyOp58
 70
     1
102
RTVSPropertyOp59
 70
     1
102
RTVSPropertyOp60
 70
     1
102
RTVSPropertyOp61
 70
     1
102
RTVSPropertyOp62
 70
     1
  0
XRECORD
  5
4E2
102
{ACAD_REACTORS
330
4E1
102
}
330
4E1
100
AcDbXrecord
280
     1
102
RTVSPost2010Prop28
280
     0
102
RTVSPost2010PropOp28
 70
     1
102
RTVSPost2010Prop29
280
     1
102
RTVSPost2010PropOp29
 70
     1
102
RTVSPost2010Prop30
280
     1
102
RTVSPost2010PropOp30
 70
     1
102
RTVSPost2010Prop31
280
     0
102
RTVSPost2010PropOp31
 70
     1
102
RTVSPost2010Prop32
280
     0
102
RTVSPost2010PropOp32
 70
     1
102
RTVSPost2010Prop33
280
     0
102
RTVSPost2010PropOp33
 70
     1
102
RTVSPost2010Prop34
280
     0
102
RTVSPost2010PropOp34
 70
     1
102
RTVSPost2010Prop35
280
     0
102
RTVSPost2010PropOp35
 70
     1
102
RTVSPost2010Prop36
280
     0
102
RTVSPost2010PropOp36
 70
     1
102
RTVSPost2010Prop37
 90
       50
102
RTVSPost2010PropOp37
 70
     1
102
RTVSPost2010Prop38
140
0.0
102
RTVSPost2010PropOp38
 70
     1
102
RTVSPost2010Prop39
140
1.0
102
RTVSPost2010PropOp39
 70
     1
102
RTVSPost2010Prop40
 90
        0
102
RTVSPost2010PropOp40
 70
     1
102
RTVSPost2010Prop41ColorIndex
 90
       18
102
RTVSPost2010Prop41ColorRGB
 90
        0
102
RTVSPost2010PropOp41
 70
     1
102
RTVSPost2010Prop42
 90
       50
102
RTVSPost2010PropOp42
 70
     1
102
RTVSPost2010Prop43
 90
        3
102
RTVSPost2010PropOp43
 70
     1
102
RTVSPost2010Prop44ColorIndex
 90
        5
102
RTVSPost2010Prop44ColorRGB
 90
      255
102
RTVSPost2010PropOp44
 70
     1
102
RTVSPost2010Prop45
280
     0
102
RTVSPost2010PropOp45
 70
     1
102
RTVSPost2010Prop46
 90
       50
102
RTVSPost2010PropOp46
 70
     1
102
RTVSPost2010Prop47
 90
       50
102
RTVSPost2010PropOp47
 70
     1
102
RTVSPost2010Prop48
 90
       50
102
RTVSPost2010PropOp48
 70
     1
102
RTVSPost2010Prop49
280
     0
102
RTVSPost2010PropOp49
 70
     1
102
RTVSPost2010Prop50
 90
       50
102
RTVSPost2010PropOp50
 70
     1
102
RTVSPost2010Prop51ColorIndex
 90
      256
102
RTVSPost2010Prop51ColorRGB
 90
-16777216
102
RTVSPost2010PropOp51
 70
     0
102
RTVSPost2010Prop52
140
1.0
102
RTVSPost2010PropOp52
 70
     0
102
RTVSPost2010Prop53
 90
        2
102
RTVSPost2010PropOp53
 70
     1
102
RTVSPost2010Prop54
  1
strokes_ogs.tif
102
RTVSPost2010PropOp54
 70
     1
102
RTVSPost2010Prop55
280
     0
102
RTVSPost2010PropOp55
 70
     1
102
RTVSPost2010Prop56
140
1.0
102
RTVSPost2010PropOp56
 70
     1
102
RTVSPost2010Prop57
140
1.0
102
RTVSPost2010PropOp57
 70
     1
102
RTVSPropertyOp0
 70
     1
102
RTVSPropertyOp1
 70
     1
102
RTVSPropertyOp2
 70
     1
102
RTVSPropertyOp3
 70
     1
102
RTVSPropertyOp4
 70
     1
102
RTVSPropertyOp5
 70
     1
102
RTVSPropertyOp6
 70
     1
102
RTVSPropertyOp7
 70
     1
102
RTVSPropertyOp8
 70
     1
102
RTVSPropertyOp9
 70
     1
102
RTVSPropertyOp10
 70
     1
102
RTVSPropertyOp11
 70
     1
102
RTVSPropertyOp12
 70
     1
102
RTVSPropertyOp13
 70
     1
102
RTVSPropertyOp14
 70
     1
102
RTVSPropertyOp15
 70
     1
102
RTVSPropertyOp16
 70
     1
102
RTVSPropertyOp17
 70
     1
102
RTVSPropertyOp18
 70
     1
102
RTVSPropertyOp19
 70
     1
102
RTVSPropertyOp20
 70
     1
102
RTVSPropertyOp21
 70
     1
102
RTVSPropertyOp22
 70
     1
102
RTVSPropertyOp23
 70
     1
102
RTVSPropertyOp24
 70
     1
102
RTVSPropertyOp25
 70
     1
102
RTVSPropertyOp26
 70
     1
102
RTVSPropertyOp27
 70
     1
102
RTVSPropertyOp28
 70
     1
102
RTVSPropertyOp29
 70
     1
102
RTVSPropertyOp30
 70
     1
102
RTVSPropertyOp31
 70
     1
102
RTVSPropertyOp32
 70
     1
102
RTVSPropertyOp33
 70
     1
102
RTVSPropertyOp34
 70
     1
102
RTVSPropertyOp35
 70
     1
102
RTVSPropertyOp36
 70
     1
102
RTVSPropertyOp37
 70
     1
102
RTVSPropertyOp38
 70
     1
102
RTVSPropertyOp39
 70
     1
102
RTVSPropertyOp40
 70
     1
102
RTVSPropertyOp41
 70
     1
102
RTVSPropertyOp42
 70
     1
102
RTVSPropertyOp43
 70
     1
102
RTVSPropertyOp44
 70
     1
102
RTVSPropertyOp45
 70
     1
102
RTVSPropertyOp46
 70
     1
102
RTVSPropertyOp47
 70
     1
102
RTVSPropertyOp48
 70
     1
102
RTVSPropertyOp49
 70
     1
102
RTVSPropertyOp50
 70
     1
102
RTVSPropertyOp51
 70
     0
102
RTVSPropertyOp52
 70
     0
102
RTVSPropertyOp53
 70
     1
102
RTVSPropertyOp54
 70
     1
102
RTVSPropertyOp55
 70
     1
102
RTVSPropertyOp56
 70
     1
102
RTVSPropertyOp57
 70
     1
102
RTVSPropertyOp58
 70
     1
102
RTVSPropertyOp59
 70
     1
102
RTVSPropertyOp60
 70
     1
102
RTVSPropertyOp61
 70
     1
102
RTVSPropertyOp62
 70
     1
  0
XRECORD
  5
4DC
102
{ACAD_REACTORS
330
4DB
102
}
330
4DB
100
AcDbXrecord
280
     1
102
RTVSPost2010Prop28
280
     0
102
RTVSPost2010PropOp28
 70
     1
102
RTVSPost2010Prop29
280
     1
102
RTVSPost2010PropOp29
 70
     1
102
RTVSPost2010Prop30
280
     1
102
RTVSPost2010PropOp30
 70
     1
102
RTVSPost2010Prop31
280
     0
102
RTVSPost2010PropOp31
 70
     1
102
RTVSPost2010Prop32
280
     0
102
RTVSPost2010PropOp32
 70
     1
102
RTVSPost2010Prop33
280
     0
102
RTVSPost2010PropOp33
 70
     1
102
RTVSPost2010Prop34
280
     0
102
RTVSPost2010PropOp34
 70
     1
102
RTVSPost2010Prop35
280
     0
102
RTVSPost2010PropOp35
 70
     1
102
RTVSPost2010Prop36
280
     0
102
RTVSPost2010PropOp36
 70
     1
102
RTVSPost2010Prop37
 90
       50
102
RTVSPost2010PropOp37
 70
     1
102
RTVSPost2010Prop38
140
0.0
102
RTVSPost2010PropOp38
 70
     1
102
RTVSPost2010Prop39
140
1.0
102
RTVSPost2010PropOp39
 70
     1
102
RTVSPost2010Prop40
 90
        0
102
RTVSPost2010PropOp40
 70
     1
102
RTVSPost2010Prop41ColorIndex
 90
       18
102
RTVSPost2010Prop41ColorRGB
 90
        0
102
RTVSPost2010PropOp41
 70
     1
102
RTVSPost2010Prop42
 90
       50
102
RTVSPost2010PropOp42
 70
     1
102
RTVSPost2010Prop43
 90
        3
102
RTVSPost2010PropOp43
 70
     1
102
RTVSPost2010Prop44ColorIndex
 90
        5
102
RTVSPost2010Prop44ColorRGB
 90
      255
102
RTVSPost2010PropOp44
 70
     1
102
RTVSPost2010Prop45
280
     0
102
RTVSPost2010PropOp45
 70
     1
102
RTVSPost2010Prop46
 90
       50
102
RTVSPost2010PropOp46
 70
     1
102
RTVSPost2010Prop47
 90
       50
102
RTVSPost2010PropOp47
 70
     1
102
RTVSPost2010Prop48
 90
       50
102
RTVSPost2010PropOp48
 70
     1
102
RTVSPost2010Prop49
280
     0
102
RTVSPost2010PropOp49
 70
     1
102
RTVSPost2010Prop50
 90
       50
102
RTVSPost2010PropOp50
 70
     1
102
RTVSPost2010Prop51ColorIndex
 90
      256
102
RTVSPost2010Prop51ColorRGB
 90
-16777216
102
RTVSPost2010PropOp51
 70
     0
102
RTVSPost2010Prop52
140
1.0
102
RTVSPost2010PropOp52
 70
     0
102
RTVSPost2010Prop53
 90
        2
102
RTVSPost2010PropOp53
 70
     1
102
RTVSPost2010Prop54
  1
strokes_ogs.tif
102
RTVSPost2010PropOp54
 70
     1
102
RTVSPost2010Prop55
280
     0
102
RTVSPost2010PropOp55
 70
     1
102
RTVSPost2010Prop56
140
1.0
102
RTVSPost2010PropOp56
 70
     1
102
RTVSPost2010Prop57
140
1.0
102
RTVSPost2010PropOp57
 70
     1
102
RTVSPropertyOp0
 70
     1
102
RTVSPropertyOp1
 70
     1
102
RTVSPropertyOp2
 70
     1
102
RTVSPropertyOp3
 70
     1
102
RTVSPropertyOp4
 70
     1
102
RTVSPropertyOp5
 70
     1
102
RTVSPropertyOp6
 70
     1
102
RTVSPropertyOp7
 70
     1
102
RTVSPropertyOp8
 70
     1
102
RTVSPropertyOp9
 70
     1
102
RTVSPropertyOp10
 70
     1
102
RTVSPropertyOp11
 70
     1
102
RTVSPropertyOp12
 70
     1
102
RTVSPropertyOp13
 70
     1
102
RTVSPropertyOp14
 70
     1
102
RTVSPropertyOp15
 70
     1
102
RTVSPropertyOp16
 70
     1
102
RTVSPropertyOp17
 70
     1
102
RTVSPropertyOp18
 70
     1
102
RTVSPropertyOp19
 70
     1
102
RTVSPropertyOp20
 70
     1
102
RTVSPropertyOp21
 70
     1
102
RTVSPropertyOp22
 70
     1
102
RTVSPropertyOp23
 70
     1
102
RTVSPropertyOp24
 70
     1
102
RTVSPropertyOp25
 70
     1
102
RTVSPropertyOp26
 70
     1
102
RTVSPropertyOp27
 70
     1
102
RTVSPropertyOp28
 70
     1
102
RTVSPropertyOp29
 70
     1
102
RTVSPropertyOp30
 70
     1
102
RTVSPropertyOp31
 70
     1
102
RTVSPropertyOp32
 70
     1
102
RTVSPropertyOp33
 70
     1
102
RTVSPropertyOp34
 70
     1
102
RTVSPropertyOp35
 70
     1
102
RTVSPropertyOp36
 70
     1
102
RTVSPropertyOp37
 70
     1
102
RTVSPropertyOp38
 70
     1
102
RTVSPropertyOp39
 70
     1
102
RTVSPropertyOp40
 70
     1
102
RTVSPropertyOp41
 70
     1
102
RTVSPropertyOp42
 70
     1
102
RTVSPropertyOp43
 70
     1
102
RTVSPropertyOp44
 70
     1
102
RTVSPropertyOp45
 70
     1
102
RTVSPropertyOp46
 70
     1
102
RTVSPropertyOp47
 70
     1
102
RTVSPropertyOp48
 70
     1
102
RTVSPropertyOp49
 70
     1
102
RTVSPropertyOp50
 70
     1
102
RTVSPropertyOp51
 70
     0
102
RTVSPropertyOp52
 70
     0
102
RTVSPropertyOp53
 70
     1
102
RTVSPropertyOp54
 70
     1
102
RTVSPropertyOp55
 70
     1
102
RTVSPropertyOp56
 70
     1
102
RTVSPropertyOp57
 70
     1
102
RTVSPropertyOp58
 70
     1
102
RTVSPropertyOp59
 70
     1
102
RTVSPropertyOp60
 70
     1
102
RTVSPropertyOp61
 70
     1
102
RTVSPropertyOp62
 70
     1
  0
XRECORD
  5
4DE
102
{ACAD_REACTORS
330
4DD
102
}
330
4DD
100
AcDbXrecord
280
     1
102
RTVSPost2010Prop28
280
     0
102
RTVSPost2010PropOp28
 70
     1
102
RTVSPost2010Prop29
280
     1
102
RTVSPost2010PropOp29
 70
     1
102
RTVSPost2010Prop30
280
     1
102
RTVSPost2010PropOp30
 70
     1
102
RTVSPost2010Prop31
280
     0
102
RTVSPost2010PropOp31
 70
     1
102
RTVSPost2010Prop32
280
     0
102
RTVSPost2010PropOp32
 70
     1
102
RTVSPost2010Prop33
280
     0
102
RTVSPost2010PropOp33
 70
     1
102
RTVSPost2010Prop34
280
     0
102
RTVSPost2010PropOp34
 70
     1
102
RTVSPost2010Prop35
280
     0
102
RTVSPost2010PropOp35
 70
     1
102
RTVSPost2010Prop36
280
     0
102
RTVSPost2010PropOp36
 70
     1
102
RTVSPost2010Prop37
 90
       50
102
RTVSPost2010PropOp37
 70
     1
102
RTVSPost2010Prop38
140
0.0
102
RTVSPost2010PropOp38
 70
     1
102
RTVSPost2010Prop39
140
1.0
102
RTVSPost2010PropOp39
 70
     1
102
RTVSPost2010Prop40
 90
        0
102
RTVSPost2010PropOp40
 70
     1
102
RTVSPost2010Prop41ColorIndex
 90
       18
102
RTVSPost2010Prop41ColorRGB
 90
        0
102
RTVSPost2010PropOp41
 70
     1
102
RTVSPost2010Prop42
 90
       50
102
RTVSPost2010PropOp42
 70
     1
102
RTVSPost2010Prop43
 90
        3
102
RTVSPost2010PropOp43
 70
     1
102
RTVSPost2010Prop44ColorIndex
 90
        5
102
RTVSPost2010Prop44ColorRGB
 90
      255
102
RTVSPost2010PropOp44
 70
     1
102
RTVSPost2010Prop45
280
     0
102
RTVSPost2010PropOp45
 70
     1
102
RTVSPost2010Prop46
 90
       50
102
RTVSPost2010PropOp46
 70
     1
102
RTVSPost2010Prop47
 90
       50
102
RTVSPost2010PropOp47
 70
     1
102
RTVSPost2010Prop48
 90
       50
102
RTVSPost2010PropOp48
 70
     1
102
RTVSPost2010Prop49
280
     0
102
RTVSPost2010PropOp49
 70
     1
102
RTVSPost2010Prop50
 90
       50
102
RTVSPost2010PropOp50
 70
     1
102
RTVSPost2010Prop51ColorIndex
 90
      256
102
RTVSPost2010Prop51ColorRGB
 90
-16777216
102
RTVSPost2010PropOp51
 70
     0
102
RTVSPost2010Prop52
140
1.0
102
RTVSPost2010PropOp52
 70
     0
102
RTVSPost2010Prop53
 90
        2
102
RTVSPost2010PropOp53
 70
     1
102
RTVSPost2010Prop54
  1
strokes_ogs.tif
102
RTVSPost2010PropOp54
 70
     1
102
RTVSPost2010Prop55
280
     0
102
RTVSPost2010PropOp55
 70
     1
102
RTVSPost2010Prop56
140
1.0
102
RTVSPost2010PropOp56
 70
     1
102
RTVSPost2010Prop57
140
1.0
102
RTVSPost2010PropOp57
 70
     1
102
RTVSPropertyOp0
 70
     1
102
RTVSPropertyOp1
 70
     1
102
RTVSPropertyOp2
 70
     1
102
RTVSPropertyOp3
 70
     1
102
RTVSPropertyOp4
 70
     1
102
RTVSPropertyOp5
 70
     1
102
RTVSPropertyOp6
 70
     1
102
RTVSPropertyOp7
 70
     1
102
RTVSPropertyOp8
 70
     1
102
RTVSPropertyOp9
 70
     1
102
RTVSPropertyOp10
 70
     1
102
RTVSPropertyOp11
 70
     1
102
RTVSPropertyOp12
 70
     1
102
RTVSPropertyOp13
 70
     1
102
RTVSPropertyOp14
 70
     1
102
RTVSPropertyOp15
 70
     1
102
RTVSPropertyOp16
 70
     1
102
RTVSPropertyOp17
 70
     1
102
RTVSPropertyOp18
 70
     1
102
RTVSPropertyOp19
 70
     1
102
RTVSPropertyOp20
 70
     1
102
RTVSPropertyOp21
 70
     1
102
RTVSPropertyOp22
 70
     1
102
RTVSPropertyOp23
 70
     1
102
RTVSPropertyOp24
 70
     1
102
RTVSPropertyOp25
 70
     1
102
RTVSPropertyOp26
 70
     1
102
RTVSPropertyOp27
 70
     1
102
RTVSPropertyOp28
 70
     1
102
RTVSPropertyOp29
 70
     1
102
RTVSPropertyOp30
 70
     1
102
RTVSPropertyOp31
 70
     1
102
RTVSPropertyOp32
 70
     1
102
RTVSPropertyOp33
 70
     1
102
RTVSPropertyOp34
 70
     1
102
RTVSPropertyOp35
 70
     1
102
RTVSPropertyOp36
 70
     1
102
RTVSPropertyOp37
 70
     1
102
RTVSPropertyOp38
 70
     1
102
RTVSPropertyOp39
 70
     1
102
RTVSPropertyOp40
 70
     1
102
RTVSPropertyOp41
 70
     1
102
RTVSPropertyOp42
 70
     1
102
RTVSPropertyOp43
 70
     1
102
RTVSPropertyOp44
 70
     1
102
RTVSPropertyOp45
 70
     1
102
RTVSPropertyOp46
 70
     1
102
RTVSPropertyOp47
 70
     1
102
RTVSPropertyOp48
 70
     1
102
RTVSPropertyOp49
 70
     1
102
RTVSPropertyOp50
 70
     1
102
RTVSPropertyOp51
 70
     0
102
RTVSPropertyOp52
 70
     0
102
RTVSPropertyOp53
 70
     1
102
RTVSPropertyOp54
 70
     1
102
RTVSPropertyOp55
 70
     1
102
RTVSPropertyOp56
 70
     1
102
RTVSPropertyOp57
 70
     1
102
RTVSPropertyOp58
 70
     1
102
RTVSPropertyOp59
 70
     1
102
RTVSPropertyOp60
 70
     1
102
RTVSPropertyOp61
 70
     1
102
RTVSPropertyOp62
 70
     1
  0
XRECORD
  5
4CE
102
{ACAD_REACTORS
330
4CD
102
}
330
4CD
100
AcDbXrecord
280
     1
102
RTVSPost2010Prop28
280
     0
102
RTVSPost2010PropOp28
 70
     1
102
RTVSPost2010Prop29
280
     1
102
RTVSPost2010PropOp29
 70
     1
102
RTVSPost2010Prop30
280
     1
102
RTVSPost2010PropOp30
 70
     1
102
RTVSPost2010Prop31
280
     0
102
RTVSPost2010PropOp31
 70
     1
102
RTVSPost2010Prop32
280
     0
102
RTVSPost2010PropOp32
 70
     1
102
RTVSPost2010Prop33
280
     0
102
RTVSPost2010PropOp33
 70
     1
102
RTVSPost2010Prop34
280
     0
102
RTVSPost2010PropOp34
 70
     1
102
RTVSPost2010Prop35
280
     0
102
RTVSPost2010PropOp35
 70
     1
102
RTVSPost2010Prop36
280
     0
102
RTVSPost2010PropOp36
 70
     1
102
RTVSPost2010Prop37
 90
       50
102
RTVSPost2010PropOp37
 70
     1
102
RTVSPost2010Prop38
140
0.0
102
RTVSPost2010PropOp38
 70
     1
102
RTVSPost2010Prop39
140
1.0
102
RTVSPost2010PropOp39
 70
     1
102
RTVSPost2010Prop40
 90
        0
102
RTVSPost2010PropOp40
 70
     1
102
RTVSPost2010Prop41ColorIndex
 90
       18
102
RTVSPost2010Prop41ColorRGB
 90
        0
102
RTVSPost2010PropOp41
 70
     1
102
RTVSPost2010Prop42
 90
       50
102
RTVSPost2010PropOp42
 70
     1
102
RTVSPost2010Prop43
 90
        3
102
RTVSPost2010PropOp43
 70
     1
102
RTVSPost2010Prop44ColorIndex
 90
        5
102
RTVSPost2010Prop44ColorRGB
 90
      255
102
RTVSPost2010PropOp44
 70
     1
102
RTVSPost2010Prop45
280
     0
102
RTVSPost2010PropOp45
 70
     1
102
RTVSPost2010Prop46
 90
       50
102
RTVSPost2010PropOp46
 70
     1
102
RTVSPost2010Prop47
 90
       50
102
RTVSPost2010PropOp47
 70
     1
102
RTVSPost2010Prop48
 90
       50
102
RTVSPost2010PropOp48
 70
     1
102
RTVSPost2010Prop49
280
     0
102
RTVSPost2010PropOp49
 70
     1
102
RTVSPost2010Prop50
 90
       50
102
RTVSPost2010PropOp50
 70
     1
102
RTVSPost2010Prop51ColorIndex
 90
      256
102
RTVSPost2010Prop51ColorRGB
 90
-16777216
102
RTVSPost2010PropOp51
 70
     0
102
RTVSPost2010Prop52
140
1.0
102
RTVSPost2010PropOp52
 70
     0
102
RTVSPost2010Prop53
 90
        2
102
RTVSPost2010PropOp53
 70
     1
102
RTVSPost2010Prop54
  1
strokes_ogs.tif
102
RTVSPost2010PropOp54
 70
     1
102
RTVSPost2010Prop55
280
     0
102
RTVSPost2010PropOp55
 70
     1
102
RTVSPost2010Prop56
140
1.0
102
RTVSPost2010PropOp56
 70
     1
102
RTVSPost2010Prop57
140
1.0
102
RTVSPost2010PropOp57
 70
     1
102
RTVSPropertyOp0
 70
     1
102
RTVSPropertyOp1
 70
     1
102
RTVSPropertyOp2
 70
     1
102
RTVSPropertyOp3
 70
     1
102
RTVSPropertyOp4
 70
     1
102
RTVSPropertyOp5
 70
     1
102
RTVSPropertyOp6
 70
     1
102
RTVSPropertyOp7
 70
     1
102
RTVSPropertyOp8
 70
     1
102
RTVSPropertyOp9
 70
     1
102
RTVSPropertyOp10
 70
     1
102
RTVSPropertyOp11
 70
     1
102
RTVSPropertyOp12
 70
     1
102
RTVSPropertyOp13
 70
     1
102
RTVSPropertyOp14
 70
     1
102
RTVSPropertyOp15
 70
     1
102
RTVSPropertyOp16
 70
     1
102
RTVSPropertyOp17
 70
     1
102
RTVSPropertyOp18
 70
     1
102
RTVSPropertyOp19
 70
     1
102
RTVSPropertyOp20
 70
     1
102
RTVSPropertyOp21
 70
     1
102
RTVSPropertyOp22
 70
     1
102
RTVSPropertyOp23
 70
     1
102
RTVSPropertyOp24
 70
     1
102
RTVSPropertyOp25
 70
     1
102
RTVSPropertyOp26
 70
     1
102
RTVSPropertyOp27
 70
     1
102
RTVSPropertyOp28
 70
     1
102
RTVSPropertyOp29
 70
     1
102
RTVSPropertyOp30
 70
     1
102
RTVSPropertyOp31
 70
     1
102
RTVSPropertyOp32
 70
     1
102
RTVSPropertyOp33
 70
     1
102
RTVSPropertyOp34
 70
     1
102
RTVSPropertyOp35
 70
     1
102
RTVSPropertyOp36
 70
     1
102
RTVSPropertyOp37
 70
     1
102
RTVSPropertyOp38
 70
     1
102
RTVSPropertyOp39
 70
     1
102
RTVSPropertyOp40
 70
     1
102
RTVSPropertyOp41
 70
     1
102
RTVSPropertyOp42
 70
     1
102
RTVSPropertyOp43
 70
     1
102
RTVSPropertyOp44
 70
     1
102
RTVSPropertyOp45
 70
     1
102
RTVSPropertyOp46
 70
     1
102
RTVSPropertyOp47
 70
     1
102
RTVSPropertyOp48
 70
     1
102
RTVSPropertyOp49
 70
     1
102
RTVSPropertyOp50
 70
     1
102
RTVSPropertyOp51
 70
     0
102
RTVSPropertyOp52
 70
     0
102
RTVSPropertyOp53
 70
     1
102
RTVSPropertyOp54
 70
     1
102
RTVSPropertyOp55
 70
     1
102
RTVSPropertyOp56
 70
     1
102
RTVSPropertyOp57
 70
     1
102
RTVSPropertyOp58
 70
     1
102
RTVSPropertyOp59
 70
     1
102
RTVSPropertyOp60
 70
     1
102
RTVSPropertyOp61
 70
     1
102
RTVSPropertyOp62
 70
     1
  0
XRECORD
  5
4C0
102
{ACAD_REACTORS
330
4BF
102
}
330
4BF
100
AcDbXrecord
280
     1
102
RTVSPost2010Prop28
280
     0
102
RTVSPost2010PropOp28
 70
     1
102
RTVSPost2010Prop29
280
     1
102
RTVSPost2010PropOp29
 70
     1
102
RTVSPost2010Prop30
280
     1
102
RTVSPost2010PropOp30
 70
     1
102
RTVSPost2010Prop31
280
     0
102
RTVSPost2010PropOp31
 70
     1
102
RTVSPost2010Prop32
280
     0
102
RTVSPost2010PropOp32
 70
     1
102
RTVSPost2010Prop33
280
     0
102
RTVSPost2010PropOp33
 70
     1
102
RTVSPost2010Prop34
280
     0
102
RTVSPost2010PropOp34
 70
     1
102
RTVSPost2010Prop35
280
     0
102
RTVSPost2010PropOp35
 70
     1
102
RTVSPost2010Prop36
280
     0
102
RTVSPost2010PropOp36
 70
     1
102
RTVSPost2010Prop37
 90
       50
102
RTVSPost2010PropOp37
 70
     1
102
RTVSPost2010Prop38
140
0.0
102
RTVSPost2010PropOp38
 70
     1
102
RTVSPost2010Prop39
140
1.0
102
RTVSPost2010PropOp39
 70
     1
102
RTVSPost2010Prop40
 90
        0
102
RTVSPost2010PropOp40
 70
     1
102
RTVSPost2010Prop41ColorIndex
 90
       18
102
RTVSPost2010Prop41ColorRGB
 90
        0
102
RTVSPost2010PropOp41
 70
     1
102
RTVSPost2010Prop42
 90
       50
102
RTVSPost2010PropOp42
 70
     1
102
RTVSPost2010Prop43
 90
        3
102
RTVSPost2010PropOp43
 70
     1
102
RTVSPost2010Prop44ColorIndex
 90
        5
102
RTVSPost2010Prop44ColorRGB
 90
      255
102
RTVSPost2010PropOp44
 70
     1
102
RTVSPost2010Prop45
280
     0
102
RTVSPost2010PropOp45
 70
     1
102
RTVSPost2010Prop46
 90
       50
102
RTVSPost2010PropOp46
 70
     1
102
RTVSPost2010Prop47
 90
       50
102
RTVSPost2010PropOp47
 70
     1
102
RTVSPost2010Prop48
 90
       50
102
RTVSPost2010PropOp48
 70
     1
102
RTVSPost2010Prop49
280
     0
102
RTVSPost2010PropOp49
 70
     1
102
RTVSPost2010Prop50
 90
       50
102
RTVSPost2010PropOp50
 70
     1
102
RTVSPost2010Prop51ColorIndex
 90
      256
102
RTVSPost2010Prop51ColorRGB
 90
-16777216
102
RTVSPost2010PropOp51
 70
     0
102
RTVSPost2010Prop52
140
1.0
102
RTVSPost2010PropOp52
 70
     0
102
RTVSPost2010Prop53
 90
        2
102
RTVSPost2010PropOp53
 70
     1
102
RTVSPost2010Prop54
  1
strokes_ogs.tif
102
RTVSPost2010PropOp54
 70
     1
102
RTVSPost2010Prop55
280
     0
102
RTVSPost2010PropOp55
 70
     1
102
RTVSPost2010Prop56
140
1.0
102
RTVSPost2010PropOp56
 70
     1
102
RTVSPost2010Prop57
140
1.0
102
RTVSPost2010PropOp57
 70
     1
102
RTVSPropertyOp0
 70
     1
102
RTVSPropertyOp1
 70
     1
102
RTVSPropertyOp2
 70
     1
102
RTVSPropertyOp3
 70
     1
102
RTVSPropertyOp4
 70
     1
102
RTVSPropertyOp5
 70
     1
102
RTVSPropertyOp6
 70
     1
102
RTVSPropertyOp7
 70
     1
102
RTVSPropertyOp8
 70
     1
102
RTVSPropertyOp9
 70
     1
102
RTVSPropertyOp10
 70
     1
102
RTVSPropertyOp11
 70
     1
102
RTVSPropertyOp12
 70
     1
102
RTVSPropertyOp13
 70
     1
102
RTVSPropertyOp14
 70
     1
102
RTVSPropertyOp15
 70
     1
102
RTVSPropertyOp16
 70
     1
102
RTVSPropertyOp17
 70
     1
102
RTVSPropertyOp18
 70
     1
102
RTVSPropertyOp19
 70
     1
102
RTVSPropertyOp20
 70
     1
102
RTVSPropertyOp21
 70
     1
102
RTVSPropertyOp22
 70
     1
102
RTVSPropertyOp23
 70
     1
102
RTVSPropertyOp24
 70
     1
102
RTVSPropertyOp25
 70
     1
102
RTVSPropertyOp26
 70
     1
102
RTVSPropertyOp27
 70
     1
102
RTVSPropertyOp28
 70
     1
102
RTVSPropertyOp29
 70
     1
102
RTVSPropertyOp30
 70
     1
102
RTVSPropertyOp31
 70
     1
102
RTVSPropertyOp32
 70
     1
102
RTVSPropertyOp33
 70
     1
102
RTVSPropertyOp34
 70
     1
102
RTVSPropertyOp35
 70
     1
102
RTVSPropertyOp36
 70
     1
102
RTVSPropertyOp37
 70
     1
102
RTVSPropertyOp38
 70
     1
102
RTVSPropertyOp39
 70
     1
102
RTVSPropertyOp40
 70
     1
102
RTVSPropertyOp41
 70
     1
102
RTVSPropertyOp42
 70
     1
102
RTVSPropertyOp43
 70
     1
102
RTVSPropertyOp44
 70
     1
102
RTVSPropertyOp45
 70
     1
102
RTVSPropertyOp46
 70
     1
102
RTVSPropertyOp47
 70
     1
102
RTVSPropertyOp48
 70
     1
102
RTVSPropertyOp49
 70
     1
102
RTVSPropertyOp50
 70
     1
102
RTVSPropertyOp51
 70
     0
102
RTVSPropertyOp52
 70
     0
102
RTVSPropertyOp53
 70
     1
102
RTVSPropertyOp54
 70
     1
102
RTVSPropertyOp55
 70
     1
102
RTVSPropertyOp56
 70
     1
102
RTVSPropertyOp57
 70
     1
102
RTVSPropertyOp58
 70
     1
102
RTVSPropertyOp59
 70
     1
102
RTVSPropertyOp60
 70
     1
102
RTVSPropertyOp61
 70
     1
102
RTVSPropertyOp62
 70
     1
  0
XRECORD
  5
4E0
102
{ACAD_REACTORS
330
4DF
102
}
330
4DF
100
AcDbXrecord
280
     1
102
RTVSPost2010Prop28
280
     0
102
RTVSPost2010PropOp28
 70
     1
102
RTVSPost2010Prop29
280
     1
102
RTVSPost2010PropOp29
 70
     1
102
RTVSPost2010Prop30
280
     1
102
RTVSPost2010PropOp30
 70
     1
102
RTVSPost2010Prop31
280
     0
102
RTVSPost2010PropOp31
 70
     1
102
RTVSPost2010Prop32
280
     0
102
RTVSPost2010PropOp32
 70
     1
102
RTVSPost2010Prop33
280
     0
102
RTVSPost2010PropOp33
 70
     1
102
RTVSPost2010Prop34
280
     0
102
RTVSPost2010PropOp34
 70
     1
102
RTVSPost2010Prop35
280
     0
102
RTVSPost2010PropOp35
 70
     1
102
RTVSPost2010Prop36
280
     0
102
RTVSPost2010PropOp36
 70
     1
102
RTVSPost2010Prop37
 90
       50
102
RTVSPost2010PropOp37
 70
     1
102
RTVSPost2010Prop38
140
0.0
102
RTVSPost2010PropOp38
 70
     1
102
RTVSPost2010Prop39
140
1.0
102
RTVSPost2010PropOp39
 70
     1
102
RTVSPost2010Prop40
 90
        0
102
RTVSPost2010PropOp40
 70
     1
102
RTVSPost2010Prop41ColorIndex
 90
       18
102
RTVSPost2010Prop41ColorRGB
 90
        0
102
RTVSPost2010PropOp41
 70
     1
102
RTVSPost2010Prop42
 90
       50
102
RTVSPost2010PropOp42
 70
     1
102
RTVSPost2010Prop43
 90
        3
102
RTVSPost2010PropOp43
 70
     1
102
RTVSPost2010Prop44ColorIndex
 90
        5
102
RTVSPost2010Prop44ColorRGB
 90
      255
102
RTVSPost2010PropOp44
 70
     1
102
RTVSPost2010Prop45
280
     0
102
RTVSPost2010PropOp45
 70
     1
102
RTVSPost2010Prop46
 90
       50
102
RTVSPost2010PropOp46
 70
     1
102
RTVSPost2010Prop47
 90
       50
102
RTVSPost2010PropOp47
 70
     1
102
RTVSPost2010Prop48
 90
       50
102
RTVSPost2010PropOp48
 70
     1
102
RTVSPost2010Prop49
280
     0
102
RTVSPost2010PropOp49
 70
     1
102
RTVSPost2010Prop50
 90
       50
102
RTVSPost2010PropOp50
 70
     1
102
RTVSPost2010Prop51ColorIndex
 90
      256
102
RTVSPost2010Prop51ColorRGB
 90
-16777216
102
RTVSPost2010PropOp51
 70
     0
102
RTVSPost2010Prop52
140
1.0
102
RTVSPost2010PropOp52
 70
     0
102
RTVSPost2010Prop53
 90
        2
102
RTVSPost2010PropOp53
 70
     1
102
RTVSPost2010Prop54
  1
strokes_ogs.tif
102
RTVSPost2010PropOp54
 70
     1
102
RTVSPost2010Prop55
280
     0
102
RTVSPost2010PropOp55
 70
     1
102
RTVSPost2010Prop56
140
1.0
102
RTVSPost2010PropOp56
 70
     1
102
RTVSPost2010Prop57
140
1.0
102
RTVSPost2010PropOp57
 70
     1
102
RTVSPropertyOp0
 70
     1
102
RTVSPropertyOp1
 70
     1
102
RTVSPropertyOp2
 70
     1
102
RTVSPropertyOp3
 70
     1
102
RTVSPropertyOp4
 70
     1
102
RTVSPropertyOp5
 70
     1
102
RTVSPropertyOp6
 70
     1
102
RTVSPropertyOp7
 70
     1
102
RTVSPropertyOp8
 70
     1
102
RTVSPropertyOp9
 70
     1
102
RTVSPropertyOp10
 70
     1
102
RTVSPropertyOp11
 70
     1
102
RTVSPropertyOp12
 70
     1
102
RTVSPropertyOp13
 70
     1
102
RTVSPropertyOp14
 70
     1
102
RTVSPropertyOp15
 70
     1
102
RTVSPropertyOp16
 70
     1
102
RTVSPropertyOp17
 70
     1
102
RTVSPropertyOp18
 70
     1
102
RTVSPropertyOp19
 70
     1
102
RTVSPropertyOp20
 70
     1
102
RTVSPropertyOp21
 70
     1
102
RTVSPropertyOp22
 70
     1
102
RTVSPropertyOp23
 70
     1
102
RTVSPropertyOp24
 70
     1
102
RTVSPropertyOp25
 70
     1
102
RTVSPropertyOp26
 70
     1
102
RTVSPropertyOp27
 70
     1
102
RTVSPropertyOp28
 70
     1
102
RTVSPropertyOp29
 70
     1
102
RTVSPropertyOp30
 70
     1
102
RTVSPropertyOp31
 70
     1
102
RTVSPropertyOp32
 70
     1
102
RTVSPropertyOp33
 70
     1
102
RTVSPropertyOp34
 70
     1
102
RTVSPropertyOp35
 70
     1
102
RTVSPropertyOp36
 70
     1
102
RTVSPropertyOp37
 70
     1
102
RTVSPropertyOp38
 70
     1
102
RTVSPropertyOp39
 70
     1
102
RTVSPropertyOp40
 70
     1
102
RTVSPropertyOp41
 70
     1
102
RTVSPropertyOp42
 70
     1
102
RTVSPropertyOp43
 70
     1
102
RTVSPropertyOp44
 70
     1
102
RTVSPropertyOp45
 70
     1
102
RTVSPropertyOp46
 70
     1
102
RTVSPropertyOp47
 70
     1
102
RTVSPropertyOp48
 70
     1
102
RTVSPropertyOp49
 70
     1
102
RTVSPropertyOp50
 70
     1
102
RTVSPropertyOp51
 70
     0
102
RTVSPropertyOp52
 70
     0
102
RTVSPropertyOp53
 70
     1
102
RTVSPropertyOp54
 70
     1
102
RTVSPropertyOp55
 70
     1
102
RTVSPropertyOp56
 70
     1
102
RTVSPropertyOp57
 70
     1
102
RTVSPropertyOp58
 70
     1
102
RTVSPropertyOp59
 70
     1
102
RTVSPropertyOp60
 70
     1
102
RTVSPropertyOp61
 70
     1
102
RTVSPropertyOp62
 70
     1
  0
ENDSEC
  0
EOF
