  0
SECTION
  2
HEADER
  9
$ACADVER
  1
AC1015
  9
$ACADMAINTVER
 70
    20
  9
$DWGCODEPAGE
  3
ANSI_932
  9
$INSBASE
 10
0.0
 20
0.0
 30
0.0
  9
$EXTMIN
 10
36.5196155455734
 20
-29.90189178484661
 30
0.0
  9
$EXTMAX
 10
2539.327904061928
 20
1572.928074764599
 30
0.0
  9
$LIMMIN
 10
-696.2975250244141
 20
-742.4526992797852
  9
$LIMMAX
 10
1663.218376159668
 20
820.8261123657228
  9
$ORTHOMODE
 70
     1
  9
$REGENMODE
 70
     1
  9
$FILLMODE
 70
     1
  9
$QTEXTMODE
 70
     0
  9
$MIRRTEXT
 70
     1
  9
$LTSCALE
 40
1.021837595000981
  9
$ATTMODE
 70
     1
  9
$TEXTSIZE
 40
2.5
  9
$TRACEWID
 40
1.0
  9
$TEXTSTYLE
  7
Standard
  9
$CLAYER
  8
0
  9
$CELTYPE
  6
ByLayer
  9
$CECOLOR
 62
   256
  9
$CELTSCALE
 40
1.0
  9
$DISPSILH
 70
     0
  9
$DIMSCALE
 40
1.0
  9
$DIMASZ
 40
2.5
  9
$DIMEXO
 40
0.625
  9
$DIMDLI
 40
3.75
  9
$DIMRND
 40
0.0
  9
$DIMDLE
 40
0.0
  9
$DIMEXE
 40
1.25
  9
$DIMTP
 40
0.0
  9
$DIMTM
 40
0.0
  9
$DIMTXT
 40
2.5
  9
$DIMCEN
 40
2.5
  9
$DIMTSZ
 40
0.0
  9
$DIMTOL
 70
     0
  9
$DIMLIM
 70
     0
  9
$DIMTIH
 70
     0
  9
$DIMTOH
 70
     0
  9
$DIMSE1
 70
     0
  9
$DIMSE2
 70
     0
  9
$DIMTAD
 70
     1
  9
$DIMZIN
 70
     0
  9
$DIMBLK
  1

  9
$DIMASO
 70
     1
  9
$DIMSHO
 70
     1
  9
$DIMPOST
  1

  9
$DIMAPOST
  1

  9
$DIMALT
 70
     0
  9
$DIMALTD
 70
     3
  9
$DIMALTF
 40
0.03937007874016
  9
$DIMLFAC
 40
1.0
  9
$DIMTOFL
 70
     1
  9
$DIMTVP
 40
0.0
  9
$DIMTIX
 70
     0
  9
$DIMSOXD
 70
     0
  9
$DIMSAH
 70
     0
  9
$DIMBLK1
  1

  9
$DIMBLK2
  1

  9
$DIMSTYLE
  2
Standard
  9
$DIMCLRD
 70
     0
  9
$DIMCLRE
 70
     0
  9
$DIMCLRT
 70
     0
  9
$DIMTFAC
 40
0.75
  9
$DIMGAP
 40
0.625
  9
$DIMJUST
 70
     0
  9
$DIMSD1
 70
     0
  9
$DIMSD2
 70
     0
  9
$DIMTOLJ
 70
     0
  9
$DIMTZIN
 70
     8
  9
$DIMALTZ
 70
     0
  9
$DIMALTTZ
 70
     0
  9
$DIMUPT
 70
     0
  9
$DIMDEC
 70
     2
  9
$DIMTDEC
 70
     2
  9
$DIMALTU
 70
     2
  9
$DIMALTTD
 70
     3
  9
$DIMTXSTY
  7
Standard
  9
$DIMAUNIT
 70
     0
  9
$DIMADEC
 70
     0
  9
$DIMALTRND
 40
0.0
  9
$DIMAZIN
 70
     0
  9
$DIMDSEP
 70
    46
  9
$DIMATFIT
 70
     3
  9
$DIMFRAC
 70
     0
  9
$DIMLDRBLK
  1

  9
$DIMLUNIT
 70
     2
  9
$DIMLWD
 70
    -2
  9
$DIMLWE
 70
    -2
  9
$DIMTMOVE
 70
     0
  9
$LUNITS
 70
     2
  9
$LUPREC
 70
     4
  9
$SKETCHINC
 40
1.0
  9
$FILLETRAD
 40
0.0
  9
$AUNITS
 70
     0
  9
$AUPREC
 70
     0
  9
$MENU
  1
.
  9
$ELEVATION
 40
0.0
  9
$PELEVATION
 40
0.0
  9
$THICKNESS
 40
0.0
  9
$LIMCHECK
 70
     0
  9
$CHAMFERA
 40
10.0
  9
$CHAMFERB
 40
10.0
  9
$CHAMFERC
 40
20.0
  9
$CHAMFERD
 40
0.0
  9
$SKPOLY
 70
     0
  9
$TDCREATE
 40
2455188.750000000
  9
$TDUCREATE
 40
2455188.375000000
  9
$TDUPDATE
 40
2459753.401290359
  9
$TDUUPDATE
 40
2459753.026290359
  9
$TDINDWG
 40
0.0558049306
  9
$TDUSRTIMER
 40
0.0558047801
  9
$USRTIMER
 70
     1
  9
$ANGBASE
 50
0.0
  9
$ANGDIR
 70
     0
  9
$PDMODE
 70
     0
  9
$PDSIZE
 40
0.0
  9
$PLINEWID
 40
0.0
  9
$SPLFRAME
 70
     0
  9
$SPLINETYPE
 70
     6
  9
$SPLINESEGS
 70
     8
  9
$HANDSEED
  5
C6F
  9
$SURFTAB1
 70
     6
  9
$SURFTAB2
 70
     6
  9
$SURFTYPE
 70
     6
  9
$SURFU
 70
     6
  9
$SURFV
 70
     6
  9
$UCSBASE
  2

  9
$UCSNAME
  2

  9
$UCSORG
 10
0.0
 20
0.0
 30
0.0
  9
$UCSXDIR
 10
1.0
 20
0.0
 30
0.0
  9
$UCSYDIR
 10
0.0
 20
1.0
 30
0.0
  9
$UCSORTHOREF
  2

  9
$UCSORTHOVIEW
 70
     0
  9
$UCSORGTOP
 10
0.0
 20
0.0
 30
0.0
  9
$UCSORGBOTTOM
 10
0.0
 20
0.0
 30
0.0
  9
$UCSORGLEFT
 10
0.0
 20
0.0
 30
0.0
  9
$UCSORGRIGHT
 10
0.0
 20
0.0
 30
0.0
  9
$UCSORGFRONT
 10
0.0
 20
0.0
 30
0.0
  9
$UCSORGBACK
 10
0.0
 20
0.0
 30
0.0
  9
$PUCSBASE
  2

  9
$PUCSNAME
  2

  9
$PUCSORG
 10
0.0
 20
0.0
 30
0.0
  9
$PUCSXDIR
 10
1.0
 20
0.0
 30
0.0
  9
$PUCSYDIR
 10
0.0
 20
1.0
 30
0.0
  9
$PUCSORTHOREF
  2

  9
$PUCSORTHOVIEW
 70
     0
  9
$PUCSORGTOP
 10
0.0
 20
0.0
 30
0.0
  9
$PUCSORGBOTTOM
 10
0.0
 20
0.0
 30
0.0
  9
$PUCSORGLEFT
 10
0.0
 20
0.0
 30
0.0
  9
$PUCSORGRIGHT
 10
0.0
 20
0.0
 30
0.0
  9
$PUCSORGFRONT
 10
0.0
 20
0.0
 30
0.0
  9
$PUCSORGBACK
 10
0.0
 20
0.0
 30
0.0
  9
$USERI1
 70
     0
  9
$USERI2
 70
     0
  9
$USERI3
 70
     0
  9
$USERI4
 70
     0
  9
$USERI5
 70
     0
  9
$USERR1
 40
0.0
  9
$USERR2
 40
0.0
  9
$USERR3
 40
0.0
  9
$USERR4
 40
0.0
  9
$USERR5
 40
0.0
  9
$WORLDVIEW
 70
     1
  9
$SHADEDGE
 70
     3
  9
$SHADEDIF
 70
    70
  9
$TILEMODE
 70
     1
  9
$MAXACTVP
 70
    64
  9
$PINSBASE
 10
0.0
 20
0.0
 30
0.0
  9
$PLIMCHECK
 70
     0
  9
$PEXTMIN
 10
1.000000000000000E+20
 20
1.000000000000000E+20
 30
1.000000000000000E+20
  9
$PEXTMAX
 10
-1.000000000000000E+20
 20
-1.000000000000000E+20
 30
-1.000000000000000E+20
  9
$PLIMMIN
 10
0.0
 20
0.0
  9
$PLIMMAX
 10
420.0
 20
297.0
  9
$UNITMODE
 70
     0
  9
$VISRETAIN
 70
     1
  9
$PLINEGEN
 70
     0
  9
$PSLTSCALE
 70
     1
  9
$TREEDEPTH
 70
  3020
  9
$CMLSTYLE
  2
Standard
  9
$CMLJUST
 70
     0
  9
$CMLSCALE
 40
20.0
  9
$PROXYGRAPHICS
 70
     1
  9
$MEASUREMENT
 70
     1
  9
$CELWEIGHT
370
    -1
  9
$ENDCAPS
280
     0
  9
$JOINSTYLE
280
     0
  9
$LWDISPLAY
290
     0
  9
$INSUNITS
 70
     4
  9
$HYPERLINKBASE
  1

  9
$STYLESHEET
  1

  9
$XEDIT
290
     1
  9
$CEPSNTYPE
380
     0
  9
$PSTYLEMODE
290
     1
  9
$FINGERPRINTGUID
  2
{6C0F0B57-35E6-4B4A-9C06-C5023467656C}
  9
$VERSIONGUID
  2
{FB0634B6-B6E2-49E0-89D1-DC2C899F3C08}
  9
$EXTNAMES
290
     1
  9
$PSVPSCALE
 40
0.0
  9
$OLESTARTUP
290
     0
  0
ENDSEC
  0
SECTION
  2
CLASSES
  0
CLASS
  1
ACDBDICTIONARYWDFLT
  2
AcDbDictionaryWithDefault
  3
ObjectDBX Classes
 90
        0
280
     0
281
     0
  0
CLASS
  1
VISUALSTYLE
  2
AcDbVisualStyle
  3
ObjectDBX Classes
 90
     4095
280
     0
281
     0
  0
CLASS
  1
MATERIAL
  2
AcDbMaterial
  3
ObjectDBX Classes
 90
     1153
280
     0
281
     0
  0
CLASS
  1
SCALE
  2
AcDbScale
  3
ObjectDBX Classes
 90
     1153
280
     0
281
     0
  0
CLASS
  1
TABLESTYLE
  2
AcDbTableStyle
  3
ObjectDBX Classes
 90
     4095
280
     0
281
     0
  0
CLASS
  1
MLEADERSTYLE
  2
AcDbMLeaderStyle
  3
ACDB_MLEADERSTYLE_CLASS
 90
     4095
280
     0
281
     0
  0
CLASS
  1
SUN
  2
AcDbSun
  3
SCENEOE
 90
    33921
280
     0
281
     0
  0
CLASS
  1
DICTIONARYVAR
  2
AcDbDictionaryVar
  3
ObjectDBX Classes
 90
        0
280
     0
281
     0
  0
CLASS
  1
ACDBSECTIONVIEWSTYLE
  2
AcDbSectionViewStyle
  3
ObjectDBX Classes
 90
     1025
280
     0
281
     0
  0
CLASS
  1
ACDBDETAILVIEWSTYLE
  2
AcDbDetailViewStyle
  3
ObjectDBX Classes
 90
     1025
280
     0
281
     0
  0
CLASS
  1
SORTENTSTABLE
  2
AcDbSortentsTable
  3
ObjectDBX Classes
 90
        0
280
     0
281
     0
  0
CLASS
  1
CELLSTYLEMAP
  2
AcDbCellStyleMap
  3
ObjectDBX Classes
 90
     1152
280
     0
281
     0
  0
CLASS
  1
ACDBPLACEHOLDER
  2
AcDbPlaceHolder
  3
ObjectDBX Classes
 90
        0
280
     0
281
     0
  0
CLASS
  1
LAYOUT
  2
AcDbLayout
  3
ObjectDBX Classes
 90
        0
280
     0
281
     0
  0
ENDSEC
  0
SECTION
  2
TABLES
  0
TABLE
  2
VPORT
  5
8
330
0
100
AcDbSymbolTable
 70
     1
  0
VPORT
  5
29
330
8
100
AcDbSymbolTableRecord
100
AcDbViewportTableRecord
  2
*Active
 70
     0
 10
0.0
 20
0.0
 11
1.0
 21
1.0
 12
2158.170233884712
 22
900.4284502106193
 13
0.0
 23
0.0
 14
10.0
 24
10.0
 15
10.0
 25
10.0
 16
0.0
 26
0.0
 36
1.0
 17
0.0
 27
0.0
 37
0.0
 40
2947.620957518609
 41
2.204301075268817
 42
50.0
 43
0.0
 44
0.0
 50
0.0
 51
0.0
 71
     0
 72
 20000
 73
     1
 74
     3
 75
     0
 76
     0
 77
     0
 78
     0
281
     0
 65
     1
110
0.0
120
0.0
130
0.0
111
1.0
121
0.0
131
0.0
112
0.0
122
1.0
132
0.0
 79
     0
146
0.0
1001
ACAD_NAV_VCDISPLAY
1070
     3
  0
ENDTAB
  0
TABLE
  2
LTYPE
  5
5
330
0
100
AcDbSymbolTable
 70
     3
  0
LTYPE
  5
14
330
5
100
AcDbSymbolTableRecord
100
AcDbLinetypeTableRecord
  2
ByBlock
 70
     0
  3

 72
    65
 73
     0
 40
0.0
  0
LTYPE
  5
15
330
5
100
AcDbSymbolTableRecord
100
AcDbLinetypeTableRecord
  2
ByLayer
 70
     0
  3

 72
    65
 73
     0
 40
0.0
  0
LTYPE
  5
16
330
5
100
AcDbSymbolTableRecord
100
AcDbLinetypeTableRecord
  2
Continuous
 70
     0
  3
Solid line
 72
    65
 73
     0
 40
0.0
  0
LTYPE
  5
36F
330
5
100
AcDbSymbolTableRecord
100
AcDbLinetypeTableRecord
  2
CENTER2
 70
     0
  3
Center (.5x) ___ _ ___ _ ___ _ ___ _ ___ _ ___
 72
    65
 73
     4
 40
28.575
 49
19.05
 74
     0
 49
-3.174999999999998
 74
     0
 49
3.174999999999998
 74
     0
 49
-3.174999999999998
 74
     0
  0
ENDTAB
  0
TABLE
  2
LAYER
  5
2
102
{ACAD_XDICTIONARY
360
375
102
}
330
0
100
AcDbSymbolTable
 70
     4
  0
LAYER
  5
10
102
{ACAD_XDICTIONARY
360
AF0
102
}
330
2
100
AcDbSymbolTableRecord
100
AcDbLayerTableRecord
  2
0
 70
     0
 62
     7
  6
Continuous
370
    -3
390
F
  0
LAYER
  5
66
330
2
100
AcDbSymbolTableRecord
100
AcDbLayerTableRecord
  2
Defpoints
 70
     0
 62
     7
  6
Continuous
290
     0
370
    -3
390
F
  0
LAYER
  5
370
102
{ACAD_XDICTIONARY
360
371
102
}
330
2
100
AcDbSymbolTableRecord
100
AcDbLayerTableRecord
  2
中心線
 70
     0
 62
     3
  6
CENTER2
370
    -3
390
F
  0
LAYER
  5
372
102
{ACAD_XDICTIONARY
360
373
102
}
330
2
100
AcDbSymbolTableRecord
100
AcDbLayerTableRecord
  2
実線
 70
     0
 62
     7
  6
Continuous
370
    -3
390
F
  0
ENDTAB
  0
TABLE
  2
STYLE
  5
3
330
0
100
AcDbSymbolTable
 70
     1
  0
STYLE
  5
11
330
3
100
AcDbSymbolTableRecord
100
AcDbTextStyleTableRecord
  2
Standard
 70
     0
 40
0.0
 41
1.0
 50
0.0
 71
     0
 42
2.5
  3
txt
  4
extfont2
  0
ENDTAB
  0
TABLE
  2
VIEW
  5
6
330
0
100
AcDbSymbolTable
 70
     0
  0
ENDTAB
  0
TABLE
  2
UCS
  5
7
330
0
100
AcDbSymbolTable
 70
     0
  0
ENDTAB
  0
TABLE
  2
APPID
  5
9
330
0
100
AcDbSymbolTable
 70
     5
  0
APPID
  5
12
330
9
100
AcDbSymbolTableRecord
100
AcDbRegAppTableRecord
  2
ACAD
 70
     0
  0
APPID
  5
35F
330
9
100
AcDbSymbolTableRecord
100
AcDbRegAppTableRecord
  2
ACAD_MLEADERVER
 70
     0
  0
APPID
  5
374
330
9
100
AcDbSymbolTableRecord
100
AcDbRegAppTableRecord
  2
ACAD_NAV_VCDISPLAY
 70
     0
  0
APPID
  5
AE3
330
9
100
AcDbSymbolTableRecord
100
AcDbRegAppTableRecord
  2
ACAD_EXEMPT_FROM_CAD_STANDARDS
 70
     0
  0
APPID
  5
B8D
330
9
100
AcDbSymbolTableRecord
100
AcDbRegAppTableRecord
  2
ACAD_DSTYLE_DIMRADIAL_EXTENSION
 70
     0
  0
ENDTAB
  0
TABLE
  2
DIMSTYLE
  5
A
330
0
100
AcDbSymbolTable
 70
     2
100
AcDbDimStyleTable
 71
     1
340
27
  0
DIMSTYLE
105
27
330
A
100
AcDbSymbolTableRecord
100
AcDbDimStyleTableRecord
  2
Standard
 70
     0
 41
2.5
 42
0.625
 43
3.75
 44
1.25
 73
     0
 74
     0
 77
     1
140
2.5
141
2.5
143
0.03937007874016
146
0.75
147
0.625
171
     3
172
     1
271
     2
272
     2
274
     3
283
     0
284
     8
340
11
  0
ENDTAB
  0
TABLE
  2
BLOCK_RECORD
  5
1
330
0
100
AcDbSymbolTable
 70
     2
  0
BLOCK_RECORD
  5
1F
102
{ACAD_XDICTIONARY
360
89A
102
}
330
1
100
AcDbSymbolTableRecord
100
AcDbBlockTableRecord
  2
*Model_Space
340
22
  0
BLOCK_RECORD
  5
1B
330
1
100
AcDbSymbolTableRecord
100
AcDbBlockTableRecord
  2
*Paper_Space
340
1E
  0
BLOCK_RECORD
  5
23
330
1
100
AcDbSymbolTableRecord
100
AcDbBlockTableRecord
  2
*Paper_Space0
340
369
  0
ENDTAB
  0
ENDSEC
  0
SECTION
  2
BLOCKS
  0
BLOCK
  5
20
330
1F
100
AcDbEntity
  8
0
100
AcDbBlockBegin
  2
*Model_Space
 70
     0
 10
0.0
 20
0.0
 30
0.0
  3
*Model_Space
  1

  0
ENDBLK
  5
21
330
1F
100
AcDbEntity
  8
0
100
AcDbBlockEnd
  0
BLOCK
  5
1C
330
1B
100
AcDbEntity
 67
     1
  8
0
100
AcDbBlockBegin
  2
*Paper_Space
 70
     0
 10
0.0
 20
0.0
 30
0.0
  3
*Paper_Space
  1

  0
ENDBLK
  5
1D
330
1B
100
AcDbEntity
 67
     1
  8
0
100
AcDbBlockEnd
  0
BLOCK
  5
24
330
23
100
AcDbEntity
 67
     1
  8
0
100
AcDbBlockBegin
  2
*Paper_Space0
 70
     0
 10
0.0
 20
0.0
 30
0.0
  3
*Paper_Space0
  1

  0
ENDBLK
  5
25
330
23
100
AcDbEntity
 67
     1
  8
0
100
AcDbBlockEnd
  0
ENDSEC
  0
SECTION
  2
ENTITIES
  0
LINE
  5
835
102
{ACAD_REACTORS
330
C24
102
}
330
1F
100
AcDbEntity
  8
中心線
100
AcDbLine
 10
615.8591985232661
 20
425.1619788310793
 30
0.0
 11
802.8591985233088
 21
425.1619788310794
 31
0.0
  0
LINE
  5
836
102
{ACAD_REACTORS
330
C24
102
}
330
1F
100
AcDbEntity
  8
中心線
100
AcDbLine
 10
727.8591985233088
 20
34.92437072594083
 30
0.0
 11
727.8591985233088
 21
470.1619788310795
 31
0.0
  0
LINE
  5
837
102
{ACAD_REACTORS
330
C24
102
}
330
1F
100
AcDbEntity
  8
中心線
100
AcDbLine
 10
727.8591985233089
 20
362.3619788310792
 30
0.0
 11
951.8591985233518
 21
362.3619788310793
 31
0.0
  0
LINE
  5
838
102
{ACAD_REACTORS
330
C26
102
}
330
1F
100
AcDbEntity
  8
中心線
100
AcDbLine
 10
1217.659198523309
 20
696.2619788310794
 30
0.0
 11
1217.659198523309
 21
606.2619788310794
 31
0.0
  0
LINE
  5
839
102
{ACAD_REACTORS
330
C26
102
}
330
1F
100
AcDbEntity
  8
中心線
100
AcDbLine
 10
1172.659198523309
 20
651.2619788310794
 30
0.0
 11
1262.659198523309
 21
651.2619788310794
 31
0.0
  0
LINE
  5
83A
102
{ACAD_REACTORS
330
C23
102
}
330
1F
100
AcDbEntity
  8
中心線
100
AcDbLine
 10
794.8591985233088
 20
812.2619788310794
 30
0.0
 11
794.8591985233088
 21
592.2619788310794
 31
0.0
  0
LINE
  5
83B
102
{ACAD_REACTORS
330
C23
102
}
330
1F
100
AcDbEntity
  8
中心線
100
AcDbLine
 10
684.8591985233087
 20
702.2619788310794
 30
0.0
 11
904.8591985233088
 21
702.2619788310794
 31
0.0
  0
LINE
  5
83C
102
{ACAD_REACTORS
330
C25
102
}
330
1F
100
AcDbEntity
  8
中心線
100
AcDbLine
 10
615.8591985232659
 20
965.1619788310791
 30
0.0
 11
802.8591985233086
 21
965.1619788310792
 31
0.0
  0
LINE
  5
83D
102
{ACAD_REACTORS
330
C25
102
}
330
1F
100
AcDbEntity
  8
中心線
100
AcDbLine
 10
727.8591985233088
 20
1027.961978831079
 30
0.0
 11
951.8591985233518
 21
1027.961978831079
 31
0.0
  0
LINE
  5
83E
102
{ACAD_REACTORS
330
C22
102
}
330
1F
100
AcDbEntity
  8
中心線
100
AcDbLine
 10
427.8591985233088
 20
710.1669721266082
 30
0.0
 11
427.8591985233088
 21
620.1669721266082
 31
0.0
  0
LINE
  5
83F
102
{ACAD_REACTORS
330
C22
102
}
330
1F
100
AcDbEntity
  8
中心線
100
AcDbLine
 10
36.5196155455734
 20
665.1619788310794
 30
0.0
 11
472.8591982462754
 21
665.1619788310792
 31
0.0
  0
LINE
  5
840
102
{ACAD_REACTORS
330
C26
102
}
330
1F
100
AcDbEntity
  8
中心線
100
AcDbLine
 10
1109.859198800342
 20
665.1619788310792
 30
0.0
 11
1544.849615169557
 21
665.1619788310792
 31
0.0
  0
LINE
  5
841
102
{ACAD_REACTORS
330
C23
102
}
330
1F
100
AcDbEntity
  8
中心線
100
AcDbLine
 10
727.8591985233086
 20
651.2619788310794
 30
0.0
 11
951.8591985233518
 21
651.2619788310794
 31
0.0
  0
LINE
  5
842
102
{ACAD_REACTORS
330
C23
102
}
330
1F
100
AcDbEntity
  8
中心線
100
AcDbLine
 10
615.8591985232661
 20
665.1619788310795
 30
0.0
 11
802.8591985233088
 21
665.1619788310794
 31
0.0
  0
LINE
  5
843
102
{ACAD_REACTORS
330
C27
102
}
330
1F
100
AcDbEntity
  8
中心線
100
AcDbLine
 10
1821.859198523309
 20
740.1619788310795
 30
0.0
 11
1821.859198523309
 21
590.1619788310795
 31
0.0
  0
LINE
  5
844
102
{ACAD_REACTORS
330
C27
102
}
330
1F
100
AcDbEntity
  8
中心線
100
AcDbLine
 10
1746.859198523309
 20
665.1619788310794
 30
0.0
 11
1933.859198523352
 21
665.1619788310794
 31
0.0
  0
LINE
  5
845
102
{ACAD_REACTORS
330
C27
102
}
330
1F
100
AcDbEntity
  8
中心線
100
AcDbLine
 10
1597.859198523265
 20
651.2619788310797
 30
0.0
 11
1821.859198523309
 21
651.2619788310795
 31
0.0
  0
LINE
  5
846
102
{ACAD_REACTORS
330
C25
102
}
330
1F
100
AcDbEntity
  8
中心線
100
AcDbLine
 10
727.8591985233088
 20
920.1619788310793
 30
0.0
 11
727.8591985233088
 21
1355.988240518727
 31
0.0
  0
ARC
  5
847
102
{ACAD_REACTORS
330
C27
102
}
330
1F
100
AcDbEntity
  8
実線
100
AcDbCircle
 10
1872.638887701148
 20
616.9808293325247
 30
0.0
 40
9.999999999999996
100
AcDbArc
 50
316.5041419820641
 51
34.99999999999796
  0
LINE
  5
848
102
{ACAD_REACTORS
330
C27
102
}
330
1F
100
AcDbEntity
  8
実線
100
AcDbLine
 10
1880.73427774707
 20
622.8538821308516
 30
0.0
 11
1880.830408144037
 21
622.7165936960351
 31
0.0
  0
ARC
  5
849
102
{ACAD_REACTORS
330
C27
102
}
330
1F
100
AcDbEntity
  8
実線
100
AcDbCircle
 10
1771.079509345469
 20
713.3431283296339
 30
0.0
 40
10.0
100
AcDbArc
 50
136.5041419820641
 51
214.9999999999979
  0
ARC
  5
84A
102
{ACAD_REACTORS
330
C27
102
}
330
1F
100
AcDbEntity
  8
実線
100
AcDbCircle
 10
1821.859198523309
 20
665.1619788310896
 30
0.0
 40
79.99999999999343
100
AcDbArc
 50
133.4958580179446
 51
136.5041419820641
  0
ARC
  5
84B
102
{ACAD_REACTORS
330
C27
102
}
330
1F
100
AcDbEntity
  8
実線
100
AcDbCircle
 10
1821.859198523309
 20
665.1619788310792
 30
0.0
 40
79.9999999999998
100
AcDbArc
 50
313.4958580179446
 51
316.5041419820641
  0
ARC
  5
84C
102
{ACAD_REACTORS
330
C27
102
}
330
1F
100
AcDbEntity
  8
実線
100
AcDbCircle
 10
1870.040348021863
 20
614.3822896532405
 30
0.0
 40
10.00000000000002
100
AcDbArc
 50
235.0000000000031
 51
313.4958580179446
  0
LINE
  5
84D
102
{ACAD_REACTORS
330
C27
102
}
330
1F
100
AcDbEntity
  8
実線
100
AcDbLine
 10
1864.304583658353
 20
606.1907692103505
 30
0.0
 11
1864.167295223536
 21
606.2868996073182
 31
0.0
  0
LINE
  5
84E
102
{ACAD_REACTORS
330
C27
102
}
330
1F
100
AcDbEntity
  8
実線
100
AcDbLine
 10
1864.167295223536
 20
724.0370580548407
 30
0.0
 11
1864.304583658353
 21
724.1331884518079
 31
0.0
  0
ARC
  5
84F
102
{ACAD_REACTORS
330
C27
102
}
330
1F
100
AcDbEntity
  8
実線
100
AcDbCircle
 10
1870.040348021863
 20
715.9416680089183
 30
0.0
 40
9.999999999999982
100
AcDbArc
 50
46.50414198205536
 51
124.9999999999969
  0
ARC
  5
850
102
{ACAD_REACTORS
330
C27
102
}
330
1F
100
AcDbEntity
  8
実線
100
AcDbCircle
 10
1821.859198523309
 20
665.1619788310896
 30
0.0
 40
79.99999999999268
100
AcDbArc
 50
43.49585801793587
 51
46.50414198205536
  0
ARC
  5
851
102
{ACAD_REACTORS
330
C27
102
}
330
1F
100
AcDbEntity
  8
実線
100
AcDbCircle
 10
1821.859198523309
 20
665.1619788310792
 30
0.0
 40
79.99999999999984
100
AcDbArc
 50
223.4958580179359
 51
226.5041419820553
  0
ARC
  5
852
102
{ACAD_REACTORS
330
C27
102
}
330
1F
100
AcDbEntity
  8
実線
100
AcDbCircle
 10
1872.638887701148
 20
713.3431283296339
 30
0.0
 40
9.999999999999591
100
AcDbArc
 50
325.000000000002
 51
43.49585801793587
  0
LINE
  5
853
102
{ACAD_REACTORS
330
C27
102
}
330
1F
100
AcDbEntity
  8
実線
100
AcDbLine
 10
1779.413813388264
 20
724.1331884518084
 30
0.0
 11
1779.551101823081
 21
724.037058054841
 31
0.0
  0
ARC
  5
854
102
{ACAD_REACTORS
330
C27
102
}
330
1F
100
AcDbEntity
  8
実線
100
AcDbCircle
 10
1773.678049024754
 20
715.9416680089183
 30
0.0
 40
10.00000000000038
100
AcDbArc
 50
55.00000000000309
 51
133.4958580179446
  0
LINE
  5
855
102
{ACAD_REACTORS
330
C27
102
}
330
1F
100
AcDbEntity
  8
実線
100
AcDbLine
 10
1762.984119299547
 20
707.4700755313072
 30
0.0
 11
1762.88798890258
 21
707.6073639661236
 31
0.0
  0
LINE
  5
856
102
{ACAD_REACTORS
330
C27
102
}
330
1F
100
AcDbEntity
  8
実線
100
AcDbLine
 10
1762.88798890258
 20
622.7165936960351
 30
0.0
 11
1762.984119299547
 21
622.8538821308516
 31
0.0
  0
ARC
  5
857
102
{ACAD_REACTORS
330
C27
102
}
330
1F
100
AcDbEntity
  8
実線
100
AcDbCircle
 10
1771.079509345469
 20
616.9808293325247
 30
0.0
 40
9.999999999999976
100
AcDbArc
 50
145.000000000002
 51
223.4958580179359
  0
ARC
  5
858
102
{ACAD_REACTORS
330
C27
102
}
330
1F
100
AcDbEntity
  8
実線
100
AcDbCircle
 10
1773.678049024754
 20
614.3822896532405
 30
0.0
 40
9.999999999999991
100
AcDbArc
 50
226.5041419820553
 51
304.9999999999969
  0
LINE
  5
859
102
{ACAD_REACTORS
330
C27
102
}
330
1F
100
AcDbEntity
  8
実線
100
AcDbLine
 10
1779.551101823081
 20
606.2868996073182
 30
0.0
 11
1779.413813388264
 21
606.1907692103505
 31
0.0
  0
LINE
  5
85A
102
{ACAD_REACTORS
330
C27
102
}
330
1F
100
AcDbEntity
  8
実線
100
AcDbLine
 10
1880.830408144037
 20
707.607363966124
 30
0.0
 11
1880.73427774707
 21
707.4700755313075
 31
0.0
  0
CIRCLE
  5
85B
102
{ACAD_REACTORS
330
C27
102
}
330
1F
100
AcDbEntity
  8
実線
100
AcDbCircle
 10
1821.859198523309
 20
665.1619788310794
 30
0.0
 40
7.5
  0
CIRCLE
  5
85C
102
{ACAD_REACTORS
330
C27
102
}
330
1F
100
AcDbEntity
  8
実線
100
AcDbCircle
 10
1821.859198523309
 20
665.1619788310794
 30
0.0
 40
12.5
  0
LINE
  5
85D
102
{ACAD_REACTORS
330
C27
102
}
330
1F
100
AcDbEntity
  8
実線
100
AcDbLine
 10
1803.309198523308
 20
645.1619788310793
 30
0.0
 11
1803.309198523308
 21
638.6619788310794
 31
0.0
  0
LINE
  5
85E
102
{ACAD_REACTORS
330
C27
102
}
330
1F
100
AcDbEntity
  8
実線
100
AcDbLine
 10
1806.309198523308
 20
638.6619788310794
 30
0.0
 11
1806.309198523308
 21
645.1619788310794
 31
0.0
  0
LINE
  5
85F
102
{ACAD_REACTORS
330
C27
102
}
330
1F
100
AcDbEntity
  8
実線
100
AcDbLine
 10
1803.309198523308
 20
638.6619788310794
 30
0.0
 11
1806.309198523308
 21
638.6619788310794
 31
0.0
  0
ARC
  5
860
102
{ACAD_REACTORS
330
C27
102
}
330
1F
100
AcDbEntity
  8
実線
100
AcDbCircle
 10
1821.859198523309
 20
665.1619788310794
 30
0.0
 40
25.0
100
AcDbArc
 50
143.1301023541523
 51
203.0739180656289
  0
LINE
  5
861
102
{ACAD_REACTORS
330
C27
102
}
330
1F
100
AcDbEntity
  8
実線
100
AcDbLine
 10
1800.859198523308
 20
650.1619788310794
 30
0.0
 11
1800.859198523308
 21
645.1619788310793
 31
0.0
  0
LINE
  5
862
102
{ACAD_REACTORS
330
C27
102
}
330
1F
100
AcDbEntity
  8
実線
100
AcDbLine
 10
1800.859198523308
 20
645.1619788310793
 30
0.0
 11
1808.759198523308
 21
645.1619788310793
 31
0.0
  0
LINE
  5
863
102
{ACAD_REACTORS
330
C27
102
}
330
1F
100
AcDbEntity
  8
実線
100
AcDbLine
 10
1808.759198523308
 20
670.1619788310793
 30
0.0
 11
1808.759198523308
 21
645.1619788310793
 31
0.0
  0
LINE
  5
864
102
{ACAD_REACTORS
330
C27
102
}
330
1F
100
AcDbEntity
  8
実線
100
AcDbLine
 10
1808.759198523308
 20
670.1619788310793
 30
0.0
 11
1800.859198523308
 21
670.1619788310793
 31
0.0
  0
CIRCLE
  5
865
102
{ACAD_REACTORS
330
C27
102
}
330
1F
100
AcDbEntity
  8
実線
100
AcDbCircle
 10
1821.859198523309
 20
665.1619788310794
 30
0.0
 40
46.0
  0
LINE
  5
866
102
{ACAD_REACTORS
330
C27
102
}
330
1F
100
AcDbEntity
  8
実線
100
AcDbLine
 10
1662.92259755642
 20
744.8048537845235
 30
0.0
 11
1684.140219949139
 21
732.5548537845232
 31
0.0
  0
LINE
  5
867
102
{ACAD_REACTORS
330
C27
102
}
330
1F
100
AcDbEntity
  8
実線
100
AcDbLine
 10
1630.446644914503
 20
763.5548537845235
 30
0.0
 11
1661.623559450743
 21
745.5548537845235
 31
0.0
  0
LINE
  5
868
102
{ACAD_REACTORS
330
C27
102
}
330
1F
100
AcDbEntity
  8
実線
100
AcDbLine
 10
1667.623559450744
 20
755.9471586299365
 30
0.0
 11
1636.446644914504
 21
773.9471586299367
 31
0.0
  0
LINE
  5
869
102
{ACAD_REACTORS
330
C27
102
}
330
1F
100
AcDbEntity
  8
実線
100
AcDbLine
 10
1690.140219949139
 20
742.9471586299366
 30
0.0
 11
1668.92259755642
 21
755.1971586299366
 31
0.0
  0
LINE
  5
86A
102
{ACAD_REACTORS
330
C27
102
}
330
1F
100
AcDbEntity
  8
実線
100
AcDbLine
 10
1684.140219949139
 20
732.5548537845232
 30
0.0
 11
1690.140219949139
 21
742.9471586299366
 31
0.0
  0
LINE
  5
86B
102
{ACAD_REACTORS
330
C27
102
}
330
1F
100
AcDbEntity
  8
実線
100
AcDbLine
 10
1630.446644914503
 20
763.5548537845235
 30
0.0
 11
1636.446644914504
 21
773.9471586299367
 31
0.0
  0
ARC
  5
86C
102
{ACAD_REACTORS
330
C27
102
}
330
1F
100
AcDbEntity
  8
実線
100
AcDbCircle
 10
1754.859198523309
 20
702.2619788310794
 30
0.0
 40
72.5
100
AcDbArc
 50
29.1428224364763
 51
161.5038230302249
  0
LINE
  5
86D
102
{ACAD_REACTORS
330
C27
102
}
330
1F
100
AcDbEntity
  8
実線
100
AcDbLine
 10
1606.459198523266
 20
619.5119788310794
 30
0.0
 11
1649.859198523299
 21
619.5119788310794
 31
0.0
  0
LINE
  5
86E
102
{ACAD_REACTORS
330
C27
102
}
330
1F
100
AcDbEntity
  8
実線
100
AcDbLine
 10
1649.859198523299
 20
683.0119788310794
 30
0.0
 11
1606.459198523266
 21
683.0119788310794
 31
0.0
  0
LINE
  5
86F
102
{ACAD_REACTORS
330
C27
102
}
330
1F
100
AcDbEntity
  8
実線
100
AcDbLine
 10
1606.459198523266
 20
683.0119788310794
 30
0.0
 11
1603.359198523266
 21
690.0119788310793
 31
0.0
  0
LINE
  5
870
102
{ACAD_REACTORS
330
C27
102
}
330
1F
100
AcDbEntity
  8
実線
100
AcDbLine
 10
1603.359198523266
 20
612.5119788310794
 30
0.0
 11
1606.459198523266
 21
619.5119788310794
 31
0.0
  0
LINE
  5
871
102
{ACAD_REACTORS
330
C27
102
}
330
1F
100
AcDbEntity
  8
実線
100
AcDbLine
 10
1606.459198523266
 20
683.0119788310794
 30
0.0
 11
1606.459198523266
 21
619.5119788310794
 31
0.0
  0
LINE
  5
872
102
{ACAD_REACTORS
330
C27
102
}
330
1F
100
AcDbEntity
  8
実線
100
AcDbLine
 10
1599.859198523265
 20
612.5119788310794
 30
0.0
 11
1603.359198523266
 21
612.5119788310794
 31
0.0
  0
LINE
  5
873
102
{ACAD_REACTORS
330
C27
102
}
330
1F
100
AcDbEntity
  8
実線
100
AcDbLine
 10
1603.359198523266
 20
690.0119788310793
 30
0.0
 11
1599.859198523265
 21
690.0119788310793
 31
0.0
  0
LINE
  5
874
102
{ACAD_REACTORS
330
C27
102
}
330
1F
100
AcDbEntity
  8
実線
100
AcDbLine
 10
1599.859198523265
 20
690.0119788310793
 30
0.0
 11
1599.859198523265
 21
612.5119788310794
 31
0.0
  0
LINE
  5
875
102
{ACAD_REACTORS
330
C27
102
}
330
1F
100
AcDbEntity
  8
実線
100
AcDbLine
 10
1603.359198523266
 20
690.0119788310793
 30
0.0
 11
1603.359198523266
 21
612.5119788310794
 31
0.0
  0
LINE
  5
876
102
{ACAD_REACTORS
330
C27
102
}
330
1F
100
AcDbEntity
  8
実線
100
AcDbLine
 10
1925.259198523351
 20
696.9119788310794
 30
0.0
 11
1887.037319852478
 21
696.9119788310794
 31
0.0
  0
LINE
  5
877
102
{ACAD_REACTORS
330
C27
102
}
330
1F
100
AcDbEntity
  8
実線
100
AcDbLine
 10
1887.037319852478
 20
633.4119788310793
 30
0.0
 11
1925.259198523351
 21
633.4119788310793
 31
0.0
  0
LINE
  5
878
102
{ACAD_REACTORS
330
C27
102
}
330
1F
100
AcDbEntity
  8
実線
100
AcDbLine
 10
1931.859198523352
 20
626.4119788310794
 30
0.0
 11
1931.859198523352
 21
703.9119788310793
 31
0.0
  0
LINE
  5
879
102
{ACAD_REACTORS
330
C27
102
}
330
1F
100
AcDbEntity
  8
実線
100
AcDbLine
 10
1931.859198523352
 20
703.9119788310793
 30
0.0
 11
1928.359198523351
 21
703.9119788310793
 31
0.0
  0
LINE
  5
87A
102
{ACAD_REACTORS
330
C27
102
}
330
1F
100
AcDbEntity
  8
実線
100
AcDbLine
 10
1928.359198523351
 20
626.4119788310794
 30
0.0
 11
1931.859198523352
 21
626.4119788310794
 31
0.0
  0
LINE
  5
87B
102
{ACAD_REACTORS
330
C27
102
}
330
1F
100
AcDbEntity
  8
実線
100
AcDbLine
 10
1928.359198523351
 20
626.4119788310794
 30
0.0
 11
1928.359198523351
 21
703.9119788310793
 31
0.0
  0
LINE
  5
87C
102
{ACAD_REACTORS
330
C27
102
}
330
1F
100
AcDbEntity
  8
実線
100
AcDbLine
 10
1925.259198523351
 20
633.4119788310793
 30
0.0
 11
1925.259198523351
 21
696.9119788310794
 31
0.0
  0
LINE
  5
87D
102
{ACAD_REACTORS
330
C27
102
}
330
1F
100
AcDbEntity
  8
実線
100
AcDbLine
 10
1925.259198523351
 20
633.4119788310793
 30
0.0
 11
1928.359198523351
 21
626.4119788310794
 31
0.0
  0
LINE
  5
87E
102
{ACAD_REACTORS
330
C27
102
}
330
1F
100
AcDbEntity
  8
実線
100
AcDbLine
 10
1928.359198523351
 20
703.9119788310793
 30
0.0
 11
1925.259198523351
 21
696.9119788310794
 31
0.0
  0
LINE
  5
87F
102
{ACAD_REACTORS
330
C27
102
}
330
1F
100
AcDbEntity
  8
実線
100
AcDbLine
 10
1881.859198523309
 20
730.988927430044
 30
0.0
 11
1881.859198523309
 21
717.2142868568357
 31
0.0
  0
ARC
  5
880
102
{ACAD_REACTORS
330
C27
102
}
330
1F
100
AcDbEntity
  8
実線
100
AcDbCircle
 10
1754.859198523309
 20
702.2619788310794
 30
0.0
 40
105.0
100
AcDbArc
 50
48.99999999999955
 51
148.4310400378849
  0
ARC
  5
881
102
{ACAD_REACTORS
330
C27
102
}
330
1F
100
AcDbEntity
  8
実線
100
AcDbCircle
 10
1754.859198523309
 20
702.2619788310794
 30
0.0
 40
105.0
100
AcDbArc
 50
154.985614396266
 51
180.0
  0
LINE
  5
882
102
{ACAD_REACTORS
330
C27
102
}
330
1F
100
AcDbEntity
  8
実線
100
AcDbLine
 10
1823.745396567312
 20
781.5064847544704
 30
0.0
 11
1881.859198523309
 21
730.988927430044
 31
0.0
  0
LINE
  5
883
102
{ACAD_REACTORS
330
C27
102
}
330
1F
100
AcDbEntity
  8
実線
100
AcDbLine
 10
1796.445816221851
 20
597.2619788310794
 30
0.0
 11
1649.859198523308
 21
597.2619788310794
 31
0.0
  0
LINE
  5
884
102
{ACAD_REACTORS
330
C27
102
}
330
1F
100
AcDbEntity
  8
実線
100
AcDbLine
 10
1881.859198523309
 20
597.2619788310794
 30
0.0
 11
1847.272580824764
 21
597.2619788310794
 31
0.0
  0
LINE
  5
885
102
{ACAD_REACTORS
330
C27
102
}
330
1F
100
AcDbEntity
  8
実線
100
AcDbLine
 10
1881.859198523309
 20
613.109670805322
 30
0.0
 11
1881.859198523309
 21
597.2619788310794
 31
0.0
  0
LINE
  5
886
102
{ACAD_REACTORS
330
C27
102
}
330
1F
100
AcDbEntity
  8
実線
100
AcDbLine
 10
1881.859198523309
 20
624.4649273408303
 30
0.0
 11
1881.859198523309
 21
620.8519878597276
 31
0.0
  0
LINE
  5
887
102
{ACAD_REACTORS
330
C27
102
}
330
1F
100
AcDbEntity
  8
実線
100
AcDbLine
 10
1881.859198523309
 20
709.4719698024325
 30
0.0
 11
1881.859198523309
 21
705.8590303213284
 31
0.0
  0
LINE
  5
888
102
{ACAD_REACTORS
330
C27
102
}
330
1F
100
AcDbEntity
  8
実線
100
AcDbLine
 10
1873.664131428511
 20
725.2619788310794
 30
0.0
 11
1881.859198523309
 21
725.2619788310794
 31
0.0
  0
LINE
  5
889
102
{ACAD_REACTORS
330
C27
102
}
330
1F
100
AcDbEntity
  8
実線
100
AcDbLine
 10
1862.408427862471
 20
725.2619788310794
 30
0.0
 11
1866.416564615214
 21
725.2619788310794
 31
0.0
  0
LINE
  5
88A
102
{ACAD_REACTORS
330
C27
102
}
330
1F
100
AcDbEntity
  8
実線
100
AcDbLine
 10
1777.301832431404
 20
725.2619788310794
 30
0.0
 11
1781.309969184146
 21
725.2619788310794
 31
0.0
  0
LINE
  5
88B
102
{ACAD_REACTORS
330
C27
102
}
330
1F
100
AcDbEntity
  8
実線
100
AcDbLine
 10
1652.409210724383
 20
725.2619788310794
 30
0.0
 11
1770.054265618103
 21
725.2619788310794
 31
0.0
  0
LINE
  5
88C
102
{ACAD_REACTORS
330
C27
102
}
330
1F
100
AcDbEntity
  8
実線
100
AcDbLine
 10
1649.859198523308
 20
597.2619788310794
 30
0.0
 11
1649.859198523308
 21
702.2619788310794
 31
0.0
  0
LINE
  5
88D
102
{ACAD_REACTORS
330
C27
102
}
330
1F
100
AcDbEntity
  8
実線
100
AcDbLine
 10
1687.61394050751
 20
760.571514282919
 30
0.0
 11
1674.623559450743
 21
768.071514282919
 31
0.0
  0
LINE
  5
88E
102
{ACAD_REACTORS
330
C27
102
}
330
1F
100
AcDbEntity
  8
実線
100
AcDbLine
 10
1667.613940507511
 20
725.9304981315414
 30
0.0
 11
1654.623559450744
 21
733.4304981315413
 31
0.0
  0
LINE
  5
88F
102
{ACAD_REACTORS
330
C27
102
}
330
1F
100
AcDbEntity
  8
実線
100
AcDbLine
 10
1674.61394050751
 20
738.0548537845233
 30
0.0
 11
1667.613940507511
 21
725.9304981315414
 31
0.0
  0
LINE
  5
890
102
{ACAD_REACTORS
330
C27
102
}
330
1F
100
AcDbEntity
  8
実線
100
AcDbLine
 10
1687.61394050751
 20
760.571514282919
 30
0.0
 11
1680.61394050751
 21
748.4471586299369
 31
0.0
  0
LINE
  5
891
102
{ACAD_REACTORS
330
C27
102
}
330
1F
100
AcDbEntity
  8
実線
100
AcDbLine
 10
1675.92259755642
 20
767.321514282919
 30
0.0
 11
1655.92259755642
 21
732.6804981315413
 31
0.0
  0
LINE
  5
892
102
{ACAD_REACTORS
330
C27
102
}
330
1F
100
AcDbEntity
  8
実線
100
AcDbLine
 10
1654.623559450744
 20
733.4304981315413
 30
0.0
 11
1674.623559450743
 21
768.071514282919
 31
0.0
  0
LINE
  5
893
102
{ACAD_REACTORS
330
C27
102
}
330
1F
100
AcDbEntity
  8
実線
100
AcDbLine
 10
1801.859198523309
 20
680.1619788310794
 30
0.0
 11
1801.859198523309
 21
670.1619788310793
 31
0.0
  0
ARC
  5
894
102
{ACAD_REACTORS
330
C27
102
}
330
1F
100
AcDbEntity
  8
実線
100
AcDbCircle
 10
1821.859198523309
 20
665.1619788310794
 30
0.0
 40
25.0
100
AcDbArc
 50
233.1301023541625
 51
143.1301023541523
  0
LINE
  5
895
102
{ACAD_REACTORS
330
C27
102
}
330
1F
100
AcDbEntity
  8
実線
100
AcDbLine
 10
1800.859198523308
 20
650.1619788310794
 30
0.0
 11
1798.859198523308
 21
650.1619788310794
 31
0.0
  0
LINE
  5
896
102
{ACAD_REACTORS
330
C27
102
}
330
1F
100
AcDbEntity
  8
実線
100
AcDbLine
 10
1798.859198523308
 20
670.1619788310793
 30
0.0
 11
1800.859198523308
 21
670.1619788310793
 31
0.0
  0
LINE
  5
897
102
{ACAD_REACTORS
330
C27
102
}
330
1F
100
AcDbEntity
  8
実線
100
AcDbLine
 10
1800.859198523308
 20
670.1619788310793
 30
0.0
 11
1800.859198523308
 21
650.1619788310794
 31
0.0
  0
LINE
  5
898
102
{ACAD_REACTORS
330
C27
102
}
330
1F
100
AcDbEntity
  8
実線
100
AcDbLine
 10
1798.859198523308
 20
650.1619788310794
 30
0.0
 11
1798.859198523308
 21
670.1619788310793
 31
0.0
  0
CIRCLE
  5
899
102
{ACAD_REACTORS
330
C27
102
}
330
1F
100
AcDbEntity
  8
実線
100
AcDbCircle
 10
1821.859198523309
 20
665.1619788310794
 30
0.0
 40
72.5
  0
LINE
  5
89C
102
{ACAD_REACTORS
330
C25
102
}
330
1F
100
AcDbEntity
  8
実線
100
AcDbLine
 10
798.2681225708367
 20
880.9619788310792
 30
0.0
 11
807.9502744757808
 21
880.9619788310792
 31
0.0
  0
LINE
  5
89D
102
{ACAD_REACTORS
330
C25
102
}
330
1F
100
AcDbEntity
  8
実線
100
AcDbLine
 10
807.9502744757808
 20
880.9619788310792
 30
0.0
 11
807.9502744757808
 21
889.4619788310793
 31
0.0
  0
LINE
  5
89E
102
{ACAD_REACTORS
330
C25
102
}
330
1F
100
AcDbEntity
  8
実線
100
AcDbLine
 10
865.0037796115027
 20
880.9619788310792
 30
0.0
 11
871.8500948799679
 21
880.9619788310792
 31
0.0
  0
LINE
  5
89F
102
{ACAD_REACTORS
330
C25
102
}
330
1F
100
AcDbEntity
  8
実線
100
AcDbLine
 10
871.8500948799679
 20
880.9619788310792
 30
0.0
 11
871.8500948799679
 21
889.4619788310793
 31
0.0
  0
LINE
  5
8A0
102
{ACAD_REACTORS
330
C25
102
}
330
1F
100
AcDbEntity
  8
実線
100
AcDbLine
 10
735.8591985233088
 20
1082.006075379677
 30
0.0
 11
735.8591985233088
 21
1119.961978831079
 31
0.0
  0
LINE
  5
8A1
102
{ACAD_REACTORS
330
C25
102
}
330
1F
100
AcDbEntity
  8
実線
100
AcDbLine
 10
719.8591985233088
 20
1119.961978831079
 30
0.0
 11
719.8591985233088
 21
1082.006075379677
 31
0.0
  0
LINE
  5
8A2
102
{ACAD_REACTORS
330
C25
102
}
330
1F
100
AcDbEntity
  8
実線
100
AcDbLine
 10
660.3591985233086
 20
1184.961978831079
 30
0.0
 11
795.3591985233088
 21
1184.961978831079
 31
0.0
  0
LINE
  5
8A3
102
{ACAD_REACTORS
330
C25
102
}
330
1F
100
AcDbEntity
  8
実線
100
AcDbLine
 10
795.3591985233088
 20
1184.961978831079
 30
0.0
 11
795.3591985233088
 21
1186.961978831079
 31
0.0
  0
LINE
  5
8A4
102
{ACAD_REACTORS
330
C25
102
}
330
1F
100
AcDbEntity
  8
実線
100
AcDbLine
 10
660.3591985233086
 20
1186.961978831079
 30
0.0
 11
660.3591985233086
 21
1184.961978831079
 31
0.0
  0
LINE
  5
8A5
102
{ACAD_REACTORS
330
C25
102
}
330
1F
100
AcDbEntity
  8
実線
100
AcDbLine
 10
800.3591985233088
 20
1287.961978831079
 30
0.0
 11
655.3591985233087
 21
1287.961978831079
 31
0.0
  0
LINE
  5
8A6
102
{ACAD_REACTORS
330
C25
102
}
330
1F
100
AcDbEntity
  8
実線
100
AcDbLine
 10
655.3591985233087
 20
1186.961978831079
 30
0.0
 11
800.3591985233088
 21
1186.961978831079
 31
0.0
  0
LINE
  5
8A7
102
{ACAD_REACTORS
330
C25
102
}
330
1F
100
AcDbEntity
  8
実線
100
AcDbLine
 10
800.3591985233088
 20
1186.961978831079
 30
0.0
 11
800.3591985233088
 21
1287.961978831079
 31
0.0
  0
LINE
  5
8A8
102
{ACAD_REACTORS
330
C25
102
}
330
1F
100
AcDbEntity
  8
実線
100
AcDbLine
 10
655.3591985233087
 20
1287.961978831079
 30
0.0
 11
655.3591985233087
 21
1186.961978831079
 31
0.0
  0
LINE
  5
8A9
102
{ACAD_REACTORS
330
C25
102
}
330
1F
100
AcDbEntity
  8
実線
100
AcDbLine
 10
788.6388877011479
 20
1081.961978831079
 30
0.0
 11
667.0795093454704
 21
1081.961978831079
 31
0.0
  0
LINE
  5
8AA
102
{ACAD_REACTORS
330
C25
102
}
330
1F
100
AcDbEntity
  8
実線
100
AcDbLine
 10
667.8591985233087
 20
1068.461978831079
 30
0.0
 11
667.0795093454704
 21
1068.461978831079
 31
0.0
  0
LINE
  5
8AB
102
{ACAD_REACTORS
330
C25
102
}
330
1F
100
AcDbEntity
  8
実線
100
AcDbLine
 10
667.0795093454704
 20
1081.961978831079
 30
0.0
 11
667.0795093454704
 21
1068.461978831079
 31
0.0
  0
LINE
  5
8AC
102
{ACAD_REACTORS
330
C25
102
}
330
1F
100
AcDbEntity
  8
実線
100
AcDbLine
 10
788.6388877011479
 20
1068.461978831079
 30
0.0
 11
788.6388877011479
 21
1081.961978831079
 31
0.0
  0
LINE
  5
8AD
102
{ACAD_REACTORS
330
C25
102
}
330
1F
100
AcDbEntity
  8
実線
100
AcDbLine
 10
701.0492263733675
 20
1068.461978831079
 30
0.0
 11
701.0492263733675
 21
1081.961978831079
 31
0.0
  0
LINE
  5
8AE
102
{ACAD_REACTORS
330
C25
102
}
330
1F
100
AcDbEntity
  8
実線
100
AcDbLine
 10
754.6691706732501
 20
1068.461978831079
 30
0.0
 11
754.6691706732501
 21
1081.961978831079
 31
0.0
  0
LINE
  5
8AF
102
{ACAD_REACTORS
330
C25
102
}
330
1F
100
AcDbEntity
  8
実線
100
AcDbLine
 10
683.3018324314036
 20
1068.461978831079
 30
0.0
 11
676.0542656181047
 21
1068.461978831079
 31
0.0
  0
LINE
  5
8B0
102
{ACAD_REACTORS
330
C25
102
}
330
1F
100
AcDbEntity
  8
実線
100
AcDbLine
 10
779.6641314285139
 20
1068.461978831079
 30
0.0
 11
772.4165646152129
 21
1068.461978831079
 31
0.0
  0
LINE
  5
8B1
102
{ACAD_REACTORS
330
C25
102
}
330
1F
100
AcDbEntity
  8
実線
100
AcDbLine
 10
735.3591985233087
 20
1350.761978831079
 30
0.0
 11
720.3591985233088
 21
1350.761978831079
 31
0.0
  0
LINE
  5
8B2
102
{ACAD_REACTORS
330
C25
102
}
330
1F
100
AcDbEntity
  8
実線
100
AcDbLine
 10
735.3591985233087
 20
1345.461978831079
 30
0.0
 11
735.3591985233087
 21
1350.761978831079
 31
0.0
  0
LINE
  5
8B3
102
{ACAD_REACTORS
330
C25
102
}
330
1F
100
AcDbEntity
  8
実線
100
AcDbLine
 10
720.3591985233088
 20
1350.761978831079
 30
0.0
 11
720.3591985233088
 21
1345.461978831079
 31
0.0
  0
LINE
  5
8B4
102
{ACAD_REACTORS
330
C25
102
}
330
1F
100
AcDbEntity
  8
実線
100
AcDbLine
 10
715.3591985233088
 20
1340.461978831079
 30
0.0
 11
740.3591985233088
 21
1340.461978831079
 31
0.0
  0
LINE
  5
8B5
102
{ACAD_REACTORS
330
C25
102
}
330
1F
100
AcDbEntity
  8
実線
100
AcDbLine
 10
740.3591985233088
 20
1345.461978831079
 30
0.0
 11
715.3591985233088
 21
1345.461978831079
 31
0.0
  0
LINE
  5
8B6
102
{ACAD_REACTORS
330
C25
102
}
330
1F
100
AcDbEntity
  8
実線
100
AcDbLine
 10
740.3591985233088
 20
1340.461978831079
 30
0.0
 11
740.3591985233088
 21
1345.461978831079
 31
0.0
  0
LINE
  5
8B7
102
{ACAD_REACTORS
330
C25
102
}
330
1F
100
AcDbEntity
  8
実線
100
AcDbLine
 10
715.3591985233088
 20
1345.461978831079
 30
0.0
 11
715.3591985233088
 21
1340.461978831079
 31
0.0
  0
LINE
  5
8B8
102
{ACAD_REACTORS
330
C25
102
}
330
1F
100
AcDbEntity
  8
実線
100
AcDbLine
 10
748.8591985233088
 20
1323.011978831079
 30
0.0
 11
740.9591985233088
 21
1323.011978831079
 31
0.0
  0
LINE
  5
8B9
102
{ACAD_REACTORS
330
C25
102
}
330
1F
100
AcDbEntity
  8
実線
100
AcDbLine
 10
740.9591985233088
 20
1330.911978831079
 30
0.0
 11
748.8591985233088
 21
1330.911978831079
 31
0.0
  0
LINE
  5
8BA
102
{ACAD_REACTORS
330
C25
102
}
330
1F
100
AcDbEntity
  8
実線
100
AcDbLine
 10
740.9591985233088
 20
1323.011978831079
 30
0.0
 11
740.9591985233088
 21
1330.911978831079
 31
0.0
  0
LINE
  5
8BB
102
{ACAD_REACTORS
330
C25
102
}
330
1F
100
AcDbEntity
  8
実線
100
AcDbLine
 10
702.8591985233088
 20
1307.961978831079
 30
0.0
 11
752.8591985233088
 21
1307.961978831079
 31
0.0
  0
LINE
  5
8BC
102
{ACAD_REACTORS
330
C25
102
}
330
1F
100
AcDbEntity
  8
実線
100
AcDbLine
 10
752.8591985233088
 20
1302.961978831079
 30
0.0
 11
752.8591985233088
 21
1307.961978831079
 31
0.0
  0
LINE
  5
8BD
102
{ACAD_REACTORS
330
C25
102
}
330
1F
100
AcDbEntity
  8
実線
100
AcDbLine
 10
702.8591985233088
 20
1307.961978831079
 30
0.0
 11
702.8591985233088
 21
1302.961978831079
 31
0.0
  0
LINE
  5
8BE
102
{ACAD_REACTORS
330
C25
102
}
330
1F
100
AcDbEntity
  8
実線
100
AcDbLine
 10
748.8591985233088
 20
1339.011978831079
 30
0.0
 11
740.9591985233088
 21
1339.011978831079
 31
0.0
  0
LINE
  5
8BF
102
{ACAD_REACTORS
330
C25
102
}
330
1F
100
AcDbEntity
  8
実線
100
AcDbLine
 10
740.9591985233088
 20
1346.911978831079
 30
0.0
 11
748.8591985233088
 21
1346.911978831079
 31
0.0
  0
LINE
  5
8C0
102
{ACAD_REACTORS
330
C25
102
}
330
1F
100
AcDbEntity
  8
実線
100
AcDbLine
 10
740.9591985233088
 20
1339.011978831079
 30
0.0
 11
740.9591985233088
 21
1346.911978831079
 31
0.0
  0
LINE
  5
8C1
102
{ACAD_REACTORS
330
C25
102
}
330
1F
100
AcDbEntity
  8
実線
100
AcDbLine
 10
735.8591985233088
 20
1309.961978831079
 30
0.0
 11
735.8591985233088
 21
1340.461978831079
 31
0.0
  0
LINE
  5
8C2
102
{ACAD_REACTORS
330
C25
102
}
330
1F
100
AcDbEntity
  8
実線
100
AcDbLine
 10
719.8591985233088
 20
1340.461978831079
 30
0.0
 11
719.8591985233088
 21
1309.961978831079
 31
0.0
  0
LINE
  5
8C3
102
{ACAD_REACTORS
330
C25
102
}
330
1F
100
AcDbEntity
  8
実線
100
AcDbLine
 10
773.8591985233088
 20
1302.961978831079
 30
0.0
 11
681.8591985233088
 21
1302.961978831079
 31
0.0
  0
LINE
  5
8C4
102
{ACAD_REACTORS
330
C25
102
}
330
1F
100
AcDbEntity
  8
実線
100
AcDbLine
 10
773.8591985233088
 20
1292.961978831079
 30
0.0
 11
773.8591985233088
 21
1302.961978831079
 31
0.0
  0
LINE
  5
8C5
102
{ACAD_REACTORS
330
C25
102
}
330
1F
100
AcDbEntity
  8
実線
100
AcDbLine
 10
681.8591985233088
 20
1302.961978831079
 30
0.0
 11
681.8591985233088
 21
1292.961978831079
 31
0.0
  0
LINE
  5
8C6
102
{ACAD_REACTORS
330
C25
102
}
330
1F
100
AcDbEntity
  8
実線
100
AcDbLine
 10
878.9824304881067
 20
880.9619788310792
 30
0.0
 11
895.4824304881068
 21
880.9619788310792
 31
0.0
  0
LINE
  5
8C7
102
{ACAD_REACTORS
330
C25
102
}
330
1F
100
AcDbEntity
  8
実線
100
AcDbLine
 10
878.9824304881067
 20
889.4619788310793
 30
0.0
 11
878.9824304881067
 21
880.9619788310792
 31
0.0
  0
LINE
  5
8C8
102
{ACAD_REACTORS
330
C25
102
}
330
1F
100
AcDbEntity
  8
実線
100
AcDbLine
 10
895.4824304881068
 20
880.9619788310792
 30
0.0
 11
895.4824304881068
 21
889.4619788310793
 31
0.0
  0
LINE
  5
8C9
102
{ACAD_REACTORS
330
C25
102
}
330
1F
100
AcDbEntity
  8
実線
100
AcDbLine
 10
848.5037796115028
 20
880.9619788310792
 30
0.0
 11
865.0037796115027
 21
880.9619788310792
 31
0.0
  0
LINE
  5
8CA
102
{ACAD_REACTORS
330
C25
102
}
330
1F
100
AcDbEntity
  8
実線
100
AcDbLine
 10
848.5037796115028
 20
889.4619788310793
 30
0.0
 11
848.5037796115028
 21
880.9619788310792
 31
0.0
  0
LINE
  5
8CB
102
{ACAD_REACTORS
330
C25
102
}
330
1F
100
AcDbEntity
  8
実線
100
AcDbLine
 10
865.0037796115027
 20
880.9619788310792
 30
0.0
 11
865.0037796115027
 21
889.4619788310793
 31
0.0
  0
ELLIPSE
  5
8CC
102
{ACAD_REACTORS
330
C25
102
}
330
1F
100
AcDbEntity
  8
実線
100
AcDbEllipse
 10
862.5781770974777
 20
969.4619788310792
 30
0.0
 11
0.0
 21
6.0
 31
0.0
210
0.0
220
0.0
230
1.0
 40
0.4999999999999976
 41
1.570796326794897
 42
3.141592653589792
  0
LINE
  5
8CD
102
{ACAD_REACTORS
330
C25
102
}
330
1F
100
AcDbEntity
  8
実線
100
AcDbLine
 10
873.7957994901966
 20
975.4619788310792
 30
0.0
 11
862.5781770974777
 21
975.4619788310792
 31
0.0
  0
LINE
  5
8CE
102
{ACAD_REACTORS
330
C25
102
}
330
1F
100
AcDbEntity
  8
実線
100
AcDbLine
 10
916.2717521321129
 20
975.4619788310792
 30
0.0
 11
885.0948375958736
 21
975.4619788310792
 31
0.0
  0
LINE
  5
8CF
102
{ACAD_REACTORS
330
C25
102
}
330
1F
100
AcDbEntity
  8
実線
100
AcDbLine
 10
885.0948375958736
 20
963.4619788310793
 30
0.0
 11
916.2717521321129
 21
963.4619788310793
 31
0.0
  0
LINE
  5
8D0
102
{ACAD_REACTORS
330
C25
102
}
330
1F
100
AcDbEntity
  8
実線
100
AcDbLine
 10
862.5781770974777
 20
963.4619788310793
 30
0.0
 11
873.7957994901966
 21
963.4619788310793
 31
0.0
  0
ELLIPSE
  5
8D1
102
{ACAD_REACTORS
330
C25
102
}
330
1F
100
AcDbEntity
  8
実線
100
AcDbEllipse
 10
862.5781770974777
 20
969.4619788310792
 30
0.0
 11
0.0
 21
6.0
 31
0.0
210
0.0
220
0.0
230
1.0
 40
0.4999999999999976
 41
0.0
 42
1.570796326794897
  0
ELLIPSE
  5
8D2
102
{ACAD_REACTORS
330
C25
102
}
330
1F
100
AcDbEntity
  8
実線
100
AcDbEllipse
 10
916.2717521321129
 20
969.4619788310792
 30
0.0
 11
0.0
 21
6.0
 31
0.0
210
0.0
220
0.0
230
1.0
 40
0.4999999999999976
 41
0.0
 42
3.141592653589792
  0
ELLIPSE
  5
8D3
102
{ACAD_REACTORS
330
C25
102
}
330
1F
100
AcDbEntity
  8
実線
100
AcDbEllipse
 10
916.2717521321129
 20
969.4619788310792
 30
0.0
 11
0.0
 21
6.0
 31
0.0
210
0.0
220
0.0
230
1.0
 40
0.4999999999999976
 41
4.71238898038469
 42
6.283185307179584
  0
ELLIPSE
  5
8D4
102
{ACAD_REACTORS
330
C25
102
}
330
1F
100
AcDbEntity
  8
実線
100
AcDbEllipse
 10
916.2717521321129
 20
969.4619788310792
 30
0.0
 11
0.0
 21
6.0
 31
0.0
210
0.0
220
0.0
230
1.0
 40
0.4999999999999976
 41
3.141592653589792
 42
4.71238898038469
  0
LINE
  5
8D5
102
{ACAD_REACTORS
330
C25
102
}
330
1F
100
AcDbEntity
  8
実線
100
AcDbLine
 10
863.6141983415038
 20
1000.061978831079
 30
0.0
 11
726.1041987051136
 21
1000.061978831079
 31
0.0
  0
LINE
  5
8D6
102
{ACAD_REACTORS
330
C25
102
}
330
1F
100
AcDbEntity
  8
実線
100
AcDbLine
 10
943.2591985233518
 20
1059.711978831079
 30
0.0
 11
899.8591985233179
 21
1059.711978831079
 31
0.0
  0
LINE
  5
8D7
102
{ACAD_REACTORS
330
C25
102
}
330
1F
100
AcDbEntity
  8
実線
100
AcDbLine
 10
899.8591985233179
 20
996.2119788310792
 30
0.0
 11
943.2591985233518
 21
996.2119788310792
 31
0.0
  0
LINE
  5
8D8
102
{ACAD_REACTORS
330
C25
102
}
330
1F
100
AcDbEntity
  8
実線
100
AcDbLine
 10
943.2591985233518
 20
996.2119788310792
 30
0.0
 11
946.3591985233506
 21
989.2119788310791
 31
0.0
  0
LINE
  5
8D9
102
{ACAD_REACTORS
330
C25
102
}
330
1F
100
AcDbEntity
  8
実線
100
AcDbLine
 10
946.3591985233506
 20
1066.711978831079
 30
0.0
 11
943.2591985233518
 21
1059.711978831079
 31
0.0
  0
LINE
  5
8DA
102
{ACAD_REACTORS
330
C25
102
}
330
1F
100
AcDbEntity
  8
実線
100
AcDbLine
 10
943.2591985233518
 20
996.2119788310792
 30
0.0
 11
943.2591985233518
 21
1059.711978831079
 31
0.0
  0
LINE
  5
8DB
102
{ACAD_REACTORS
330
C25
102
}
330
1F
100
AcDbEntity
  8
実線
100
AcDbLine
 10
949.8591985233517
 20
1066.711978831079
 30
0.0
 11
946.3591985233506
 21
1066.711978831079
 31
0.0
  0
LINE
  5
8DC
102
{ACAD_REACTORS
330
C25
102
}
330
1F
100
AcDbEntity
  8
実線
100
AcDbLine
 10
946.3591985233506
 20
989.2119788310791
 30
0.0
 11
949.8591985233517
 21
989.2119788310791
 31
0.0
  0
LINE
  5
8DD
102
{ACAD_REACTORS
330
C25
102
}
330
1F
100
AcDbEntity
  8
実線
100
AcDbLine
 10
949.8591985233517
 20
1066.711978831079
 30
0.0
 11
949.8591985233517
 21
989.2119788310791
 31
0.0
  0
LINE
  5
8DE
102
{ACAD_REACTORS
330
C25
102
}
330
1F
100
AcDbEntity
  8
実線
100
AcDbLine
 10
946.3591985233506
 20
1066.711978831079
 30
0.0
 11
946.3591985233506
 21
989.2119788310791
 31
0.0
  0
LINE
  5
8DF
102
{ACAD_REACTORS
330
C25
102
}
330
1F
100
AcDbEntity
  8
実線
100
AcDbLine
 10
624.459198523266
 20
933.4119788310793
 30
0.0
 11
667.8591985232991
 21
933.4119788310793
 31
0.0
  0
LINE
  5
8E0
102
{ACAD_REACTORS
330
C25
102
}
330
1F
100
AcDbEntity
  8
実線
100
AcDbLine
 10
667.8591985232991
 20
996.9119788310793
 30
0.0
 11
624.459198523266
 21
996.9119788310793
 31
0.0
  0
LINE
  5
8E1
102
{ACAD_REACTORS
330
C25
102
}
330
1F
100
AcDbEntity
  8
実線
100
AcDbLine
 10
617.859198523266
 20
926.4119788310793
 30
0.0
 11
621.359198523266
 21
926.4119788310793
 31
0.0
  0
LINE
  5
8E2
102
{ACAD_REACTORS
330
C25
102
}
330
1F
100
AcDbEntity
  8
実線
100
AcDbLine
 10
621.359198523266
 20
1003.911978831079
 30
0.0
 11
617.859198523266
 21
1003.911978831079
 31
0.0
  0
LINE
  5
8E3
102
{ACAD_REACTORS
330
C25
102
}
330
1F
100
AcDbEntity
  8
実線
100
AcDbLine
 10
617.859198523266
 20
1003.911978831079
 30
0.0
 11
617.859198523266
 21
926.4119788310793
 31
0.0
  0
LINE
  5
8E4
102
{ACAD_REACTORS
330
C25
102
}
330
1F
100
AcDbEntity
  8
実線
100
AcDbLine
 10
624.459198523266
 20
996.9119788310793
 30
0.0
 11
621.359198523266
 21
1003.911978831079
 31
0.0
  0
LINE
  5
8E5
102
{ACAD_REACTORS
330
C25
102
}
330
1F
100
AcDbEntity
  8
実線
100
AcDbLine
 10
621.359198523266
 20
926.4119788310793
 30
0.0
 11
624.459198523266
 21
933.4119788310793
 31
0.0
  0
LINE
  5
8E6
102
{ACAD_REACTORS
330
C25
102
}
330
1F
100
AcDbEntity
  8
実線
100
AcDbLine
 10
621.359198523266
 20
1003.911978831079
 30
0.0
 11
621.359198523266
 21
926.4119788310793
 31
0.0
  0
LINE
  5
8E7
102
{ACAD_REACTORS
330
C25
102
}
330
1F
100
AcDbEntity
  8
実線
100
AcDbLine
 10
624.459198523266
 20
996.9119788310793
 30
0.0
 11
624.459198523266
 21
933.4119788310793
 31
0.0
  0
LINE
  5
8E8
102
{ACAD_REACTORS
330
C25
102
}
330
1F
100
AcDbEntity
  8
実線
100
AcDbLine
 10
781.7681225708358
 20
880.9619788310792
 30
0.0
 11
798.2681225708367
 21
880.9619788310792
 31
0.0
  0
LINE
  5
8E9
102
{ACAD_REACTORS
330
C25
102
}
330
1F
100
AcDbEntity
  8
実線
100
AcDbLine
 10
781.7681225708358
 20
889.4619788310793
 30
0.0
 11
781.7681225708358
 21
880.9619788310792
 31
0.0
  0
LINE
  5
8EA
102
{ACAD_REACTORS
330
C25
102
}
330
1F
100
AcDbEntity
  8
実線
100
AcDbLine
 10
798.2681225708367
 20
880.9619788310792
 30
0.0
 11
798.2681225708367
 21
889.4619788310793
 31
0.0
  0
LINE
  5
8EB
102
{ACAD_REACTORS
330
C25
102
}
330
1F
100
AcDbEntity
  8
実線
100
AcDbLine
 10
717.8683021666495
 20
880.9619788310792
 30
0.0
 11
734.3683021666495
 21
880.9619788310792
 31
0.0
  0
LINE
  5
8EC
102
{ACAD_REACTORS
330
C25
102
}
330
1F
100
AcDbEntity
  8
実線
100
AcDbLine
 10
717.8683021666495
 20
889.4619788310793
 30
0.0
 11
717.8683021666495
 21
880.9619788310792
 31
0.0
  0
LINE
  5
8ED
102
{ACAD_REACTORS
330
C25
102
}
330
1F
100
AcDbEntity
  8
実線
100
AcDbLine
 10
734.3683021666495
 20
880.9619788310792
 30
0.0
 11
734.3683021666495
 21
889.4619788310793
 31
0.0
  0
LINE
  5
8EE
102
{ACAD_REACTORS
330
C25
102
}
330
1F
100
AcDbEntity
  8
実線
100
AcDbLine
 10
694.2359665585105
 20
880.9619788310792
 30
0.0
 11
710.7359665585107
 21
880.9619788310792
 31
0.0
  0
LINE
  5
8EF
102
{ACAD_REACTORS
330
C25
102
}
330
1F
100
AcDbEntity
  8
実線
100
AcDbLine
 10
694.2359665585105
 20
889.4619788310793
 30
0.0
 11
694.2359665585105
 21
880.9619788310792
 31
0.0
  0
LINE
  5
8F0
102
{ACAD_REACTORS
330
C25
102
}
330
1F
100
AcDbEntity
  8
実線
100
AcDbLine
 10
710.7359665585107
 20
880.9619788310792
 30
0.0
 11
710.7359665585107
 21
889.4619788310793
 31
0.0
  0
LINE
  5
8F1
102
{ACAD_REACTORS
330
C25
102
}
330
1F
100
AcDbEntity
  8
実線
100
AcDbLine
 10
734.3683021666495
 20
880.9619788310792
 30
0.0
 11
741.2146174351144
 21
880.9619788310792
 31
0.0
  0
LINE
  5
8F2
102
{ACAD_REACTORS
330
C25
102
}
330
1F
100
AcDbEntity
  8
実線
100
AcDbLine
 10
741.2146174351144
 20
880.9619788310792
 30
0.0
 11
741.2146174351144
 21
889.4619788310793
 31
0.0
  0
LINE
  5
8F3
102
{ACAD_REACTORS
330
C25
102
}
330
1F
100
AcDbEntity
  8
実線
100
AcDbLine
 10
802.0181225708368
 20
889.4619788310793
 30
0.0
 11
811.7002744757808
 21
889.4619788310793
 31
0.0
  0
LINE
  5
8F4
102
{ACAD_REACTORS
330
C25
102
}
330
1F
100
AcDbEntity
  8
実線
100
AcDbLine
 10
811.7002744757808
 20
889.4619788310793
 30
0.0
 11
811.7002744757808
 21
901.9619788310793
 31
0.0
  0
LINE
  5
8F5
102
{ACAD_REACTORS
330
C25
102
}
330
1F
100
AcDbEntity
  8
実線
100
AcDbLine
 10
738.1183021666495
 20
889.4619788310793
 30
0.0
 11
744.9646174351145
 21
889.4619788310793
 31
0.0
  0
LINE
  5
8F6
102
{ACAD_REACTORS
330
C25
102
}
330
1F
100
AcDbEntity
  8
実線
100
AcDbLine
 10
744.9646174351145
 20
889.4619788310793
 30
0.0
 11
744.9646174351145
 21
901.9619788310793
 31
0.0
  0
LINE
  5
8F7
102
{ACAD_REACTORS
330
C25
102
}
330
1F
100
AcDbEntity
  8
実線
100
AcDbLine
 10
844.7537796115026
 20
889.4619788310793
 30
0.0
 11
868.7537796115027
 21
889.4619788310793
 31
0.0
  0
LINE
  5
8F8
102
{ACAD_REACTORS
330
C25
102
}
330
1F
100
AcDbEntity
  8
実線
100
AcDbLine
 10
844.7537796115026
 20
901.9619788310793
 30
0.0
 11
844.7537796115026
 21
889.4619788310793
 31
0.0
  0
LINE
  5
8F9
102
{ACAD_REACTORS
330
C25
102
}
330
1F
100
AcDbEntity
  8
実線
100
AcDbLine
 10
868.7537796115027
 20
889.4619788310793
 30
0.0
 11
868.7537796115027
 21
901.9619788310793
 31
0.0
  0
LINE
  5
8FA
102
{ACAD_REACTORS
330
C25
102
}
330
1F
100
AcDbEntity
  8
実線
100
AcDbLine
 10
714.1183021666495
 20
889.4619788310793
 30
0.0
 11
738.1183021666495
 21
889.4619788310793
 31
0.0
  0
LINE
  5
8FB
102
{ACAD_REACTORS
330
C25
102
}
330
1F
100
AcDbEntity
  8
実線
100
AcDbLine
 10
714.1183021666495
 20
901.9619788310793
 30
0.0
 11
714.1183021666495
 21
889.4619788310793
 31
0.0
  0
LINE
  5
8FC
102
{ACAD_REACTORS
330
C25
102
}
330
1F
100
AcDbEntity
  8
実線
100
AcDbLine
 10
738.1183021666495
 20
889.4619788310793
 30
0.0
 11
738.1183021666495
 21
901.9619788310793
 31
0.0
  0
LINE
  5
8FD
102
{ACAD_REACTORS
330
C25
102
}
330
1F
100
AcDbEntity
  8
実線
100
AcDbLine
 10
868.7537796115027
 20
889.4619788310793
 30
0.0
 11
875.2324304881067
 21
889.4619788310793
 31
0.0
  0
LINE
  5
8FE
102
{ACAD_REACTORS
330
C25
102
}
330
1F
100
AcDbEntity
  8
実線
100
AcDbLine
 10
667.8591985233087
 20
1068.461978831079
 30
0.0
 11
667.8591985233087
 21
930.4619788310793
 31
0.0
  0
LINE
  5
8FF
102
{ACAD_REACTORS
330
C25
102
}
330
1F
100
AcDbEntity
  8
実線
100
AcDbLine
 10
676.0542656181047
 20
1068.461978831079
 30
0.0
 11
667.8591985233087
 21
1068.461978831079
 31
0.0
  0
LINE
  5
900
102
{ACAD_REACTORS
330
C25
102
}
330
1F
100
AcDbEntity
  8
実線
100
AcDbLine
 10
772.4165646152129
 20
1068.461978831079
 30
0.0
 11
683.3018324314036
 21
1068.461978831079
 31
0.0
  0
LINE
  5
901
102
{ACAD_REACTORS
330
C25
102
}
330
1F
100
AcDbEntity
  8
実線
100
AcDbLine
 10
779.6641314285139
 20
1068.461978831079
 30
0.0
 11
899.8591985233089
 21
1068.461978831079
 31
0.0
  0
LINE
  5
902
102
{ACAD_REACTORS
330
C25
102
}
330
1F
100
AcDbEntity
  8
実線
100
AcDbLine
 10
667.8591985233087
 20
952.4619788310792
 30
0.0
 11
897.3091863222336
 21
952.4619788310792
 31
0.0
  0
LINE
  5
903
102
{ACAD_REACTORS
330
C25
102
}
330
1F
100
AcDbEntity
  8
実線
100
AcDbLine
 10
667.8591985233087
 20
930.4619788310793
 30
0.0
 11
899.8591985233089
 21
930.4619788310793
 31
0.0
  0
LINE
  5
904
102
{ACAD_REACTORS
330
C25
102
}
330
1F
100
AcDbEntity
  8
実線
100
AcDbLine
 10
897.3091863222336
 20
963.4619788310793
 30
0.0
 11
897.3091863222336
 21
952.4619788310792
 31
0.0
  0
LINE
  5
905
102
{ACAD_REACTORS
330
C25
102
}
330
1F
100
AcDbEntity
  8
実線
100
AcDbLine
 10
897.3091863222336
 20
1068.461978831079
 30
0.0
 11
897.3091863222336
 21
975.4619788310792
 31
0.0
  0
LINE
  5
906
102
{ACAD_REACTORS
330
C25
102
}
330
1F
100
AcDbEntity
  8
実線
100
AcDbLine
 10
899.8591985233089
 20
975.4619788310792
 30
0.0
 11
899.8591985233089
 21
1068.461978831079
 31
0.0
  0
LINE
  5
907
102
{ACAD_REACTORS
330
C25
102
}
330
1F
100
AcDbEntity
  8
実線
100
AcDbLine
 10
899.8591985233089
 20
930.4619788310793
 30
0.0
 11
899.8591985233089
 21
963.4619788310793
 31
0.0
  0
ARC
  5
908
102
{ACAD_REACTORS
330
C25
102
}
330
1F
100
AcDbEntity
  8
実線
100
AcDbCircle
 10
723.1591985233087
 20
1133.461978831079
 30
0.0
 40
66.99999999999993
100
AcDbArc
 50
309.7665840691637
 51
0.0
  0
ARC
  5
909
102
{ACAD_REACTORS
330
C25
102
}
330
1F
100
AcDbEntity
  8
実線
100
AcDbCircle
 10
723.1591985233087
 20
1133.461978831079
 30
0.0
 40
53.0
100
AcDbArc
 50
283.6639089969456
 51
345.2431843936701
  0
LINE
  5
90A
102
{ACAD_REACTORS
330
C25
102
}
330
1F
100
AcDbEntity
  8
実線
100
AcDbLine
 10
790.1591985233087
 20
1184.961978831079
 30
0.0
 11
790.1591985233087
 21
1133.461978831079
 31
0.0
  0
LINE
  5
90B
102
{ACAD_REACTORS
330
C25
102
}
330
1F
100
AcDbEntity
  8
実線
100
AcDbLine
 10
665.5591985233087
 20
1184.961978831079
 30
0.0
 11
665.5591985233087
 21
1133.461978831079
 31
0.0
  0
ARC
  5
90C
102
{ACAD_REACTORS
330
C25
102
}
330
1F
100
AcDbEntity
  8
実線
100
AcDbCircle
 10
732.5591985233086
 20
1133.461978831079
 30
0.0
 40
66.99999999999993
100
AcDbArc
 50
180.0
 51
230.2334159308363
  0
ARC
  5
90D
102
{ACAD_REACTORS
330
C25
102
}
330
1F
100
AcDbEntity
  8
実線
100
AcDbCircle
 10
732.5591985233087
 20
1133.461978831079
 30
0.0
 40
53.0
100
AcDbArc
 50
194.7568156063299
 51
256.3360910030543
  0
LINE
  5
90E
102
{ACAD_REACTORS
330
C25
102
}
330
1F
100
AcDbEntity
  8
実線
100
AcDbLine
 10
679.7161824150508
 20
1119.961978831079
 30
0.0
 11
776.0022146315669
 21
1119.961978831079
 31
0.0
  0
LINE
  5
90F
102
{ACAD_REACTORS
330
C25
102
}
330
1F
100
AcDbEntity
  8
実線
100
AcDbLine
 10
776.0022146315669
 20
1119.961978831079
 30
0.0
 11
776.0022146315669
 21
1184.961978831079
 31
0.0
  0
LINE
  5
910
102
{ACAD_REACTORS
330
C25
102
}
330
1F
100
AcDbEntity
  8
実線
100
AcDbLine
 10
679.7161824150508
 20
1184.961978831079
 30
0.0
 11
679.7161824150508
 21
1119.961978831079
 31
0.0
  0
LINE
  5
911
102
{ACAD_REACTORS
330
C25
102
}
330
1F
100
AcDbEntity
  8
実線
100
AcDbLine
 10
895.0948375958738
 20
975.4619788310792
 30
0.0
 11
895.0948375958738
 21
982.4619788310792
 31
0.0
  0
LINE
  5
912
102
{ACAD_REACTORS
330
C25
102
}
330
1F
100
AcDbEntity
  8
実線
100
AcDbLine
 10
895.0948375958738
 20
952.4619788310792
 30
0.0
 11
895.0948375958738
 21
963.4619788310793
 31
0.0
  0
LINE
  5
913
102
{ACAD_REACTORS
330
C25
102
}
330
1F
100
AcDbEntity
  8
実線
100
AcDbLine
 10
895.0948375958738
 20
982.4619788310792
 30
0.0
 11
873.7957994901966
 21
982.4619788310792
 31
0.0
  0
LINE
  5
914
102
{ACAD_REACTORS
330
C25
102
}
330
1F
100
AcDbEntity
  8
実線
100
AcDbLine
 10
875.0948375958737
 20
952.4619788310792
 30
0.0
 11
875.0948375958737
 21
982.4619788310792
 31
0.0
  0
LINE
  5
915
102
{ACAD_REACTORS
330
C25
102
}
330
1F
100
AcDbEntity
  8
実線
100
AcDbLine
 10
873.7957994901966
 20
953.9619788310792
 30
0.0
 11
873.7957994901966
 21
982.4619788310792
 31
0.0
  0
LINE
  5
916
102
{ACAD_REACTORS
330
C25
102
}
330
1F
100
AcDbEntity
  8
実線
100
AcDbLine
 10
873.7957994901966
 20
953.9619788310792
 30
0.0
 11
862.1044565391068
 21
953.9619788310792
 31
0.0
  0
LINE
  5
917
102
{ACAD_REACTORS
330
C25
102
}
330
1F
100
AcDbEntity
  8
実線
100
AcDbLine
 10
862.1044565391068
 20
952.4619788310792
 30
0.0
 11
862.1044565391068
 21
953.9619788310792
 31
0.0
  0
LINE
  5
918
102
{ACAD_REACTORS
330
C25
102
}
330
1F
100
AcDbEntity
  8
実線
100
AcDbLine
 10
875.2324304881067
 20
889.4619788310793
 30
0.0
 11
899.2324304881067
 21
889.4619788310793
 31
0.0
  0
LINE
  5
919
102
{ACAD_REACTORS
330
C25
102
}
330
1F
100
AcDbEntity
  8
実線
100
AcDbLine
 10
875.2324304881067
 20
901.9619788310793
 30
0.0
 11
875.2324304881067
 21
889.4619788310793
 31
0.0
  0
LINE
  5
91A
102
{ACAD_REACTORS
330
C25
102
}
330
1F
100
AcDbEntity
  8
実線
100
AcDbLine
 10
899.2324304881067
 20
889.4619788310793
 30
0.0
 11
899.2324304881067
 21
901.9619788310793
 31
0.0
  0
LINE
  5
91B
102
{ACAD_REACTORS
330
C25
102
}
330
1F
100
AcDbEntity
  8
実線
100
AcDbLine
 10
778.0181225708357
 20
889.4619788310793
 30
0.0
 11
802.0181225708368
 21
889.4619788310793
 31
0.0
  0
LINE
  5
91C
102
{ACAD_REACTORS
330
C25
102
}
330
1F
100
AcDbEntity
  8
実線
100
AcDbLine
 10
778.0181225708357
 20
901.9619788310793
 30
0.0
 11
778.0181225708357
 21
889.4619788310793
 31
0.0
  0
LINE
  5
91D
102
{ACAD_REACTORS
330
C25
102
}
330
1F
100
AcDbEntity
  8
実線
100
AcDbLine
 10
802.0181225708368
 20
889.4619788310793
 30
0.0
 11
802.0181225708368
 21
901.9619788310793
 31
0.0
  0
LINE
  5
91E
102
{ACAD_REACTORS
330
C25
102
}
330
1F
100
AcDbEntity
  8
実線
100
AcDbLine
 10
690.4859665585105
 20
889.4619788310793
 30
0.0
 11
714.1183021666495
 21
889.4619788310793
 31
0.0
  0
LINE
  5
91F
102
{ACAD_REACTORS
330
C25
102
}
330
1F
100
AcDbEntity
  8
実線
100
AcDbLine
 10
690.4859665585105
 20
901.9619788310793
 30
0.0
 11
690.4859665585105
 21
889.4619788310793
 31
0.0
  0
LINE
  5
920
102
{ACAD_REACTORS
330
C25
102
}
330
1F
100
AcDbEntity
  8
実線
100
AcDbLine
 10
748.8591985233088
 20
1309.961978831032
 30
0.0
 11
702.8591985233088
 21
1309.961978831032
 31
0.0
  0
LINE
  5
921
102
{ACAD_REACTORS
330
C25
102
}
330
1F
100
AcDbEntity
  8
実線
100
AcDbLine
 10
750.8591985233088
 20
1307.961978831079
 30
0.0
 11
750.8591985233088
 21
1347.961978831079
 31
0.0
  0
LINE
  5
922
102
{ACAD_REACTORS
330
C25
102
}
330
1F
100
AcDbEntity
  8
実線
100
AcDbLine
 10
750.8591985233088
 20
1347.961978831079
 30
0.0
 11
748.8591985233088
 21
1347.961978831079
 31
0.0
  0
LINE
  5
923
102
{ACAD_REACTORS
330
C25
102
}
330
1F
100
AcDbEntity
  8
実線
100
AcDbLine
 10
748.8591985233088
 20
1347.961978831079
 30
0.0
 11
748.8591985233088
 21
1309.961978831032
 31
0.0
  0
LINE
  5
924
102
{ACAD_REACTORS
330
C25
102
}
330
1F
100
AcDbEntity
  8
実線
100
AcDbLine
 10
747.8591985233091
 20
1309.961978831079
 30
0.0
 11
747.8591985233091
 21
1307.961978831079
 31
0.0
  0
LINE
  5
925
102
{ACAD_REACTORS
330
C25
102
}
330
1F
100
AcDbEntity
  8
実線
100
AcDbLine
 10
702.8591985233088
 20
1309.961978831079
 30
0.0
 11
702.8591985233088
 21
1307.961978831079
 31
0.0
  0
LINE
  5
926
102
{ACAD_REACTORS
330
C25
102
}
330
1F
100
AcDbEntity
  8
実線
100
AcDbLine
 10
800.3591985233088
 20
1287.961978831079
 30
0.0
 11
800.3591985233088
 21
1289.961978831079
 31
0.0
  0
LINE
  5
927
102
{ACAD_REACTORS
330
C25
102
}
330
1F
100
AcDbEntity
  8
実線
100
AcDbLine
 10
655.3591985233087
 20
1289.961978831079
 30
0.0
 11
655.3591985233087
 21
1287.961978831079
 31
0.0
  0
LINE
  5
928
102
{ACAD_REACTORS
330
C25
102
}
330
1F
100
AcDbEntity
  8
実線
100
AcDbLine
 10
658.3591985233089
 20
1292.961978831079
 30
0.0
 11
797.3591985233087
 21
1292.961978831079
 31
0.0
  0
ARC
  5
929
102
{ACAD_REACTORS
330
C25
102
}
330
1F
100
AcDbEntity
  8
実線
100
AcDbCircle
 10
797.3591985233087
 20
1289.961978831079
 30
0.0
 40
3.0
100
AcDbArc
 50
0.0
 51
90.0
  0
ARC
  5
92A
102
{ACAD_REACTORS
330
C25
102
}
330
1F
100
AcDbEntity
  8
実線
100
AcDbCircle
 10
658.3591985233089
 20
1289.961978831079
 30
0.0
 40
3.0
100
AcDbArc
 50
90.0
 51
180.0
  0
LINE
  5
92B
102
{ACAD_REACTORS
330
C25
102
}
330
1F
100
AcDbEntity
  8
実線
100
AcDbLine
 10
689.8591985233088
 20
901.9619788310793
 30
0.0
 11
899.8591985233089
 21
901.9619788310793
 31
0.0
  0
LINE
  5
92C
102
{ACAD_REACTORS
330
C25
102
}
330
1F
100
AcDbEntity
  8
実線
100
AcDbLine
 10
689.8591985233088
 20
930.4619788310453
 30
0.0
 11
689.8591985233088
 21
901.9619788310793
 31
0.0
  0
LINE
  5
92D
102
{ACAD_REACTORS
330
C25
102
}
330
1F
100
AcDbEntity
  8
実線
100
AcDbLine
 10
899.8591985233089
 20
901.9619788310793
 30
0.0
 11
899.8591985233089
 21
930.4619788310453
 31
0.0
  0
LINE
  5
92E
102
{ACAD_REACTORS
330
C24
102
}
330
1F
100
AcDbEntity
  8
実線
100
AcDbLine
 10
807.9502744757808
 20
500.8619788310793
 30
0.0
 11
807.9502744757808
 21
509.3619788310793
 31
0.0
  0
LINE
  5
92F
102
{ACAD_REACTORS
330
C24
102
}
330
1F
100
AcDbEntity
  8
実線
100
AcDbLine
 10
791.4502744757808
 20
509.3619788310793
 30
0.0
 11
791.4502744757808
 21
500.8619788310793
 31
0.0
  0
LINE
  5
930
102
{ACAD_REACTORS
330
C24
102
}
330
1F
100
AcDbEntity
  8
実線
100
AcDbLine
 10
807.9502744757808
 20
509.3619788310793
 30
0.0
 11
791.4502744757808
 21
509.3619788310793
 31
0.0
  0
LINE
  5
931
102
{ACAD_REACTORS
330
C24
102
}
330
1F
100
AcDbEntity
  8
実線
100
AcDbLine
 10
871.8500948799679
 20
500.8619788310793
 30
0.0
 11
871.8500948799679
 21
509.3619788310793
 31
0.0
  0
LINE
  5
932
102
{ACAD_REACTORS
330
C24
102
}
330
1F
100
AcDbEntity
  8
実線
100
AcDbLine
 10
855.3500948799678
 20
509.3619788310793
 30
0.0
 11
855.3500948799678
 21
500.8619788310793
 31
0.0
  0
LINE
  5
933
102
{ACAD_REACTORS
330
C24
102
}
330
1F
100
AcDbEntity
  8
実線
100
AcDbLine
 10
871.8500948799679
 20
509.3619788310793
 30
0.0
 11
855.3500948799678
 21
509.3619788310793
 31
0.0
  0
LINE
  5
934
102
{ACAD_REACTORS
330
C24
102
}
330
1F
100
AcDbEntity
  8
実線
100
AcDbLine
 10
719.8591985233088
 20
308.3178822824812
 30
0.0
 11
719.8591985233088
 21
270.3619788310793
 31
0.0
  0
LINE
  5
935
102
{ACAD_REACTORS
330
C24
102
}
330
1F
100
AcDbEntity
  8
実線
100
AcDbLine
 10
735.8591985233088
 20
270.3619788310793
 30
0.0
 11
735.8591985233088
 21
308.3178822824812
 31
0.0
  0
LINE
  5
936
102
{ACAD_REACTORS
330
C24
102
}
330
1F
100
AcDbEntity
  8
実線
100
AcDbLine
 10
660.3591985233086
 20
205.3619788310793
 30
0.0
 11
660.3591985233086
 21
203.3619788310793
 31
0.0
  0
LINE
  5
937
102
{ACAD_REACTORS
330
C24
102
}
330
1F
100
AcDbEntity
  8
実線
100
AcDbLine
 10
795.3591985233088
 20
203.3619788310793
 30
0.0
 11
795.3591985233088
 21
205.3619788310793
 31
0.0
  0
LINE
  5
938
102
{ACAD_REACTORS
330
C24
102
}
330
1F
100
AcDbEntity
  8
実線
100
AcDbLine
 10
660.3591985233086
 20
205.3619788310793
 30
0.0
 11
795.3591985233088
 21
205.3619788310793
 31
0.0
  0
LINE
  5
939
102
{ACAD_REACTORS
330
C24
102
}
330
1F
100
AcDbEntity
  8
実線
100
AcDbLine
 10
655.3591985233087
 20
203.3619788310793
 30
0.0
 11
655.3591985233087
 21
102.3619788310793
 31
0.0
  0
LINE
  5
93A
102
{ACAD_REACTORS
330
C24
102
}
330
1F
100
AcDbEntity
  8
実線
100
AcDbLine
 10
800.3591985233088
 20
102.3619788310793
 30
0.0
 11
800.3591985233088
 21
203.3619788310793
 31
0.0
  0
LINE
  5
93B
102
{ACAD_REACTORS
330
C24
102
}
330
1F
100
AcDbEntity
  8
実線
100
AcDbLine
 10
655.3591985233087
 20
102.3619788310793
 30
0.0
 11
800.3591985233088
 21
102.3619788310793
 31
0.0
  0
LINE
  5
93C
102
{ACAD_REACTORS
330
C24
102
}
330
1F
100
AcDbEntity
  8
実線
100
AcDbLine
 10
655.3591985233087
 20
203.3619788310793
 30
0.0
 11
800.3591985233088
 21
203.3619788310793
 31
0.0
  0
LINE
  5
93D
102
{ACAD_REACTORS
330
C24
102
}
330
1F
100
AcDbEntity
  8
実線
100
AcDbLine
 10
788.6388877011479
 20
308.3619788310794
 30
0.0
 11
667.07950934547
 21
308.3619788310794
 31
0.0
  0
LINE
  5
93E
102
{ACAD_REACTORS
330
C24
102
}
330
1F
100
AcDbEntity
  8
実線
100
AcDbLine
 10
667.07950934547
 20
321.8619788310792
 30
0.0
 11
667.07950934547
 21
308.3619788310794
 31
0.0
  0
LINE
  5
93F
102
{ACAD_REACTORS
330
C24
102
}
330
1F
100
AcDbEntity
  8
実線
100
AcDbLine
 10
667.07950934547
 20
321.8619788310792
 30
0.0
 11
667.8591985233087
 21
321.8619788310792
 31
0.0
  0
LINE
  5
940
102
{ACAD_REACTORS
330
C24
102
}
330
1F
100
AcDbEntity
  8
実線
100
AcDbLine
 10
788.6388877011479
 20
308.3619788310794
 30
0.0
 11
788.6388877011479
 21
321.8619788310792
 31
0.0
  0
LINE
  5
941
102
{ACAD_REACTORS
330
C24
102
}
330
1F
100
AcDbEntity
  8
実線
100
AcDbLine
 10
701.0492263733675
 20
321.8619788310792
 30
0.0
 11
701.0492263733675
 21
308.3619788310794
 31
0.0
  0
LINE
  5
942
102
{ACAD_REACTORS
330
C24
102
}
330
1F
100
AcDbEntity
  8
実線
100
AcDbLine
 10
754.6691706732501
 20
321.8619788310792
 30
0.0
 11
754.6691706732501
 21
308.3619788310794
 31
0.0
  0
LINE
  5
943
102
{ACAD_REACTORS
330
C24
102
}
330
1F
100
AcDbEntity
  8
実線
100
AcDbLine
 10
720.3591985233088
 20
44.86197883107928
 30
0.0
 11
720.3591985233088
 21
39.56197883107922
 31
0.0
  0
LINE
  5
944
102
{ACAD_REACTORS
330
C24
102
}
330
1F
100
AcDbEntity
  8
実線
100
AcDbLine
 10
735.3591985233087
 20
39.56197883107922
 30
0.0
 11
735.3591985233087
 21
44.86197883107917
 31
0.0
  0
LINE
  5
945
102
{ACAD_REACTORS
330
C24
102
}
330
1F
100
AcDbEntity
  8
実線
100
AcDbLine
 10
720.3591985233088
 20
39.56197883107922
 30
0.0
 11
735.3591985233087
 21
39.56197883107922
 31
0.0
  0
LINE
  5
946
102
{ACAD_REACTORS
330
C24
102
}
330
1F
100
AcDbEntity
  8
実線
100
AcDbLine
 10
715.3591985233088
 20
49.86197883107928
 30
0.0
 11
715.3591985233088
 21
44.86197883107928
 31
0.0
  0
LINE
  5
947
102
{ACAD_REACTORS
330
C24
102
}
330
1F
100
AcDbEntity
  8
実線
100
AcDbLine
 10
740.3591985233088
 20
44.86197883107928
 30
0.0
 11
740.3591985233088
 21
49.86197883107928
 31
0.0
  0
LINE
  5
948
102
{ACAD_REACTORS
330
C24
102
}
330
1F
100
AcDbEntity
  8
実線
100
AcDbLine
 10
715.3591985233088
 20
44.86197883107928
 30
0.0
 11
740.3591985233088
 21
44.86197883107928
 31
0.0
  0
LINE
  5
949
102
{ACAD_REACTORS
330
C24
102
}
330
1F
100
AcDbEntity
  8
実線
100
AcDbLine
 10
715.3591985233088
 20
49.86197883107928
 30
0.0
 11
740.3591985233088
 21
49.86197883107928
 31
0.0
  0
CIRCLE
  5
94A
102
{ACAD_REACTORS
330
C24
102
}
330
1F
100
AcDbEntity
  8
実線
100
AcDbCircle
 10
744.9091985233088
 20
63.36197883107928
 30
0.0
 40
1.5
  0
LINE
  5
94B
102
{ACAD_REACTORS
330
C24
102
}
330
1F
100
AcDbEntity
  8
実線
100
AcDbLine
 10
740.9591985233088
 20
59.41197883107924
 30
0.0
 11
740.9591985233088
 21
67.31197883107933
 31
0.0
  0
LINE
  5
94C
102
{ACAD_REACTORS
330
C24
102
}
330
1F
100
AcDbEntity
  8
実線
100
AcDbLine
 10
748.8591985233088
 20
59.41197883107924
 30
0.0
 11
740.9591985233088
 21
59.41197883107924
 31
0.0
  0
LINE
  5
94D
102
{ACAD_REACTORS
330
C24
102
}
330
1F
100
AcDbEntity
  8
実線
100
AcDbLine
 10
748.8591985233088
 20
67.31197883107933
 30
0.0
 11
748.8591985233088
 21
59.41197883107924
 31
0.0
  0
LINE
  5
94E
102
{ACAD_REACTORS
330
C24
102
}
330
1F
100
AcDbEntity
  8
実線
100
AcDbLine
 10
740.9591985233088
 20
67.31197883107933
 30
0.0
 11
748.8591985233088
 21
67.31197883107933
 31
0.0
  0
CIRCLE
  5
94F
102
{ACAD_REACTORS
330
C24
102
}
330
1F
100
AcDbEntity
  8
実線
100
AcDbCircle
 10
744.9091985233088
 20
47.36197883107928
 30
0.0
 40
1.5
  0
LINE
  5
950
102
{ACAD_REACTORS
330
C24
102
}
330
1F
100
AcDbEntity
  8
実線
100
AcDbLine
 10
702.8591985233088
 20
87.36197883107928
 30
0.0
 11
702.8591985233088
 21
82.36197883107928
 31
0.0
  0
LINE
  5
951
102
{ACAD_REACTORS
330
C24
102
}
330
1F
100
AcDbEntity
  8
実線
100
AcDbLine
 10
752.8591985233088
 20
82.36197883107928
 30
0.0
 11
752.8591985233088
 21
87.36197883107928
 31
0.0
  0
LINE
  5
952
102
{ACAD_REACTORS
330
C24
102
}
330
1F
100
AcDbEntity
  8
実線
100
AcDbLine
 10
750.8591985233088
 20
82.36197883107928
 30
0.0
 11
752.8591985233088
 21
82.36197883107928
 31
0.0
  0
LINE
  5
953
102
{ACAD_REACTORS
330
C24
102
}
330
1F
100
AcDbEntity
  8
実線
100
AcDbLine
 10
740.9591985233088
 20
51.31197883107933
 30
0.0
 11
748.8591985233088
 21
51.31197883107933
 31
0.0
  0
LINE
  5
954
102
{ACAD_REACTORS
330
C24
102
}
330
1F
100
AcDbEntity
  8
実線
100
AcDbLine
 10
740.9591985233088
 20
43.41197883107923
 30
0.0
 11
740.9591985233088
 21
51.31197883107933
 31
0.0
  0
LINE
  5
955
102
{ACAD_REACTORS
330
C24
102
}
330
1F
100
AcDbEntity
  8
実線
100
AcDbLine
 10
748.8591985233088
 20
43.41197883107923
 30
0.0
 11
740.9591985233088
 21
43.41197883107923
 31
0.0
  0
LINE
  5
956
102
{ACAD_REACTORS
330
C24
102
}
330
1F
100
AcDbEntity
  8
実線
100
AcDbLine
 10
748.8591985233088
 20
51.31197883107933
 30
0.0
 11
748.8591985233088
 21
43.41197883107923
 31
0.0
  0
LINE
  5
957
102
{ACAD_REACTORS
330
C24
102
}
330
1F
100
AcDbEntity
  8
実線
100
AcDbLine
 10
719.8591985233088
 20
80.36197883107929
 30
0.0
 11
719.8591985233088
 21
49.86197883107928
 31
0.0
  0
LINE
  5
958
102
{ACAD_REACTORS
330
C24
102
}
330
1F
100
AcDbEntity
  8
実線
100
AcDbLine
 10
735.8591985233088
 20
49.86197883107928
 30
0.0
 11
735.8591985233088
 21
80.36197883107929
 31
0.0
  0
LINE
  5
959
102
{ACAD_REACTORS
330
C24
102
}
330
1F
100
AcDbEntity
  8
実線
100
AcDbLine
 10
681.8591985233088
 20
97.36197883107928
 30
0.0
 11
681.8591985233088
 21
87.36197883107928
 31
0.0
  0
LINE
  5
95A
102
{ACAD_REACTORS
330
C24
102
}
330
1F
100
AcDbEntity
  8
実線
100
AcDbLine
 10
773.8591985233088
 20
87.36197883107918
 30
0.0
 11
773.8591985233088
 21
97.36197883107918
 31
0.0
  0
LINE
  5
95B
102
{ACAD_REACTORS
330
C24
102
}
330
1F
100
AcDbEntity
  8
実線
100
AcDbLine
 10
681.8591985233088
 20
87.36197883107918
 30
0.0
 11
773.8591985233088
 21
87.36197883107918
 31
0.0
  0
LINE
  5
95C
102
{ACAD_REACTORS
330
C24
102
}
330
1F
100
AcDbEntity
  8
実線
100
AcDbLine
 10
895.4824304881068
 20
500.8619788310793
 30
0.0
 11
895.4824304881068
 21
509.3619788310793
 31
0.0
  0
LINE
  5
95D
102
{ACAD_REACTORS
330
C24
102
}
330
1F
100
AcDbEntity
  8
実線
100
AcDbLine
 10
878.9824304881067
 20
509.3619788310793
 30
0.0
 11
878.9824304881067
 21
500.8619788310793
 31
0.0
  0
LINE
  5
95E
102
{ACAD_REACTORS
330
C24
102
}
330
1F
100
AcDbEntity
  8
実線
100
AcDbLine
 10
895.4824304881068
 20
509.3619788310793
 30
0.0
 11
878.9824304881067
 21
509.3619788310793
 31
0.0
  0
LINE
  5
95F
102
{ACAD_REACTORS
330
C24
102
}
330
1F
100
AcDbEntity
  8
実線
100
AcDbLine
 10
848.5037796115028
 20
509.3619788310793
 30
0.0
 11
848.5037796115028
 21
500.8619788310793
 31
0.0
  0
LINE
  5
960
102
{ACAD_REACTORS
330
C24
102
}
330
1F
100
AcDbEntity
  8
実線
100
AcDbLine
 10
855.3500948799678
 20
509.3619788310793
 30
0.0
 11
848.5037796115028
 21
509.3619788310793
 31
0.0
  0
ELLIPSE
  5
961
102
{ACAD_REACTORS
330
C24
102
}
330
1F
100
AcDbEntity
  8
実線
100
AcDbEllipse
 10
916.2717521321129
 20
420.8619788310793
 30
0.0
 11
0.0
 21
6.0
 31
0.0
210
0.0
220
0.0
230
1.0
 40
0.4999999999999976
 41
4.71238898038469
 42
6.283185307179584
  0
LINE
  5
962
102
{ACAD_REACTORS
330
C24
102
}
330
1F
100
AcDbEntity
  8
実線
100
AcDbLine
 10
916.2717521321129
 20
426.8619788310793
 30
0.0
 11
899.8591985233089
 21
426.8619788310793
 31
0.0
  0
LINE
  5
963
102
{ACAD_REACTORS
330
C24
102
}
330
1F
100
AcDbEntity
  8
実線
100
AcDbLine
 10
899.8591985233089
 20
414.8619788310793
 30
0.0
 11
916.2717521321129
 21
414.8619788310793
 31
0.0
  0
ELLIPSE
  5
964
102
{ACAD_REACTORS
330
C24
102
}
330
1F
100
AcDbEntity
  8
実線
100
AcDbEllipse
 10
916.2717521321129
 20
420.8619788310793
 30
0.0
 11
0.0
 21
6.0
 31
0.0
210
0.0
220
0.0
230
1.0
 40
0.4999999999999976
 41
3.141592653589792
 42
4.71238898038469
  0
LINE
  5
965
102
{ACAD_REACTORS
330
C24
102
}
330
1F
100
AcDbEntity
  8
実線
100
AcDbLine
 10
943.2591985233518
 20
394.1119788310794
 30
0.0
 11
899.8591985233179
 21
394.1119788310794
 31
0.0
  0
LINE
  5
966
102
{ACAD_REACTORS
330
C24
102
}
330
1F
100
AcDbEntity
  8
実線
100
AcDbLine
 10
899.8591985233179
 20
330.6119788310794
 30
0.0
 11
943.2591985233518
 21
330.6119788310794
 31
0.0
  0
LINE
  5
967
102
{ACAD_REACTORS
330
C24
102
}
330
1F
100
AcDbEntity
  8
実線
100
AcDbLine
 10
949.8591985233517
 20
401.1119788310792
 30
0.0
 11
949.8591985233517
 21
323.6119788310794
 31
0.0
  0
LINE
  5
968
102
{ACAD_REACTORS
330
C24
102
}
330
1F
100
AcDbEntity
  8
実線
100
AcDbLine
 10
949.8591985233517
 20
401.1119788310792
 30
0.0
 11
946.3591985233506
 21
401.1119788310792
 31
0.0
  0
LINE
  5
969
102
{ACAD_REACTORS
330
C24
102
}
330
1F
100
AcDbEntity
  8
実線
100
AcDbLine
 10
946.3591985233506
 20
323.6119788310794
 30
0.0
 11
949.8591985233517
 21
323.6119788310794
 31
0.0
  0
LINE
  5
96A
102
{ACAD_REACTORS
330
C24
102
}
330
1F
100
AcDbEntity
  8
実線
100
AcDbLine
 10
946.3591985233506
 20
401.1119788310792
 30
0.0
 11
946.3591985233506
 21
323.6119788310794
 31
0.0
  0
LINE
  5
96B
102
{ACAD_REACTORS
330
C24
102
}
330
1F
100
AcDbEntity
  8
実線
100
AcDbLine
 10
943.2591985233518
 20
394.1119788310794
 30
0.0
 11
943.2591985233518
 21
330.6119788310794
 31
0.0
  0
LINE
  5
96C
102
{ACAD_REACTORS
330
C24
102
}
330
1F
100
AcDbEntity
  8
実線
100
AcDbLine
 10
943.2591985233518
 20
330.6119788310794
 30
0.0
 11
946.3591985233518
 21
323.6119788310794
 31
0.0
  0
LINE
  5
96D
102
{ACAD_REACTORS
330
C24
102
}
330
1F
100
AcDbEntity
  8
実線
100
AcDbLine
 10
946.3591985233506
 20
401.1119788310792
 30
0.0
 11
943.2591985233518
 21
394.1119788310794
 31
0.0
  0
LINE
  5
96E
102
{ACAD_REACTORS
330
C24
102
}
330
1F
100
AcDbEntity
  8
実線
100
AcDbLine
 10
624.459198523266
 20
393.4119788310793
 30
0.0
 11
667.8591985232991
 21
393.4119788310793
 31
0.0
  0
LINE
  5
96F
102
{ACAD_REACTORS
330
C24
102
}
330
1F
100
AcDbEntity
  8
実線
100
AcDbLine
 10
667.8591985232991
 20
456.9119788310793
 30
0.0
 11
624.459198523266
 21
456.9119788310793
 31
0.0
  0
LINE
  5
970
102
{ACAD_REACTORS
330
C24
102
}
330
1F
100
AcDbEntity
  8
実線
100
AcDbLine
 10
617.859198523266
 20
386.4119788310792
 30
0.0
 11
617.859198523266
 21
463.9119788310792
 31
0.0
  0
LINE
  5
971
102
{ACAD_REACTORS
330
C24
102
}
330
1F
100
AcDbEntity
  8
実線
100
AcDbLine
 10
617.859198523266
 20
386.4119788310792
 30
0.0
 11
621.359198523266
 21
386.4119788310792
 31
0.0
  0
LINE
  5
972
102
{ACAD_REACTORS
330
C24
102
}
330
1F
100
AcDbEntity
  8
実線
100
AcDbLine
 10
621.359198523266
 20
463.9119788310792
 30
0.0
 11
617.859198523266
 21
463.9119788310792
 31
0.0
  0
LINE
  5
973
102
{ACAD_REACTORS
330
C24
102
}
330
1F
100
AcDbEntity
  8
実線
100
AcDbLine
 10
621.359198523266
 20
386.4119788310792
 30
0.0
 11
621.359198523266
 21
463.9119788310792
 31
0.0
  0
LINE
  5
974
102
{ACAD_REACTORS
330
C24
102
}
330
1F
100
AcDbEntity
  8
実線
100
AcDbLine
 10
624.459198523266
 20
393.4119788310793
 30
0.0
 11
624.459198523266
 21
456.9119788310793
 31
0.0
  0
LINE
  5
975
102
{ACAD_REACTORS
330
C24
102
}
330
1F
100
AcDbEntity
  8
実線
100
AcDbLine
 10
624.459198523266
 20
456.9119788310793
 30
0.0
 11
621.359198523266
 21
463.9119788310792
 31
0.0
  0
LINE
  5
976
102
{ACAD_REACTORS
330
C24
102
}
330
1F
100
AcDbEntity
  8
実線
100
AcDbLine
 10
621.359198523266
 20
386.4119788310792
 30
0.0
 11
624.459198523266
 21
393.4119788310793
 31
0.0
  0
LINE
  5
977
102
{ACAD_REACTORS
330
C24
102
}
330
1F
100
AcDbEntity
  8
実線
100
AcDbLine
 10
781.7681225708358
 20
509.3619788310793
 30
0.0
 11
781.7681225708358
 21
500.8619788310793
 31
0.0
  0
LINE
  5
978
102
{ACAD_REACTORS
330
C24
102
}
330
1F
100
AcDbEntity
  8
実線
100
AcDbLine
 10
791.4502744757808
 20
509.3619788310793
 30
0.0
 11
781.7681225708358
 21
509.3619788310793
 31
0.0
  0
LINE
  5
979
102
{ACAD_REACTORS
330
C24
102
}
330
1F
100
AcDbEntity
  8
実線
100
AcDbLine
 10
717.8683021666495
 20
509.3619788310793
 30
0.0
 11
717.8683021666495
 21
500.8619788310793
 31
0.0
  0
LINE
  5
97A
102
{ACAD_REACTORS
330
C24
102
}
330
1F
100
AcDbEntity
  8
実線
100
AcDbLine
 10
724.7146174351144
 20
509.3619788310793
 30
0.0
 11
717.8683021666495
 21
509.3619788310793
 31
0.0
  0
LINE
  5
97B
102
{ACAD_REACTORS
330
C24
102
}
330
1F
100
AcDbEntity
  8
実線
100
AcDbLine
 10
710.7359665585107
 20
500.8619788310793
 30
0.0
 11
710.7359665585107
 21
509.3619788310793
 31
0.0
  0
LINE
  5
97C
102
{ACAD_REACTORS
330
C24
102
}
330
1F
100
AcDbEntity
  8
実線
100
AcDbLine
 10
694.2359665585105
 20
509.3619788310793
 30
0.0
 11
694.2359665585105
 21
500.8619788310793
 31
0.0
  0
LINE
  5
97D
102
{ACAD_REACTORS
330
C24
102
}
330
1F
100
AcDbEntity
  8
実線
100
AcDbLine
 10
710.7359665585107
 20
509.3619788310793
 30
0.0
 11
694.2359665585105
 21
509.3619788310793
 31
0.0
  0
LINE
  5
97E
102
{ACAD_REACTORS
330
C24
102
}
330
1F
100
AcDbEntity
  8
実線
100
AcDbLine
 10
741.2146174351144
 20
500.8619788310793
 30
0.0
 11
741.2146174351144
 21
509.3619788310793
 31
0.0
  0
LINE
  5
97F
102
{ACAD_REACTORS
330
C24
102
}
330
1F
100
AcDbEntity
  8
実線
100
AcDbLine
 10
724.7146174351144
 20
509.3619788310793
 30
0.0
 11
724.7146174351144
 21
500.8619788310793
 31
0.0
  0
LINE
  5
980
102
{ACAD_REACTORS
330
C24
102
}
330
1F
100
AcDbEntity
  8
実線
100
AcDbLine
 10
741.2146174351144
 20
509.3619788310793
 30
0.0
 11
724.7146174351144
 21
509.3619788310793
 31
0.0
  0
LINE
  5
981
102
{ACAD_REACTORS
330
C24
102
}
330
1F
100
AcDbEntity
  8
実線
100
AcDbLine
 10
811.7002744757808
 20
488.3619788310793
 30
0.0
 11
811.7002744757808
 21
500.8619788310793
 31
0.0
  0
LINE
  5
982
102
{ACAD_REACTORS
330
C24
102
}
330
1F
100
AcDbEntity
  8
実線
100
AcDbLine
 10
787.7002744757808
 20
500.8619788310793
 30
0.0
 11
787.7002744757808
 21
488.3619788310793
 31
0.0
  0
LINE
  5
983
102
{ACAD_REACTORS
330
C24
102
}
330
1F
100
AcDbEntity
  8
実線
100
AcDbLine
 10
811.7002744757808
 20
500.8619788310793
 30
0.0
 11
787.7002744757808
 21
500.8619788310793
 31
0.0
  0
LINE
  5
984
102
{ACAD_REACTORS
330
C24
102
}
330
1F
100
AcDbEntity
  8
実線
100
AcDbLine
 10
744.9646174351145
 20
488.3619788310793
 30
0.0
 11
744.9646174351145
 21
500.8619788310793
 31
0.0
  0
LINE
  5
985
102
{ACAD_REACTORS
330
C24
102
}
330
1F
100
AcDbEntity
  8
実線
100
AcDbLine
 10
720.9646174351145
 20
500.8619788310793
 30
0.0
 11
720.9646174351145
 21
488.3619788310793
 31
0.0
  0
LINE
  5
986
102
{ACAD_REACTORS
330
C24
102
}
330
1F
100
AcDbEntity
  8
実線
100
AcDbLine
 10
744.9646174351145
 20
500.8619788310793
 30
0.0
 11
720.9646174351145
 21
500.8619788310793
 31
0.0
  0
LINE
  5
987
102
{ACAD_REACTORS
330
C24
102
}
330
1F
100
AcDbEntity
  8
実線
100
AcDbLine
 10
844.7537796115026
 20
500.8619788310793
 30
0.0
 11
844.7537796115026
 21
488.3619788310793
 31
0.0
  0
LINE
  5
988
102
{ACAD_REACTORS
330
C24
102
}
330
1F
100
AcDbEntity
  8
実線
100
AcDbLine
 10
851.6000948799678
 20
500.8619788310793
 30
0.0
 11
844.7537796115026
 21
500.8619788310793
 31
0.0
  0
LINE
  5
989
102
{ACAD_REACTORS
330
C24
102
}
330
1F
100
AcDbEntity
  8
実線
100
AcDbLine
 10
720.9646174351145
 20
500.8619788310793
 30
0.0
 11
714.4859665585105
 21
500.8619788310793
 31
0.0
  0
LINE
  5
98A
102
{ACAD_REACTORS
330
C24
102
}
330
1F
100
AcDbEntity
  8
実線
100
AcDbLine
 10
875.6000948799679
 20
488.3619788310793
 30
0.0
 11
875.6000948799679
 21
500.8619788310793
 31
0.0
  0
LINE
  5
98B
102
{ACAD_REACTORS
330
C24
102
}
330
1F
100
AcDbEntity
  8
実線
100
AcDbLine
 10
851.6000948799678
 20
500.8619788310793
 30
0.0
 11
851.6000948799678
 21
488.3619788310793
 31
0.0
  0
LINE
  5
98C
102
{ACAD_REACTORS
330
C24
102
}
330
1F
100
AcDbEntity
  8
実線
100
AcDbLine
 10
875.6000948799679
 20
500.8619788310793
 30
0.0
 11
851.6000948799678
 21
500.8619788310793
 31
0.0
  0
LINE
  5
98D
102
{ACAD_REACTORS
330
C24
102
}
330
1F
100
AcDbEntity
  8
実線
100
AcDbLine
 10
875.2938650508008
 20
459.8619788310793
 30
0.0
 11
871.8492456535939
 21
459.8619788310793
 31
0.0
  0
LINE
  5
98E
102
{ACAD_REACTORS
330
C24
102
}
330
1F
100
AcDbEntity
  8
実線
100
AcDbLine
 10
899.8591985233089
 20
459.8619788310793
 30
0.0
 11
899.8591985233089
 21
321.8619788310792
 31
0.0
  0
LINE
  5
98F
102
{ACAD_REACTORS
330
C24
102
}
330
1F
100
AcDbEntity
  8
実線
100
AcDbLine
 10
835.6182924190989
 20
459.861978831113
 30
0.0
 11
667.8591985233087
 21
459.861978831113
 31
0.0
  0
LINE
  5
990
102
{ACAD_REACTORS
330
C24
102
}
330
1F
100
AcDbEntity
  8
実線
100
AcDbLine
 10
667.8591985233087
 20
459.8619788310793
 30
0.0
 11
667.8591985233087
 21
321.8619788310792
 31
0.0
  0
LINE
  5
991
102
{ACAD_REACTORS
330
C24
102
}
330
1F
100
AcDbEntity
  8
実線
100
AcDbLine
 10
667.8591985233087
 20
321.8619788310792
 30
0.0
 11
899.8591985233089
 21
321.8619788310792
 31
0.0
  0
LINE
  5
992
102
{ACAD_REACTORS
330
C24
102
}
330
1F
100
AcDbEntity
  8
実線
100
AcDbLine
 10
823.8591985233087
 20
399.8619788310794
 30
0.0
 11
899.8591985233089
 21
399.8619788310794
 31
0.0
  0
LINE
  5
993
102
{ACAD_REACTORS
330
C24
102
}
330
1F
100
AcDbEntity
  8
実線
100
AcDbLine
 10
823.8591985233087
 20
459.8619788310793
 30
0.0
 11
823.8591985233087
 21
399.8619788310794
 31
0.0
  0
LINE
  5
994
102
{ACAD_REACTORS
330
C24
102
}
330
1F
100
AcDbEntity
  8
実線
100
AcDbLine
 10
874.5649138906578
 20
459.8619788310793
 30
0.0
 11
874.5649138906578
 21
399.8619788310794
 31
0.0
  0
ARC
  5
995
102
{ACAD_REACTORS
330
C24
102
}
330
1F
100
AcDbEntity
  8
実線
100
AcDbCircle
 10
723.1591985233087
 20
256.8619788310792
 30
0.0
 40
53.0
100
AcDbArc
 50
14.75681560632996
 51
76.33609100305436
  0
LINE
  5
996
102
{ACAD_REACTORS
330
C24
102
}
330
1F
100
AcDbEntity
  8
実線
100
AcDbLine
 10
790.1591985233087
 20
205.3619788310793
 30
0.0
 11
790.1591985233087
 21
256.8619788310793
 31
0.0
  0
ARC
  5
997
102
{ACAD_REACTORS
330
C24
102
}
330
1F
100
AcDbEntity
  8
実線
100
AcDbCircle
 10
723.1591985233087
 20
256.8619788310793
 30
0.0
 40
66.99999999999993
100
AcDbArc
 50
0.0
 51
50.23341593083629
  0
ARC
  5
998
102
{ACAD_REACTORS
330
C24
102
}
330
1F
100
AcDbEntity
  8
実線
100
AcDbCircle
 10
732.5591985233086
 20
256.8619788310793
 30
0.0
 40
66.99999999999993
100
AcDbArc
 50
129.7665840691637
 51
180.0
  0
ARC
  5
999
102
{ACAD_REACTORS
330
C24
102
}
330
1F
100
AcDbEntity
  8
実線
100
AcDbCircle
 10
732.5591985233087
 20
256.8619788310792
 30
0.0
 40
53.0
100
AcDbArc
 50
103.6639089969456
 51
165.24318439367
  0
LINE
  5
99A
102
{ACAD_REACTORS
330
C24
102
}
330
1F
100
AcDbEntity
  8
実線
100
AcDbLine
 10
665.5591985233087
 20
205.3619788310793
 30
0.0
 11
665.5591985233087
 21
256.8619788310793
 31
0.0
  0
LINE
  5
99B
102
{ACAD_REACTORS
330
C24
102
}
330
1F
100
AcDbEntity
  8
実線
100
AcDbLine
 10
776.0022146315669
 20
270.3619788310793
 30
0.0
 11
776.0022146315669
 21
205.3619788310793
 31
0.0
  0
LINE
  5
99C
102
{ACAD_REACTORS
330
C24
102
}
330
1F
100
AcDbEntity
  8
実線
100
AcDbLine
 10
776.0022146315669
 20
270.3619788310793
 30
0.0
 11
679.7161824150508
 21
270.3619788310793
 31
0.0
  0
LINE
  5
99D
102
{ACAD_REACTORS
330
C24
102
}
330
1F
100
AcDbEntity
  8
実線
100
AcDbLine
 10
679.7161824150508
 20
205.3619788310793
 30
0.0
 11
679.7161824150508
 21
270.3619788310793
 31
0.0
  0
LINE
  5
99E
102
{ACAD_REACTORS
330
C24
102
}
330
1F
100
AcDbEntity
  8
実線
100
AcDbLine
 10
899.2324304881067
 20
488.3619788310793
 30
0.0
 11
899.2324304881067
 21
500.8619788310793
 31
0.0
  0
LINE
  5
99F
102
{ACAD_REACTORS
330
C24
102
}
330
1F
100
AcDbEntity
  8
実線
100
AcDbLine
 10
899.2324304881067
 20
500.8619788310793
 30
0.0
 11
875.6000948799679
 21
500.8619788310793
 31
0.0
  0
LINE
  5
9A0
102
{ACAD_REACTORS
330
C24
102
}
330
1F
100
AcDbEntity
  8
実線
100
AcDbLine
 10
778.0181225708357
 20
500.8619788310793
 30
0.0
 11
778.0181225708357
 21
488.3619788310793
 31
0.0
  0
LINE
  5
9A1
102
{ACAD_REACTORS
330
C24
102
}
330
1F
100
AcDbEntity
  8
実線
100
AcDbLine
 10
787.7002744757808
 20
500.8619788310793
 30
0.0
 11
778.0181225708357
 21
500.8619788310793
 31
0.0
  0
LINE
  5
9A2
102
{ACAD_REACTORS
330
C24
102
}
330
1F
100
AcDbEntity
  8
実線
100
AcDbLine
 10
714.4859665585105
 20
488.3619788310793
 30
0.0
 11
714.4859665585105
 21
500.8619788310793
 31
0.0
  0
LINE
  5
9A3
102
{ACAD_REACTORS
330
C24
102
}
330
1F
100
AcDbEntity
  8
実線
100
AcDbLine
 10
690.4859665585105
 20
500.8619788310793
 30
0.0
 11
690.4859665585105
 21
488.3619788310793
 31
0.0
  0
LINE
  5
9A4
102
{ACAD_REACTORS
330
C24
102
}
330
1F
100
AcDbEntity
  8
実線
100
AcDbLine
 10
714.4859665585105
 20
500.8619788310793
 30
0.0
 11
690.4859665585105
 21
500.8619788310793
 31
0.0
  0
LINE
  5
9A5
102
{ACAD_REACTORS
330
C24
102
}
330
1F
100
AcDbEntity
  8
実線
100
AcDbLine
 10
750.8591985233088
 20
82.36197883107928
 30
0.0
 11
702.8591985233088
 21
82.36197883107928
 31
0.0
  0
LINE
  5
9A6
102
{ACAD_REACTORS
330
C24
102
}
330
1F
100
AcDbEntity
  8
実線
100
AcDbLine
 10
748.8591985233088
 20
80.36197883112658
 30
0.0
 11
702.8591985233088
 21
80.36197883112658
 31
0.0
  0
LINE
  5
9A7
102
{ACAD_REACTORS
330
C24
102
}
330
1F
100
AcDbEntity
  8
実線
100
AcDbLine
 10
748.8591985233088
 20
43.41197883107923
 30
0.0
 11
748.8591985233088
 21
42.36197883107928
 31
0.0
  0
LINE
  5
9A8
102
{ACAD_REACTORS
330
C24
102
}
330
1F
100
AcDbEntity
  8
実線
100
AcDbLine
 10
748.8591985233088
 20
59.41197883107924
 30
0.0
 11
748.8591985233088
 21
51.31197883107933
 31
0.0
  0
LINE
  5
9A9
102
{ACAD_REACTORS
330
C24
102
}
330
1F
100
AcDbEntity
  8
実線
100
AcDbLine
 10
748.8591985233088
 20
80.36197883112658
 30
0.0
 11
748.8591985233088
 21
67.31197883107933
 31
0.0
  0
LINE
  5
9AA
102
{ACAD_REACTORS
330
C24
102
}
330
1F
100
AcDbEntity
  8
実線
100
AcDbLine
 10
748.8591985233088
 20
42.36197883107928
 30
0.0
 11
750.8591985233088
 21
42.36197883107928
 31
0.0
  0
LINE
  5
9AB
102
{ACAD_REACTORS
330
C24
102
}
330
1F
100
AcDbEntity
  8
実線
100
AcDbLine
 10
750.8591985233088
 20
82.36197883107928
 30
0.0
 11
750.8591985233088
 21
42.36197883107928
 31
0.0
  0
LINE
  5
9AC
102
{ACAD_REACTORS
330
C24
102
}
330
1F
100
AcDbEntity
  8
実線
100
AcDbLine
 10
747.8591985232906
 20
82.36197883107928
 30
0.0
 11
747.8591985232906
 21
80.36197883112658
 31
0.0
  0
LINE
  5
9AD
102
{ACAD_REACTORS
330
C24
102
}
330
1F
100
AcDbEntity
  8
実線
100
AcDbLine
 10
702.8591985233088
 20
82.36197883107928
 30
0.0
 11
702.8591985233088
 21
80.36197883107929
 31
0.0
  0
LINE
  5
9AE
102
{ACAD_REACTORS
330
C24
102
}
330
1F
100
AcDbEntity
  8
実線
100
AcDbLine
 10
658.3591985233089
 20
97.36197883107928
 30
0.0
 11
797.3591985233087
 21
97.36197883107928
 31
0.0
  0
ARC
  5
9AF
102
{ACAD_REACTORS
330
C24
102
}
330
1F
100
AcDbEntity
  8
実線
100
AcDbCircle
 10
658.3591985233089
 20
100.3619788310793
 30
0.0
 40
3.0
100
AcDbArc
 50
180.0
 51
270.0
  0
ARC
  5
9B0
102
{ACAD_REACTORS
330
C24
102
}
330
1F
100
AcDbEntity
  8
実線
100
AcDbCircle
 10
797.3591985233087
 20
100.3619788310793
 30
0.0
 40
3.0
100
AcDbArc
 50
270.0
 51
0.0
  0
LINE
  5
9B1
102
{ACAD_REACTORS
330
C24
102
}
330
1F
100
AcDbEntity
  8
実線
100
AcDbLine
 10
655.3591985233087
 20
102.3619788310793
 30
0.0
 11
655.3591985233087
 21
100.3619788310793
 31
0.0
  0
LINE
  5
9B2
102
{ACAD_REACTORS
330
C24
102
}
330
1F
100
AcDbEntity
  8
実線
100
AcDbLine
 10
800.3591985233088
 20
100.3619788310793
 30
0.0
 11
800.3591985233088
 21
102.3619788310793
 31
0.0
  0
LINE
  5
9B3
102
{ACAD_REACTORS
330
C24
102
}
330
1F
100
AcDbEntity
  8
実線
100
AcDbLine
 10
899.8591985233089
 20
459.861978831113
 30
0.0
 11
899.8591985233089
 21
488.3619788310793
 31
0.0
  0
LINE
  5
9B4
102
{ACAD_REACTORS
330
C24
102
}
330
1F
100
AcDbEntity
  8
実線
100
AcDbLine
 10
689.8591985233088
 20
488.3619788310793
 30
0.0
 11
689.8591985233088
 21
459.861978831113
 31
0.0
  0
LINE
  5
9B5
102
{ACAD_REACTORS
330
C24
102
}
330
1F
100
AcDbEntity
  8
実線
100
AcDbLine
 10
899.8591985233089
 20
488.3619788310793
 30
0.0
 11
689.8591985233088
 21
488.3619788310793
 31
0.0
  0
LINE
  5
9B6
102
{ACAD_REACTORS
330
C24
102
}
330
1F
100
AcDbEntity
  8
実線
100
AcDbLine
 10
875.2938650508008
 20
459.861978831113
 30
0.0
 11
899.8591985233089
 21
459.861978831113
 31
0.0
  0
LINE
  5
9B7
102
{ACAD_REACTORS
330
C24
102
}
330
1F
100
AcDbEntity
  8
実線
100
AcDbLine
 10
835.6182924190989
 20
459.861978831113
 30
0.0
 11
871.8492456535939
 21
459.861978831113
 31
0.0
  0
LINE
  5
9B8
102
{ACAD_REACTORS
330
C26
102
}
330
1F
100
AcDbEntity
  8
実線
100
AcDbLine
 10
1079.159198523309
 20
618.1387468662812
 30
0.0
 11
1070.659198523308
 21
618.1387468662812
 31
0.0
  0
LINE
  5
9B9
102
{ACAD_REACTORS
330
C26
102
}
330
1F
100
AcDbEntity
  8
実線
100
AcDbLine
 10
1070.659198523308
 20
601.6387468662813
 30
0.0
 11
1079.159198523309
 21
601.6387468662813
 31
0.0
  0
LINE
  5
9BA
102
{ACAD_REACTORS
330
C26
102
}
330
1F
100
AcDbEntity
  8
実線
100
AcDbLine
 10
1070.659198523308
 20
618.1387468662812
 30
0.0
 11
1070.659198523308
 21
601.6387468662813
 31
0.0
  0
LINE
  5
9BB
102
{ACAD_REACTORS
330
C26
102
}
330
1F
100
AcDbEntity
  8
実線
100
AcDbLine
 10
1079.159198523309
 20
648.6173977428851
 30
0.0
 11
1070.659198523308
 21
648.6173977428851
 31
0.0
  0
LINE
  5
9BC
102
{ACAD_REACTORS
330
C26
102
}
330
1F
100
AcDbEntity
  8
実線
100
AcDbLine
 10
1070.659198523308
 20
632.1173977428851
 30
0.0
 11
1079.159198523309
 21
632.1173977428851
 31
0.0
  0
LINE
  5
9BD
102
{ACAD_REACTORS
330
C26
102
}
330
1F
100
AcDbEntity
  8
実線
100
AcDbLine
 10
1070.659198523308
 20
648.6173977428851
 30
0.0
 11
1070.659198523308
 21
632.1173977428851
 31
0.0
  0
LINE
  5
9BE
102
{ACAD_REACTORS
330
C26
102
}
330
1F
100
AcDbEntity
  8
実線
100
AcDbLine
 10
1374.659198523309
 20
597.6619788310793
 30
0.0
 11
1376.659198523309
 21
597.6619788310793
 31
0.0
  0
LINE
  5
9BF
102
{ACAD_REACTORS
330
C26
102
}
330
1F
100
AcDbEntity
  8
実線
100
AcDbLine
 10
1376.659198523309
 20
732.6619788310793
 30
0.0
 11
1374.659198523309
 21
732.6619788310793
 31
0.0
  0
LINE
  5
9C0
102
{ACAD_REACTORS
330
C26
102
}
330
1F
100
AcDbEntity
  8
実線
100
AcDbLine
 10
1374.659198523309
 20
732.6619788310793
 30
0.0
 11
1374.659198523309
 21
597.6619788310793
 31
0.0
  0
LINE
  5
9C1
102
{ACAD_REACTORS
330
C26
102
}
330
1F
100
AcDbEntity
  8
実線
100
AcDbLine
 10
1477.659198523309
 20
737.6619788310793
 30
0.0
 11
1477.659198523309
 21
592.6619788310794
 31
0.0
  0
LINE
  5
9C2
102
{ACAD_REACTORS
330
C26
102
}
330
1F
100
AcDbEntity
  8
実線
100
AcDbLine
 10
1376.659198523309
 20
592.6619788310794
 30
0.0
 11
1477.659198523309
 21
592.6619788310794
 31
0.0
  0
LINE
  5
9C3
102
{ACAD_REACTORS
330
C26
102
}
330
1F
100
AcDbEntity
  8
実線
100
AcDbLine
 10
1477.659198523309
 20
737.6619788310793
 30
0.0
 11
1376.659198523309
 21
737.6619788310793
 31
0.0
  0
LINE
  5
9C4
102
{ACAD_REACTORS
330
C26
102
}
330
1F
100
AcDbEntity
  8
実線
100
AcDbLine
 10
1376.659198523309
 20
737.6619788310793
 30
0.0
 11
1376.659198523309
 21
592.6619788310794
 31
0.0
  0
LINE
  5
9C5
102
{ACAD_REACTORS
330
C26
102
}
330
1F
100
AcDbEntity
  8
実線
100
AcDbLine
 10
1271.659198523308
 20
725.9416680089186
 30
0.0
 11
1271.659198523308
 21
604.3822896532406
 31
0.0
  0
LINE
  5
9C6
102
{ACAD_REACTORS
330
C26
102
}
330
1F
100
AcDbEntity
  8
実線
100
AcDbLine
 10
1258.159198523309
 20
604.3822896532406
 30
0.0
 11
1271.659198523308
 21
604.3822896532406
 31
0.0
  0
LINE
  5
9C7
102
{ACAD_REACTORS
330
C26
102
}
330
1F
100
AcDbEntity
  8
実線
100
AcDbLine
 10
1258.159198523309
 20
725.2619788310794
 30
0.0
 11
1258.159198523309
 21
725.9416680089186
 31
0.0
  0
LINE
  5
9C8
102
{ACAD_REACTORS
330
C26
102
}
330
1F
100
AcDbEntity
  8
実線
100
AcDbLine
 10
1271.659198523308
 20
725.9416680089186
 30
0.0
 11
1258.159198523309
 21
725.9416680089186
 31
0.0
  0
LINE
  5
9C9
102
{ACAD_REACTORS
330
C26
102
}
330
1F
100
AcDbEntity
  8
実線
100
AcDbLine
 10
1258.159198523309
 20
638.3520066811382
 30
0.0
 11
1271.659198523308
 21
638.3520066811382
 31
0.0
  0
LINE
  5
9CA
102
{ACAD_REACTORS
330
C26
102
}
330
1F
100
AcDbEntity
  8
実線
100
AcDbLine
 10
1258.159198523309
 20
691.9719509810205
 30
0.0
 11
1271.659198523308
 21
691.9719509810205
 31
0.0
  0
LINE
  5
9CB
102
{ACAD_REACTORS
330
C26
102
}
330
1F
100
AcDbEntity
  8
実線
100
AcDbLine
 10
1540.459198523309
 20
672.6619788310793
 30
0.0
 11
1540.459198523309
 21
657.6619788310793
 31
0.0
  0
LINE
  5
9CC
102
{ACAD_REACTORS
330
C26
102
}
330
1F
100
AcDbEntity
  8
実線
100
AcDbLine
 10
1537.659198523309
 20
657.6619788310793
 30
0.0
 11
1540.459198523309
 21
657.6619788310793
 31
0.0
  0
LINE
  5
9CD
102
{ACAD_REACTORS
330
C26
102
}
330
1F
100
AcDbEntity
  8
実線
100
AcDbLine
 10
1540.459198523309
 20
672.6619788310793
 30
0.0
 11
1535.159198523309
 21
672.6619788310793
 31
0.0
  0
LINE
  5
9CE
102
{ACAD_REACTORS
330
C26
102
}
330
1F
100
AcDbEntity
  8
実線
100
AcDbLine
 10
1535.159198523309
 20
670.1619788310793
 30
0.0
 11
1535.159198523309
 21
677.6619788310794
 31
0.0
  0
LINE
  5
9CF
102
{ACAD_REACTORS
330
C26
102
}
330
1F
100
AcDbEntity
  8
実線
100
AcDbLine
 10
1535.159198523309
 20
677.6619788310794
 30
0.0
 11
1530.159198523309
 21
677.6619788310794
 31
0.0
  0
LINE
  5
9D0
102
{ACAD_REACTORS
330
C26
102
}
330
1F
100
AcDbEntity
  8
実線
100
AcDbLine
 10
1530.159198523309
 20
677.6619788310794
 30
0.0
 11
1530.159198523309
 21
670.1619788310793
 31
0.0
  0
LINE
  5
9D1
102
{ACAD_REACTORS
330
C26
102
}
330
1F
100
AcDbEntity
  8
実線
100
AcDbLine
 10
1515.159198523309
 20
645.1619788310793
 30
0.0
 11
1515.159198523309
 21
638.6619788310794
 31
0.0
  0
LINE
  5
9D2
102
{ACAD_REACTORS
330
C26
102
}
330
1F
100
AcDbEntity
  8
実線
100
AcDbLine
 10
1518.159198523308
 20
638.6619788310794
 30
0.0
 11
1518.159198523308
 21
645.1619788310794
 31
0.0
  0
LINE
  5
9D3
102
{ACAD_REACTORS
330
C26
102
}
330
1F
100
AcDbEntity
  8
実線
100
AcDbLine
 10
1515.159198523309
 20
638.6619788310794
 30
0.0
 11
1518.159198523308
 21
638.6619788310794
 31
0.0
  0
LINE
  5
9D4
102
{ACAD_REACTORS
330
C26
102
}
330
1F
100
AcDbEntity
  8
実線
100
AcDbLine
 10
1512.709198523309
 20
650.1619788310794
 30
0.0
 11
1512.709198523309
 21
645.1619788310793
 31
0.0
  0
LINE
  5
9D5
102
{ACAD_REACTORS
330
C26
102
}
330
1F
100
AcDbEntity
  8
実線
100
AcDbLine
 10
1512.709198523309
 20
645.1619788310793
 30
0.0
 11
1520.609198523309
 21
645.1619788310793
 31
0.0
  0
LINE
  5
9D6
102
{ACAD_REACTORS
330
C26
102
}
330
1F
100
AcDbEntity
  8
実線
100
AcDbLine
 10
1520.609198523309
 20
650.1619788310794
 30
0.0
 11
1520.609198523309
 21
645.1619788310793
 31
0.0
  0
LINE
  5
9D7
102
{ACAD_REACTORS
330
C26
102
}
330
1F
100
AcDbEntity
  8
実線
100
AcDbLine
 10
1531.159198523309
 20
645.1619788310793
 30
0.0
 11
1531.159198523309
 21
638.6619788310794
 31
0.0
  0
LINE
  5
9D8
102
{ACAD_REACTORS
330
C26
102
}
330
1F
100
AcDbEntity
  8
実線
100
AcDbLine
 10
1534.159198523308
 20
638.6619788310794
 30
0.0
 11
1534.159198523308
 21
645.1619788310794
 31
0.0
  0
LINE
  5
9D9
102
{ACAD_REACTORS
330
C26
102
}
330
1F
100
AcDbEntity
  8
実線
100
AcDbLine
 10
1531.159198523309
 20
638.6619788310794
 30
0.0
 11
1534.159198523308
 21
638.6619788310794
 31
0.0
  0
LINE
  5
9DA
102
{ACAD_REACTORS
330
C26
102
}
330
1F
100
AcDbEntity
  8
実線
100
AcDbLine
 10
1497.659198523308
 20
690.1619788310794
 30
0.0
 11
1497.659198523308
 21
655.3640198599468
 31
0.0
  0
LINE
  5
9DB
102
{ACAD_REACTORS
330
C26
102
}
330
1F
100
AcDbEntity
  8
実線
100
AcDbLine
 10
1492.659198523309
 20
640.1619788310794
 30
0.0
 11
1497.659198523308
 21
640.1619788310794
 31
0.0
  0
LINE
  5
9DC
102
{ACAD_REACTORS
330
C26
102
}
330
1F
100
AcDbEntity
  8
実線
100
AcDbLine
 10
1497.659198523308
 20
690.1619788310794
 30
0.0
 11
1492.659198523309
 21
690.1619788310794
 31
0.0
  0
LINE
  5
9DD
102
{ACAD_REACTORS
330
C26
102
}
330
1F
100
AcDbEntity
  8
実線
100
AcDbLine
 10
1528.709198523309
 20
645.1619788310793
 30
0.0
 11
1536.609198523308
 21
645.1619788310793
 31
0.0
  0
LINE
  5
9DE
102
{ACAD_REACTORS
330
C26
102
}
330
1F
100
AcDbEntity
  8
実線
100
AcDbLine
 10
1536.609198523308
 20
650.1619788310794
 30
0.0
 11
1536.609198523308
 21
645.1619788310793
 31
0.0
  0
LINE
  5
9DF
102
{ACAD_REACTORS
330
C26
102
}
330
1F
100
AcDbEntity
  8
実線
100
AcDbLine
 10
1528.709198523309
 20
650.1619788310794
 30
0.0
 11
1528.709198523309
 21
645.1619788310793
 31
0.0
  0
LINE
  5
9E0
102
{ACAD_REACTORS
330
C26
102
}
330
1F
100
AcDbEntity
  8
実線
100
AcDbLine
 10
1530.159198523309
 20
673.1619788310794
 30
0.0
 11
1499.659198523309
 21
673.1619788310794
 31
0.0
  0
LINE
  5
9E1
102
{ACAD_REACTORS
330
C26
102
}
330
1F
100
AcDbEntity
  8
実線
100
AcDbLine
 10
1492.659198523309
 20
711.1619788310792
 30
0.0
 11
1492.659198523309
 21
619.1619788310794
 31
0.0
  0
LINE
  5
9E2
102
{ACAD_REACTORS
330
C26
102
}
330
1F
100
AcDbEntity
  8
実線
100
AcDbLine
 10
1482.659198523309
 20
619.1619788310794
 30
0.0
 11
1492.659198523309
 21
619.1619788310794
 31
0.0
  0
LINE
  5
9E3
102
{ACAD_REACTORS
330
C26
102
}
330
1F
100
AcDbEntity
  8
実線
100
AcDbLine
 10
1492.659198523309
 20
711.1619788310792
 30
0.0
 11
1482.659198523309
 21
711.1619788310792
 31
0.0
  0
LINE
  5
9E4
102
{ACAD_REACTORS
330
C26
102
}
330
1F
100
AcDbEntity
  8
実線
100
AcDbLine
 10
1079.159198523309
 20
715.3530547835516
 30
0.0
 11
1070.659198523308
 21
715.3530547835516
 31
0.0
  0
LINE
  5
9E5
102
{ACAD_REACTORS
330
C26
102
}
330
1F
100
AcDbEntity
  8
実線
100
AcDbLine
 10
1070.659198523308
 20
698.8530547835516
 30
0.0
 11
1079.159198523309
 21
698.8530547835516
 31
0.0
  0
LINE
  5
9E6
102
{ACAD_REACTORS
330
C26
102
}
330
1F
100
AcDbEntity
  8
実線
100
AcDbLine
 10
1070.659198523308
 20
715.3530547835516
 30
0.0
 11
1070.659198523308
 21
698.8530547835516
 31
0.0
  0
LINE
  5
9E7
102
{ACAD_REACTORS
330
C26
102
}
330
1F
100
AcDbEntity
  8
実線
100
AcDbLine
 10
1079.159198523309
 20
779.2528751877385
 30
0.0
 11
1070.659198523308
 21
779.2528751877385
 31
0.0
  0
LINE
  5
9E8
102
{ACAD_REACTORS
330
C26
102
}
330
1F
100
AcDbEntity
  8
実線
100
AcDbLine
 10
1070.659198523308
 20
762.7528751877385
 30
0.0
 11
1079.159198523309
 21
762.7528751877385
 31
0.0
  0
LINE
  5
9E9
102
{ACAD_REACTORS
330
C26
102
}
330
1F
100
AcDbEntity
  8
実線
100
AcDbLine
 10
1070.659198523308
 20
779.2528751877385
 30
0.0
 11
1070.659198523308
 21
762.7528751877385
 31
0.0
  0
ELLIPSE
  5
9EA
102
{ACAD_REACTORS
330
C26
102
}
330
1F
100
AcDbEntity
  8
実線
100
AcDbEllipse
 10
1159.159198523308
 20
768.7510062072299
 30
0.0
 11
6.0
 21
0.0
 31
0.0
210
0.0
220
0.0
230
1.0
 40
0.8660254037844401
 41
3.141592653589792
 42
4.71238898038469
  0
LINE
  5
9EB
102
{ACAD_REACTORS
330
C26
102
}
330
1F
100
AcDbEntity
  8
実線
100
AcDbLine
 10
1153.159198523309
 20
768.7510062072299
 30
0.0
 11
1153.159198523309
 21
750.7510062072302
 31
0.0
  0
LINE
  5
9EC
102
{ACAD_REACTORS
330
C26
102
}
330
1F
100
AcDbEntity
  8
実線
100
AcDbLine
 10
1165.159198523308
 20
750.7510062072302
 30
0.0
 11
1165.159198523308
 21
768.7510062072299
 31
0.0
  0
ELLIPSE
  5
9ED
102
{ACAD_REACTORS
330
C26
102
}
330
1F
100
AcDbEntity
  8
実線
100
AcDbEllipse
 10
1159.159198523308
 20
737.75100620723
 30
0.0
 11
6.0
 21
0.0
 31
0.0
210
0.0
220
0.0
230
1.0
 40
0.8660254037844401
 41
4.492033146900847
 42
4.932744813868528
  0
ELLIPSE
  5
9EE
102
{ACAD_REACTORS
330
C26
102
}
330
1F
100
AcDbEntity
  8
実線
100
AcDbEllipse
 10
1159.159198523308
 20
768.7510062072299
 30
0.0
 11
6.0
 21
0.0
 31
0.0
210
0.0
220
0.0
230
1.0
 40
0.8660254037844401
 41
0.0
 42
3.141592653589792
  0
ELLIPSE
  5
9EF
102
{ACAD_REACTORS
330
C26
102
}
330
1F
100
AcDbEntity
  8
実線
100
AcDbEllipse
 10
1159.159198523308
 20
768.7510062072299
 30
0.0
 11
6.0
 21
0.0
 31
0.0
210
0.0
220
0.0
230
1.0
 40
0.8660254037844401
 41
4.71238898038469
 42
6.283185307179584
  0
LINE
  5
9F0
102
{ACAD_REACTORS
330
C26
102
}
330
1F
100
AcDbEntity
  8
実線
100
AcDbLine
 10
1189.759198523308
 20
725.2619788310794
 30
0.0
 11
1189.759198523308
 21
774.7619788310794
 31
0.0
  0
LINE
  5
9F1
102
{ACAD_REACTORS
330
C26
102
}
330
1F
100
AcDbEntity
  8
実線
100
AcDbLine
 10
1189.759198523308
 20
774.7619788310794
 30
0.0
 11
1142.159198523309
 21
774.7619788310794
 31
0.0
  0
CIRCLE
  5
9F2
102
{ACAD_REACTORS
330
C26
102
}
330
1F
100
AcDbEntity
  8
実線
100
AcDbCircle
 10
1217.659198523309
 20
651.2619788310794
 30
0.0
 40
38.75
  0
LINE
  5
9F3
102
{ACAD_REACTORS
330
C26
102
}
330
1F
100
AcDbEntity
  8
実線
100
AcDbLine
 10
1079.159198523309
 20
802.8852107958776
 30
0.0
 11
1070.659198523308
 21
802.8852107958776
 31
0.0
  0
LINE
  5
9F4
102
{ACAD_REACTORS
330
C26
102
}
330
1F
100
AcDbEntity
  8
実線
100
AcDbLine
 10
1070.659198523308
 20
786.3852107958773
 30
0.0
 11
1079.159198523309
 21
786.3852107958773
 31
0.0
  0
LINE
  5
9F5
102
{ACAD_REACTORS
330
C26
102
}
330
1F
100
AcDbEntity
  8
実線
100
AcDbLine
 10
1070.659198523308
 20
802.8852107958776
 30
0.0
 11
1070.659198523308
 21
786.3852107958773
 31
0.0
  0
LINE
  5
9F6
102
{ACAD_REACTORS
330
C26
102
}
330
1F
100
AcDbEntity
  8
実線
100
AcDbLine
 10
1070.659198523308
 20
755.9065599192741
 30
0.0
 11
1079.159198523309
 21
755.9065599192741
 31
0.0
  0
LINE
  5
9F7
102
{ACAD_REACTORS
330
C26
102
}
330
1F
100
AcDbEntity
  8
実線
100
AcDbLine
 10
1070.659198523308
 20
762.7528751877385
 30
0.0
 11
1070.659198523308
 21
755.9065599192741
 31
0.0
  0
LINE
  5
9F8
102
{ACAD_REACTORS
330
C26
102
}
330
1F
100
AcDbEntity
  8
実線
100
AcDbLine
 10
1070.659198523308
 20
689.1709028786071
 30
0.0
 11
1079.159198523309
 21
689.1709028786071
 31
0.0
  0
LINE
  5
9F9
102
{ACAD_REACTORS
330
C26
102
}
330
1F
100
AcDbEntity
  8
実線
100
AcDbLine
 10
1070.659198523308
 20
698.8530547835516
 30
0.0
 11
1070.659198523308
 21
689.1709028786071
 31
0.0
  0
LINE
  5
9FA
102
{ACAD_REACTORS
330
C26
102
}
330
1F
100
AcDbEntity
  8
実線
100
AcDbLine
 10
1070.659198523308
 20
625.2710824744204
 30
0.0
 11
1079.159198523309
 21
625.2710824744204
 31
0.0
  0
LINE
  5
9FB
102
{ACAD_REACTORS
330
C26
102
}
330
1F
100
AcDbEntity
  8
実線
100
AcDbLine
 10
1070.659198523308
 20
632.1173977428851
 30
0.0
 11
1070.659198523308
 21
625.2710824744204
 31
0.0
  0
LINE
  5
9FC
102
{ACAD_REACTORS
330
C26
102
}
330
1F
100
AcDbEntity
  8
実線
100
AcDbLine
 10
1091.659198523309
 20
621.8887468662813
 30
0.0
 11
1079.159198523309
 21
621.8887468662813
 31
0.0
  0
LINE
  5
9FD
102
{ACAD_REACTORS
330
C26
102
}
330
1F
100
AcDbEntity
  8
実線
100
AcDbLine
 10
1079.159198523309
 20
597.8887468662813
 30
0.0
 11
1091.659198523309
 21
597.8887468662813
 31
0.0
  0
LINE
  5
9FE
102
{ACAD_REACTORS
330
C26
102
}
330
1F
100
AcDbEntity
  8
実線
100
AcDbLine
 10
1079.159198523309
 20
621.8887468662813
 30
0.0
 11
1079.159198523309
 21
597.8887468662813
 31
0.0
  0
LINE
  5
9FF
102
{ACAD_REACTORS
330
C26
102
}
330
1F
100
AcDbEntity
  8
実線
100
AcDbLine
 10
1079.159198523309
 20
628.3673977428851
 30
0.0
 11
1079.159198523309
 21
621.8887468662813
 31
0.0
  0
LINE
  5
A00
102
{ACAD_REACTORS
330
C26
102
}
330
1F
100
AcDbEntity
  8
実線
100
AcDbLine
 10
1091.659198523309
 20
783.0028751877384
 30
0.0
 11
1079.159198523309
 21
783.0028751877384
 31
0.0
  0
LINE
  5
A01
102
{ACAD_REACTORS
330
C26
102
}
330
1F
100
AcDbEntity
  8
実線
100
AcDbLine
 10
1079.159198523309
 20
759.0028751877384
 30
0.0
 11
1091.659198523309
 21
759.0028751877384
 31
0.0
  0
LINE
  5
A02
102
{ACAD_REACTORS
330
C26
102
}
330
1F
100
AcDbEntity
  8
実線
100
AcDbLine
 10
1079.159198523309
 20
783.0028751877384
 30
0.0
 11
1079.159198523309
 21
759.0028751877384
 31
0.0
  0
LINE
  5
A03
102
{ACAD_REACTORS
330
C26
102
}
330
1F
100
AcDbEntity
  8
実線
100
AcDbLine
 10
1079.159198523309
 20
752.156559919274
 30
0.0
 11
1091.659198523309
 21
752.156559919274
 31
0.0
  0
LINE
  5
A04
102
{ACAD_REACTORS
330
C26
102
}
330
1F
100
AcDbEntity
  8
実線
100
AcDbLine
 10
1079.159198523309
 20
759.0028751877384
 30
0.0
 11
1079.159198523309
 21
752.156559919274
 31
0.0
  0
LINE
  5
A05
102
{ACAD_REACTORS
330
C26
102
}
330
1F
100
AcDbEntity
  8
実線
100
AcDbLine
 10
1091.659198523309
 20
652.3673977428851
 30
0.0
 11
1079.159198523309
 21
652.3673977428851
 31
0.0
  0
LINE
  5
A06
102
{ACAD_REACTORS
330
C26
102
}
330
1F
100
AcDbEntity
  8
実線
100
AcDbLine
 10
1079.159198523309
 20
628.3673977428851
 30
0.0
 11
1091.659198523309
 21
628.3673977428851
 31
0.0
  0
LINE
  5
A07
102
{ACAD_REACTORS
330
C26
102
}
330
1F
100
AcDbEntity
  8
実線
100
AcDbLine
 10
1079.159198523309
 20
652.3673977428851
 30
0.0
 11
1079.159198523309
 21
628.3673977428851
 31
0.0
  0
LINE
  5
A08
102
{ACAD_REACTORS
330
C26
102
}
330
1F
100
AcDbEntity
  8
実線
100
AcDbLine
 10
1120.159198523309
 20
597.2619788310794
 30
0.0
 11
1258.159198523309
 21
597.2619788310794
 31
0.0
  0
LINE
  5
A09
102
{ACAD_REACTORS
330
C26
102
}
330
1F
100
AcDbEntity
  8
実線
100
AcDbLine
 10
1120.159198523274
 20
630.8649715907446
 30
0.0
 11
1120.159198523274
 21
634.7692798139926
 31
0.0
  0
LINE
  5
A0A
102
{ACAD_REACTORS
330
C26
102
}
330
1F
100
AcDbEntity
  8
実線
100
AcDbLine
 10
1120.159198523309
 20
597.2619788310794
 30
0.0
 11
1120.159198523309
 21
605.4957850194277
 31
0.0
  0
LINE
  5
A0B
102
{ACAD_REACTORS
330
C26
102
}
330
1F
100
AcDbEntity
  8
実線
100
AcDbLine
 10
1120.159198523309
 20
632.7665029616131
 30
0.0
 11
1180.159198523309
 21
632.7665029616131
 31
0.0
  0
LINE
  5
A0C
102
{ACAD_REACTORS
330
C26
102
}
330
1F
100
AcDbEntity
  8
実線
100
AcDbLine
 10
1258.159198523309
 20
725.2619788310794
 30
0.0
 11
1142.159198523309
 21
725.2619788310794
 31
0.0
  0
LINE
  5
A0D
102
{ACAD_REACTORS
330
C26
102
}
330
1F
100
AcDbEntity
  8
実線
100
AcDbLine
 10
1142.159198523309
 20
725.2619788310794
 30
0.0
 11
1142.159198523309
 21
807.2619788310793
 31
0.0
  0
LINE
  5
A0E
102
{ACAD_REACTORS
330
C26
102
}
330
1F
100
AcDbEntity
  8
実線
100
AcDbLine
 10
1120.159198523309
 20
702.2619788310794
 30
0.0
 11
1180.159198523309
 21
702.2619788310794
 31
0.0
  0
LINE
  5
A0F
102
{ACAD_REACTORS
330
C26
102
}
330
1F
100
AcDbEntity
  8
実線
100
AcDbLine
 10
1258.159198523309
 20
725.2619788310794
 30
0.0
 11
1258.159198523309
 21
597.2619788310794
 31
0.0
  0
LINE
  5
A10
102
{ACAD_REACTORS
330
C26
102
}
330
1F
100
AcDbEntity
  8
実線
100
AcDbLine
 10
1142.159198523309
 20
807.2619788310793
 30
0.0
 11
1120.159198523309
 21
807.2619788310793
 31
0.0
  0
LINE
  5
A11
102
{ACAD_REACTORS
330
C26
102
}
330
1F
100
AcDbEntity
  8
実線
100
AcDbLine
 10
1180.159198523309
 20
661.0247909259629
 30
0.0
 11
1180.159198523309
 21
702.2619788310793
 31
0.0
  0
LINE
  5
A12
102
{ACAD_REACTORS
330
C26
102
}
330
1F
100
AcDbEntity
  8
実線
100
AcDbLine
 10
1180.159198523309
 20
597.2619788310794
 30
0.0
 11
1180.159198523309
 21
641.499166736196
 31
0.0
  0
LINE
  5
A13
102
{ACAD_REACTORS
330
C26
102
}
330
1F
100
AcDbEntity
  8
実線
100
AcDbLine
 10
1374.659198523309
 20
715.1619788310794
 30
0.0
 11
1309.659198523309
 21
715.1619788310794
 31
0.0
  0
LINE
  5
A14
102
{ACAD_REACTORS
330
C26
102
}
330
1F
100
AcDbEntity
  8
実線
100
AcDbLine
 10
1309.659198523309
 20
678.6619788310794
 30
0.0
 11
1309.659198523309
 21
715.1619788310794
 31
0.0
  0
LINE
  5
A15
102
{ACAD_REACTORS
330
C26
102
}
330
1F
100
AcDbEntity
  8
実線
100
AcDbLine
 10
1309.659198523309
 20
651.6619788310793
 30
0.0
 11
1309.659198523309
 21
615.1619788310794
 31
0.0
  0
LINE
  5
A16
102
{ACAD_REACTORS
330
C26
102
}
330
1F
100
AcDbEntity
  8
実線
100
AcDbLine
 10
1309.659198523309
 20
615.1619788310794
 30
0.0
 11
1374.659198523309
 21
615.1619788310794
 31
0.0
  0
LINE
  5
A17
102
{ACAD_REACTORS
330
C26
102
}
330
1F
100
AcDbEntity
  8
実線
100
AcDbLine
 10
1374.659198523309
 20
651.6619788310793
 30
0.0
 11
1271.659198523308
 21
651.6619788310793
 31
0.0
  0
LINE
  5
A18
102
{ACAD_REACTORS
330
C26
102
}
330
1F
100
AcDbEntity
  8
実線
100
AcDbLine
 10
1374.659198523309
 20
678.6619788310794
 30
0.0
 11
1271.659198523308
 21
678.6619788310794
 31
0.0
  0
LINE
  5
A19
102
{ACAD_REACTORS
330
C26
102
}
330
1F
100
AcDbEntity
  8
実線
100
AcDbLine
 10
1143.659198523309
 20
725.9304981315414
 30
0.0
 11
1143.659198523309
 21
732.6804981315413
 31
0.0
  0
LINE
  5
A1A
102
{ACAD_REACTORS
330
C26
102
}
330
1F
100
AcDbEntity
  8
実線
100
AcDbLine
 10
1143.659198523309
 20
732.6804981315413
 30
0.0
 11
1172.159198523309
 21
732.6804981315413
 31
0.0
  0
LINE
  5
A1B
102
{ACAD_REACTORS
330
C26
102
}
330
1F
100
AcDbEntity
  8
実線
100
AcDbLine
 10
1172.159198523309
 20
732.6804981315413
 30
0.0
 11
1172.159198523309
 21
768.071514282919
 31
0.0
  0
LINE
  5
A1C
102
{ACAD_REACTORS
330
C26
102
}
330
1F
100
AcDbEntity
  8
実線
100
AcDbLine
 10
1142.159198523309
 20
725.9304981315414
 30
0.0
 11
1143.659198523309
 21
725.9304981315414
 31
0.0
  0
LINE
  5
A1D
102
{ACAD_REACTORS
330
C26
102
}
330
1F
100
AcDbEntity
  8
実線
100
AcDbLine
 10
1142.159198523309
 20
733.4304981315413
 30
0.0
 11
1172.159198523309
 21
733.4304981315413
 31
0.0
  0
LINE
  5
A1E
102
{ACAD_REACTORS
330
C26
102
}
330
1F
100
AcDbEntity
  8
実線
100
AcDbLine
 10
1165.159198523308
 20
768.071514282919
 30
0.0
 11
1172.159198523309
 21
768.071514282919
 31
0.0
  0
LINE
  5
A1F
102
{ACAD_REACTORS
330
C26
102
}
330
1F
100
AcDbEntity
  8
実線
100
AcDbLine
 10
1142.159198523309
 20
768.071514282919
 30
0.0
 11
1153.159198523309
 21
768.071514282919
 31
0.0
  0
LINE
  5
A20
102
{ACAD_REACTORS
330
C26
102
}
330
1F
100
AcDbEntity
  8
実線
100
AcDbLine
 10
1091.659198523309
 20
719.1030547835517
 30
0.0
 11
1079.159198523309
 21
719.1030547835517
 31
0.0
  0
LINE
  5
A21
102
{ACAD_REACTORS
330
C26
102
}
330
1F
100
AcDbEntity
  8
実線
100
AcDbLine
 10
1079.159198523309
 20
695.1030547835516
 30
0.0
 11
1091.659198523309
 21
695.1030547835516
 31
0.0
  0
LINE
  5
A22
102
{ACAD_REACTORS
330
C26
102
}
330
1F
100
AcDbEntity
  8
実線
100
AcDbLine
 10
1079.159198523309
 20
719.1030547835517
 30
0.0
 11
1079.159198523309
 21
695.1030547835516
 31
0.0
  0
LINE
  5
A23
102
{ACAD_REACTORS
330
C26
102
}
330
1F
100
AcDbEntity
  8
実線
100
AcDbLine
 10
1091.659198523309
 20
806.6352107958774
 30
0.0
 11
1079.159198523309
 21
806.6352107958774
 31
0.0
  0
LINE
  5
A24
102
{ACAD_REACTORS
330
C26
102
}
330
1F
100
AcDbEntity
  8
実線
100
AcDbLine
 10
1079.159198523309
 20
806.6352107958774
 30
0.0
 11
1079.159198523309
 21
783.0028751877384
 31
0.0
  0
LINE
  5
A25
102
{ACAD_REACTORS
330
C26
102
}
330
1F
100
AcDbEntity
  8
実線
100
AcDbLine
 10
1079.159198523309
 20
685.4209028786071
 30
0.0
 11
1091.659198523309
 21
685.4209028786071
 31
0.0
  0
LINE
  5
A26
102
{ACAD_REACTORS
330
C26
102
}
330
1F
100
AcDbEntity
  8
実線
100
AcDbLine
 10
1079.159198523309
 20
695.1030547835516
 30
0.0
 11
1079.159198523309
 21
685.4209028786071
 31
0.0
  0
LINE
  5
A27
102
{ACAD_REACTORS
330
C26
102
}
330
1F
100
AcDbEntity
  8
実線
100
AcDbLine
 10
1497.659198523308
 20
640.1619788310794
 30
0.0
 11
1497.659198523308
 21
655.3640198599468
 31
0.0
  0
LINE
  5
A28
102
{ACAD_REACTORS
330
C26
102
}
330
1F
100
AcDbEntity
  8
実線
100
AcDbLine
 10
1499.659198523309
 20
690.1619788310794
 30
0.0
 11
1499.659198523309
 21
670.1619788310793
 31
0.0
  0
LINE
  5
A29
102
{ACAD_REACTORS
330
C26
102
}
330
1F
100
AcDbEntity
  8
実線
100
AcDbLine
 10
1497.659198523308
 20
640.1619788310794
 30
0.0
 11
1499.659198523309
 21
640.1619788310794
 31
0.0
  0
LINE
  5
A2A
102
{ACAD_REACTORS
330
C26
102
}
330
1F
100
AcDbEntity
  8
実線
100
AcDbLine
 10
1499.659198523309
 20
690.1619788310794
 30
0.0
 11
1497.659198523308
 21
690.1619788310794
 31
0.0
  0
LINE
  5
A2B
102
{ACAD_REACTORS
330
C26
102
}
330
1F
100
AcDbEntity
  8
実線
100
AcDbLine
 10
1499.659198523309
 20
640.1619788310794
 30
0.0
 11
1499.65919852326
 21
650.1619788310794
 31
0.0
  0
LINE
  5
A2C
102
{ACAD_REACTORS
330
C26
102
}
330
1F
100
AcDbEntity
  8
実線
100
AcDbLine
 10
1499.659198523309
 20
680.1619788310794
 30
0.0
 11
1497.659198523308
 21
680.1619788310794
 31
0.0
  0
LINE
  5
A2D
102
{ACAD_REACTORS
330
C26
102
}
330
1F
100
AcDbEntity
  8
実線
100
AcDbLine
 10
1497.659198523308
 20
670.1619788310793
 30
0.0
 11
1537.659198523309
 21
670.1619788310793
 31
0.0
  0
LINE
  5
A2E
102
{ACAD_REACTORS
330
C26
102
}
330
1F
100
AcDbEntity
  8
実線
100
AcDbLine
 10
1497.659198523308
 20
650.1619788310794
 30
0.0
 11
1537.659198523309
 21
650.1619788310794
 31
0.0
  0
LINE
  5
A2F
102
{ACAD_REACTORS
330
C26
102
}
330
1F
100
AcDbEntity
  8
実線
100
AcDbLine
 10
1537.659198523309
 20
650.1619788310794
 30
0.0
 11
1537.659198523309
 21
670.1619788310793
 31
0.0
  0
LINE
  5
A30
102
{ACAD_REACTORS
330
C26
102
}
330
1F
100
AcDbEntity
  8
実線
100
AcDbLine
 10
1482.659198523309
 20
734.6619788305274
 30
0.0
 11
1482.659198523309
 21
595.6619788310794
 31
0.0
  0
ARC
  5
A31
102
{ACAD_REACTORS
330
C26
102
}
330
1F
100
AcDbEntity
  8
実線
100
AcDbCircle
 10
1479.659198523308
 20
595.6619788310794
 30
0.0
 40
3.0
100
AcDbArc
 50
270.0
 51
0.0
  0
ARC
  5
A32
102
{ACAD_REACTORS
330
C26
102
}
330
1F
100
AcDbEntity
  8
実線
100
AcDbCircle
 10
1479.659198523308
 20
734.6619788310793
 30
0.0
 40
3.0
100
AcDbArc
 50
0.0
 51
90.0
  0
LINE
  5
A33
102
{ACAD_REACTORS
330
C26
102
}
330
1F
100
AcDbEntity
  8
実線
100
AcDbLine
 10
1477.659198523309
 20
592.6619788310794
 30
0.0
 11
1479.659198523308
 21
592.6619788310794
 31
0.0
  0
LINE
  5
A34
102
{ACAD_REACTORS
330
C26
102
}
330
1F
100
AcDbEntity
  8
実線
100
AcDbLine
 10
1479.659198523308
 20
737.6619788310793
 30
0.0
 11
1477.659198523309
 21
737.6619788310793
 31
0.0
  0
LINE
  5
A35
102
{ACAD_REACTORS
330
C26
102
}
330
1F
100
AcDbEntity
  8
実線
100
AcDbLine
 10
1120.159198523274
 20
807.2619788310793
 30
0.0
 11
1120.159198523274
 21
634.7692798139926
 31
0.0
  0
LINE
  5
A36
102
{ACAD_REACTORS
330
C26
102
}
330
1F
100
AcDbEntity
  8
実線
100
AcDbLine
 10
1120.159198523274
 20
807.2619788310793
 30
0.0
 11
1091.659198523309
 21
807.2619788310793
 31
0.0
  0
LINE
  5
A37
102
{ACAD_REACTORS
330
C26
102
}
330
1F
100
AcDbEntity
  8
実線
100
AcDbLine
 10
1091.659198523309
 20
597.2619788310794
 30
0.0
 11
1120.159198523274
 21
597.2619788310794
 31
0.0
  0
LINE
  5
A38
102
{ACAD_REACTORS
330
C26
102
}
330
1F
100
AcDbEntity
  8
実線
100
AcDbLine
 10
1091.659198523309
 20
807.2619788310793
 30
0.0
 11
1091.659198523309
 21
597.2619788310794
 31
0.0
  0
LINE
  5
A39
102
{ACAD_REACTORS
330
C26
102
}
330
1F
100
AcDbEntity
  8
実線
100
AcDbLine
 10
1120.159198523274
 20
605.4957850194277
 30
0.0
 11
1120.159198523274
 21
630.8649715907446
 31
0.0
  0
LINE
  5
A3A
102
{ACAD_REACTORS
330
C22
102
}
330
1F
100
AcDbEntity
  8
実線
100
AcDbLine
 10
512.0591985233089
 20
618.1387468662812
 30
0.0
 11
512.0591985233089
 21
601.6387468662813
 31
0.0
  0
LINE
  5
A3B
102
{ACAD_REACTORS
330
C22
102
}
330
1F
100
AcDbEntity
  8
実線
100
AcDbLine
 10
503.5591985233089
 20
601.6387468662813
 30
0.0
 11
512.0591985233089
 21
601.6387468662813
 31
0.0
  0
LINE
  5
A3C
102
{ACAD_REACTORS
330
C22
102
}
330
1F
100
AcDbEntity
  8
実線
100
AcDbLine
 10
512.0591985233089
 20
618.1387468662812
 30
0.0
 11
503.5591985233089
 21
618.1387468662812
 31
0.0
  0
LINE
  5
A3D
102
{ACAD_REACTORS
330
C22
102
}
330
1F
100
AcDbEntity
  8
実線
100
AcDbLine
 10
512.0591985233089
 20
641.7710824744204
 30
0.0
 11
512.0591985233089
 21
648.6173977428851
 31
0.0
  0
LINE
  5
A3E
102
{ACAD_REACTORS
330
C22
102
}
330
1F
100
AcDbEntity
  8
実線
100
AcDbLine
 10
512.0591985233089
 20
648.6173977428851
 30
0.0
 11
503.5591985233089
 21
648.6173977428851
 31
0.0
  0
LINE
  5
A3F
102
{ACAD_REACTORS
330
C22
102
}
330
1F
100
AcDbEntity
  8
実線
100
AcDbLine
 10
208.0591985233089
 20
732.6619788310793
 30
0.0
 11
208.0591985233089
 21
597.6619788310793
 31
0.0
  0
LINE
  5
A40
102
{ACAD_REACTORS
330
C22
102
}
330
1F
100
AcDbEntity
  8
実線
100
AcDbLine
 10
208.0591985233089
 20
732.6619788310793
 30
0.0
 11
206.0591985233089
 21
732.6619788310793
 31
0.0
  0
LINE
  5
A41
102
{ACAD_REACTORS
330
C22
102
}
330
1F
100
AcDbEntity
  8
実線
100
AcDbLine
 10
206.0591985233089
 20
597.6619788310793
 30
0.0
 11
208.0591985233089
 21
597.6619788310793
 31
0.0
  0
LINE
  5
A42
102
{ACAD_REACTORS
330
C22
102
}
330
1F
100
AcDbEntity
  8
実線
100
AcDbLine
 10
206.0591985233089
 20
737.6619788310793
 30
0.0
 11
206.0591985233089
 21
592.6619788310794
 31
0.0
  0
LINE
  5
A43
102
{ACAD_REACTORS
330
C22
102
}
330
1F
100
AcDbEntity
  8
実線
100
AcDbLine
 10
206.0591985233089
 20
737.6619788310793
 30
0.0
 11
105.0591985233089
 21
737.6619788310793
 31
0.0
  0
LINE
  5
A44
102
{ACAD_REACTORS
330
C22
102
}
330
1F
100
AcDbEntity
  8
実線
100
AcDbLine
 10
105.0591985233089
 20
592.6619788310794
 30
0.0
 11
206.0591985233089
 21
592.6619788310794
 31
0.0
  0
LINE
  5
A45
102
{ACAD_REACTORS
330
C22
102
}
330
1F
100
AcDbEntity
  8
実線
100
AcDbLine
 10
105.0591985233089
 20
737.6619788310793
 30
0.0
 11
105.0591985233089
 21
592.6619788310794
 31
0.0
  0
LINE
  5
A46
102
{ACAD_REACTORS
330
C22
102
}
330
1F
100
AcDbEntity
  8
実線
100
AcDbLine
 10
311.059198523309
 20
604.3822896532407
 30
0.0
 11
311.059198523309
 21
725.9416680089183
 31
0.0
  0
LINE
  5
A47
102
{ACAD_REACTORS
330
C22
102
}
330
1F
100
AcDbEntity
  8
実線
100
AcDbLine
 10
324.5591985233091
 20
725.9416680089183
 30
0.0
 11
311.059198523309
 21
725.9416680089183
 31
0.0
  0
LINE
  5
A48
102
{ACAD_REACTORS
330
C22
102
}
330
1F
100
AcDbEntity
  8
実線
100
AcDbLine
 10
324.5591985233091
 20
725.9416680089183
 30
0.0
 11
324.5591985233091
 21
725.2619788310794
 31
0.0
  0
LINE
  5
A49
102
{ACAD_REACTORS
330
C22
102
}
330
1F
100
AcDbEntity
  8
実線
100
AcDbLine
 10
311.059198523309
 20
604.3822896532406
 30
0.0
 11
324.5591985233091
 21
604.3822896532406
 31
0.0
  0
LINE
  5
A4A
102
{ACAD_REACTORS
330
C22
102
}
330
1F
100
AcDbEntity
  8
実線
100
AcDbLine
 10
324.5591985233091
 20
691.9719509810205
 30
0.0
 11
311.059198523309
 21
691.9719509810205
 31
0.0
  0
LINE
  5
A4B
102
{ACAD_REACTORS
330
C22
102
}
330
1F
100
AcDbEntity
  8
実線
100
AcDbLine
 10
324.5591985233091
 20
638.3520066811382
 30
0.0
 11
311.059198523309
 21
638.3520066811382
 31
0.0
  0
LINE
  5
A4C
102
{ACAD_REACTORS
330
C22
102
}
330
1F
100
AcDbEntity
  8
実線
100
AcDbLine
 10
324.5591985233091
 20
717.2142868568357
 30
0.0
 11
324.5591985233091
 21
709.4719698024325
 31
0.0
  0
LINE
  5
A4D
102
{ACAD_REACTORS
330
C22
102
}
330
1F
100
AcDbEntity
  8
実線
100
AcDbLine
 10
324.5591985233091
 20
620.8519878597276
 30
0.0
 11
324.5591985233091
 21
613.109670805322
 31
0.0
  0
LINE
  5
A4E
102
{ACAD_REACTORS
330
C22
102
}
330
1F
100
AcDbEntity
  8
実線
100
AcDbLine
 10
47.55919852330896
 20
672.6619788310793
 30
0.0
 11
42.25919852330884
 21
672.6619788310793
 31
0.0
  0
LINE
  5
A4F
102
{ACAD_REACTORS
330
C22
102
}
330
1F
100
AcDbEntity
  8
実線
100
AcDbLine
 10
42.25919852330884
 20
657.6619788310793
 30
0.0
 11
47.55919852330885
 21
657.6619788310793
 31
0.0
  0
LINE
  5
A50
102
{ACAD_REACTORS
330
C22
102
}
330
1F
100
AcDbEntity
  8
実線
100
AcDbLine
 10
42.25919852330884
 20
672.6619788310793
 30
0.0
 11
42.25919852330884
 21
657.6619788310793
 31
0.0
  0
LINE
  5
A51
102
{ACAD_REACTORS
330
C22
102
}
330
1F
100
AcDbEntity
  8
実線
100
AcDbLine
 10
52.55919852330896
 20
677.6619788310794
 30
0.0
 11
52.55919852330896
 21
652.6619788310794
 31
0.0
  0
LINE
  5
A52
102
{ACAD_REACTORS
330
C22
102
}
330
1F
100
AcDbEntity
  8
実線
100
AcDbLine
 10
52.55919852330896
 20
677.6619788310794
 30
0.0
 11
47.55919852330896
 21
677.6619788310794
 31
0.0
  0
LINE
  5
A53
102
{ACAD_REACTORS
330
C22
102
}
330
1F
100
AcDbEntity
  8
実線
100
AcDbLine
 10
47.55919852330896
 20
652.6619788310794
 30
0.0
 11
52.55919852330896
 21
652.6619788310794
 31
0.0
  0
LINE
  5
A54
102
{ACAD_REACTORS
330
C22
102
}
330
1F
100
AcDbEntity
  8
実線
100
AcDbLine
 10
47.55919852330896
 20
677.6619788310794
 30
0.0
 11
47.55919852330896
 21
652.6619788310794
 31
0.0
  0
LINE
  5
A55
102
{ACAD_REACTORS
330
C22
102
}
330
1F
100
AcDbEntity
  8
実線
100
AcDbLine
 10
67.55919852330896
 20
638.6619788310794
 30
0.0
 11
64.55919852330897
 21
638.6619788310794
 31
0.0
  0
LINE
  5
A56
102
{ACAD_REACTORS
330
C22
102
}
330
1F
100
AcDbEntity
  8
実線
100
AcDbLine
 10
64.55919852330897
 20
645.1619788310793
 30
0.0
 11
64.55919852330897
 21
638.6619788310794
 31
0.0
  0
LINE
  5
A57
102
{ACAD_REACTORS
330
C22
102
}
330
1F
100
AcDbEntity
  8
実線
100
AcDbLine
 10
67.55919852330896
 20
638.6619788310794
 30
0.0
 11
67.55919852330896
 21
645.1619788310794
 31
0.0
  0
LINE
  5
A58
102
{ACAD_REACTORS
330
C22
102
}
330
1F
100
AcDbEntity
  8
実線
100
AcDbLine
 10
70.00919852330889
 20
657.1619788310792
 30
0.0
 11
70.00919852330889
 21
645.1619788310793
 31
0.0
  0
LINE
  5
A59
102
{ACAD_REACTORS
330
C22
102
}
330
1F
100
AcDbEntity
  8
実線
100
AcDbLine
 10
62.10919852330892
 20
657.1619788310792
 30
0.0
 11
62.10919852330892
 21
645.1619788310793
 31
0.0
  0
LINE
  5
A5A
102
{ACAD_REACTORS
330
C22
102
}
330
1F
100
AcDbEntity
  8
実線
100
AcDbLine
 10
62.10919852330892
 20
645.1619788310793
 30
0.0
 11
70.00919852330889
 21
645.1619788310793
 31
0.0
  0
LINE
  5
A5B
102
{ACAD_REACTORS
330
C22
102
}
330
1F
100
AcDbEntity
  8
実線
100
AcDbLine
 10
51.55919852330896
 20
638.6619788310794
 30
0.0
 11
48.55919852330896
 21
638.6619788310794
 31
0.0
  0
LINE
  5
A5C
102
{ACAD_REACTORS
330
C22
102
}
330
1F
100
AcDbEntity
  8
実線
100
AcDbLine
 10
48.55919852330896
 20
645.1619788310793
 30
0.0
 11
48.55919852330896
 21
638.6619788310794
 31
0.0
  0
LINE
  5
A5D
102
{ACAD_REACTORS
330
C22
102
}
330
1F
100
AcDbEntity
  8
実線
100
AcDbLine
 10
51.55919852330896
 20
638.6619788310794
 30
0.0
 11
51.55919852330896
 21
645.1619788310794
 31
0.0
  0
LINE
  5
A5E
102
{ACAD_REACTORS
330
C22
102
}
330
1F
100
AcDbEntity
  8
実線
100
AcDbLine
 10
90.05919852330896
 20
690.1619788310794
 30
0.0
 11
85.05919852330896
 21
690.1619788310794
 31
0.0
  0
LINE
  5
A5F
102
{ACAD_REACTORS
330
C22
102
}
330
1F
100
AcDbEntity
  8
実線
100
AcDbLine
 10
85.05919852330896
 20
640.1619788310794
 30
0.0
 11
90.05919852330896
 21
640.1619788310794
 31
0.0
  0
LINE
  5
A60
102
{ACAD_REACTORS
330
C22
102
}
330
1F
100
AcDbEntity
  8
実線
100
AcDbLine
 10
54.00919852330907
 20
657.1619788310792
 30
0.0
 11
54.00919852330907
 21
645.1619788310793
 31
0.0
  0
LINE
  5
A61
102
{ACAD_REACTORS
330
C22
102
}
330
1F
100
AcDbEntity
  8
実線
100
AcDbLine
 10
46.1091985233088
 20
657.6619788310793
 30
0.0
 11
46.1091985233088
 21
645.1619788310793
 31
0.0
  0
LINE
  5
A62
102
{ACAD_REACTORS
330
C22
102
}
330
1F
100
AcDbEntity
  8
実線
100
AcDbLine
 10
46.1091985233088
 20
645.1619788310793
 30
0.0
 11
54.00919852330907
 21
645.1619788310793
 31
0.0
  0
LINE
  5
A63
102
{ACAD_REACTORS
330
C22
102
}
330
1F
100
AcDbEntity
  8
実線
100
AcDbLine
 10
83.05919852330896
 20
673.1619788310794
 30
0.0
 11
52.55919852330896
 21
673.1619788310794
 31
0.0
  0
LINE
  5
A64
102
{ACAD_REACTORS
330
C22
102
}
330
1F
100
AcDbEntity
  8
実線
100
AcDbLine
 10
52.55919852330896
 20
657.1619788310792
 30
0.0
 11
83.05919852330896
 21
657.1619788310792
 31
0.0
  0
LINE
  5
A65
102
{ACAD_REACTORS
330
C22
102
}
330
1F
100
AcDbEntity
  8
実線
100
AcDbLine
 10
100.0591985233089
 20
711.1619788310792
 30
0.0
 11
90.05919852330896
 21
711.1619788310792
 31
0.0
  0
LINE
  5
A66
102
{ACAD_REACTORS
330
C22
102
}
330
1F
100
AcDbEntity
  8
実線
100
AcDbLine
 10
90.05919852330885
 20
619.1619788310794
 30
0.0
 11
100.0591985233088
 21
619.1619788310794
 31
0.0
  0
LINE
  5
A67
102
{ACAD_REACTORS
330
C22
102
}
330
1F
100
AcDbEntity
  8
実線
100
AcDbLine
 10
90.05919852330885
 20
711.1619788310792
 30
0.0
 11
90.05919852330885
 21
619.1619788310794
 31
0.0
  0
LINE
  5
A68
102
{ACAD_REACTORS
330
C22
102
}
330
1F
100
AcDbEntity
  8
実線
100
AcDbLine
 10
512.0591985233089
 20
715.3530547835516
 30
0.0
 11
512.0591985233089
 21
705.6709028786071
 31
0.0
  0
LINE
  5
A69
102
{ACAD_REACTORS
330
C22
102
}
330
1F
100
AcDbEntity
  8
実線
100
AcDbLine
 10
512.0591985233089
 20
715.3530547835516
 30
0.0
 11
503.5591985233089
 21
715.3530547835516
 31
0.0
  0
LINE
  5
A6A
102
{ACAD_REACTORS
330
C22
102
}
330
1F
100
AcDbEntity
  8
実線
100
AcDbLine
 10
512.0591985233089
 20
772.4065599192738
 30
0.0
 11
512.0591985233089
 21
779.2528751877385
 31
0.0
  0
LINE
  5
A6B
102
{ACAD_REACTORS
330
C22
102
}
330
1F
100
AcDbEntity
  8
実線
100
AcDbLine
 10
512.0591985233089
 20
779.2528751877385
 30
0.0
 11
503.5591985233089
 21
779.2528751877385
 31
0.0
  0
LINE
  5
A6C
102
{ACAD_REACTORS
330
C22
102
}
330
1F
100
AcDbEntity
  8
実線
100
AcDbLine
 10
440.559198523309
 20
774.7619788310794
 30
0.0
 11
392.959198523309
 21
774.7619788310794
 31
0.0
  0
LINE
  5
A6D
102
{ACAD_REACTORS
330
C22
102
}
330
1F
100
AcDbEntity
  8
実線
100
AcDbLine
 10
392.959198523309
 20
774.7619788310794
 30
0.0
 11
392.959198523309
 21
725.2619788310794
 31
0.0
  0
CIRCLE
  5
A6E
102
{ACAD_REACTORS
330
C22
102
}
330
1F
100
AcDbEntity
  8
実線
100
AcDbCircle
 10
427.8591985233088
 20
665.1619788310794
 30
0.0
 40
38.75
  0
LINE
  5
A6F
102
{ACAD_REACTORS
330
C22
102
}
330
1F
100
AcDbEntity
  8
実線
100
AcDbLine
 10
512.0591985233089
 20
802.8852107958776
 30
0.0
 11
512.0591985233089
 21
786.3852107958773
 31
0.0
  0
LINE
  5
A70
102
{ACAD_REACTORS
330
C22
102
}
330
1F
100
AcDbEntity
  8
実線
100
AcDbLine
 10
503.5591985233089
 20
786.3852107958773
 30
0.0
 11
512.0591985233089
 21
786.3852107958773
 31
0.0
  0
LINE
  5
A71
102
{ACAD_REACTORS
330
C22
102
}
330
1F
100
AcDbEntity
  8
実線
100
AcDbLine
 10
512.0591985233089
 20
802.8852107958776
 30
0.0
 11
503.5591985233089
 21
802.8852107958776
 31
0.0
  0
LINE
  5
A72
102
{ACAD_REACTORS
330
C22
102
}
330
1F
100
AcDbEntity
  8
実線
100
AcDbLine
 10
512.0591985233089
 20
772.4065599192738
 30
0.0
 11
512.0591985233089
 21
755.9065599192741
 31
0.0
  0
LINE
  5
A73
102
{ACAD_REACTORS
330
C22
102
}
330
1F
100
AcDbEntity
  8
実線
100
AcDbLine
 10
503.5591985233089
 20
755.9065599192741
 30
0.0
 11
512.0591985233089
 21
755.9065599192741
 31
0.0
  0
LINE
  5
A74
102
{ACAD_REACTORS
330
C22
102
}
330
1F
100
AcDbEntity
  8
実線
100
AcDbLine
 10
512.0591985233089
 20
772.4065599192738
 30
0.0
 11
503.5591985233089
 21
772.4065599192738
 31
0.0
  0
LINE
  5
A75
102
{ACAD_REACTORS
330
C22
102
}
330
1F
100
AcDbEntity
  8
実線
100
AcDbLine
 10
512.0591985233089
 20
705.6709028786071
 30
0.0
 11
512.0591985233089
 21
689.1709028786071
 31
0.0
  0
LINE
  5
A76
102
{ACAD_REACTORS
330
C22
102
}
330
1F
100
AcDbEntity
  8
実線
100
AcDbLine
 10
503.5591985233089
 20
689.1709028786071
 30
0.0
 11
512.0591985233089
 21
689.1709028786071
 31
0.0
  0
LINE
  5
A77
102
{ACAD_REACTORS
330
C22
102
}
330
1F
100
AcDbEntity
  8
実線
100
AcDbLine
 10
512.0591985233089
 20
705.6709028786071
 30
0.0
 11
503.5591985233089
 21
705.6709028786071
 31
0.0
  0
LINE
  5
A78
102
{ACAD_REACTORS
330
C22
102
}
330
1F
100
AcDbEntity
  8
実線
100
AcDbLine
 10
512.0591985233089
 20
641.7710824744204
 30
0.0
 11
512.0591985233089
 21
625.2710824744204
 31
0.0
  0
LINE
  5
A79
102
{ACAD_REACTORS
330
C22
102
}
330
1F
100
AcDbEntity
  8
実線
100
AcDbLine
 10
503.5591985233089
 20
625.2710824744204
 30
0.0
 11
512.0591985233089
 21
625.2710824744204
 31
0.0
  0
LINE
  5
A7A
102
{ACAD_REACTORS
330
C22
102
}
330
1F
100
AcDbEntity
  8
実線
100
AcDbLine
 10
512.0591985233089
 20
641.7710824744204
 30
0.0
 11
503.5591985233089
 21
641.7710824744204
 31
0.0
  0
LINE
  5
A7B
102
{ACAD_REACTORS
330
C22
102
}
330
1F
100
AcDbEntity
  8
実線
100
AcDbLine
 10
503.5591985233089
 20
621.5210824744205
 30
0.0
 11
503.5591985233089
 21
597.8887468662813
 31
0.0
  0
LINE
  5
A7C
102
{ACAD_REACTORS
330
C22
102
}
330
1F
100
AcDbEntity
  8
実線
100
AcDbLine
 10
491.0591985233089
 20
597.8887468662813
 30
0.0
 11
503.5591985233089
 21
597.8887468662813
 31
0.0
  0
LINE
  5
A7D
102
{ACAD_REACTORS
330
C22
102
}
330
1F
100
AcDbEntity
  8
実線
100
AcDbLine
 10
503.5591985233089
 20
645.5210824744205
 30
0.0
 11
503.5591985233089
 21
621.5210824744205
 31
0.0
  0
LINE
  5
A7E
102
{ACAD_REACTORS
330
C22
102
}
330
1F
100
AcDbEntity
  8
実線
100
AcDbLine
 10
491.0591985233089
 20
621.5210824744205
 30
0.0
 11
503.5591985233089
 21
621.5210824744205
 31
0.0
  0
LINE
  5
A7F
102
{ACAD_REACTORS
330
C22
102
}
330
1F
100
AcDbEntity
  8
実線
100
AcDbLine
 10
503.5591985233089
 20
645.5210824744205
 30
0.0
 11
491.0591985233089
 21
645.5210824744205
 31
0.0
  0
LINE
  5
A80
102
{ACAD_REACTORS
330
C22
102
}
330
1F
100
AcDbEntity
  8
実線
100
AcDbLine
 10
503.5591985233089
 20
776.156559919274
 30
0.0
 11
503.5591985233089
 21
782.6352107958773
 31
0.0
  0
LINE
  5
A81
102
{ACAD_REACTORS
330
C22
102
}
330
1F
100
AcDbEntity
  8
実線
100
AcDbLine
 10
503.5591985233089
 20
776.156559919274
 30
0.0
 11
503.5591985233089
 21
752.156559919274
 31
0.0
  0
LINE
  5
A82
102
{ACAD_REACTORS
330
C22
102
}
330
1F
100
AcDbEntity
  8
実線
100
AcDbLine
 10
491.0591985233089
 20
752.156559919274
 30
0.0
 11
503.5591985233089
 21
752.156559919274
 31
0.0
  0
LINE
  5
A83
102
{ACAD_REACTORS
330
C22
102
}
330
1F
100
AcDbEntity
  8
実線
100
AcDbLine
 10
503.5591985233089
 20
776.156559919274
 30
0.0
 11
491.0591985233089
 21
776.156559919274
 31
0.0
  0
LINE
  5
A84
102
{ACAD_REACTORS
330
C22
102
}
330
1F
100
AcDbEntity
  8
実線
100
AcDbLine
 10
503.5591985233089
 20
645.5210824744205
 30
0.0
 11
503.5591985233089
 21
652.3673977428851
 31
0.0
  0
LINE
  5
A85
102
{ACAD_REACTORS
330
C22
102
}
330
1F
100
AcDbEntity
  8
実線
100
AcDbLine
 10
503.5591985233089
 20
652.3673977428851
 30
0.0
 11
491.0591985233089
 21
652.3673977428851
 31
0.0
  0
LINE
  5
A86
102
{ACAD_REACTORS
330
C22
102
}
330
1F
100
AcDbEntity
  8
実線
100
AcDbLine
 10
462.5591985233089
 20
807.2619788310793
 30
0.0
 11
440.559198523309
 21
807.2619788310793
 31
0.0
  0
LINE
  5
A87
102
{ACAD_REACTORS
330
C22
102
}
330
1F
100
AcDbEntity
  8
実線
100
AcDbLine
 10
440.559198523309
 20
807.2619788310793
 30
0.0
 11
440.559198523309
 21
725.2619788310794
 31
0.0
  0
LINE
  5
A88
102
{ACAD_REACTORS
330
C22
102
}
330
1F
100
AcDbEntity
  8
実線
100
AcDbLine
 10
462.5591985233089
 20
807.2619788310793
 30
0.0
 11
462.5591985233089
 21
682.4093699381426
 31
0.0
  0
LINE
  5
A89
102
{ACAD_REACTORS
330
C22
102
}
330
1F
100
AcDbEntity
  8
実線
100
AcDbLine
 10
324.5591985233091
 20
613.109670805322
 30
0.0
 11
324.5591985233091
 21
597.2619788310794
 31
0.0
  0
LINE
  5
A8A
102
{ACAD_REACTORS
330
C22
102
}
330
1F
100
AcDbEntity
  8
実線
100
AcDbLine
 10
324.5591985233091
 20
709.4719698024325
 30
0.0
 11
324.5591985233091
 21
620.8519878597276
 31
0.0
  0
LINE
  5
A8B
102
{ACAD_REACTORS
330
C22
102
}
330
1F
100
AcDbEntity
  8
実線
100
AcDbLine
 10
324.5591985233091
 20
725.2619788310794
 30
0.0
 11
324.5591985233091
 21
717.2142868568357
 31
0.0
  0
LINE
  5
A8C
102
{ACAD_REACTORS
330
C22
102
}
330
1F
100
AcDbEntity
  8
実線
100
AcDbLine
 10
462.5591985233089
 20
597.2619788310794
 30
0.0
 11
324.5591985233091
 21
597.2619788310794
 31
0.0
  0
LINE
  5
A8D
102
{ACAD_REACTORS
330
C22
102
}
330
1F
100
AcDbEntity
  8
実線
100
AcDbLine
 10
462.5591985233089
 20
647.9145877240163
 30
0.0
 11
462.5591985233089
 21
597.2619788310794
 31
0.0
  0
LINE
  5
A8E
102
{ACAD_REACTORS
330
C22
102
}
330
1F
100
AcDbEntity
  8
実線
100
AcDbLine
 10
324.5591985233091
 20
725.2619788310794
 30
0.0
 11
440.559198523309
 21
725.2619788310794
 31
0.0
  0
LINE
  5
A8F
102
{ACAD_REACTORS
330
C22
102
}
330
1F
100
AcDbEntity
  8
実線
100
AcDbLine
 10
462.5591985233089
 20
730.988927430044
 30
0.0
 11
440.559198523309
 21
730.988927430044
 31
0.0
  0
LINE
  5
A90
102
{ACAD_REACTORS
330
C22
102
}
330
1F
100
AcDbEntity
  8
実線
100
AcDbLine
 10
273.059198523309
 20
678.6619788310794
 30
0.0
 11
273.059198523309
 21
715.1619788310794
 31
0.0
  0
LINE
  5
A91
102
{ACAD_REACTORS
330
C22
102
}
330
1F
100
AcDbEntity
  8
実線
100
AcDbLine
 10
273.059198523309
 20
715.1619788310794
 30
0.0
 11
208.0591985233089
 21
715.1619788310794
 31
0.0
  0
LINE
  5
A92
102
{ACAD_REACTORS
330
C22
102
}
330
1F
100
AcDbEntity
  8
実線
100
AcDbLine
 10
208.0591985233089
 20
615.1619788310794
 30
0.0
 11
273.059198523309
 21
615.1619788310794
 31
0.0
  0
LINE
  5
A93
102
{ACAD_REACTORS
330
C22
102
}
330
1F
100
AcDbEntity
  8
実線
100
AcDbLine
 10
273.059198523309
 20
615.1619788310794
 30
0.0
 11
273.059198523309
 21
651.6619788310793
 31
0.0
  0
LINE
  5
A94
102
{ACAD_REACTORS
330
C22
102
}
330
1F
100
AcDbEntity
  8
実線
100
AcDbLine
 10
311.0591985233089
 20
651.6619788310793
 30
0.0
 11
208.0591985233088
 21
651.6619788310793
 31
0.0
  0
LINE
  5
A95
102
{ACAD_REACTORS
330
C22
102
}
330
1F
100
AcDbEntity
  8
実線
100
AcDbLine
 10
311.0591985233089
 20
678.6619788310794
 30
0.0
 11
208.0591985233088
 21
678.6619788310794
 31
0.0
  0
LINE
  5
A96
102
{ACAD_REACTORS
330
C22
102
}
330
1F
100
AcDbEntity
  8
実線
100
AcDbLine
 10
503.5591985233089
 20
709.4209028786068
 30
0.0
 11
503.5591985233089
 21
719.1030547835517
 31
0.0
  0
LINE
  5
A97
102
{ACAD_REACTORS
330
C22
102
}
330
1F
100
AcDbEntity
  8
実線
100
AcDbLine
 10
503.5591985233089
 20
719.1030547835517
 30
0.0
 11
491.0591985233089
 21
719.1030547835517
 31
0.0
  0
LINE
  5
A98
102
{ACAD_REACTORS
330
C22
102
}
330
1F
100
AcDbEntity
  8
実線
100
AcDbLine
 10
503.5591985233089
 20
806.6352107958774
 30
0.0
 11
503.5591985233089
 21
782.6352107958773
 31
0.0
  0
LINE
  5
A99
102
{ACAD_REACTORS
330
C22
102
}
330
1F
100
AcDbEntity
  8
実線
100
AcDbLine
 10
491.0591985233089
 20
782.6352107958773
 30
0.0
 11
503.5591985233089
 21
782.6352107958773
 31
0.0
  0
LINE
  5
A9A
102
{ACAD_REACTORS
330
C22
102
}
330
1F
100
AcDbEntity
  8
実線
100
AcDbLine
 10
503.5591985233089
 20
806.6352107958774
 30
0.0
 11
491.0591985233089
 21
806.6352107958774
 31
0.0
  0
LINE
  5
A9B
102
{ACAD_REACTORS
330
C22
102
}
330
1F
100
AcDbEntity
  8
実線
100
AcDbLine
 10
503.5591985233089
 20
709.420902878607
 30
0.0
 11
503.5591985233089
 21
685.4209028786071
 31
0.0
  0
LINE
  5
A9C
102
{ACAD_REACTORS
330
C22
102
}
330
1F
100
AcDbEntity
  8
実線
100
AcDbLine
 10
491.0591985233089
 20
685.4209028786071
 30
0.0
 11
503.5591985233089
 21
685.4209028786071
 31
0.0
  0
LINE
  5
A9D
102
{ACAD_REACTORS
330
C22
102
}
330
1F
100
AcDbEntity
  8
実線
100
AcDbLine
 10
503.5591985233089
 20
709.420902878607
 30
0.0
 11
491.0591985233089
 21
709.420902878607
 31
0.0
  0
LINE
  5
A9E
102
{ACAD_REACTORS
330
C22
102
}
330
1F
100
AcDbEntity
  8
実線
100
AcDbLine
 10
46.1091985233088
 20
650.1619788310794
 30
0.0
 11
45.05919852330896
 21
650.1619788310794
 31
0.0
  0
LINE
  5
A9F
102
{ACAD_REACTORS
330
C22
102
}
330
1F
100
AcDbEntity
  8
実線
100
AcDbLine
 10
62.10919852330892
 20
650.1619788310794
 30
0.0
 11
54.00919852330907
 21
650.1619788310794
 31
0.0
  0
LINE
  5
AA0
102
{ACAD_REACTORS
330
C22
102
}
330
1F
100
AcDbEntity
  8
実線
100
AcDbLine
 10
83.05919852335625
 20
650.1619788310794
 30
0.0
 11
70.00919852330889
 21
650.1619788310794
 31
0.0
  0
LINE
  5
AA1
102
{ACAD_REACTORS
330
C22
102
}
330
1F
100
AcDbEntity
  8
実線
100
AcDbLine
 10
45.05919852330896
 20
657.6619788310793
 30
0.0
 11
45.05919852330896
 21
650.1619788310794
 31
0.0
  0
LINE
  5
AA2
102
{ACAD_REACTORS
330
C22
102
}
330
1F
100
AcDbEntity
  8
実線
100
AcDbLine
 10
85.05919852330896
 20
690.1619788310794
 30
0.0
 11
83.05919852330896
 21
690.1619788310794
 31
0.0
  0
LINE
  5
AA3
102
{ACAD_REACTORS
330
C22
102
}
330
1F
100
AcDbEntity
  8
実線
100
AcDbLine
 10
83.05919852330896
 20
640.1619788310794
 30
0.0
 11
85.05919852330896
 21
640.1619788310794
 31
0.0
  0
LINE
  5
AA4
102
{ACAD_REACTORS
330
C22
102
}
330
1F
100
AcDbEntity
  8
実線
100
AcDbLine
 10
83.05919852330896
 20
690.1619788310794
 30
0.0
 11
83.05919852330896
 21
640.1619788310794
 31
0.0
  0
LINE
  5
AA5
102
{ACAD_REACTORS
330
C22
102
}
330
1F
100
AcDbEntity
  8
実線
100
AcDbLine
 10
85.05919852330896
 20
640.1619788310794
 30
0.0
 11
85.05919852330896
 21
690.1619788310794
 31
0.0
  0
LINE
  5
AA6
102
{ACAD_REACTORS
330
C22
102
}
330
1F
100
AcDbEntity
  8
実線
100
AcDbLine
 10
100.0591985233089
 20
595.6619788310794
 30
0.0
 11
100.0591985233089
 21
734.6619788310793
 31
0.0
  0
ARC
  5
AA7
102
{ACAD_REACTORS
330
C22
102
}
330
1F
100
AcDbEntity
  8
実線
100
AcDbCircle
 10
103.0591985233089
 20
734.6619788310793
 30
0.0
 40
3.0
100
AcDbArc
 50
90.0
 51
180.0
  0
ARC
  5
AA8
102
{ACAD_REACTORS
330
C22
102
}
330
1F
100
AcDbEntity
  8
実線
100
AcDbCircle
 10
103.0591985233089
 20
595.6619788310794
 30
0.0
 40
3.0
100
AcDbArc
 50
180.0
 51
270.0
  0
LINE
  5
AA9
102
{ACAD_REACTORS
330
C22
102
}
330
1F
100
AcDbEntity
  8
実線
100
AcDbLine
 10
105.0591985233089
 20
737.6619788310793
 30
0.0
 11
103.0591985233089
 21
737.6619788310793
 31
0.0
  0
LINE
  5
AAA
102
{ACAD_REACTORS
330
C22
102
}
330
1F
100
AcDbEntity
  8
実線
100
AcDbLine
 10
103.0591985233089
 20
592.6619788310794
 30
0.0
 11
105.0591985233089
 21
592.6619788310794
 31
0.0
  0
LINE
  5
AAB
102
{ACAD_REACTORS
330
C22
102
}
330
1F
100
AcDbEntity
  8
実線
100
AcDbLine
 10
491.0591985233089
 20
807.2619788310793
 30
0.0
 11
491.0591985233089
 21
597.2619788310794
 31
0.0
  0
LINE
  5
AAC
102
{ACAD_REACTORS
330
C22
102
}
330
1F
100
AcDbEntity
  8
実線
100
AcDbLine
 10
462.5591985233425
 20
597.2619788310794
 30
0.0
 11
491.0591985233089
 21
597.2619788310794
 31
0.0
  0
LINE
  5
AAD
102
{ACAD_REACTORS
330
C22
102
}
330
1F
100
AcDbEntity
  8
実線
100
AcDbLine
 10
491.0591985233089
 20
807.2619788310793
 30
0.0
 11
462.5591985233425
 21
807.2619788310793
 31
0.0
  0
CIRCLE
  5
AAE
102
{ACAD_REACTORS
330
C23
102
}
330
1F
100
AcDbEntity
  8
実線
100
AcDbCircle
 10
799.7002744757808
 20
609.8887468662813
 30
0.0
 40
8.25
  0
CIRCLE
  5
AAF
102
{ACAD_REACTORS
330
C23
102
}
330
1F
100
AcDbEntity
  8
実線
100
AcDbCircle
 10
863.6000948799678
 20
640.3673977428852
 30
0.0
 40
8.25
  0
ARC
  5
AB0
102
{ACAD_REACTORS
330
C23
102
}
330
1F
100
AcDbEntity
  8
実線
100
AcDbCircle
 10
727.8591985233088
 20
665.1619788310794
 30
0.0
 40
72.5
100
AcDbArc
 50
205.9719473351174
 51
214.148424344947
  0
ARC
  5
AB1
102
{ACAD_REACTORS
330
C23
102
}
330
1F
100
AcDbEntity
  8
実線
100
AcDbCircle
 10
727.8591985233088
 20
665.1619788310794
 30
0.0
 40
72.5
100
AcDbArc
 50
249.480300328409
 51
290.5196996715909
  0
ARC
  5
AB2
102
{ACAD_REACTORS
330
C23
102
}
330
1F
100
AcDbEntity
  8
実線
100
AcDbCircle
 10
727.8591985233088
 20
665.1619788310794
 30
0.0
 40
72.5
100
AcDbArc
 50
145.8515756550529
 51
154.0280526648826
  0
ARC
  5
AB3
102
{ACAD_REACTORS
330
C23
102
}
330
1F
100
AcDbEntity
  8
実線
100
AcDbCircle
 10
677.07950934547
 20
713.3431283296339
 30
0.0
 40
9.999999999999591
100
AcDbArc
 50
157.2248420489536
 51
202.7751579510463
  0
ARC
  5
AB4
102
{ACAD_REACTORS
330
C23
102
}
330
1F
100
AcDbEntity
  8
実線
100
AcDbCircle
 10
677.07950934547
 20
616.9808293325247
 30
0.0
 40
9.999999999999996
100
AcDbArc
 50
157.2248420489456
 51
202.7751579510543
  0
CIRCLE
  5
AB5
102
{ACAD_REACTORS
330
C23
102
}
330
1F
100
AcDbEntity
  8
実線
100
AcDbCircle
 10
887.2324304881066
 20
707.1030547835517
 30
0.0
 40
8.25
  0
CIRCLE
  5
AB6
102
{ACAD_REACTORS
330
C23
102
}
330
1F
100
AcDbEntity
  8
実線
100
AcDbCircle
 10
856.7537796115027
 20
771.0028751877384
 30
0.0
 40
8.25
  0
LINE
  5
AB7
102
{ACAD_REACTORS
330
C23
102
}
330
1F
100
AcDbEntity
  8
実線
100
AcDbLine
 10
919.2717521321128
 20
763.5548537845235
 30
0.0
 11
913.2717521321128
 21
773.9471586299367
 31
0.0
  0
LINE
  5
AB8
102
{ACAD_REACTORS
330
C23
102
}
330
1F
100
AcDbEntity
  8
実線
100
AcDbLine
 10
913.2717521321128
 20
773.9471586299364
 30
0.0
 11
884.3203198137489
 21
757.2320413875035
 31
0.0
  0
LINE
  5
AB9
102
{ACAD_REACTORS
330
C23
102
}
330
1F
100
AcDbEntity
  8
実線
100
AcDbLine
 10
890.0103716793539
 20
746.6607879032629
 30
0.0
 11
919.2717521321128
 21
763.5548537845235
 31
0.0
  0
LINE
  5
ABA
102
{ACAD_REACTORS
330
C23
102
}
330
1F
100
AcDbEntity
  8
実線
100
AcDbLine
 10
943.2591985233518
 20
683.0119788310794
 30
0.0
 11
899.8591985233179
 21
683.0119788310794
 31
0.0
  0
LINE
  5
ABB
102
{ACAD_REACTORS
330
C23
102
}
330
1F
100
AcDbEntity
  8
実線
100
AcDbLine
 10
899.8591985233179
 20
619.5119788310794
 30
0.0
 11
943.2591985233518
 21
619.5119788310794
 31
0.0
  0
LINE
  5
ABC
102
{ACAD_REACTORS
330
C23
102
}
330
1F
100
AcDbEntity
  8
実線
100
AcDbLine
 10
943.2591985233518
 20
619.5119788310794
 30
0.0
 11
943.2591985233518
 21
683.0119788310794
 31
0.0
  0
LINE
  5
ABD
102
{ACAD_REACTORS
330
C23
102
}
330
1F
100
AcDbEntity
  8
実線
100
AcDbLine
 10
943.2591985233518
 20
619.5119788310794
 30
0.0
 11
946.3591985233518
 21
612.5119788310794
 31
0.0
  0
LINE
  5
ABE
102
{ACAD_REACTORS
330
C23
102
}
330
1F
100
AcDbEntity
  8
実線
100
AcDbLine
 10
946.3591985233506
 20
690.0119788310793
 30
0.0
 11
943.2591985233518
 21
683.0119788310794
 31
0.0
  0
LINE
  5
ABF
102
{ACAD_REACTORS
330
C23
102
}
330
1F
100
AcDbEntity
  8
実線
100
AcDbLine
 10
949.8591985233517
 20
612.5119788310794
 30
0.0
 11
949.8591985233517
 21
690.0119788310793
 31
0.0
  0
LINE
  5
AC0
102
{ACAD_REACTORS
330
C23
102
}
330
1F
100
AcDbEntity
  8
実線
100
AcDbLine
 10
946.3591985233506
 20
612.5119788310794
 30
0.0
 11
946.3591985233506
 21
690.0119788310793
 31
0.0
  0
LINE
  5
AC1
102
{ACAD_REACTORS
330
C23
102
}
330
1F
100
AcDbEntity
  8
実線
100
AcDbLine
 10
949.8591985233517
 20
690.0119788310793
 30
0.0
 11
946.3591985233506
 21
690.0119788310793
 31
0.0
  0
LINE
  5
AC2
102
{ACAD_REACTORS
330
C23
102
}
330
1F
100
AcDbEntity
  8
実線
100
AcDbLine
 10
946.3591985233506
 20
612.5119788310794
 30
0.0
 11
949.8591985233517
 21
612.5119788310794
 31
0.0
  0
LINE
  5
AC3
102
{ACAD_REACTORS
330
C23
102
}
330
1F
100
AcDbEntity
  8
実線
100
AcDbLine
 10
624.459198523266
 20
633.4119788310793
 30
0.0
 11
667.8591985232991
 21
633.4119788310793
 31
0.0
  0
LINE
  5
AC4
102
{ACAD_REACTORS
330
C23
102
}
330
1F
100
AcDbEntity
  8
実線
100
AcDbLine
 10
667.8591985232991
 20
696.9119788310794
 30
0.0
 11
624.459198523266
 21
696.9119788310794
 31
0.0
  0
LINE
  5
AC5
102
{ACAD_REACTORS
330
C23
102
}
330
1F
100
AcDbEntity
  8
実線
100
AcDbLine
 10
624.459198523266
 20
696.9119788310794
 30
0.0
 11
621.359198523266
 21
703.9119788310793
 31
0.0
  0
LINE
  5
AC6
102
{ACAD_REACTORS
330
C23
102
}
330
1F
100
AcDbEntity
  8
実線
100
AcDbLine
 10
621.359198523266
 20
626.4119788310794
 30
0.0
 11
624.459198523266
 21
633.4119788310793
 31
0.0
  0
LINE
  5
AC7
102
{ACAD_REACTORS
330
C23
102
}
330
1F
100
AcDbEntity
  8
実線
100
AcDbLine
 10
624.459198523266
 20
696.9119788310794
 30
0.0
 11
624.459198523266
 21
633.4119788310793
 31
0.0
  0
LINE
  5
AC8
102
{ACAD_REACTORS
330
C23
102
}
330
1F
100
AcDbEntity
  8
実線
100
AcDbLine
 10
617.859198523266
 20
626.4119788310794
 30
0.0
 11
621.359198523266
 21
626.4119788310794
 31
0.0
  0
LINE
  5
AC9
102
{ACAD_REACTORS
330
C23
102
}
330
1F
100
AcDbEntity
  8
実線
100
AcDbLine
 10
621.359198523266
 20
703.9119788310793
 30
0.0
 11
617.859198523266
 21
703.9119788310793
 31
0.0
  0
LINE
  5
ACA
102
{ACAD_REACTORS
330
C23
102
}
330
1F
100
AcDbEntity
  8
実線
100
AcDbLine
 10
617.859198523266
 20
626.4119788310794
 30
0.0
 11
617.859198523266
 21
703.9119788310793
 31
0.0
  0
LINE
  5
ACB
102
{ACAD_REACTORS
330
C23
102
}
330
1F
100
AcDbEntity
  8
実線
100
AcDbLine
 10
621.359198523266
 20
626.4119788310794
 30
0.0
 11
621.359198523266
 21
703.9119788310793
 31
0.0
  0
CIRCLE
  5
ACC
102
{ACAD_REACTORS
330
C23
102
}
330
1F
100
AcDbEntity
  8
実線
100
AcDbCircle
 10
790.0181225708359
 20
794.6352107958776
 30
0.0
 40
8.25
  0
CIRCLE
  5
ACD
102
{ACAD_REACTORS
330
C23
102
}
330
1F
100
AcDbEntity
  8
実線
100
AcDbCircle
 10
726.1183021666498
 20
764.156559919274
 30
0.0
 40
8.25
  0
CIRCLE
  5
ACE
102
{ACAD_REACTORS
330
C23
102
}
330
1F
100
AcDbEntity
  8
実線
100
AcDbCircle
 10
702.4859665585105
 20
697.420902878607
 30
0.0
 40
8.25
  0
CIRCLE
  5
ACF
102
{ACAD_REACTORS
330
C23
102
}
330
1F
100
AcDbEntity
  8
実線
100
AcDbCircle
 10
732.9646174351145
 20
633.5210824744205
 30
0.0
 40
8.25
  0
CIRCLE
  5
AD0
102
{ACAD_REACTORS
330
C23
102
}
330
1F
100
AcDbEntity
  8
実線
100
AcDbCircle
 10
799.7002744757808
 20
609.8887468662813
 30
0.0
 40
12.0
  0
CIRCLE
  5
AD1
102
{ACAD_REACTORS
330
C23
102
}
330
1F
100
AcDbEntity
  8
実線
100
AcDbCircle
 10
732.9646174351145
 20
633.5210824744205
 30
0.0
 40
12.0
  0
CIRCLE
  5
AD2
102
{ACAD_REACTORS
330
C23
102
}
330
1F
100
AcDbEntity
  8
実線
100
AcDbCircle
 10
856.7537796115027
 20
771.0028751877384
 30
0.0
 40
12.0
  0
CIRCLE
  5
AD3
102
{ACAD_REACTORS
330
C23
102
}
330
1F
100
AcDbEntity
  8
実線
100
AcDbCircle
 10
726.1183021666498
 20
764.156559919274
 30
0.0
 40
12.0
  0
CIRCLE
  5
AD4
102
{ACAD_REACTORS
330
C23
102
}
330
1F
100
AcDbEntity
  8
実線
100
AcDbCircle
 10
863.6000948799678
 20
640.3673977428852
 30
0.0
 40
12.0
  0
LINE
  5
AD5
102
{ACAD_REACTORS
330
C23
102
}
330
1F
100
AcDbEntity
  8
実線
100
AcDbLine
 10
899.8591985233089
 20
597.2619788310794
 30
0.0
 11
667.8591985233087
 21
597.2619788310794
 31
0.0
  0
LINE
  5
AD6
102
{ACAD_REACTORS
330
C23
102
}
330
1F
100
AcDbEntity
  8
実線
100
AcDbLine
 10
899.8591985233089
 20
597.2619788310794
 30
0.0
 11
899.8591985233089
 21
702.2619788310793
 31
0.0
  0
LINE
  5
AD7
102
{ACAD_REACTORS
330
C23
102
}
330
1F
100
AcDbEntity
  8
実線
100
AcDbLine
 10
874.5649138906578
 20
632.7665029616131
 30
0.0
 11
875.2938650508008
 21
634.7692798139926
 31
0.0
  0
LINE
  5
AD8
102
{ACAD_REACTORS
330
C23
102
}
330
1F
100
AcDbEntity
  8
実線
100
AcDbLine
 10
725.9730004793055
 20
781.5064847544704
 30
0.0
 11
667.8591985233087
 21
730.9889274300441
 31
0.0
  0
LINE
  5
AD9
102
{ACAD_REACTORS
330
C23
102
}
330
1F
100
AcDbEntity
  8
実線
100
AcDbLine
 10
667.8591985233087
 20
730.988927430044
 30
0.0
 11
667.8591985233087
 21
597.2619788310794
 31
0.0
  0
LINE
  5
ADA
102
{ACAD_REACTORS
330
C23
102
}
330
1F
100
AcDbEntity
  8
実線
100
AcDbLine
 10
871.8492456535939
 20
630.8649715907446
 30
0.0
 11
874.5649138906578
 21
632.7665029616134
 31
0.0
  0
LINE
  5
ADB
102
{ACAD_REACTORS
330
C23
102
}
330
1F
100
AcDbEntity
  8
実線
100
AcDbLine
 10
823.8591985233087
 20
597.2619788310794
 30
0.0
 11
835.6182924190989
 21
605.4957850194277
 31
0.0
  0
CIRCLE
  5
ADC
102
{ACAD_REACTORS
330
C23
102
}
330
1F
100
AcDbEntity
  8
実線
100
AcDbCircle
 10
887.2324304881066
 20
707.1030547835517
 30
0.0
 40
12.0
  0
CIRCLE
  5
ADD
102
{ACAD_REACTORS
330
C23
102
}
330
1F
100
AcDbEntity
  8
実線
100
AcDbCircle
 10
790.0181225708359
 20
794.6352107958776
 30
0.0
 40
12.0
  0
CIRCLE
  5
ADE
102
{ACAD_REACTORS
330
C23
102
}
330
1F
100
AcDbEntity
  8
実線
100
AcDbCircle
 10
702.4859665585105
 20
697.420902878607
 30
0.0
 40
12.0
  0
CIRCLE
  5
AE1
102
{ACAD_REACTORS
330
C23
102
}
330
1F
100
AcDbEntity
  8
実線
100
AcDbCircle
 10
794.8591985233088
 20
702.2619788310794
 30
0.0
 40
64.0
  0
CIRCLE
  5
AE2
102
{ACAD_REACTORS
330
C23
102
}
330
1F
100
AcDbEntity
  8
実線
100
AcDbCircle
 10
794.8591985233088
 20
702.2619788310794
 30
0.0
 40
105.0
  0
LINE
  5
B81
102
{ACAD_REACTORS
330
C24
102
}
330
1F
100
AcDbEntity
  8
中心線
100
AcDbLine
 10
794.8591985233088
 20
514.3619788310793
 30
0.0
 11
794.8591985233088
 21
362.3619788310792
 31
0.0
  0
LINE
  5
B82
102
{ACAD_REACTORS
330
C25
102
}
330
1F
100
AcDbEntity
  8
中心線
100
AcDbLine
 10
794.8591985233088
 20
875.9619788310793
 30
0.0
 11
794.8591985233088
 21
1027.961978831079
 31
0.0
  0
LINE
  5
B83
102
{ACAD_REACTORS
330
C22
102
}
330
1F
100
AcDbEntity
  8
中心線
100
AcDbLine
 10
365.0591985233088
 20
696.3004454415088
 30
0.0
 11
365.0591985233088
 21
606.3004454415088
 31
0.0
  0
LINE
  5
B84
102
{ACAD_REACTORS
330
C22
102
}
330
1F
100
AcDbEntity
  8
中心線
100
AcDbLine
 10
410.0591820824156
 20
651.2619788310794
 30
0.0
 11
320.059214964202
 21
651.2619788310795
 31
0.0
  0
LINE
  5
B85
102
{ACAD_REACTORS
330
C22
102
}
330
1F
100
AcDbEntity
  8
中心線
100
AcDbLine
 10
517.059198523309
 20
702.2619788310794
 30
0.0
 11
365.0591985233088
 21
702.2619788310793
 31
0.0
  0
LINE
  5
B87
102
{ACAD_REACTORS
330
C26
102
}
330
1F
100
AcDbEntity
  8
中心線
100
AcDbLine
 10
1065.659198523308
 20
702.2619788310793
 30
0.0
 11
1217.659198523309
 21
702.2619788310793
 31
0.0
  0
LINE
  5
B89
102
{ACAD_REACTORS
330
C26
102
}
330
1F
100
AcDbEntity
  8
中心線
100
AcDbLine
 10
1154.859198523308
 20
710.1669721266082
 30
0.0
 11
1154.859198523308
 21
620.1669721266082
 31
0.0
  0
LINE
  5
B8A
102
{ACAD_REACTORS
330
C23
102
}
330
1F
100
AcDbEntity
  8
中心線
100
AcDbLine
 10
727.8591985233088
 20
740.1619788310794
 30
0.0
 11
727.8591985233088
 21
590.1619788310794
 31
0.0
  0
LINE
  5
B8B
102
{ACAD_REACTORS
330
C27
102
}
330
1F
100
AcDbEntity
  8
中心線
100
AcDbLine
 10
1754.859198523309
 20
812.2619171738417
 30
0.0
 11
1754.859198523309
 21
592.262040488317
 31
0.0
  0
LINE
  5
B8C
102
{ACAD_REACTORS
330
C27
102
}
330
1F
100
AcDbEntity
  8
中心線
100
AcDbLine
 10
1644.975665636622
 20
702.2619788310793
 30
0.0
 11
1864.975665636622
 21
702.2619788310793
 31
0.0
  0
ENDSEC
  0
SECTION
  2
OBJECTS
  0
DICTIONARY
  5
C
330
0
100
AcDbDictionary
281
     1
  3
ACAD_CIP_PREVIOUS_PRODUCT_INFO
350
36E
  3
ACAD_COLOR
350
364
  3
ACAD_DETAILVIEWSTYLE
350
367
  3
ACAD_GROUP
350
D
  3
ACAD_LAYOUT
350
1A
  3
ACAD_MATERIAL
350
43
  3
ACAD_MLEADERSTYLE
350
5B
  3
ACAD_MLINESTYLE
350
17
  3
ACAD_PLOTSETTINGS
350
19
  3
ACAD_PLOTSTYLENAME
350
E
  3
ACAD_SCALELIST
350
47
  3
ACAD_SECTIONVIEWSTYLE
350
365
  3
ACAD_TABLESTYLE
350
59
  3
ACAD_VISUALSTYLE
350
2A
  3
ACDB_RECOMPOSE_DATA
350
C32
  3
AcDbVariableDictionary
350
319
  3
DWGPROPS
350
C33
  0
DICTIONARY
  5
375
330
2
100
AcDbDictionary
280
     1
281
     1
  3
ACAD_LAYERSTATES
360
376
  0
DICTIONARY
  5
AF0
330
10
100
AcDbDictionary
280
     1
281
     1
  3
ADSK_XREC_LAYER_RECONCILED
360
AF1
  0
DICTIONARY
  5
371
330
370
100
AcDbDictionary
280
     1
281
     1
  3
ADSK_XREC_LAYER_RECONCILED
360
AF2
  0
DICTIONARY
  5
373
330
372
100
AcDbDictionary
280
     1
281
     1
  3
ADSK_XREC_LAYER_RECONCILED
360
AF3
  0
DICTIONARY
  5
89A
330
1F
100
AcDbDictionary
280
     1
281
     1
  3
ACAD_SORTENTS
360
89B
  0
XRECORD
  5
36E
102
{ACAD_REACTORS
330
C
102
}
330
C
100
AcDbXrecord
280
     1
300
ACDLT
300
2016
300
ACDLT_F_S
  0
DICTIONARY
  5
364
102
{ACAD_REACTORS
330
C
102
}
330
C
100
AcDbDictionary
281
     1
  0
DICTIONARY
  5
367
102
{ACAD_REACTORS
330
C
102
}
330
C
100
AcDbDictionary
281
     1
  3
Metric50
350
368
  0
DICTIONARY
  5
D
102
{ACAD_REACTORS
330
C
102
}
330
C
100
AcDbDictionary
281
     1
  3
*A10
350
C25
  3
*A11
350
C26
  3
*A12
350
C27
  3
*A7
350
C22
  3
*A8
350
C23
  3
*A9
350
C24
  0
DICTIONARY
  5
1A
102
{ACAD_REACTORS
330
C
102
}
330
C
100
AcDbDictionary
281
     1
  3
Layout1
350
1E
  3
Model
350
22
  3
レイアウト1
350
369
  0
DICTIONARY
  5
43
102
{ACAD_REACTORS
330
C
102
}
330
C
100
AcDbDictionary
281
     1
  3
ByBlock
350
45
  3
ByLayer
350
44
  3
Global
350
46
  0
DICTIONARY
  5
5B
102
{ACAD_REACTORS
330
C
102
}
330
C
100
AcDbDictionary
281
     1
  3
Standard
350
5C
  0
DICTIONARY
  5
17
102
{ACAD_REACTORS
330
C
102
}
330
C
100
AcDbDictionary
281
     1
  3
Standard
350
18
  0
DICTIONARY
  5
19
102
{ACAD_REACTORS
330
C
102
}
330
C
100
AcDbDictionary
281
     1
  0
ACDBDICTIONARYWDFLT
  5
E
102
{ACAD_REACTORS
330
C
102
}
330
C
100
AcDbDictionary
281
     1
  3
Normal
350
F
100
AcDbDictionaryWithDefault
340
F
  0
DICTIONARY
  5
47
102
{ACAD_REACTORS
330
C
102
}
330
C
100
AcDbDictionary
281
     1
  3
A0
350
48
  3
A1
350
49
  3
A2
350
4A
  3
A3
350
4B
  3
A4
350
4C
  3
A5
350
4D
  3
A6
350
4E
  3
A7
350
4F
  3
A8
350
50
  3
A9
350
51
  3
B0
350
52
  3
B1
350
53
  3
B2
350
54
  3
B3
350
55
  3
B4
350
56
  3
B5
350
57
  3
B6
350
58
  0
DICTIONARY
  5
365
102
{ACAD_REACTORS
330
C
102
}
330
C
100
AcDbDictionary
281
     1
  3
Metric50
350
366
  0
DICTIONARY
  5
59
102
{ACAD_REACTORS
330
C
102
}
330
C
100
AcDbDictionary
281
     1
  3
Standard
350
5A
  0
DICTIONARY
  5
2A
102
{ACAD_REACTORS
330
C
102
}
330
C
100
AcDbDictionary
281
     1
  3
2dWireframe
350
2F
  3
Basic
350
32
  3
Brighten
350
36
  3
ColorChange
350
3A
  3
Conceptual
350
34
  3
Dim
350
35
  3
EdgeColorOff
350
3D
  3
Facepattern
350
39
  3
Flat
350
2B
  3
FlatWithEdges
350
2C
  3
Gouraud
350
2D
  3
GouraudWithEdges
350
2E
  3
Hidden
350
31
  3
JitterOff
350
3B
  3
Linepattern
350
38
  3
OverhangOff
350
3C
  3
Realistic
350
33
  3
Shaded
350
42
  3
Shaded with edges
350
41
  3
Shades of Gray
350
3E
  3
Sketchy
350
3F
  3
Thicken
350
37
  3
Wireframe
350
30
  3
X-Ray
350
40
  0
XRECORD
  5
C32
102
{ACAD_REACTORS
330
C
102
}
330
C
100
AcDbXrecord
280
     1
 90
        1
330
5A
  0
DICTIONARY
  5
319
102
{ACAD_REACTORS
330
C
102
}
330
C
100
AcDbDictionary
281
     1
  3
CANNOSCALE
350
327
  3
CENTEREXE
350
320
  3
CENTERLTYPEFILE
350
321
  3
CMLEADERSTYLE
350
31B
  3
CTABLESTYLE
350
31A
  3
CVIEWDETAILSTYLE
350
AF4
  3
CVIEWSECTIONSTYLE
350
AF5
  3
DIMASSOC
350
322
  3
HIDETEXT
350
323
  3
INDEXCTL
350
B9A
  3
LAYEREVAL
350
AF7
  3
LAYERNOTIFY
350
AF8
  3
LIGHTINGUNITS
350
AF6
  3
LOFTANG1
350
B9D
  3
LOFTANG2
350
B9E
  3
LONGITUDE
350
B9F
  3
MSLTSCALE
350
328
  3
PSOLHEIGHT
350
B9C
  3
PSOLWIDTH
350
B9B
  3
SORTENTS
350
B99
  3
XCLIPFRAME
350
BA0
  0
XRECORD
  5
C33
102
{ACAD_REACTORS
330
C
102
}
330
C
100
AcDbXrecord
280
     1
  1
DWGPROPS COOKIE
  2

  3

  4

  6
File was created by TR2_DExp
  7

  8
fujino
  9

300
=
301
=
302
=
303
=
304
=
305
=
306
=
307
=
308
=
309
=
 40
0.0558039467592593
 41
2455188.75
 42
2459753.401290359
  1

 90
        0
  0
DICTIONARY
  5
376
102
{ACAD_REACTORS
330
375
102
}
330
375
100
AcDbDictionary
281
     1
  0
XRECORD
  5
AF1
102
{ACAD_REACTORS
330
AF0
102
}
330
AF0
100
AcDbXrecord
280
     1
290
     1
  0
XRECORD
  5
AF2
102
{ACAD_REACTORS
330
371
102
}
330
371
100
AcDbXrecord
280
     1
290
     1
  0
XRECORD
  5
AF3
102
{ACAD_REACTORS
330
373
102
}
330
373
100
AcDbXrecord
280
     1
290
     1
  0
SORTENTSTABLE
  5
89B
102
{ACAD_REACTORS
330
89A
102
}
330
89A
100
AcDbSortentsTable
330
1F
331
89C
  5
79A
331
898
  5
AD5
331
A95
  5
673
331
AD4
  5
608
331
A91
  5
66F
331
AD0
  5
604
331
A1F
  5
6F4
331
A5E
  5
63B
331
A8D
  5
66B
331
A1B
  5
6F0
331
A5A
  5
637
331
9A7
  5
789
331
9E6
  5
6BA
331
ACC
  5
600
331
A89
  5
667
331
AC8
  5
5FC
331
A17
  5
6EC
331
8FC
  5
7FB
331
9A3
  5
785
331
8BD
  5
7BB
331
96D
  5
74F
331
9E2
  5
6B6
331
886
  5
86E
331
92E
  5
70F
331
A56
  5
633
331
A13
  5
6E8
331
8F8
  5
7F7
331
99F
  5
781
331
882
  5
86A
331
92A
  5
829
331
8B9
  5
7B7
331
969
  5
74B
331
9DE
  5
6B2
331
A52
  5
62F
331
8F4
  5
7F3
331
99B
  5
77D
331
87E
  5
866
331
965
  5
747
331
9DA
  5
6AE
331
8F0
  5
7EF
331
87A
  5
862
331
961
  5
743
331
847
  5
82D
331
843
  5
B85
331
AC4
  5
5F8
331
AC0
  5
5F4
331
A4E
  5
62B
331
9D6
  5
6AA
331
A4A
  5
627
331
ABC
  5
5F0
331
A85
  5
663
331
AB8
  5
5EC
331
8EC
  5
7EB
331
876
  5
85E
331
95D
  5
73F
331
9D2
  5
6A6
331
A46
  5
623
331
A81
  5
65F
331
A0D
  5
6E2
331
A42
  5
61F
331
927
  5
826
331
8E8
  5
7E6
331
872
  5
859
331
959
  5
73B
331
9CE
  5
6A2
331
A09
  5
6DE
331
923
  5
822
331
8E4
  5
7E2
331
994
  5
776
331
9CA
  5
69E
331
86E
  5
854
331
8B5
  5
7B3
331
955
  5
737
331
8E0
  5
7DE
331
990
  5
772
331
86A
  5
850
331
8B1
  5
7AF
331
951
  5
733
331
83F
  5
B81
331
83B
  5
ADE
331
837
  5
AD9
331
AB4
  5
5E8
331
A7D
  5
65B
331
AB0
  5
5E4
331
A3E
  5
61B
331
AAC
  5
68A
331
A79
  5
657
331
A05
  5
6DA
331
A3A
  5
617
331
91F
  5
81E
331
9C6
  5
69A
331
AA8
  5
686
331
A36
  5
70B
331
A01
  5
6D6
331
91B
  5
81A
331
8DC
  5
7DA
331
98C
  5
76E
331
866
  5
84C
331
8AD
  5
7AB
331
94D
  5
72F
331
9C2
  5
696
331
A75
  5
652
331
A32
  5
707
331
9FD
  5
6D2
331
917
  5
816
331
8D8
  5
7D6
331
988
  5
76A
331
B8B
  5
B93
331
862
  5
848
331
8A9
  5
7A7
331
949
  5
72B
331
9BE
  5
692
331
A71
  5
64E
331
9F9
  5
6CE
331
913
  5
812
331
8D4
  5
7D2
331
984
  5
766
331
9BA
  5
68E
331
B87
  5
B91
331
85E
  5
844
331
8A5
  5
7A3
331
945
  5
727
331
8D0
  5
7CE
331
980
  5
762
331
B83
  5
AE2
331
85A
  5
840
331
8A1
  5
79F
331
941
  5
723
331
AA4
  5
682
331
AA0
  5
67E
331
A2E
  5
703
331
A6D
  5
64A
331
A9C
  5
67A
331
ADB
  5
60F
331
A2A
  5
6FF
331
90F
  5
80E
331
9B6
  5
798
331
9F5
  5
6CA
331
A69
  5
646
331
A98
  5
676
331
A26
  5
6FB
331
90B
  5
80A
331
9B2
  5
794
331
9F1
  5
6C6
331
8CC
  5
7CA
331
97C
  5
75E
331
895
  5
AD2
331
856
  5
83C
331
93D
  5
71F
331
A65
  5
642
331
A22
  5
6F7
331
907
  5
806
331
9AE
  5
790
331
9ED
  5
6C2
331
8C8
  5
7C6
331
978
  5
75A
331
891
  5
879
331
852
  5
838
331
939
  5
71B
331
A61
  5
63E
331
903
  5
802
331
9AA
  5
78C
331
9E9
  5
6BE
331
8C4
  5
7C2
331
974
  5
756
331
88D
  5
875
331
84E
  5
834
331
935
  5
717
331
8C0
  5
7BE
331
970
  5
752
331
889
  5
871
331
84A
  5
830
331
931
  5
713
331
89F
  5
79D
331
AD7
  5
60B
331
A94
  5
672
331
AD3
  5
607
331
A90
  5
66E
331
A1E
  5
6F3
331
A5D
  5
63A
331
ACF
  5
603
331
A8C
  5
66A
331
ACB
  5
5FF
331
A1A
  5
6EF
331
A59
  5
636
331
8FF
  5
7FE
331
9A6
  5
788
331
9E5
  5
6B9
331
A88
  5
666
331
A16
  5
6EB
331
8FB
  5
7FA
331
9A2
  5
784
331
885
  5
86D
331
92D
  5
82C
331
8BC
  5
7BA
331
96C
  5
74E
331
9E1
  5
6B5
331
A55
  5
632
331
A12
  5
6E7
331
8F7
  5
7F6
331
99E
  5
780
331
881
  5
869
331
929
  5
828
331
8B8
  5
7B6
331
968
  5
74A
331
9DD
  5
6B1
331
A51
  5
62E
331
8F3
  5
7F2
331
99A
  5
77C
331
87D
  5
865
331
964
  5
746
331
9D9
  5
6AD
331
879
  5
861
331
960
  5
742
331
846
  5
B8A
331
AC7
  5
5FB
331
842
  5
B84
331
AC3
  5
5F7
331
ABF
  5
5F3
331
A4D
  5
62A
331
8EF
  5
7EE
331
9D5
  5
6A9
331
A49
  5
626
331
ABB
  5
5EF
331
A84
  5
662
331
8EB
  5
7EA
331
875
  5
85D
331
95C
  5
73E
331
9D1
  5
6A5
331
A45
  5
622
331
A80
  5
65E
331
A0C
  5
6E1
331
A41
  5
61E
331
926
  5
825
331
8E7
  5
7E5
331
997
  5
779
331
871
  5
858
331
958
  5
73A
331
9CD
  5
6A1
331
A08
  5
6DD
331
922
  5
821
331
8E3
  5
7E1
331
993
  5
775
331
9C9
  5
69D
331
86D
  5
853
331
8B4
  5
7B2
331
954
  5
736
331
869
  5
84F
331
8B0
  5
7AE
331
950
  5
732
331
83E
  5
AE1
331
83A
  5
ADD
331
836
  5
AD8
331
AB7
  5
5EB
331
AB3
  5
5E7
331
A7C
  5
65A
331
AAF
  5
5E3
331
A3D
  5
61A
331
AAB
  5
689
331
A39
  5
70E
331
A04
  5
6D9
331
A78
  5
656
331
91E
  5
81D
331
8DF
  5
7DD
331
98F
  5
771
331
9C5
  5
699
331
A35
  5
70A
331
A00
  5
6D5
331
91A
  5
819
331
8DB
  5
7D9
331
98B
  5
76D
331
865
  5
84B
331
8AC
  5
7AA
331
94C
  5
72E
331
9C1
  5
695
331
A74
  5
651
331
A31
  5
706
331
9FC
  5
6D1
331
916
  5
815
331
8D7
  5
7D5
331
987
  5
769
331
B8A
  5
B92
331
861
  5
847
331
8A8
  5
7A6
331
948
  5
72A
331
9BD
  5
691
331
A70
  5
64D
331
9F8
  5
6CD
331
912
  5
811
331
8D3
  5
7D1
331
983
  5
765
331
9B9
  5
68D
331
85D
  5
843
331
8A4
  5
7A2
331
944
  5
726
331
B82
  5
B8C
331
859
  5
83F
331
8A0
  5
79E
331
940
  5
722
331
AA7
  5
685
331
AA3
  5
681
331
A9F
  5
67D
331
A2D
  5
702
331
A6C
  5
649
331
ADE
  5
612
331
A9B
  5
679
331
ADA
  5
60E
331
A29
  5
6FE
331
90E
  5
80D
331
9B5
  5
797
331
9F4
  5
6C9
331
8CF
  5
7CD
331
97F
  5
761
331
A68
  5
645
331
A25
  5
6FA
331
90A
  5
809
331
9B1
  5
793
331
9F0
  5
6C5
331
8CB
  5
7C9
331
97B
  5
75D
331
894
  5
AD1
331
855
  5
83B
331
93C
  5
71E
331
A64
  5
641
331
A21
  5
6F6
331
906
  5
805
331
9AD
  5
78F
331
9EC
  5
6C1
331
8C7
  5
7C5
331
977
  5
759
331
890
  5
878
331
851
  5
837
331
938
  5
71A
331
A60
  5
63D
331
902
  5
801
331
9A9
  5
78B
331
9E8
  5
6BD
331
8C3
  5
7C1
331
973
  5
755
331
88C
  5
874
331
84D
  5
833
331
934
  5
716
331
888
  5
870
331
849
  5
82F
331
930
  5
711
331
89E
  5
79C
331
A97
  5
675
331
AD6
  5
60A
331
A93
  5
671
331
AD2
  5
606
331
A8F
  5
66D
331
A1D
  5
6F2
331
A5C
  5
639
331
ACE
  5
602
331
A8B
  5
669
331
ACA
  5
5FE
331
A19
  5
6EE
331
8FE
  5
7FD
331
9A5
  5
787
331
8BF
  5
7BD
331
96F
  5
751
331
9E4
  5
6B8
331
A58
  5
635
331
A15
  5
6EA
331
8FA
  5
7F9
331
9A1
  5
783
331
884
  5
86C
331
92C
  5
82B
331
8BB
  5
7B9
331
96B
  5
74D
331
9E0
  5
6B4
331
A54
  5
631
331
A11
  5
6E6
331
8F6
  5
7F5
331
99D
  5
77F
331
880
  5
868
331
928
  5
827
331
967
  5
749
331
9DC
  5
6B0
331
A50
  5
62D
331
8F2
  5
7F1
331
999
  5
77B
331
87C
  5
864
331
963
  5
745
331
9D8
  5
6AC
331
878
  5
860
331
845
  5
B89
331
AC6
  5
5FA
331
841
  5
B83
331
AC2
  5
5F6
331
A4C
  5
629
331
ABE
  5
5F2
331
A87
  5
665
331
ABA
  5
5EE
331
8EE
  5
7ED
331
95F
  5
741
331
9D4
  5
6A8
331
A48
  5
625
331
A83
  5
661
331
A0F
  5
6E4
331
A44
  5
621
331
8EA
  5
7E9
331
874
  5
85B
331
95B
  5
73D
331
9D0
  5
6A4
331
A0B
  5
6E0
331
A40
  5
61D
331
925
  5
824
331
8E6
  5
7E4
331
996
  5
778
331
870
  5
856
331
8B7
  5
7B5
331
957
  5
739
331
9CC
  5
6A0
331
921
  5
820
331
8E2
  5
7E0
331
992
  5
774
331
9C8
  5
69C
331
86C
  5
852
331
8B3
  5
7B1
331
953
  5
735
331
868
  5
84E
331
83D
  5
AE0
331
839
  5
ADC
331
AE2
  5
616
331
835
  5
AD7
331
AB6
  5
5EA
331
A7F
  5
65D
331
AB2
  5
5E6
331
A7B
  5
659
331
AAE
  5
5E2
331
A07
  5
6DC
331
A3C
  5
619
331
AAA
  5
688
331
A38
  5
70D
331
A03
  5
6D8
331
A77
  5
655
331
91D
  5
81C
331
8DE
  5
7DC
331
98E
  5
770
331
8AF
  5
7AD
331
94F
  5
731
331
9C4
  5
698
331
A34
  5
709
331
9FF
  5
6D4
331
919
  5
818
331
8DA
  5
7D8
331
98A
  5
76C
331
864
  5
84A
331
8AB
  5
7A9
331
94B
  5
72D
331
9C0
  5
694
331
A73
  5
650
331
A30
  5
705
331
9FB
  5
6D0
331
915
  5
814
331
8D6
  5
7D4
331
986
  5
768
331
B89
  5
ADB
331
860
  5
846
331
8A7
  5
7A5
331
947
  5
729
331
9BC
  5
690
331
911
  5
810
331
8D2
  5
7D0
331
982
  5
764
331
9B8
  5
68C
331
B85
  5
B90
331
85C
  5
842
331
8A3
  5
7A1
331
943
  5
725
331
B81
  5
B8B
331
858
  5
83E
331
AA6
  5
684
331
AA2
  5
680
331
A6F
  5
64C
331
A9E
  5
67C
331
A2C
  5
701
331
9F7
  5
6CC
331
A6B
  5
648
331
ADD
  5
611
331
A9A
  5
678
331
AD9
  5
60D
331
A28
  5
6FD
331
90D
  5
80C
331
9B4
  5
796
331
9F3
  5
6C8
331
8CE
  5
7CC
331
97E
  5
760
331
897
  5
AD4
331
93F
  5
721
331
A67
  5
644
331
A24
  5
6F9
331
909
  5
808
331
9B0
  5
792
331
9EF
  5
6C4
331
8CA
  5
7C8
331
97A
  5
75C
331
893
  5
87B
331
854
  5
83A
331
93B
  5
71D
331
A63
  5
640
331
A20
  5
6F5
331
905
  5
804
331
9AC
  5
78E
331
9EB
  5
6C0
331
8C6
  5
7C4
331
976
  5
758
331
88F
  5
877
331
850
  5
836
331
937
  5
719
331
901
  5
800
331
9A8
  5
78A
331
8C2
  5
7C0
331
972
  5
754
331
88B
  5
873
331
84C
  5
832
331
933
  5
715
331
848
  5
82E
331
89D
  5
79B
331
899
  5
AD6
331
A96
  5
674
331
AD5
  5
609
331
A92
  5
670
331
AD1
  5
605
331
A5F
  5
63C
331
A8E
  5
66C
331
A1C
  5
6F1
331
9E7
  5
6BC
331
A5B
  5
638
331
ACD
  5
601
331
A8A
  5
668
331
AC9
  5
5FD
331
A18
  5
6ED
331
8FD
  5
7FC
331
9A4
  5
786
331
8BE
  5
7BC
331
96E
  5
750
331
9E3
  5
6B7
331
887
  5
86F
331
92F
  5
710
331
A57
  5
634
331
A14
  5
6E9
331
8F9
  5
7F8
331
9A0
  5
782
331
883
  5
86B
331
92B
  5
82A
331
8BA
  5
7B8
331
96A
  5
74C
331
9DF
  5
6B3
331
A53
  5
630
331
A10
  5
6E5
331
8F5
  5
7F4
331
99C
  5
77E
331
87F
  5
867
331
966
  5
748
331
9DB
  5
6AF
331
8F1
  5
7F0
331
998
  5
77A
331
87B
  5
863
331
962
  5
744
331
844
  5
B87
331
AC5
  5
5F9
331
840
  5
B82
331
AC1
  5
5F5
331
A4F
  5
62C
331
9D7
  5
6AB
331
A4B
  5
628
331
ABD
  5
5F1
331
A86
  5
664
331
AB9
  5
5ED
331
8ED
  5
7EC
331
877
  5
85F
331
95E
  5
740
331
9D3
  5
6A7
331
A47
  5
624
331
A82
  5
660
331
A0E
  5
6E3
331
A43
  5
620
331
8E9
  5
7E8
331
873
  5
85A
331
95A
  5
73C
331
9CF
  5
6A3
331
A0A
  5
6DF
331
924
  5
823
331
8E5
  5
7E3
331
995
  5
777
331
9CB
  5
69F
331
86F
  5
855
331
8B6
  5
7B4
331
956
  5
738
331
920
  5
81F
331
8E1
  5
7DF
331
991
  5
773
331
86B
  5
851
331
8B2
  5
7B0
331
952
  5
734
331
83C
  5
ADF
331
838
  5
ADA
331
AE1
  5
615
331
AB5
  5
5E9
331
A7E
  5
65C
331
AB1
  5
5E5
331
A3F
  5
61C
331
AAD
  5
68B
331
A7A
  5
658
331
A06
  5
6DB
331
A3B
  5
618
331
9C7
  5
69B
331
AA9
  5
687
331
A37
  5
70C
331
A02
  5
6D7
331
A76
  5
654
331
91C
  5
81B
331
8DD
  5
7DB
331
98D
  5
76F
331
867
  5
84D
331
8AE
  5
7AC
331
94E
  5
730
331
9C3
  5
697
331
A33
  5
708
331
9FE
  5
6D3
331
918
  5
817
331
8D9
  5
7D7
331
989
  5
76B
331
B8C
  5
B94
331
863
  5
849
331
8AA
  5
7A8
331
94A
  5
72C
331
9BF
  5
693
331
A72
  5
64F
331
9FA
  5
6CF
331
914
  5
813
331
8D5
  5
7D3
331
985
  5
767
331
9BB
  5
68F
331
85F
  5
845
331
8A6
  5
7A4
331
946
  5
728
331
910
  5
80F
331
8D1
  5
7CF
331
981
  5
763
331
B84
  5
B8F
331
85B
  5
841
331
8A2
  5
7A0
331
942
  5
724
331
AA5
  5
683
331
AA1
  5
67F
331
A2F
  5
704
331
A6E
  5
64B
331
A9D
  5
67B
331
ADC
  5
610
331
A2B
  5
700
331
9B7
  5
799
331
9F6
  5
6CB
331
A6A
  5
647
331
A99
  5
677
331
AD8
  5
60C
331
A27
  5
6FC
331
90C
  5
80B
331
9B3
  5
795
331
9F2
  5
6C7
331
8CD
  5
7CB
331
97D
  5
75F
331
896
  5
AD3
331
857
  5
83D
331
93E
  5
720
331
A66
  5
643
331
A23
  5
6F8
331
908
  5
807
331
9AF
  5
791
331
9EE
  5
6C3
331
8C9
  5
7C7
331
979
  5
75B
331
892
  5
87A
331
853
  5
839
331
93A
  5
71C
331
A62
  5
63F
331
904
  5
803
331
9AB
  5
78D
331
9EA
  5
6BF
331
8C5
  5
7C3
331
975
  5
757
331
88E
  5
876
331
84F
  5
835
331
936
  5
718
331
900
  5
7FF
331
8C1
  5
7BF
331
971
  5
753
331
88A
  5
872
331
84B
  5
831
331
932
  5
714
  0
ACDBDETAILVIEWSTYLE
  5
368
102
{ACAD_XDICTIONARY
360
C6B
102
}
102
{ACAD_REACTORS
330
367
102
}
330
367
100
AcDbModelDocViewStyle
 70
     0
  3
Metric50
290
     0
100
AcDbDetailViewStyle
 70
     0
 71
     0
 90
        3
 71
     1
340
11
 40
5.0
340
0
 40
5.0
300

 40
0.0
280
     1
 71
     2
340
16
 90
       25
 71
     3
340
11
 40
5.0
 90
        0
 40
15.0
 90
        1
300
%<\AcVar ViewDetailId>% (%<\AcVar ViewScale \f "%sn">%)
 71
     4
340
16
 90
       25
340
16
 90
       25
280
     0
  0
GROUP
  5
C25
102
{ACAD_REACTORS
330
D
102
}
330
D
100
AcDbGroup
300

 70
     1
 71
     1
340
B82
340
846
340
83D
340
83C
340
92D
340
92C
340
92B
340
92A
340
929
340
928
340
927
340
926
340
925
340
924
340
923
340
922
340
921
340
920
340
91F
340
91E
340
91D
340
91C
340
91B
340
91A
340
919
340
918
340
917
340
916
340
915
340
914
340
913
340
912
340
911
340
910
340
90F
340
90E
340
90D
340
90C
340
90B
340
90A
340
909
340
908
340
907
340
906
340
905
340
904
340
903
340
902
340
901
340
900
340
8FF
340
8FE
340
8FD
340
8FC
340
8FB
340
8FA
340
8F9
340
8F8
340
8F7
340
8F6
340
8F5
340
8F4
340
8F3
340
8F2
340
8F1
340
8F0
340
8EF
340
8EE
340
8ED
340
8EC
340
8EB
340
8EA
340
8E9
340
8E8
340
8E7
340
8E6
340
8E5
340
8E4
340
8E3
340
8E2
340
8E1
340
8E0
340
8DF
340
8DE
340
8DD
340
8DC
340
8DB
340
8DA
340
8D9
340
8D8
340
8D7
340
8D6
340
8D5
340
8D4
340
8D3
340
8D2
340
8D1
340
8D0
340
8CF
340
8CE
340
8CD
340
8CC
340
8CB
340
8CA
340
8C9
340
8C8
340
8C7
340
8C6
340
8C5
340
8C4
340
8C3
340
8C2
340
8C1
340
8C0
340
8BF
340
8BE
340
8BD
340
8BC
340
8BB
340
8BA
340
8B9
340
8B8
340
8B7
340
8B6
340
8B5
340
8B4
340
8B3
340
8B2
340
8B1
340
8B0
340
8AF
340
8AE
340
8AD
340
8AC
340
8AB
340
8AA
340
8A9
340
8A8
340
8A7
340
8A6
340
8A5
340
8A4
340
8A3
340
8A2
340
8A1
340
8A0
340
89F
340
89E
340
89D
340
89C
  0
GROUP
  5
C26
102
{ACAD_REACTORS
330
D
102
}
330
D
100
AcDbGroup
300

 70
     1
 71
     1
340
B87
340
840
340
839
340
B89
340
838
340
A39
340
A38
340
A37
340
A36
340
A35
340
A34
340
A33
340
A32
340
A31
340
A30
340
A2F
340
A2E
340
A2D
340
A2C
340
A2B
340
A2A
340
A29
340
A28
340
A27
340
A26
340
A25
340
A24
340
A23
340
A22
340
A21
340
A20
340
A1F
340
A1E
340
A1D
340
A1C
340
A1B
340
A1A
340
A19
340
A18
340
A17
340
A16
340
A15
340
A14
340
A13
340
A12
340
A11
340
A10
340
A0F
340
A0E
340
A0D
340
A0C
340
A0B
340
A0A
340
A09
340
A08
340
A07
340
A06
340
A05
340
A04
340
A03
340
A02
340
A01
340
A00
340
9FF
340
9FE
340
9FD
340
9FC
340
9FB
340
9FA
340
9F9
340
9F8
340
9F7
340
9F6
340
9F5
340
9F4
340
9F3
340
9F2
340
9F1
340
9F0
340
9EF
340
9EE
340
9ED
340
9EC
340
9EB
340
9EA
340
9E9
340
9E8
340
9E7
340
9E6
340
9E5
340
9E4
340
9E3
340
9E2
340
9E1
340
9E0
340
9DF
340
9DE
340
9DD
340
9DC
340
9DB
340
9DA
340
9D9
340
9D8
340
9D7
340
9D6
340
9D5
340
9D4
340
9D3
340
9D2
340
9D1
340
9D0
340
9CF
340
9CE
340
9CD
340
9CC
340
9CB
340
9CA
340
9C9
340
9C8
340
9C7
340
9C6
340
9C5
340
9C4
340
9C3
340
9C2
340
9C1
340
9C0
340
9BF
340
9BE
340
9BD
340
9BC
340
9BB
340
9BA
340
9B9
340
9B8
  0
GROUP
  5
C27
102
{ACAD_REACTORS
330
D
102
}
330
D
100
AcDbGroup
300

 70
     1
 71
     1
340
B8C
340
B8B
340
845
340
844
340
843
340
899
340
898
340
897
340
896
340
895
340
894
340
893
340
892
340
891
340
890
340
88F
340
88E
340
88D
340
88C
340
88B
340
88A
340
889
340
888
340
887
340
886
340
885
340
884
340
883
340
882
340
881
340
880
340
87F
340
87E
340
87D
340
87C
340
87B
340
87A
340
879
340
878
340
877
340
876
340
875
340
874
340
873
340
872
340
871
340
870
340
86F
340
86E
340
86D
340
86C
340
86B
340
86A
340
869
340
868
340
867
340
866
340
865
340
864
340
863
340
862
340
861
340
860
340
85F
340
85E
340
85D
340
85C
340
85B
340
85A
340
859
340
858
340
857
340
856
340
855
340
854
340
853
340
852
340
851
340
850
340
84F
340
84E
340
84D
340
84C
340
84B
340
84A
340
849
340
848
340
847
  0
GROUP
  5
C22
102
{ACAD_REACTORS
330
D
102
}
330
D
100
AcDbGroup
300

 70
     1
 71
     1
340
B85
340
B84
340
83F
340
B83
340
83E
340
AAD
340
AAC
340
AAB
340
AAA
340
AA9
340
AA8
340
AA7
340
AA6
340
AA5
340
AA4
340
AA3
340
AA2
340
AA1
340
AA0
340
A9F
340
A9E
340
A9D
340
A9C
340
A9B
340
A9A
340
A99
340
A98
340
A97
340
A96
340
A95
340
A94
340
A93
340
A92
340
A91
340
A90
340
A8F
340
A8E
340
A8D
340
A8C
340
A8B
340
A8A
340
A89
340
A88
340
A87
340
A86
340
A85
340
A84
340
A83
340
A82
340
A81
340
A80
340
A7F
340
A7E
340
A7D
340
A7C
340
A7B
340
A7A
340
A79
340
A78
340
A77
340
A76
340
A75
340
A74
340
A73
340
A72
340
A71
340
A70
340
A6F
340
A6E
340
A6D
340
A6C
340
A6B
340
A6A
340
A69
340
A68
340
A67
340
A66
340
A65
340
A64
340
A63
340
A62
340
A61
340
A60
340
A5F
340
A5E
340
A5D
340
A5C
340
A5B
340
A5A
340
A59
340
A58
340
A57
340
A56
340
A55
340
A54
340
A53
340
A52
340
A51
340
A50
340
A4F
340
A4E
340
A4D
340
A4C
340
A4B
340
A4A
340
A49
340
A48
340
A47
340
A46
340
A45
340
A44
340
A43
340
A42
340
A41
340
A40
340
A3F
340
A3E
340
A3D
340
A3C
340
A3B
340
A3A
  0
GROUP
  5
C23
102
{ACAD_REACTORS
330
D
102
}
330
D
100
AcDbGroup
300

 70
     1
 71
     1
340
B8A
340
842
340
841
340
83B
340
83A
340
AE2
340
AE1
340
ADE
340
ADD
340
ADC
340
ADB
340
ADA
340
AD9
340
AD8
340
AD7
340
AD6
340
AD5
340
AD4
340
AD3
340
AD2
340
AD1
340
AD0
340
ACF
340
ACE
340
ACD
340
ACC
340
ACB
340
ACA
340
AC9
340
AC8
340
AC7
340
AC6
340
AC5
340
AC4
340
AC3
340
AC2
340
AC1
340
AC0
340
ABF
340
ABE
340
ABD
340
ABC
340
ABB
340
ABA
340
AB9
340
AB8
340
AB7
340
AB6
340
AB5
340
AB4
340
AB3
340
AB2
340
AB1
340
AB0
340
AAF
340
AAE
  0
GROUP
  5
C24
102
{ACAD_REACTORS
330
D
102
}
330
D
100
AcDbGroup
300

 70
     1
 71
     1
340
B81
340
837
340
836
340
835
340
9B7
340
9B6
340
9B5
340
9B4
340
9B3
340
9B2
340
9B1
340
9B0
340
9AF
340
9AE
340
9AD
340
9AC
340
9AB
340
9AA
340
9A9
340
9A8
340
9A7
340
9A6
340
9A5
340
9A4
340
9A3
340
9A2
340
9A1
340
9A0
340
99F
340
99E
340
99D
340
99C
340
99B
340
99A
340
999
340
998
340
997
340
996
340
995
340
994
340
993
340
992
340
991
340
990
340
98F
340
98E
340
98D
340
98C
340
98B
340
98A
340
989
340
988
340
987
340
986
340
985
340
984
340
983
340
982
340
981
340
980
340
97F
340
97E
340
97D
340
97C
340
97B
340
97A
340
979
340
978
340
977
340
976
340
975
340
974
340
973
340
972
340
971
340
970
340
96F
340
96E
340
96D
340
96C
340
96B
340
96A
340
969
340
968
340
967
340
966
340
965
340
964
340
963
340
962
340
961
340
960
340
95F
340
95E
340
95D
340
95C
340
95B
340
95A
340
959
340
958
340
957
340
956
340
955
340
954
340
953
340
952
340
951
340
950
340
94F
340
94E
340
94D
340
94C
340
94B
340
94A
340
949
340
948
340
947
340
946
340
945
340
944
340
943
340
942
340
941
340
940
340
93F
340
93E
340
93D
340
93C
340
93B
340
93A
340
939
340
938
340
937
340
936
340
935
340
934
340
933
340
932
340
931
340
930
340
92F
340
92E
  0
LAYOUT
  5
1E
102
{ACAD_XDICTIONARY
360
C34
102
}
102
{ACAD_REACTORS
330
1A
102
}
330
1A
100
AcDbPlotSettings
  1

  2
none_device
  4

  6

 40
0.0
 41
0.0
 42
0.0
 43
0.0
 44
0.0
 45
0.0
 46
0.0
 47
0.0
 48
0.0
 49
0.0
140
0.0
141
0.0
142
1.0
143
1.0
 70
   688
 72
     1
 73
     0
 74
     5
  7

 75
    16
147
1.0
148
0.0
149
0.0
100
AcDbLayout
  1
Layout1
 70
     1
 71
     1
 10
0.0
 20
0.0
 11
420.0
 21
297.0
 12
0.0
 22
0.0
 32
0.0
 14
1.000000000000000E+20
 24
1.000000000000000E+20
 34
1.000000000000000E+20
 15
-1.000000000000000E+20
 25
-1.000000000000000E+20
 35
-1.000000000000000E+20
146
0.0
 13
0.0
 23
0.0
 33
0.0
 16
1.0
 26
0.0
 36
0.0
 17
0.0
 27
1.0
 37
0.0
 76
     0
330
1B
  0
LAYOUT
  5
22
102
{ACAD_XDICTIONARY
360
C36
102
}
102
{ACAD_REACTORS
330
1A
102
}
330
1A
100
AcDbPlotSettings
  1

  2
none_device
  4
Letter_(8.50_x_11.00_Inches)
  6

 40
6.349999999999998
 41
6.349999999999998
 42
6.350005079999998
 43
6.350005079999998
 44
215.9
 45
279.4
 46
0.0
 47
0.0
 48
0.0
 49
0.0
140
0.0
141
0.0
142
1.0
143
1.0
 70
  1712
 72
     1
 73
     0
 74
     0
  7

 75
     0
147
1.0
148
0.0
149
0.0
100
AcDbLayout
  1
Model
 70
     1
 71
     0
 10
-696.2975250244141
 20
-742.4526992797852
 11
1663.218376159668
 21
820.8261123657228
 12
0.0
 22
0.0
 32
0.0
 14
-696.2975250244141
 24
-742.4526992797852
 34
0.0
 15
1663.218376159668
 25
820.8261123657228
 35
0.0
146
0.0
 13
0.0
 23
0.0
 33
0.0
 16
1.0
 26
0.0
 36
0.0
 17
0.0
 27
1.0
 37
0.0
 76
     0
330
1F
331
29
  0
LAYOUT
  5
369
102
{ACAD_XDICTIONARY
360
C6D
102
}
102
{ACAD_REACTORS
330
1A
102
}
330
1A
100
AcDbPlotSettings
  1

  2
青梅 FX DocuCentre-V C2275 T2
  4

  6

 40
0.0
 41
0.0
 42
0.0
 43
0.0
 44
0.0
 45
0.0
 46
0.0
 47
0.0
 48
0.0
 49
0.0
140
0.0
141
0.0
142
1.0
143
1.0
 70
   688
 72
     0
 73
     0
 74
     5
  7
AutoCAD_PEN.ctb
 75
    16
147
1.0
148
0.0
149
0.0
100
AcDbLayout
  1
レイアウト1
 70
     1
 71
     2
 10
0.0
 20
0.0
 11
12.0
 21
9.0
 12
0.0
 22
0.0
 32
0.0
 14
0.0
 24
0.0
 34
0.0
 15
0.0
 25
0.0
 35
0.0
146
0.0
 13
0.0
 23
0.0
 33
0.0
 16
1.0
 26
0.0
 36
0.0
 17
0.0
 27
1.0
 37
0.0
 76
     0
330
23
  0
MATERIAL
  5
45
102
{ACAD_XDICTIONARY
360
35B
102
}
102
{ACAD_REACTORS
330
43
102
}
330
43
100
AcDbMaterial
  1
ByBlock
  0
MATERIAL
  5
44
102
{ACAD_XDICTIONARY
360
359
102
}
102
{ACAD_REACTORS
330
43
102
}
330
43
100
AcDbMaterial
  1
ByLayer
  0
MATERIAL
  5
46
102
{ACAD_XDICTIONARY
360
35D
102
}
102
{ACAD_REACTORS
330
43
102
}
330
43
100
AcDbMaterial
  1
Global
  0
MLEADERSTYLE
  5
5C
102
{ACAD_REACTORS
330
5B
102
}
330
5B
100
AcDbMLeaderStyle
170
     2
171
     1
172
     0
 90
        2
 40
0.0
 41
0.0
173
     1
 91
-1056964608
340
14
 92
       -2
290
     1
 42
2.0
291
     1
 43
8.0
  3
Standard
 44
4.0
300

342
11
174
     1
178
     6
175
     1
176
     0
 93
-1056964608
 45
4.0
292
     0
297
     0
 46
4.0
 94
-1056964608
 47
1.0
 49
1.0
140
1.0
293
     1
141
0.0
294
     1
177
     0
142
1.0
295
     0
296
     0
143
3.75
1001
ACAD_MLEADERVER
1070
     2
  0
MLINESTYLE
  5
18
102
{ACAD_REACTORS
330
17
102
}
330
17
100
AcDbMlineStyle
  2
STANDARD
 70
     0
  3

 62
   256
 51
90.0
 52
90.0
 71
     2
 49
0.5
 62
   256
  6
BYLAYER
 49
-0.5
 62
   256
  6
BYLAYER
  0
ACDBPLACEHOLDER
  5
F
102
{ACAD_REACTORS
330
E
102
}
330
E
  0
SCALE
  5
48
102
{ACAD_REACTORS
330
47
102
}
330
47
100
AcDbScale
 70
     0
300
1:1
140
1.0
141
1.0
290
     1
  0
SCALE
  5
49
102
{ACAD_REACTORS
330
47
102
}
330
47
100
AcDbScale
 70
     0
300
1:2
140
1.0
141
2.0
290
     0
  0
SCALE
  5
4A
102
{ACAD_REACTORS
330
47
102
}
330
47
100
AcDbScale
 70
     0
300
1:4
140
1.0
141
4.0
290
     0
  0
SCALE
  5
4B
102
{ACAD_REACTORS
330
47
102
}
330
47
100
AcDbScale
 70
     0
300
1:5
140
1.0
141
5.0
290
     0
  0
SCALE
  5
4C
102
{ACAD_REACTORS
330
47
102
}
330
47
100
AcDbScale
 70
     0
300
1:8
140
1.0
141
8.0
290
     0
  0
SCALE
  5
4D
102
{ACAD_REACTORS
330
47
102
}
330
47
100
AcDbScale
 70
     0
300
1:10
140
1.0
141
10.0
290
     0
  0
SCALE
  5
4E
102
{ACAD_REACTORS
330
47
102
}
330
47
100
AcDbScale
 70
     0
300
1:16
140
1.0
141
16.0
290
     0
  0
SCALE
  5
4F
102
{ACAD_REACTORS
330
47
102
}
330
47
100
AcDbScale
 70
     0
300
1:20
140
1.0
141
20.0
290
     0
  0
SCALE
  5
50
102
{ACAD_REACTORS
330
47
102
}
330
47
100
AcDbScale
 70
     0
300
1:30
140
1.0
141
30.0
290
     0
  0
SCALE
  5
51
102
{ACAD_REACTORS
330
47
102
}
330
47
100
AcDbScale
 70
     0
300
1:40
140
1.0
141
40.0
290
     0
  0
SCALE
  5
52
102
{ACAD_REACTORS
330
47
102
}
330
47
100
AcDbScale
 70
     0
300
1:50
140
1.0
141
50.0
290
     0
  0
SCALE
  5
53
102
{ACAD_REACTORS
330
47
102
}
330
47
100
AcDbScale
 70
     0
300
1:100
140
1.0
141
100.0
290
     0
  0
SCALE
  5
54
102
{ACAD_REACTORS
330
47
102
}
330
47
100
AcDbScale
 70
     0
300
2:1
140
2.0
141
1.0
290
     0
  0
SCALE
  5
55
102
{ACAD_REACTORS
330
47
102
}
330
47
100
AcDbScale
 70
     0
300
4:1
140
4.0
141
1.0
290
     0
  0
SCALE
  5
56
102
{ACAD_REACTORS
330
47
102
}
330
47
100
AcDbScale
 70
     0
300
8:1
140
8.0
141
1.0
290
     0
  0
SCALE
  5
57
102
{ACAD_REACTORS
330
47
102
}
330
47
100
AcDbScale
 70
     0
300
10:1
140
10.0
141
1.0
290
     0
  0
SCALE
  5
58
102
{ACAD_REACTORS
330
47
102
}
330
47
100
AcDbScale
 70
     0
300
100:1
140
100.0
141
1.0
290
     0
  0
ACDBSECTIONVIEWSTYLE
  5
366
102
{ACAD_XDICTIONARY
360
C69
102
}
102
{ACAD_REACTORS
330
365
102
}
330
365
100
AcDbModelDocViewStyle
 70
     0
  3
Metric50
290
     0
100
AcDbSectionViewStyle
 70
     0
 71
     0
 90
      102
 71
     1
340
11
 40
5.0
340
0
340
0
 40
5.0
300
I, O, Q, S, X, Z
 40
10.0
 90
        0
 40
2.5
 90
        0
 71
     2
340
16
 90
       25
340
16
 90
       50
 40
5.0
 40
2.5
 40
5.0
 71
     3
340
11
 40
5.0
 90
        0
 40
15.0
 90
        1
300
%<\AcVar ViewSectionStartId>%-%<\AcVar ViewSectionEndId>% (%<\AcVar ViewScale \f "%sn">%)
 71
     4
300
ANSI31
 40
1.0
 90
        0
290
     0
290
     0
 90
        6
 40
0.0
 40
1.570796326794896
 40
0.2617993877991494
 40
1.308996938995747
 40
-0.2617993877991494
 40
1.832595714594045
  0
TABLESTYLE
  5
5A
102
{ACAD_XDICTIONARY
360
B37
102
}
102
{ACAD_REACTORS
330
59
102
}
330
59
100
AcDbTableStyle
  3
Standard
 70
     0
 71
     0
 40
1.5
 41
1.5
280
     0
281
     0
  7
Standard
140
4.5
170
     2
 62
     0
 63
     7
283
     0
274
    -2
284
     1
 64
     0
275
    -2
285
     1
 65
     0
276
    -2
286
     1
 66
     0
277
    -2
287
     1
 67
     0
278
    -2
288
     1
 68
     0
279
    -2
289
     1
 69
     0
  7
Standard
140
6.0
170
     5
 62
     0
 63
     7
283
     0
274
    -2
284
     1
 64
     0
275
    -2
285
     1
 65
     0
276
    -2
286
     1
 66
     0
277
    -2
287
     1
 67
     0
278
    -2
288
     1
 68
     0
279
    -2
289
     1
 69
     0
  7
Standard
140
4.5
170
     5
 62
     0
 63
     7
283
     0
274
    -2
284
     1
 64
     0
275
    -2
285
     1
 65
     0
276
    -2
286
     1
 66
     0
277
    -2
287
     1
 67
     0
278
    -2
288
     1
 68
     0
279
    -2
289
     1
 69
     0
  0
VISUALSTYLE
  5
2F
102
{ACAD_XDICTIONARY
360
C40
102
}
102
{ACAD_REACTORS
330
2A
102
}
330
2A
100
AcDbVisualStyle
  2

 70
     4
 71
     0
 72
     2
 73
     0
 90
        0
 40
-0.6
 41
-30.0
 62
     5
 63
     7
 74
     1
 91
        4
 64
     7
 65
   257
 75
     1
175
     1
 42
1.0
 92
        0
 66
   257
 43
1.0
 76
     1
 77
     6
 78
     2
 67
     7
 79
     5
170
     0
171
     0
290
     0
174
     0
 93
        1
 44
0.0
173
     0
291
     0
 45
0.0
1001
ACAD
1000
AcDbSavedByObjectVersion
1070
     0
  0
VISUALSTYLE
  5
32
102
{ACAD_XDICTIONARY
360
C46
102
}
102
{ACAD_REACTORS
330
2A
102
}
330
2A
100
AcDbVisualStyle
  2

 70
     7
 71
     1
 72
     0
 73
     1
 90
        0
 40
-0.6
 41
-30.0
 62
     5
 63
     7
 74
     0
 91
        4
 64
     7
 65
   257
 75
     1
175
     1
 42
1.0
 92
        8
 66
     7
 43
1.0
 76
     1
 77
     6
 78
     2
 67
     7
 79
     5
170
     0
171
     0
290
     0
174
     0
 93
        1
 44
0.0
173
     0
291
     1
 45
0.0
1001
ACAD
1000
AcDbSavedByObjectVersion
1070
     0
  0
VISUALSTYLE
  5
36
102
{ACAD_XDICTIONARY
360
C4E
102
}
102
{ACAD_REACTORS
330
2A
102
}
330
2A
100
AcDbVisualStyle
  2

 70
    12
 71
     2
 72
     2
 73
     0
 90
        0
 40
-0.6
 41
-30.0
 62
     5
 63
     7
 74
     1
 91
        4
 64
     7
 65
   257
 75
     1
175
     1
 42
1.0
 92
        8
 66
     7
 43
1.0
 76
     1
 77
     6
 78
     2
 67
     7
 79
     5
170
     0
171
     0
290
     0
174
     0
 93
        1
 44
50.0
173
     0
291
     1
 45
0.0
1001
ACAD
1000
AcDbSavedByObjectVersion
1070
     0
  0
VISUALSTYLE
  5
3A
102
{ACAD_XDICTIONARY
360
C56
102
}
102
{ACAD_REACTORS
330
2A
102
}
330
2A
100
AcDbVisualStyle
  2

 70
    16
 71
     2
 72
     2
 73
     3
 90
        0
 40
-0.6
 41
-30.0
 62
     5
 63
     8
 74
     1
 91
        4
 64
     7
 65
   257
 75
     1
175
     1
 42
1.0
 92
        8
 66
     8
 43
1.0
 76
     1
 77
     6
 78
     2
 67
     7
 79
     5
170
     0
171
     0
290
     0
174
     0
 93
        1
 44
0.0
173
     0
291
     1
 45
0.0
1001
ACAD
1000
AcDbSavedByObjectVersion
1070
     0
  0
VISUALSTYLE
  5
34
102
{ACAD_XDICTIONARY
360
C4A
102
}
102
{ACAD_REACTORS
330
2A
102
}
330
2A
100
AcDbVisualStyle
  2

 70
     9
 71
     3
 72
     2
 73
     0
 90
        0
 40
-0.6
 41
-30.0
 62
     5
 63
     7
 74
     2
 91
        2
 64
     7
 65
   257
 75
     1
175
     1
 42
179.0
 92
        8
 66
     7
 43
1.0
 76
     1
 77
     6
 78
     2
 67
     7
 79
     3
170
     0
171
     0
290
     0
174
     0
 93
        1
 44
0.0
173
     0
291
     0
 45
0.0
1001
ACAD
1000
AcDbSavedByObjectVersion
1070
     0
  0
VISUALSTYLE
  5
35
102
{ACAD_XDICTIONARY
360
C4C
102
}
102
{ACAD_REACTORS
330
2A
102
}
330
2A
100
AcDbVisualStyle
  2

 70
    11
 71
     2
 72
     2
 73
     0
 90
        0
 40
-0.6
 41
-30.0
 62
     5
 63
     7
 74
     1
 91
        4
 64
     7
 65
   257
 75
     1
175
     1
 42
1.0
 92
        8
 66
     7
 43
1.0
 76
     1
 77
     6
 78
     2
 67
     7
 79
     5
170
     0
171
     0
290
     0
174
     0
 93
        1
 44
-50.0
173
     0
291
     1
 45
0.0
1001
ACAD
1000
AcDbSavedByObjectVersion
1070
     0
  0
VISUALSTYLE
  5
3D
102
{ACAD_XDICTIONARY
360
C5C
102
}
102
{ACAD_REACTORS
330
2A
102
}
330
2A
100
AcDbVisualStyle
  2

 70
    22
 71
     2
 72
     2
 73
     0
 90
        0
 40
-0.6
 41
-30.0
 62
     5
 63
     7
 74
     1
 91
        4
 64
     7
 65
   257
 75
     1
175
     1
 42
1.0
 92
        8
 66
     7
 43
1.0
 76
     1
 77
     6
 78
     2
 67
     7
 79
     5
170
     0
171
     0
290
     0
174
     0
 93
        1
 44
0.0
173
     0
291
     1
 45
0.0
1001
ACAD
1000
AcDbSavedByObjectVersion
1070
     0
  0
VISUALSTYLE
  5
39
102
{ACAD_XDICTIONARY
360
C54
102
}
102
{ACAD_REACTORS
330
2A
102
}
330
2A
100
AcDbVisualStyle
  2

 70
    15
 71
     2
 72
     2
 73
     0
 90
        0
 40
-0.6
 41
-30.0
 62
     5
 63
     7
 74
     1
 91
        4
 64
     7
 65
   257
 75
     1
175
     1
 42
1.0
 92
        8
 66
     7
 43
1.0
 76
     1
 77
     6
 78
     2
 67
     7
 79
     5
170
     0
171
     0
290
     0
174
     0
 93
        1
 44
0.0
173
     0
291
     1
 45
0.0
1001
ACAD
1000
AcDbSavedByObjectVersion
1070
     0
  0
VISUALSTYLE
  5
2B
102
{ACAD_XDICTIONARY
360
C38
102
}
102
{ACAD_REACTORS
330
2A
102
}
330
2A
100
AcDbVisualStyle
  2

 70
     0
 71
     2
 72
     1
 73
     1
 90
        2
 40
-0.6
 41
30.0
 62
     5
 63
     7
 74
     0
 91
        0
 64
     7
 65
   257
 75
     1
175
     1
 42
1.0
 92
        8
 66
     7
 43
1.0
 76
     1
 77
     6
 78
     2
 67
     7
 79
     5
170
     0
171
     0
290
     0
174
     0
 93
       13
 44
0.0
173
     0
291
     1
 45
0.0
1001
ACAD
1000
AcDbSavedByObjectVersion
1070
     0
  0
VISUALSTYLE
  5
2C
102
{ACAD_XDICTIONARY
360
C3A
102
}
102
{ACAD_REACTORS
330
2A
102
}
330
2A
100
AcDbVisualStyle
  2

 70
     1
 71
     2
 72
     1
 73
     1
 90
        2
 40
-0.6
 41
30.0
 62
     5
 63
     7
 74
     1
 91
        0
 64
     7
 65
   257
 75
     1
175
     1
 42
1.0
 92
        0
 66
   257
 43
1.0
 76
     1
 77
     6
 78
     2
 67
     7
 79
     5
170
     0
171
     0
290
     0
174
     0
 93
       13
 44
0.0
173
     0
291
     1
 45
0.0
1001
ACAD
1000
AcDbSavedByObjectVersion
1070
     0
  0
VISUALSTYLE
  5
2D
102
{ACAD_XDICTIONARY
360
C3C
102
}
102
{ACAD_REACTORS
330
2A
102
}
330
2A
100
AcDbVisualStyle
  2

 70
     2
 71
     2
 72
     2
 73
     1
 90
        2
 40
-0.6
 41
30.0
 62
     5
 63
     7
 74
     0
 91
        0
 64
     7
 65
   257
 75
     1
175
     1
 42
1.0
 92
        0
 66
     7
 43
1.0
 76
     1
 77
     6
 78
     2
 67
     7
 79
     5
170
     0
171
     0
290
     0
174
     0
 93
       13
 44
0.0
173
     0
291
     1
 45
0.0
1001
ACAD
1000
AcDbSavedByObjectVersion
1070
     0
  0
VISUALSTYLE
  5
2E
102
{ACAD_XDICTIONARY
360
C3E
102
}
102
{ACAD_REACTORS
330
2A
102
}
330
2A
100
AcDbVisualStyle
  2

 70
     3
 71
     2
 72
     2
 73
     1
 90
        2
 40
-0.6
 41
30.0
 62
     5
 63
     7
 74
     1
 91
        0
 64
     7
 65
   257
 75
     1
175
     1
 42
1.0
 92
        0
 66
   257
 43
1.0
 76
     1
 77
     6
 78
     2
 67
     7
 79
     5
170
     0
171
     0
290
     0
174
     0
 93
       13
 44
0.0
173
     0
291
     1
 45
0.0
1001
ACAD
1000
AcDbSavedByObjectVersion
1070
     0
  0
VISUALSTYLE
  5
31
102
{ACAD_XDICTIONARY
360
C44
102
}
102
{ACAD_REACTORS
330
2A
102
}
330
2A
100
AcDbVisualStyle
  2

 70
     6
 71
     1
 72
     2
 73
     2
 90
        0
 40
-0.6
 41
-30.0
 62
     5
 63
     7
 74
     2
 91
        2
 64
     7
 65
   257
 75
     2
175
     1
 42
40.0
 92
        0
 66
   257
 43
1.0
 76
     1
 77
     6
 78
     2
 67
     7
 79
     3
170
     0
171
     0
290
     0
174
     0
 93
        1
 44
0.0
173
     0
291
     0
 45
0.0
1001
ACAD
1000
AcDbSavedByObjectVersion
1070
     0
  0
VISUALSTYLE
  5
3B
102
{ACAD_XDICTIONARY
360
C58
102
}
102
{ACAD_REACTORS
330
2A
102
}
330
2A
100
AcDbVisualStyle
  2

 70
    20
 71
     2
 72
     2
 73
     0
 90
        0
 40
-0.6
 41
-30.0
 62
     5
 63
     7
 74
     1
 91
        4
 64
     7
 65
   257
 75
     1
175
     1
 42
1.0
 92
       10
 66
     7
 43
1.0
 76
     1
 77
     6
 78
     2
 67
     7
 79
     5
170
     0
171
     0
290
     0
174
     0
 93
        1
 44
0.0
173
     0
291
     1
 45
0.0
1001
ACAD
1000
AcDbSavedByObjectVersion
1070
     0
  0
VISUALSTYLE
  5
38
102
{ACAD_XDICTIONARY
360
C52
102
}
102
{ACAD_REACTORS
330
2A
102
}
330
2A
100
AcDbVisualStyle
  2

 70
    14
 71
     2
 72
     2
 73
     0
 90
        0
 40
-0.6
 41
-30.0
 62
     5
 63
     7
 74
     1
 91
        4
 64
     7
 65
   257
 75
     7
175
     7
 42
1.0
 92
        8
 66
     7
 43
1.0
 76
     1
 77
     6
 78
     2
 67
     7
 79
     5
170
     0
171
     0
290
     0
174
     0
 93
        1
 44
0.0
173
     0
291
     1
 45
0.0
1001
ACAD
1000
AcDbSavedByObjectVersion
1070
     0
  0
VISUALSTYLE
  5
3C
102
{ACAD_XDICTIONARY
360
C5A
102
}
102
{ACAD_REACTORS
330
2A
102
}
330
2A
100
AcDbVisualStyle
  2

 70
    21
 71
     2
 72
     2
 73
     0
 90
        0
 40
-0.6
 41
-30.0
 62
     5
 63
     7
 74
     1
 91
        4
 64
     7
 65
   257
 75
     1
175
     1
 42
1.0
 92
        9
 66
     7
 43
1.0
 76
     1
 77
     6
 78
     2
 67
     7
 79
     5
170
     0
171
     0
290
     0
174
     0
 93
        1
 44
0.0
173
     0
291
     1
 45
0.0
1001
ACAD
1000
AcDbSavedByObjectVersion
1070
     0
  0
VISUALSTYLE
  5
33
102
{ACAD_XDICTIONARY
360
C48
102
}
102
{ACAD_REACTORS
330
2A
102
}
330
2A
100
AcDbVisualStyle
  2

 70
     8
 71
     2
 72
     3
 73
     0
 90
        2
 40
-0.6
 41
30.0
 62
     5
 63
     7
 74
     0
 91
        0
 64
     7
 65
   257
 75
     1
175
     1
 42
1.0
 92
        8
 66
   257
 43
1.0
 76
     1
 77
     6
 78
     2
 67
     7
 79
     3
170
     0
171
     0
290
     0
174
     0
 93
       13
 44
0.0
173
     0
291
     0
 45
0.0
1001
ACAD
1000
AcDbSavedByObjectVersion
1070
     0
  0
VISUALSTYLE
  5
42
102
{ACAD_XDICTIONARY
360
C66
102
}
102
{ACAD_REACTORS
330
2A
102
}
330
2A
100
AcDbVisualStyle
  2

 70
    27
 71
     2
 72
     2
 73
     1
 90
        2
 40
-0.6
 41
30.0
 62
     5
 63
     7
 74
     0
 91
        4
 64
     7
 65
   257
 75
     1
175
     1
 42
1.0
 92
        8
 66
   257
 43
1.0
 76
     1
 77
     6
 78
     2
 67
     8
 79
     3
170
     0
171
     0
290
     0
174
     0
 93
        5
 44
0.0
173
     0
291
     0
 45
0.0
1001
ACAD
1000
AcDbSavedByObjectVersion
1070
     0
  0
VISUALSTYLE
  5
41
102
{ACAD_XDICTIONARY
360
C64
102
}
102
{ACAD_REACTORS
330
2A
102
}
330
2A
100
AcDbVisualStyle
  2

 70
    26
 71
     2
 72
     2
 73
     1
 90
        2
 40
-0.6
 41
30.0
 62
     5
 63
     7
 74
     1
 91
       10
 64
     7
 65
   257
 75
     2
175
     1
 42
1.0
 92
        8
 66
   257
 43
1.0
 76
     1
 77
     6
 78
     2
 67
     7
 79
     3
170
     0
171
     0
290
     0
174
     0
 93
        5
 44
0.0
173
     0
291
     0
 45
0.0
1001
ACAD
1000
AcDbSavedByObjectVersion
1070
     0
  0
VISUALSTYLE
  5
3E
102
{ACAD_XDICTIONARY
360
C5E
102
}
102
{ACAD_REACTORS
330
2A
102
}
330
2A
100
AcDbVisualStyle
  2

 70
    23
 71
     2
 72
     2
 73
     3
 90
        0
 40
-0.6
 41
-30.0
 62
     5
 63
     7
 74
     2
 91
        2
 64
     7
 65
     7
 75
     1
175
     1
 42
40.0
 92
        8
 66
     7
 43
1.0
 76
     1
 77
     6
 78
     2
 67
     7
 79
     3
170
     0
171
     0
290
     0
174
     0
 93
        1
 44
0.0
173
     0
291
     0
 45
0.0
1001
ACAD
1000
AcDbSavedByObjectVersion
1070
     0
  0
VISUALSTYLE
  5
3F
102
{ACAD_XDICTIONARY
360
C60
102
}
102
{ACAD_REACTORS
330
2A
102
}
330
2A
100
AcDbVisualStyle
  2

 70
    24
 71
     1
 72
     2
 73
     2
 90
        0
 40
-0.6
 41
-30.0
 62
     5
 63
     7
 74
     2
 91
        2
 64
     7
 65
     7
 75
     1
175
     1
 42
40.0
 92
       11
 66
     7
 43
1.0
 76
     1
 77
     6
 78
     2
 67
     7
 79
     6
170
     0
171
     0
290
     0
174
     0
 93
        1
 44
0.0
173
     0
291
     0
 45
0.0
1001
ACAD
1000
AcDbSavedByObjectVersion
1070
     0
  0
VISUALSTYLE
  5
37
102
{ACAD_XDICTIONARY
360
C50
102
}
102
{ACAD_REACTORS
330
2A
102
}
330
2A
100
AcDbVisualStyle
  2

 70
    13
 71
     2
 72
     2
 73
     0
 90
        0
 40
-0.6
 41
-30.0
 62
     5
 63
     7
 74
     1
 91
        4
 64
     7
 65
   257
 75
     1
175
     1
 42
1.0
 92
       12
 66
     7
 43
1.0
 76
     1
 77
     6
 78
     2
 67
     7
 79
     5
170
     0
171
     0
290
     0
174
     0
 93
        1
 44
0.0
173
     0
291
     1
 45
0.0
1001
ACAD
1000
AcDbSavedByObjectVersion
1070
     0
  0
VISUALSTYLE
  5
30
102
{ACAD_XDICTIONARY
360
C42
102
}
102
{ACAD_REACTORS
330
2A
102
}
330
2A
100
AcDbVisualStyle
  2

 70
     5
 71
     0
 72
     2
 73
     0
 90
        0
 40
-0.6
 41
-30.0
 62
     5
 63
     7
 74
     1
 91
        4
 64
     7
 65
   257
 75
     1
175
     1
 42
1.0
 92
        0
 66
   257
 43
1.0
 76
     1
 77
     6
 78
     2
 67
     7
 79
     3
170
     0
171
     0
290
     0
174
     0
 93
        1
 44
0.0
173
     0
291
     0
 45
0.0
1001
ACAD
1000
AcDbSavedByObjectVersion
1070
     0
  0
VISUALSTYLE
  5
40
102
{ACAD_XDICTIONARY
360
C62
102
}
102
{ACAD_REACTORS
330
2A
102
}
330
2A
100
AcDbVisualStyle
  2

 70
    25
 71
     2
 72
     2
 73
     1
 90
        1
 40
0.5
 41
-30.0
 62
     5
 63
     7
 74
     1
 91
        0
 64
     7
 65
   257
 75
     1
175
     1
 42
1.0
 92
        8
 66
     7
 43
1.0
 76
     1
 77
     6
 78
     2
 67
     7
 79
     3
170
     0
171
     0
290
     0
174
     0
 93
       13
 44
0.0
173
     0
291
     0
 45
0.0
1001
ACAD
1000
AcDbSavedByObjectVersion
1070
     0
  0
DICTIONARYVAR
  5
327
102
{ACAD_REACTORS
330
319
102
}
330
319
100
DictionaryVariables
280
     0
  1
1:1
  0
DICTIONARYVAR
  5
320
102
{ACAD_REACTORS
330
319
102
}
330
319
100
DictionaryVariables
280
     0
  1
3.500000
  0
DICTIONARYVAR
  5
321
102
{ACAD_REACTORS
330
319
102
}
330
319
100
DictionaryVariables
280
     0
  1
acadiso.lin
  0
DICTIONARYVAR
  5
31B
102
{ACAD_REACTORS
330
319
102
}
330
319
100
DictionaryVariables
280
     0
  1
STANDARD
  0
DICTIONARYVAR
  5
31A
102
{ACAD_REACTORS
330
319
102
}
330
319
100
DictionaryVariables
280
     0
  1
STANDARD
  0
DICTIONARYVAR
  5
AF4
102
{ACAD_REACTORS
330
319
102
}
330
319
100
DictionaryVariables
280
     0
  1
Metric50
  0
DICTIONARYVAR
  5
AF5
102
{ACAD_REACTORS
330
319
102
}
330
319
100
DictionaryVariables
280
     0
  1
Metric50
  0
DICTIONARYVAR
  5
322
102
{ACAD_REACTORS
330
319
102
}
330
319
100
DictionaryVariables
280
     0
  1
2
  0
DICTIONARYVAR
  5
323
102
{ACAD_REACTORS
330
319
102
}
330
319
100
DictionaryVariables
280
     0
  1
1
  0
DICTIONARYVAR
  5
B9A
102
{ACAD_REACTORS
330
319
102
}
330
319
100
DictionaryVariables
280
     0
  1
0
  0
DICTIONARYVAR
  5
AF7
102
{ACAD_REACTORS
330
319
102
}
330
319
100
DictionaryVariables
280
     0
  1
1
  0
DICTIONARYVAR
  5
AF8
102
{ACAD_REACTORS
330
319
102
}
330
319
100
DictionaryVariables
280
     0
  1
15
  0
DICTIONARYVAR
  5
AF6
102
{ACAD_REACTORS
330
319
102
}
330
319
100
DictionaryVariables
280
     0
  1
0
  0
DICTIONARYVAR
  5
B9D
102
{ACAD_REACTORS
330
319
102
}
330
319
100
DictionaryVariables
280
     0
  1
1.570796
  0
DICTIONARYVAR
  5
B9E
102
{ACAD_REACTORS
330
319
102
}
330
319
100
DictionaryVariables
280
     0
  1
1.570796
  0
DICTIONARYVAR
  5
B9F
102
{ACAD_REACTORS
330
319
102
}
330
319
100
DictionaryVariables
280
     0
  1
-122.394000
  0
DICTIONARYVAR
  5
328
102
{ACAD_REACTORS
330
319
102
}
330
319
100
DictionaryVariables
280
     0
  1
1
  0
DICTIONARYVAR
  5
B9C
102
{ACAD_REACTORS
330
319
102
}
330
319
100
DictionaryVariables
280
     0
  1
80.000000
  0
DICTIONARYVAR
  5
B9B
102
{ACAD_REACTORS
330
319
102
}
330
319
100
DictionaryVariables
280
     0
  1
5.000000
  0
DICTIONARYVAR
  5
B99
102
{ACAD_REACTORS
330
319
102
}
330
319
100
DictionaryVariables
280
     0
  1
127
  0
DICTIONARYVAR
  5
BA0
102
{ACAD_REACTORS
330
319
102
}
330
319
100
DictionaryVariables
280
     0
  1
2
  0
DICTIONARY
  5
C6B
330
368
100
AcDbDictionary
280
     1
281
     1
  3
ACAD_XREC_ROUNDTRIP
360
C6C
  0
DICTIONARY
  5
C34
330
1E
100
AcDbDictionary
280
     1
281
     1
  3
ACAD_XREC_ROUNDTRIP
360
C35
  0
DICTIONARY
  5
C36
330
22
100
AcDbDictionary
280
     1
281
     1
  3
ACAD_XREC_ROUNDTRIP
360
C37
  0
DICTIONARY
  5
C6D
330
369
100
AcDbDictionary
280
     1
281
     1
  3
ACAD_XREC_ROUNDTRIP
360
C6E
  0
DICTIONARY
  5
35B
330
45
100
AcDbDictionary
280
     1
281
     1
  3
ACAD_XREC_ROUNDTRIP
360
35C
  0
DICTIONARY
  5
359
330
44
100
AcDbDictionary
280
     1
281
     1
  3
ACAD_XREC_ROUNDTRIP
360
35A
  0
DICTIONARY
  5
35D
330
46
100
AcDbDictionary
280
     1
281
     1
  3
ACAD_XREC_ROUNDTRIP
360
35E
  0
DICTIONARY
  5
C69
330
366
100
AcDbDictionary
280
     1
281
     1
  3
ACAD_XREC_ROUNDTRIP
360
C6A
  0
DICTIONARY
  5
B37
330
5A
100
AcDbDictionary
280
     1
281
     1
  3
ACAD_ROUNDTRIP_2008_TABLESTYLE_CELLSTYLEMAP
360
C31
  3
ACAD_XREC_ROUNDTRIP
360
C68
  0
DICTIONARY
  5
C40
330
2F
100
AcDbDictionary
280
     1
281
     1
  3
ACAD_XREC_ROUNDTRIP
360
C41
  0
DICTIONARY
  5
C46
330
32
100
AcDbDictionary
280
     1
281
     1
  3
ACAD_XREC_ROUNDTRIP
360
C47
  0
DICTIONARY
  5
C4E
330
36
100
AcDbDictionary
280
     1
281
     1
  3
ACAD_XREC_ROUNDTRIP
360
C4F
  0
DICTIONARY
  5
C56
330
3A
100
AcDbDictionary
280
     1
281
     1
  3
ACAD_XREC_ROUNDTRIP
360
C57
  0
DICTIONARY
  5
C4A
330
34
100
AcDbDictionary
280
     1
281
     1
  3
ACAD_XREC_ROUNDTRIP
360
C4B
  0
DICTIONARY
  5
C4C
330
35
100
AcDbDictionary
280
     1
281
     1
  3
ACAD_XREC_ROUNDTRIP
360
C4D
  0
DICTIONARY
  5
C5C
330
3D
100
AcDbDictionary
280
     1
281
     1
  3
ACAD_XREC_ROUNDTRIP
360
C5D
  0
DICTIONARY
  5
C54
330
39
100
AcDbDictionary
280
     1
281
     1
  3
ACAD_XREC_ROUNDTRIP
360
C55
  0
DICTIONARY
  5
C38
330
2B
100
AcDbDictionary
280
     1
281
     1
  3
ACAD_XREC_ROUNDTRIP
360
C39
  0
DICTIONARY
  5
C3A
330
2C
100
AcDbDictionary
280
     1
281
     1
  3
ACAD_XREC_ROUNDTRIP
360
C3B
  0
DICTIONARY
  5
C3C
330
2D
100
AcDbDictionary
280
     1
281
     1
  3
ACAD_XREC_ROUNDTRIP
360
C3D
  0
DICTIONARY
  5
C3E
330
2E
100
AcDbDictionary
280
     1
281
     1
  3
ACAD_XREC_ROUNDTRIP
360
C3F
  0
DICTIONARY
  5
C44
330
31
100
AcDbDictionary
280
     1
281
     1
  3
ACAD_XREC_ROUNDTRIP
360
C45
  0
DICTIONARY
  5
C58
330
3B
100
AcDbDictionary
280
     1
281
     1
  3
ACAD_XREC_ROUNDTRIP
360
C59
  0
DICTIONARY
  5
C52
330
38
100
AcDbDictionary
280
     1
281
     1
  3
ACAD_XREC_ROUNDTRIP
360
C53
  0
DICTIONARY
  5
C5A
330
3C
100
AcDbDictionary
280
     1
281
     1
  3
ACAD_XREC_ROUNDTRIP
360
C5B
  0
DICTIONARY
  5
C48
330
33
100
AcDbDictionary
280
     1
281
     1
  3
ACAD_XREC_ROUNDTRIP
360
C49
  0
DICTIONARY
  5
C66
330
42
100
AcDbDictionary
280
     1
281
     1
  3
ACAD_XREC_ROUNDTRIP
360
C67
  0
DICTIONARY
  5
C64
330
41
100
AcDbDictionary
280
     1
281
     1
  3
ACAD_XREC_ROUNDTRIP
360
C65
  0
DICTIONARY
  5
C5E
330
3E
100
AcDbDictionary
280
     1
281
     1
  3
ACAD_XREC_ROUNDTRIP
360
C5F
  0
DICTIONARY
  5
C60
330
3F
100
AcDbDictionary
280
     1
281
     1
  3
ACAD_XREC_ROUNDTRIP
360
C61
  0
DICTIONARY
  5
C50
330
37
100
AcDbDictionary
280
     1
281
     1
  3
ACAD_XREC_ROUNDTRIP
360
C51
  0
DICTIONARY
  5
C42
330
30
100
AcDbDictionary
280
     1
281
     1
  3
ACAD_XREC_ROUNDTRIP
360
C43
  0
DICTIONARY
  5
C62
330
40
100
AcDbDictionary
280
     1
281
     1
  3
ACAD_XREC_ROUNDTRIP
360
C63
  0
XRECORD
  5
C6C
102
{ACAD_REACTORS
330
C6B
102
}
330
C6B
100
AcDbXrecord
280
     1
102
DISPLAYNAME
  1
Metric50
102
FLAGS
 90
        0
  0
XRECORD
  5
C35
102
{ACAD_REACTORS
330
C34
102
}
330
C34
100
AcDbXrecord
280
     1
102
SHADEPLOT
 70
     0
102
SHADEPLOTRESLEVEL
 70
     2
102
SHADEPLOTCUSTOMDPI
 70
   300
  0
XRECORD
  5
C37
102
{ACAD_REACTORS
330
C36
102
}
330
C36
100
AcDbXrecord
280
     1
102
SHADEPLOT
 70
     0
102
SHADEPLOTRESLEVEL
 70
     2
102
SHADEPLOTCUSTOMDPI
 70
   300
  0
XRECORD
  5
C6E
102
{ACAD_REACTORS
330
C6D
102
}
330
C6D
100
AcDbXrecord
280
     1
102
SHADEPLOT
 70
     0
102
SHADEPLOTRESLEVEL
 70
     2
102
SHADEPLOTCUSTOMDPI
 70
   300
  0
XRECORD
  5
35C
102
{ACAD_REACTORS
330
35B
102
}
330
35B
100
AcDbXrecord
280
     1
102
MATERIAL
148
0.0
149
0.0
149
0.0
 93
        0
 94
      127
282
     0
 72
     1
 77
     1
171
     1
175
     1
179
     1
273
     0
  0
XRECORD
  5
35A
102
{ACAD_REACTORS
330
359
102
}
330
359
100
AcDbXrecord
280
     1
102
MATERIAL
148
0.0
149
0.0
149
0.0
 93
        0
 94
      127
282
     0
 72
     1
 77
     1
171
     1
175
     1
179
     1
273
     0
  0
XRECORD
  5
35E
102
{ACAD_REACTORS
330
35D
102
}
330
35D
100
AcDbXrecord
280
     1
102
MATERIAL
148
0.0
149
0.0
149
0.0
 93
        0
 94
      127
282
     0
 72
     1
 77
     1
171
     1
175
     1
179
     1
273
     0
  0
XRECORD
  5
C6A
102
{ACAD_REACTORS
330
C69
102
}
330
C69
100
AcDbXrecord
280
     1
102
DISPLAYNAME
  1
Metric50
102
FLAGS
 90
        0
  0
CELLSTYLEMAP
  5
C31
102
{ACAD_REACTORS
330
B37
102
}
330
B37
100
AcDbCellStyleMap
 90
        3
300
CELLSTYLE
  1
TABLEFORMAT_BEGIN
 90
        5
170
     1
 91
        0
 92
    32768
 62
   257
 93
        1
300
CONTENTFORMAT
  1
CONTENTFORMAT_BEGIN
 90
        0
 91
        0
 92
        4
 93
        0
300

 40
0.0
140
1.0
 94
        5
 62
     0
340
11
144
6.0
309
CONTENTFORMAT_END
171
     1
301
MARGIN
  1
CELLMARGIN_BEGIN
 40
1.5
 40
1.5
 40
1.5
 40
1.5
 40
0.18
 40
0.18
309
CELLMARGIN_END
 94
        6
 95
        1
302
GRIDFORMAT
  1
GRIDFORMAT_BEGIN
 90
        0
 91
        1
 62
     0
 92
       -2
340
0
 93
        0
 40
0.045
309
GRIDFORMAT_END
 95
        2
302
GRIDFORMAT
  1
GRIDFORMAT_BEGIN
 90
        0
 91
        1
 62
     0
 92
       -2
340
0
 93
        0
 40
0.045
309
GRIDFORMAT_END
 95
        4
302
GRIDFORMAT
  1
GRIDFORMAT_BEGIN
 90
        0
 91
        1
 62
     0
 92
       -2
340
0
 93
        0
 40
0.045
309
GRIDFORMAT_END
 95
        8
302
GRIDFORMAT
  1
GRIDFORMAT_BEGIN
 90
        0
 91
        1
 62
     0
 92
       -2
340
0
 93
        0
 40
0.045
309
GRIDFORMAT_END
 95
       16
302
GRIDFORMAT
  1
GRIDFORMAT_BEGIN
 90
        0
 91
        1
 62
     0
 92
       -2
340
0
 93
        0
 40
0.045
309
GRIDFORMAT_END
 95
       32
302
GRIDFORMAT
  1
GRIDFORMAT_BEGIN
 90
        0
 91
        1
 62
     0
 92
       -2
340
0
 93
        0
 40
0.045
309
GRIDFORMAT_END
309
TABLEFORMAT_END
  1
CELLSTYLE_BEGIN
 90
        1
 91
        1
300
_TITLE
309
CELLSTYLE_END
300
CELLSTYLE
  1
TABLEFORMAT_BEGIN
 90
        5
170
     1
 91
        0
 92
        0
 62
   257
 93
        1
300
CONTENTFORMAT
  1
CONTENTFORMAT_BEGIN
 90
        0
 91
        0
 92
        4
 93
        0
300

 40
0.0
140
1.0
 94
        5
 62
     0
340
11
144
4.5
309
CONTENTFORMAT_END
171
     1
301
MARGIN
  1
CELLMARGIN_BEGIN
 40
1.5
 40
1.5
 40
1.5
 40
1.5
 40
0.18
 40
0.18
309
CELLMARGIN_END
 94
        6
 95
        1
302
GRIDFORMAT
  1
GRIDFORMAT_BEGIN
 90
        0
 91
        1
 62
     0
 92
       -2
340
0
 93
        0
 40
0.045
309
GRIDFORMAT_END
 95
        2
302
GRIDFORMAT
  1
GRIDFORMAT_BEGIN
 90
        0
 91
        1
 62
     0
 92
       -2
340
0
 93
        0
 40
0.045
309
GRIDFORMAT_END
 95
        4
302
GRIDFORMAT
  1
GRIDFORMAT_BEGIN
 90
        0
 91
        1
 62
     0
 92
       -2
340
0
 93
        0
 40
0.045
309
GRIDFORMAT_END
 95
        8
302
GRIDFORMAT
  1
GRIDFORMAT_BEGIN
 90
        0
 91
        1
 62
     0
 92
       -2
340
0
 93
        0
 40
0.045
309
GRIDFORMAT_END
 95
       16
302
GRIDFORMAT
  1
GRIDFORMAT_BEGIN
 90
        0
 91
        1
 62
     0
 92
       -2
340
0
 93
        0
 40
0.045
309
GRIDFORMAT_END
 95
       32
302
GRIDFORMAT
  1
GRIDFORMAT_BEGIN
 90
        0
 91
        1
 62
     0
 92
       -2
340
0
 93
        0
 40
0.045
309
GRIDFORMAT_END
309
TABLEFORMAT_END
  1
CELLSTYLE_BEGIN
 90
        2
 91
        1
300
_HEADER
309
CELLSTYLE_END
300
CELLSTYLE
  1
TABLEFORMAT_BEGIN
 90
        5
170
     1
 91
        0
 92
        0
 62
   257
 93
        1
300
CONTENTFORMAT
  1
CONTENTFORMAT_BEGIN
 90
        0
 91
        0
 92
        4
 93
        0
300

 40
0.0
140
1.0
 94
        2
 62
     0
340
11
144
4.5
309
CONTENTFORMAT_END
171
     1
301
MARGIN
  1
CELLMARGIN_BEGIN
 40
1.5
 40
1.5
 40
1.5
 40
1.5
 40
0.18
 40
0.18
309
CELLMARGIN_END
 94
        6
 95
        1
302
GRIDFORMAT
  1
GRIDFORMAT_BEGIN
 90
        0
 91
        1
 62
     0
 92
       -2
340
0
 93
        0
 40
0.045
309
GRIDFORMAT_END
 95
        2
302
GRIDFORMAT
  1
GRIDFORMAT_BEGIN
 90
        0
 91
        1
 62
     0
 92
       -2
340
0
 93
        0
 40
0.045
309
GRIDFORMAT_END
 95
        4
302
GRIDFORMAT
  1
GRIDFORMAT_BEGIN
 90
        0
 91
        1
 62
     0
 92
       -2
340
0
 93
        0
 40
0.045
309
GRIDFORMAT_END
 95
        8
302
GRIDFORMAT
  1
GRIDFORMAT_BEGIN
 90
        0
 91
        1
 62
     0
 92
       -2
340
0
 93
        0
 40
0.045
309
GRIDFORMAT_END
 95
       16
302
GRIDFORMAT
  1
GRIDFORMAT_BEGIN
 90
        0
 91
        1
 62
     0
 92
       -2
340
0
 93
        0
 40
0.045
309
GRIDFORMAT_END
 95
       32
302
GRIDFORMAT
  1
GRIDFORMAT_BEGIN
 90
        0
 91
        1
 62
     0
 92
       -2
340
0
 93
        0
 40
0.045
309
GRIDFORMAT_END
309
TABLEFORMAT_END
  1
CELLSTYLE_BEGIN
 90
        3
 91
        2
300
_DATA
309
CELLSTYLE_END
  0
XRECORD
  5
C68
102
{ACAD_REACTORS
330
B37
102
}
330
B37
100
AcDbXrecord
280
     1
102
ACAD_ROUNDTRIP_PRE2007_TABLESTYLE
 90
        4
 91
        0
  1

 92
        4
 93
        0
  2

 94
        4
 95
        0
  3

  0
XRECORD
  5
C41
102
{ACAD_REACTORS
330
C40
102
}
330
C40
100
AcDbXrecord
280
     1
102
RTVSPost2010Prop28
280
     1
102
RTVSPost2010PropOp28
 70
     1
102
RTVSPost2010Prop29
280
     1
102
RTVSPost2010PropOp29
 70
     1
102
RTVSPost2010Prop30
280
     0
102
RTVSPost2010PropOp30
 70
     1
102
RTVSPost2010Prop31
280
     0
102
RTVSPost2010PropOp31
 70
     1
102
RTVSPost2010Prop32
280
     0
102
RTVSPost2010PropOp32
 70
     1
102
RTVSPost2010Prop33
280
     0
102
RTVSPost2010PropOp33
 70
     1
102
RTVSPost2010Prop34
280
     0
102
RTVSPost2010PropOp34
 70
     1
102
RTVSPost2010Prop35
280
     0
102
RTVSPost2010PropOp35
 70
     1
102
RTVSPost2010Prop36
280
     0
102
RTVSPost2010PropOp36
 70
     1
102
RTVSPost2010Prop37
 90
       50
102
RTVSPost2010PropOp37
 70
     1
102
RTVSPost2010Prop38
140
0.0
102
RTVSPost2010PropOp38
 70
     1
102
RTVSPost2010Prop39
140
1.0
102
RTVSPost2010PropOp39
 70
     1
102
RTVSPost2010Prop40
 90
        0
102
RTVSPost2010PropOp40
 70
     1
102
RTVSPost2010Prop41ColorIndex
 90
       18
102
RTVSPost2010Prop41ColorRGB
 90
        0
102
RTVSPost2010PropOp41
 70
     1
102
RTVSPost2010Prop42
 90
       50
102
RTVSPost2010PropOp42
 70
     1
102
RTVSPost2010Prop43
 90
        3
102
RTVSPost2010PropOp43
 70
     1
102
RTVSPost2010Prop44ColorIndex
 90
        5
102
RTVSPost2010Prop44ColorRGB
 90
      255
102
RTVSPost2010PropOp44
 70
     1
102
RTVSPost2010Prop45
280
     0
102
RTVSPost2010PropOp45
 70
     1
102
RTVSPost2010Prop46
 90
       50
102
RTVSPost2010PropOp46
 70
     1
102
RTVSPost2010Prop47
 90
       50
102
RTVSPost2010PropOp47
 70
     1
102
RTVSPost2010Prop48
 90
       50
102
RTVSPost2010PropOp48
 70
     1
102
RTVSPost2010Prop49
280
     0
102
RTVSPost2010PropOp49
 70
     1
102
RTVSPost2010Prop50
 90
       50
102
RTVSPost2010PropOp50
 70
     1
102
RTVSPost2010Prop51ColorIndex
 90
      256
102
RTVSPost2010Prop51ColorRGB
 90
-16777216
102
RTVSPost2010PropOp51
 70
     0
102
RTVSPost2010Prop52
140
1.0
102
RTVSPost2010PropOp52
 70
     0
102
RTVSPost2010Prop53
 90
        2
102
RTVSPost2010PropOp53
 70
     1
102
RTVSPost2010Prop54
  1
strokes_ogs.tif
102
RTVSPost2010PropOp54
 70
     1
102
RTVSPost2010Prop55
280
     0
102
RTVSPost2010PropOp55
 70
     1
102
RTVSPost2010Prop56
140
1.0
102
RTVSPost2010PropOp56
 70
     1
102
RTVSPost2010Prop57
140
1.0
102
RTVSPost2010PropOp57
 70
     1
102
RTVSPropertyOp0
 70
     1
102
RTVSPropertyOp1
 70
     1
102
RTVSPropertyOp2
 70
     1
102
RTVSPropertyOp3
 70
     1
102
RTVSPropertyOp4
 70
     1
102
RTVSPropertyOp5
 70
     1
102
RTVSPropertyOp6
 70
     1
102
RTVSPropertyOp7
 70
     1
102
RTVSPropertyOp8
 70
     1
102
RTVSPropertyOp9
 70
     1
102
RTVSPropertyOp10
 70
     1
102
RTVSPropertyOp11
 70
     1
102
RTVSPropertyOp12
 70
     1
102
RTVSPropertyOp13
 70
     1
102
RTVSPropertyOp14
 70
     1
102
RTVSPropertyOp15
 70
     1
102
RTVSPropertyOp16
 70
     1
102
RTVSPropertyOp17
 70
     1
102
RTVSPropertyOp18
 70
     1
102
RTVSPropertyOp19
 70
     1
102
RTVSPropertyOp20
 70
     1
102
RTVSPropertyOp21
 70
     1
102
RTVSPropertyOp22
 70
     1
102
RTVSPropertyOp23
 70
     1
102
RTVSPropertyOp24
 70
     1
102
RTVSPropertyOp25
 70
     1
102
RTVSPropertyOp26
 70
     1
102
RTVSPropertyOp27
 70
     1
102
RTVSPropertyOp28
 70
     1
102
RTVSPropertyOp29
 70
     1
102
RTVSPropertyOp30
 70
     1
102
RTVSPropertyOp31
 70
     1
102
RTVSPropertyOp32
 70
     1
102
RTVSPropertyOp33
 70
     1
102
RTVSPropertyOp34
 70
     1
102
RTVSPropertyOp35
 70
     1
102
RTVSPropertyOp36
 70
     1
102
RTVSPropertyOp37
 70
     1
102
RTVSPropertyOp38
 70
     1
102
RTVSPropertyOp39
 70
     1
102
RTVSPropertyOp40
 70
     1
102
RTVSPropertyOp41
 70
     1
102
RTVSPropertyOp42
 70
     1
102
RTVSPropertyOp43
 70
     1
102
RTVSPropertyOp44
 70
     1
102
RTVSPropertyOp45
 70
     1
102
RTVSPropertyOp46
 70
     1
102
RTVSPropertyOp47
 70
     1
102
RTVSPropertyOp48
 70
     1
102
RTVSPropertyOp49
 70
     1
102
RTVSPropertyOp50
 70
     1
102
RTVSPropertyOp51
 70
     0
102
RTVSPropertyOp52
 70
     0
102
RTVSPropertyOp53
 70
     1
102
RTVSPropertyOp54
 70
     1
102
RTVSPropertyOp55
 70
     1
102
RTVSPropertyOp56
 70
     1
102
RTVSPropertyOp57
 70
     1
102
RTVSPropertyOp58
 70
     1
102
RTVSPropertyOp59
 70
     1
102
RTVSPropertyOp60
 70
     1
102
RTVSPropertyOp61
 70
     1
102
RTVSPropertyOp62
 70
     1
  0
XRECORD
  5
C47
102
{ACAD_REACTORS
330
C46
102
}
330
C46
100
AcDbXrecord
280
     1
102
RTVSPost2010Prop28
280
     0
102
RTVSPost2010PropOp28
 70
     1
102
RTVSPost2010Prop29
280
     1
102
RTVSPost2010PropOp29
 70
     1
102
RTVSPost2010Prop30
280
     1
102
RTVSPost2010PropOp30
 70
     1
102
RTVSPost2010Prop31
280
     0
102
RTVSPost2010PropOp31
 70
     1
102
RTVSPost2010Prop32
280
     0
102
RTVSPost2010PropOp32
 70
     1
102
RTVSPost2010Prop33
280
     0
102
RTVSPost2010PropOp33
 70
     1
102
RTVSPost2010Prop34
280
     0
102
RTVSPost2010PropOp34
 70
     1
102
RTVSPost2010Prop35
280
     0
102
RTVSPost2010PropOp35
 70
     1
102
RTVSPost2010Prop36
280
     0
102
RTVSPost2010PropOp36
 70
     1
102
RTVSPost2010Prop37
 90
       50
102
RTVSPost2010PropOp37
 70
     1
102
RTVSPost2010Prop38
140
0.0
102
RTVSPost2010PropOp38
 70
     1
102
RTVSPost2010Prop39
140
1.0
102
RTVSPost2010PropOp39
 70
     1
102
RTVSPost2010Prop40
 90
        0
102
RTVSPost2010PropOp40
 70
     1
102
RTVSPost2010Prop41ColorIndex
 90
       18
102
RTVSPost2010Prop41ColorRGB
 90
        0
102
RTVSPost2010PropOp41
 70
     1
102
RTVSPost2010Prop42
 90
       50
102
RTVSPost2010PropOp42
 70
     1
102
RTVSPost2010Prop43
 90
        3
102
RTVSPost2010PropOp43
 70
     1
102
RTVSPost2010Prop44ColorIndex
 90
        5
102
RTVSPost2010Prop44ColorRGB
 90
      255
102
RTVSPost2010PropOp44
 70
     1
102
RTVSPost2010Prop45
280
     0
102
RTVSPost2010PropOp45
 70
     1
102
RTVSPost2010Prop46
 90
       50
102
RTVSPost2010PropOp46
 70
     1
102
RTVSPost2010Prop47
 90
       50
102
RTVSPost2010PropOp47
 70
     1
102
RTVSPost2010Prop48
 90
       50
102
RTVSPost2010PropOp48
 70
     1
102
RTVSPost2010Prop49
280
     0
102
RTVSPost2010PropOp49
 70
     1
102
RTVSPost2010Prop50
 90
       50
102
RTVSPost2010PropOp50
 70
     1
102
RTVSPost2010Prop51ColorIndex
 90
      256
102
RTVSPost2010Prop51ColorRGB
 90
-16777216
102
RTVSPost2010PropOp51
 70
     0
102
RTVSPost2010Prop52
140
1.0
102
RTVSPost2010PropOp52
 70
     0
102
RTVSPost2010Prop53
 90
        2
102
RTVSPost2010PropOp53
 70
     1
102
RTVSPost2010Prop54
  1
strokes_ogs.tif
102
RTVSPost2010PropOp54
 70
     1
102
RTVSPost2010Prop55
280
     0
102
RTVSPost2010PropOp55
 70
     1
102
RTVSPost2010Prop56
140
1.0
102
RTVSPost2010PropOp56
 70
     1
102
RTVSPost2010Prop57
140
1.0
102
RTVSPost2010PropOp57
 70
     1
102
RTVSPropertyOp0
 70
     1
102
RTVSPropertyOp1
 70
     1
102
RTVSPropertyOp2
 70
     1
102
RTVSPropertyOp3
 70
     1
102
RTVSPropertyOp4
 70
     1
102
RTVSPropertyOp5
 70
     1
102
RTVSPropertyOp6
 70
     1
102
RTVSPropertyOp7
 70
     1
102
RTVSPropertyOp8
 70
     1
102
RTVSPropertyOp9
 70
     1
102
RTVSPropertyOp10
 70
     1
102
RTVSPropertyOp11
 70
     1
102
RTVSPropertyOp12
 70
     1
102
RTVSPropertyOp13
 70
     1
102
RTVSPropertyOp14
 70
     1
102
RTVSPropertyOp15
 70
     1
102
RTVSPropertyOp16
 70
     1
102
RTVSPropertyOp17
 70
     1
102
RTVSPropertyOp18
 70
     1
102
RTVSPropertyOp19
 70
     1
102
RTVSPropertyOp20
 70
     1
102
RTVSPropertyOp21
 70
     1
102
RTVSPropertyOp22
 70
     1
102
RTVSPropertyOp23
 70
     1
102
RTVSPropertyOp24
 70
     1
102
RTVSPropertyOp25
 70
     1
102
RTVSPropertyOp26
 70
     1
102
RTVSPropertyOp27
 70
     1
102
RTVSPropertyOp28
 70
     1
102
RTVSPropertyOp29
 70
     1
102
RTVSPropertyOp30
 70
     1
102
RTVSPropertyOp31
 70
     1
102
RTVSPropertyOp32
 70
     1
102
RTVSPropertyOp33
 70
     1
102
RTVSPropertyOp34
 70
     1
102
RTVSPropertyOp35
 70
     1
102
RTVSPropertyOp36
 70
     1
102
RTVSPropertyOp37
 70
     1
102
RTVSPropertyOp38
 70
     1
102
RTVSPropertyOp39
 70
     1
102
RTVSPropertyOp40
 70
     1
102
RTVSPropertyOp41
 70
     1
102
RTVSPropertyOp42
 70
     1
102
RTVSPropertyOp43
 70
     1
102
RTVSPropertyOp44
 70
     1
102
RTVSPropertyOp45
 70
     1
102
RTVSPropertyOp46
 70
     1
102
RTVSPropertyOp47
 70
     1
102
RTVSPropertyOp48
 70
     1
102
RTVSPropertyOp49
 70
     1
102
RTVSPropertyOp50
 70
     1
102
RTVSPropertyOp51
 70
     0
102
RTVSPropertyOp52
 70
     0
102
RTVSPropertyOp53
 70
     1
102
RTVSPropertyOp54
 70
     1
102
RTVSPropertyOp55
 70
     1
102
RTVSPropertyOp56
 70
     1
102
RTVSPropertyOp57
 70
     1
102
RTVSPropertyOp58
 70
     1
102
RTVSPropertyOp59
 70
     1
102
RTVSPropertyOp60
 70
     1
102
RTVSPropertyOp61
 70
     1
102
RTVSPropertyOp62
 70
     1
  0
XRECORD
  5
C4F
102
{ACAD_REACTORS
330
C4E
102
}
330
C4E
100
AcDbXrecord
280
     1
102
RTVSPost2010Prop28
280
     0
102
RTVSPost2010PropOp28
 70
     1
102
RTVSPost2010Prop29
280
     1
102
RTVSPost2010PropOp29
 70
     1
102
RTVSPost2010Prop30
280
     1
102
RTVSPost2010PropOp30
 70
     1
102
RTVSPost2010Prop31
280
     0
102
RTVSPost2010PropOp31
 70
     1
102
RTVSPost2010Prop32
280
     0
102
RTVSPost2010PropOp32
 70
     1
102
RTVSPost2010Prop33
280
     0
102
RTVSPost2010PropOp33
 70
     1
102
RTVSPost2010Prop34
280
     0
102
RTVSPost2010PropOp34
 70
     1
102
RTVSPost2010Prop35
280
     0
102
RTVSPost2010PropOp35
 70
     1
102
RTVSPost2010Prop36
280
     0
102
RTVSPost2010PropOp36
 70
     1
102
RTVSPost2010Prop37
 90
       50
102
RTVSPost2010PropOp37
 70
     1
102
RTVSPost2010Prop38
140
0.0
102
RTVSPost2010PropOp38
 70
     1
102
RTVSPost2010Prop39
140
1.0
102
RTVSPost2010PropOp39
 70
     1
102
RTVSPost2010Prop40
 90
        0
102
RTVSPost2010PropOp40
 70
     1
102
RTVSPost2010Prop41ColorIndex
 90
       18
102
RTVSPost2010Prop41ColorRGB
 90
        0
102
RTVSPost2010PropOp41
 70
     1
102
RTVSPost2010Prop42
 90
       50
102
RTVSPost2010PropOp42
 70
     1
102
RTVSPost2010Prop43
 90
        3
102
RTVSPost2010PropOp43
 70
     1
102
RTVSPost2010Prop44ColorIndex
 90
        5
102
RTVSPost2010Prop44ColorRGB
 90
      255
102
RTVSPost2010PropOp44
 70
     1
102
RTVSPost2010Prop45
280
     0
102
RTVSPost2010PropOp45
 70
     1
102
RTVSPost2010Prop46
 90
       50
102
RTVSPost2010PropOp46
 70
     1
102
RTVSPost2010Prop47
 90
       50
102
RTVSPost2010PropOp47
 70
     1
102
RTVSPost2010Prop48
 90
       50
102
RTVSPost2010PropOp48
 70
     1
102
RTVSPost2010Prop49
280
     0
102
RTVSPost2010PropOp49
 70
     1
102
RTVSPost2010Prop50
 90
       50
102
RTVSPost2010PropOp50
 70
     1
102
RTVSPost2010Prop51ColorIndex
 90
      256
102
RTVSPost2010Prop51ColorRGB
 90
-16777216
102
RTVSPost2010PropOp51
 70
     0
102
RTVSPost2010Prop52
140
1.0
102
RTVSPost2010PropOp52
 70
     0
102
RTVSPost2010Prop53
 90
        2
102
RTVSPost2010PropOp53
 70
     1
102
RTVSPost2010Prop54
  1
strokes_ogs.tif
102
RTVSPost2010PropOp54
 70
     1
102
RTVSPost2010Prop55
280
     0
102
RTVSPost2010PropOp55
 70
     1
102
RTVSPost2010Prop56
140
1.0
102
RTVSPost2010PropOp56
 70
     1
102
RTVSPost2010Prop57
140
1.0
102
RTVSPost2010PropOp57
 70
     1
102
RTVSPropertyOp0
 70
     1
102
RTVSPropertyOp1
 70
     1
102
RTVSPropertyOp2
 70
     1
102
RTVSPropertyOp3
 70
     1
102
RTVSPropertyOp4
 70
     1
102
RTVSPropertyOp5
 70
     1
102
RTVSPropertyOp6
 70
     1
102
RTVSPropertyOp7
 70
     1
102
RTVSPropertyOp8
 70
     1
102
RTVSPropertyOp9
 70
     1
102
RTVSPropertyOp10
 70
     1
102
RTVSPropertyOp11
 70
     1
102
RTVSPropertyOp12
 70
     1
102
RTVSPropertyOp13
 70
     1
102
RTVSPropertyOp14
 70
     1
102
RTVSPropertyOp15
 70
     1
102
RTVSPropertyOp16
 70
     1
102
RTVSPropertyOp17
 70
     1
102
RTVSPropertyOp18
 70
     1
102
RTVSPropertyOp19
 70
     1
102
RTVSPropertyOp20
 70
     1
102
RTVSPropertyOp21
 70
     1
102
RTVSPropertyOp22
 70
     1
102
RTVSPropertyOp23
 70
     1
102
RTVSPropertyOp24
 70
     1
102
RTVSPropertyOp25
 70
     1
102
RTVSPropertyOp26
 70
     1
102
RTVSPropertyOp27
 70
     1
102
RTVSPropertyOp28
 70
     1
102
RTVSPropertyOp29
 70
     1
102
RTVSPropertyOp30
 70
     1
102
RTVSPropertyOp31
 70
     1
102
RTVSPropertyOp32
 70
     1
102
RTVSPropertyOp33
 70
     1
102
RTVSPropertyOp34
 70
     1
102
RTVSPropertyOp35
 70
     1
102
RTVSPropertyOp36
 70
     1
102
RTVSPropertyOp37
 70
     1
102
RTVSPropertyOp38
 70
     1
102
RTVSPropertyOp39
 70
     1
102
RTVSPropertyOp40
 70
     1
102
RTVSPropertyOp41
 70
     1
102
RTVSPropertyOp42
 70
     1
102
RTVSPropertyOp43
 70
     1
102
RTVSPropertyOp44
 70
     1
102
RTVSPropertyOp45
 70
     1
102
RTVSPropertyOp46
 70
     1
102
RTVSPropertyOp47
 70
     1
102
RTVSPropertyOp48
 70
     1
102
RTVSPropertyOp49
 70
     1
102
RTVSPropertyOp50
 70
     1
102
RTVSPropertyOp51
 70
     0
102
RTVSPropertyOp52
 70
     0
102
RTVSPropertyOp53
 70
     1
102
RTVSPropertyOp54
 70
     1
102
RTVSPropertyOp55
 70
     1
102
RTVSPropertyOp56
 70
     1
102
RTVSPropertyOp57
 70
     1
102
RTVSPropertyOp58
 70
     1
102
RTVSPropertyOp59
 70
     1
102
RTVSPropertyOp60
 70
     1
102
RTVSPropertyOp61
 70
     1
102
RTVSPropertyOp62
 70
     1
  0
XRECORD
  5
C57
102
{ACAD_REACTORS
330
C56
102
}
330
C56
100
AcDbXrecord
280
     1
102
RTVSPost2010Prop28
280
     0
102
RTVSPost2010PropOp28
 70
     1
102
RTVSPost2010Prop29
280
     1
102
RTVSPost2010PropOp29
 70
     1
102
RTVSPost2010Prop30
280
     1
102
RTVSPost2010PropOp30
 70
     1
102
RTVSPost2010Prop31
280
     0
102
RTVSPost2010PropOp31
 70
     1
102
RTVSPost2010Prop32
280
     0
102
RTVSPost2010PropOp32
 70
     1
102
RTVSPost2010Prop33
280
     0
102
RTVSPost2010PropOp33
 70
     1
102
RTVSPost2010Prop34
280
     0
102
RTVSPost2010PropOp34
 70
     1
102
RTVSPost2010Prop35
280
     0
102
RTVSPost2010PropOp35
 70
     1
102
RTVSPost2010Prop36
280
     0
102
RTVSPost2010PropOp36
 70
     1
102
RTVSPost2010Prop37
 90
       50
102
RTVSPost2010PropOp37
 70
     1
102
RTVSPost2010Prop38
140
0.0
102
RTVSPost2010PropOp38
 70
     1
102
RTVSPost2010Prop39
140
1.0
102
RTVSPost2010PropOp39
 70
     1
102
RTVSPost2010Prop40
 90
        0
102
RTVSPost2010PropOp40
 70
     1
102
RTVSPost2010Prop41ColorIndex
 90
       18
102
RTVSPost2010Prop41ColorRGB
 90
        0
102
RTVSPost2010PropOp41
 70
     1
102
RTVSPost2010Prop42
 90
       50
102
RTVSPost2010PropOp42
 70
     1
102
RTVSPost2010Prop43
 90
        3
102
RTVSPost2010PropOp43
 70
     1
102
RTVSPost2010Prop44ColorIndex
 90
        5
102
RTVSPost2010Prop44ColorRGB
 90
      255
102
RTVSPost2010PropOp44
 70
     1
102
RTVSPost2010Prop45
280
     0
102
RTVSPost2010PropOp45
 70
     1
102
RTVSPost2010Prop46
 90
       50
102
RTVSPost2010PropOp46
 70
     1
102
RTVSPost2010Prop47
 90
       50
102
RTVSPost2010PropOp47
 70
     1
102
RTVSPost2010Prop48
 90
       50
102
RTVSPost2010PropOp48
 70
     1
102
RTVSPost2010Prop49
280
     0
102
RTVSPost2010PropOp49
 70
     1
102
RTVSPost2010Prop50
 90
       50
102
RTVSPost2010PropOp50
 70
     1
102
RTVSPost2010Prop51ColorIndex
 90
      256
102
RTVSPost2010Prop51ColorRGB
 90
-16777216
102
RTVSPost2010PropOp51
 70
     0
102
RTVSPost2010Prop52
140
1.0
102
RTVSPost2010PropOp52
 70
     0
102
RTVSPost2010Prop53
 90
        2
102
RTVSPost2010PropOp53
 70
     1
102
RTVSPost2010Prop54
  1
strokes_ogs.tif
102
RTVSPost2010PropOp54
 70
     1
102
RTVSPost2010Prop55
280
     0
102
RTVSPost2010PropOp55
 70
     1
102
RTVSPost2010Prop56
140
1.0
102
RTVSPost2010PropOp56
 70
     1
102
RTVSPost2010Prop57
140
1.0
102
RTVSPost2010PropOp57
 70
     1
102
RTVSPropertyOp0
 70
     1
102
RTVSPropertyOp1
 70
     1
102
RTVSPropertyOp2
 70
     1
102
RTVSPropertyOp3
 70
     1
102
RTVSPropertyOp4
 70
     1
102
RTVSPropertyOp5
 70
     1
102
RTVSPropertyOp6
 70
     1
102
RTVSPropertyOp7
 70
     1
102
RTVSPropertyOp8
 70
     1
102
RTVSPropertyOp9
 70
     1
102
RTVSPropertyOp10
 70
     1
102
RTVSPropertyOp11
 70
     1
102
RTVSPropertyOp12
 70
     1
102
RTVSPropertyOp13
 70
     1
102
RTVSPropertyOp14
 70
     1
102
RTVSPropertyOp15
 70
     1
102
RTVSPropertyOp16
 70
     1
102
RTVSPropertyOp17
 70
     1
102
RTVSPropertyOp18
 70
     1
102
RTVSPropertyOp19
 70
     1
102
RTVSPropertyOp20
 70
     1
102
RTVSPropertyOp21
 70
     1
102
RTVSPropertyOp22
 70
     1
102
RTVSPropertyOp23
 70
     1
102
RTVSPropertyOp24
 70
     1
102
RTVSPropertyOp25
 70
     1
102
RTVSPropertyOp26
 70
     1
102
RTVSPropertyOp27
 70
     1
102
RTVSPropertyOp28
 70
     1
102
RTVSPropertyOp29
 70
     1
102
RTVSPropertyOp30
 70
     1
102
RTVSPropertyOp31
 70
     1
102
RTVSPropertyOp32
 70
     1
102
RTVSPropertyOp33
 70
     1
102
RTVSPropertyOp34
 70
     1
102
RTVSPropertyOp35
 70
     1
102
RTVSPropertyOp36
 70
     1
102
RTVSPropertyOp37
 70
     1
102
RTVSPropertyOp38
 70
     1
102
RTVSPropertyOp39
 70
     1
102
RTVSPropertyOp40
 70
     1
102
RTVSPropertyOp41
 70
     1
102
RTVSPropertyOp42
 70
     1
102
RTVSPropertyOp43
 70
     1
102
RTVSPropertyOp44
 70
     1
102
RTVSPropertyOp45
 70
     1
102
RTVSPropertyOp46
 70
     1
102
RTVSPropertyOp47
 70
     1
102
RTVSPropertyOp48
 70
     1
102
RTVSPropertyOp49
 70
     1
102
RTVSPropertyOp50
 70
     1
102
RTVSPropertyOp51
 70
     0
102
RTVSPropertyOp52
 70
     0
102
RTVSPropertyOp53
 70
     1
102
RTVSPropertyOp54
 70
     1
102
RTVSPropertyOp55
 70
     1
102
RTVSPropertyOp56
 70
     1
102
RTVSPropertyOp57
 70
     1
102
RTVSPropertyOp58
 70
     1
102
RTVSPropertyOp59
 70
     1
102
RTVSPropertyOp60
 70
     1
102
RTVSPropertyOp61
 70
     1
102
RTVSPropertyOp62
 70
     1
  0
XRECORD
  5
C4B
102
{ACAD_REACTORS
330
C4A
102
}
330
C4A
100
AcDbXrecord
280
     1
102
RTVSPost2010Prop28
280
     0
102
RTVSPost2010PropOp28
 70
     1
102
RTVSPost2010Prop29
280
     1
102
RTVSPost2010PropOp29
 70
     1
102
RTVSPost2010Prop30
280
     1
102
RTVSPost2010PropOp30
 70
     1
102
RTVSPost2010Prop31
280
     0
102
RTVSPost2010PropOp31
 70
     1
102
RTVSPost2010Prop32
280
     0
102
RTVSPost2010PropOp32
 70
     1
102
RTVSPost2010Prop33
280
     0
102
RTVSPost2010PropOp33
 70
     1
102
RTVSPost2010Prop34
280
     0
102
RTVSPost2010PropOp34
 70
     1
102
RTVSPost2010Prop35
280
     0
102
RTVSPost2010PropOp35
 70
     1
102
RTVSPost2010Prop36
280
     0
102
RTVSPost2010PropOp36
 70
     1
102
RTVSPost2010Prop37
 90
       50
102
RTVSPost2010PropOp37
 70
     1
102
RTVSPost2010Prop38
140
0.0
102
RTVSPost2010PropOp38
 70
     1
102
RTVSPost2010Prop39
140
1.0
102
RTVSPost2010PropOp39
 70
     1
102
RTVSPost2010Prop40
 90
        0
102
RTVSPost2010PropOp40
 70
     1
102
RTVSPost2010Prop41ColorIndex
 90
       18
102
RTVSPost2010Prop41ColorRGB
 90
        0
102
RTVSPost2010PropOp41
 70
     1
102
RTVSPost2010Prop42
 90
       50
102
RTVSPost2010PropOp42
 70
     1
102
RTVSPost2010Prop43
 90
        3
102
RTVSPost2010PropOp43
 70
     1
102
RTVSPost2010Prop44ColorIndex
 90
        5
102
RTVSPost2010Prop44ColorRGB
 90
      255
102
RTVSPost2010PropOp44
 70
     1
102
RTVSPost2010Prop45
280
     0
102
RTVSPost2010PropOp45
 70
     1
102
RTVSPost2010Prop46
 90
       50
102
RTVSPost2010PropOp46
 70
     1
102
RTVSPost2010Prop47
 90
       50
102
RTVSPost2010PropOp47
 70
     1
102
RTVSPost2010Prop48
 90
       50
102
RTVSPost2010PropOp48
 70
     1
102
RTVSPost2010Prop49
280
     0
102
RTVSPost2010PropOp49
 70
     1
102
RTVSPost2010Prop50
 90
       50
102
RTVSPost2010PropOp50
 70
     1
102
RTVSPost2010Prop51ColorIndex
 90
      256
102
RTVSPost2010Prop51ColorRGB
 90
-16777216
102
RTVSPost2010PropOp51
 70
     0
102
RTVSPost2010Prop52
140
1.0
102
RTVSPost2010PropOp52
 70
     0
102
RTVSPost2010Prop53
 90
        2
102
RTVSPost2010PropOp53
 70
     1
102
RTVSPost2010Prop54
  1
strokes_ogs.tif
102
RTVSPost2010PropOp54
 70
     1
102
RTVSPost2010Prop55
280
     0
102
RTVSPost2010PropOp55
 70
     1
102
RTVSPost2010Prop56
140
1.0
102
RTVSPost2010PropOp56
 70
     1
102
RTVSPost2010Prop57
140
1.0
102
RTVSPost2010PropOp57
 70
     1
102
RTVSPropertyOp0
 70
     1
102
RTVSPropertyOp1
 70
     1
102
RTVSPropertyOp2
 70
     1
102
RTVSPropertyOp3
 70
     1
102
RTVSPropertyOp4
 70
     1
102
RTVSPropertyOp5
 70
     1
102
RTVSPropertyOp6
 70
     1
102
RTVSPropertyOp7
 70
     1
102
RTVSPropertyOp8
 70
     1
102
RTVSPropertyOp9
 70
     1
102
RTVSPropertyOp10
 70
     1
102
RTVSPropertyOp11
 70
     1
102
RTVSPropertyOp12
 70
     1
102
RTVSPropertyOp13
 70
     1
102
RTVSPropertyOp14
 70
     1
102
RTVSPropertyOp15
 70
     1
102
RTVSPropertyOp16
 70
     1
102
RTVSPropertyOp17
 70
     1
102
RTVSPropertyOp18
 70
     1
102
RTVSPropertyOp19
 70
     1
102
RTVSPropertyOp20
 70
     1
102
RTVSPropertyOp21
 70
     1
102
RTVSPropertyOp22
 70
     1
102
RTVSPropertyOp23
 70
     1
102
RTVSPropertyOp24
 70
     1
102
RTVSPropertyOp25
 70
     1
102
RTVSPropertyOp26
 70
     1
102
RTVSPropertyOp27
 70
     1
102
RTVSPropertyOp28
 70
     1
102
RTVSPropertyOp29
 70
     1
102
RTVSPropertyOp30
 70
     1
102
RTVSPropertyOp31
 70
     1
102
RTVSPropertyOp32
 70
     1
102
RTVSPropertyOp33
 70
     1
102
RTVSPropertyOp34
 70
     1
102
RTVSPropertyOp35
 70
     1
102
RTVSPropertyOp36
 70
     1
102
RTVSPropertyOp37
 70
     1
102
RTVSPropertyOp38
 70
     1
102
RTVSPropertyOp39
 70
     1
102
RTVSPropertyOp40
 70
     1
102
RTVSPropertyOp41
 70
     1
102
RTVSPropertyOp42
 70
     1
102
RTVSPropertyOp43
 70
     1
102
RTVSPropertyOp44
 70
     1
102
RTVSPropertyOp45
 70
     1
102
RTVSPropertyOp46
 70
     1
102
RTVSPropertyOp47
 70
     1
102
RTVSPropertyOp48
 70
     1
102
RTVSPropertyOp49
 70
     1
102
RTVSPropertyOp50
 70
     1
102
RTVSPropertyOp51
 70
     0
102
RTVSPropertyOp52
 70
     0
102
RTVSPropertyOp53
 70
     1
102
RTVSPropertyOp54
 70
     1
102
RTVSPropertyOp55
 70
     1
102
RTVSPropertyOp56
 70
     1
102
RTVSPropertyOp57
 70
     1
102
RTVSPropertyOp58
 70
     1
102
RTVSPropertyOp59
 70
     1
102
RTVSPropertyOp60
 70
     1
102
RTVSPropertyOp61
 70
     1
102
RTVSPropertyOp62
 70
     1
  0
XRECORD
  5
C4D
102
{ACAD_REACTORS
330
C4C
102
}
330
C4C
100
AcDbXrecord
280
     1
102
RTVSPost2010Prop28
280
     0
102
RTVSPost2010PropOp28
 70
     1
102
RTVSPost2010Prop29
280
     1
102
RTVSPost2010PropOp29
 70
     1
102
RTVSPost2010Prop30
280
     1
102
RTVSPost2010PropOp30
 70
     1
102
RTVSPost2010Prop31
280
     0
102
RTVSPost2010PropOp31
 70
     1
102
RTVSPost2010Prop32
280
     0
102
RTVSPost2010PropOp32
 70
     1
102
RTVSPost2010Prop33
280
     0
102
RTVSPost2010PropOp33
 70
     1
102
RTVSPost2010Prop34
280
     0
102
RTVSPost2010PropOp34
 70
     1
102
RTVSPost2010Prop35
280
     0
102
RTVSPost2010PropOp35
 70
     1
102
RTVSPost2010Prop36
280
     0
102
RTVSPost2010PropOp36
 70
     1
102
RTVSPost2010Prop37
 90
       50
102
RTVSPost2010PropOp37
 70
     1
102
RTVSPost2010Prop38
140
0.0
102
RTVSPost2010PropOp38
 70
     1
102
RTVSPost2010Prop39
140
1.0
102
RTVSPost2010PropOp39
 70
     1
102
RTVSPost2010Prop40
 90
        0
102
RTVSPost2010PropOp40
 70
     1
102
RTVSPost2010Prop41ColorIndex
 90
       18
102
RTVSPost2010Prop41ColorRGB
 90
        0
102
RTVSPost2010PropOp41
 70
     1
102
RTVSPost2010Prop42
 90
       50
102
RTVSPost2010PropOp42
 70
     1
102
RTVSPost2010Prop43
 90
        3
102
RTVSPost2010PropOp43
 70
     1
102
RTVSPost2010Prop44ColorIndex
 90
        5
102
RTVSPost2010Prop44ColorRGB
 90
      255
102
RTVSPost2010PropOp44
 70
     1
102
RTVSPost2010Prop45
280
     0
102
RTVSPost2010PropOp45
 70
     1
102
RTVSPost2010Prop46
 90
       50
102
RTVSPost2010PropOp46
 70
     1
102
RTVSPost2010Prop47
 90
       50
102
RTVSPost2010PropOp47
 70
     1
102
RTVSPost2010Prop48
 90
       50
102
RTVSPost2010PropOp48
 70
     1
102
RTVSPost2010Prop49
280
     0
102
RTVSPost2010PropOp49
 70
     1
102
RTVSPost2010Prop50
 90
       50
102
RTVSPost2010PropOp50
 70
     1
102
RTVSPost2010Prop51ColorIndex
 90
      256
102
RTVSPost2010Prop51ColorRGB
 90
-16777216
102
RTVSPost2010PropOp51
 70
     0
102
RTVSPost2010Prop52
140
1.0
102
RTVSPost2010PropOp52
 70
     0
102
RTVSPost2010Prop53
 90
        2
102
RTVSPost2010PropOp53
 70
     1
102
RTVSPost2010Prop54
  1
strokes_ogs.tif
102
RTVSPost2010PropOp54
 70
     1
102
RTVSPost2010Prop55
280
     0
102
RTVSPost2010PropOp55
 70
     1
102
RTVSPost2010Prop56
140
1.0
102
RTVSPost2010PropOp56
 70
     1
102
RTVSPost2010Prop57
140
1.0
102
RTVSPost2010PropOp57
 70
     1
102
RTVSPropertyOp0
 70
     1
102
RTVSPropertyOp1
 70
     1
102
RTVSPropertyOp2
 70
     1
102
RTVSPropertyOp3
 70
     1
102
RTVSPropertyOp4
 70
     1
102
RTVSPropertyOp5
 70
     1
102
RTVSPropertyOp6
 70
     1
102
RTVSPropertyOp7
 70
     1
102
RTVSPropertyOp8
 70
     1
102
RTVSPropertyOp9
 70
     1
102
RTVSPropertyOp10
 70
     1
102
RTVSPropertyOp11
 70
     1
102
RTVSPropertyOp12
 70
     1
102
RTVSPropertyOp13
 70
     1
102
RTVSPropertyOp14
 70
     1
102
RTVSPropertyOp15
 70
     1
102
RTVSPropertyOp16
 70
     1
102
RTVSPropertyOp17
 70
     1
102
RTVSPropertyOp18
 70
     1
102
RTVSPropertyOp19
 70
     1
102
RTVSPropertyOp20
 70
     1
102
RTVSPropertyOp21
 70
     1
102
RTVSPropertyOp22
 70
     1
102
RTVSPropertyOp23
 70
     1
102
RTVSPropertyOp24
 70
     1
102
RTVSPropertyOp25
 70
     1
102
RTVSPropertyOp26
 70
     1
102
RTVSPropertyOp27
 70
     1
102
RTVSPropertyOp28
 70
     1
102
RTVSPropertyOp29
 70
     1
102
RTVSPropertyOp30
 70
     1
102
RTVSPropertyOp31
 70
     1
102
RTVSPropertyOp32
 70
     1
102
RTVSPropertyOp33
 70
     1
102
RTVSPropertyOp34
 70
     1
102
RTVSPropertyOp35
 70
     1
102
RTVSPropertyOp36
 70
     1
102
RTVSPropertyOp37
 70
     1
102
RTVSPropertyOp38
 70
     1
102
RTVSPropertyOp39
 70
     1
102
RTVSPropertyOp40
 70
     1
102
RTVSPropertyOp41
 70
     1
102
RTVSPropertyOp42
 70
     1
102
RTVSPropertyOp43
 70
     1
102
RTVSPropertyOp44
 70
     1
102
RTVSPropertyOp45
 70
     1
102
RTVSPropertyOp46
 70
     1
102
RTVSPropertyOp47
 70
     1
102
RTVSPropertyOp48
 70
     1
102
RTVSPropertyOp49
 70
     1
102
RTVSPropertyOp50
 70
     1
102
RTVSPropertyOp51
 70
     0
102
RTVSPropertyOp52
 70
     0
102
RTVSPropertyOp53
 70
     1
102
RTVSPropertyOp54
 70
     1
102
RTVSPropertyOp55
 70
     1
102
RTVSPropertyOp56
 70
     1
102
RTVSPropertyOp57
 70
     1
102
RTVSPropertyOp58
 70
     1
102
RTVSPropertyOp59
 70
     1
102
RTVSPropertyOp60
 70
     1
102
RTVSPropertyOp61
 70
     1
102
RTVSPropertyOp62
 70
     1
  0
XRECORD
  5
C5D
102
{ACAD_REACTORS
330
C5C
102
}
330
C5C
100
AcDbXrecord
280
     1
102
RTVSPost2010Prop28
280
     0
102
RTVSPost2010PropOp28
 70
     0
102
RTVSPost2010Prop29
280
     1
102
RTVSPost2010PropOp29
 70
     0
102
RTVSPost2010Prop30
280
     1
102
RTVSPost2010PropOp30
 70
     0
102
RTVSPost2010Prop31
280
     0
102
RTVSPost2010PropOp31
 70
     0
102
RTVSPost2010Prop32
280
     0
102
RTVSPost2010PropOp32
 70
     0
102
RTVSPost2010Prop33
280
     0
102
RTVSPost2010PropOp33
 70
     0
102
RTVSPost2010Prop34
280
     0
102
RTVSPost2010PropOp34
 70
     0
102
RTVSPost2010Prop35
280
     0
102
RTVSPost2010PropOp35
 70
     0
102
RTVSPost2010Prop36
280
     0
102
RTVSPost2010PropOp36
 70
     0
102
RTVSPost2010Prop37
 90
       50
102
RTVSPost2010PropOp37
 70
     0
102
RTVSPost2010Prop38
140
0.0
102
RTVSPost2010PropOp38
 70
     0
102
RTVSPost2010Prop39
140
1.0
102
RTVSPost2010PropOp39
 70
     0
102
RTVSPost2010Prop40
 90
        0
102
RTVSPost2010PropOp40
 70
     0
102
RTVSPost2010Prop41ColorIndex
 90
       18
102
RTVSPost2010Prop41ColorRGB
 90
        0
102
RTVSPost2010PropOp41
 70
     0
102
RTVSPost2010Prop42
 90
       50
102
RTVSPost2010PropOp42
 70
     0
102
RTVSPost2010Prop43
 90
        3
102
RTVSPost2010PropOp43
 70
     0
102
RTVSPost2010Prop44ColorIndex
 90
        5
102
RTVSPost2010Prop44ColorRGB
 90
      255
102
RTVSPost2010PropOp44
 70
     0
102
RTVSPost2010Prop45
280
     0
102
RTVSPost2010PropOp45
 70
     0
102
RTVSPost2010Prop46
 90
       50
102
RTVSPost2010PropOp46
 70
     0
102
RTVSPost2010Prop47
 90
       50
102
RTVSPost2010PropOp47
 70
     0
102
RTVSPost2010Prop48
 90
       50
102
RTVSPost2010PropOp48
 70
     0
102
RTVSPost2010Prop49
280
     0
102
RTVSPost2010PropOp49
 70
     0
102
RTVSPost2010Prop50
 90
       50
102
RTVSPost2010PropOp50
 70
     0
102
RTVSPost2010Prop51ColorIndex
 90
      256
102
RTVSPost2010Prop51ColorRGB
 90
-16777216
102
RTVSPost2010PropOp51
 70
     0
102
RTVSPost2010Prop52
140
1.0
102
RTVSPost2010PropOp52
 70
     0
102
RTVSPost2010Prop53
 90
        2
102
RTVSPost2010PropOp53
 70
     0
102
RTVSPost2010Prop54
  1
strokes_ogs.tif
102
RTVSPost2010PropOp54
 70
     0
102
RTVSPost2010Prop55
280
     0
102
RTVSPost2010PropOp55
 70
     0
102
RTVSPost2010Prop56
140
1.0
102
RTVSPost2010PropOp56
 70
     0
102
RTVSPost2010Prop57
140
1.0
102
RTVSPost2010PropOp57
 70
     0
102
RTVSPropertyOp0
 70
     0
102
RTVSPropertyOp1
 70
     0
102
RTVSPropertyOp2
 70
     0
102
RTVSPropertyOp3
 70
     0
102
RTVSPropertyOp4
 70
     0
102
RTVSPropertyOp5
 70
     0
102
RTVSPropertyOp6
 70
     0
102
RTVSPropertyOp7
 70
     0
102
RTVSPropertyOp8
 70
     0
102
RTVSPropertyOp9
 70
     0
102
RTVSPropertyOp10
 70
     0
102
RTVSPropertyOp11
 70
     0
102
RTVSPropertyOp12
 70
     0
102
RTVSPropertyOp13
 70
     0
102
RTVSPropertyOp14
 70
     2
102
RTVSPropertyOp15
 70
     0
102
RTVSPropertyOp16
 70
     0
102
RTVSPropertyOp17
 70
     0
102
RTVSPropertyOp18
 70
     0
102
RTVSPropertyOp19
 70
     0
102
RTVSPropertyOp20
 70
     0
102
RTVSPropertyOp21
 70
     0
102
RTVSPropertyOp22
 70
     0
102
RTVSPropertyOp23
 70
     0
102
RTVSPropertyOp24
 70
     0
102
RTVSPropertyOp25
 70
     0
102
RTVSPropertyOp26
 70
     0
102
RTVSPropertyOp27
 70
     0
102
RTVSPropertyOp28
 70
     0
102
RTVSPropertyOp29
 70
     0
102
RTVSPropertyOp30
 70
     0
102
RTVSPropertyOp31
 70
     0
102
RTVSPropertyOp32
 70
     0
102
RTVSPropertyOp33
 70
     0
102
RTVSPropertyOp34
 70
     0
102
RTVSPropertyOp35
 70
     0
102
RTVSPropertyOp36
 70
     0
102
RTVSPropertyOp37
 70
     0
102
RTVSPropertyOp38
 70
     0
102
RTVSPropertyOp39
 70
     0
102
RTVSPropertyOp40
 70
     0
102
RTVSPropertyOp41
 70
     0
102
RTVSPropertyOp42
 70
     0
102
RTVSPropertyOp43
 70
     0
102
RTVSPropertyOp44
 70
     0
102
RTVSPropertyOp45
 70
     0
102
RTVSPropertyOp46
 70
     0
102
RTVSPropertyOp47
 70
     0
102
RTVSPropertyOp48
 70
     0
102
RTVSPropertyOp49
 70
     0
102
RTVSPropertyOp50
 70
     0
102
RTVSPropertyOp51
 70
     0
102
RTVSPropertyOp52
 70
     0
102
RTVSPropertyOp53
 70
     0
102
RTVSPropertyOp54
 70
     0
102
RTVSPropertyOp55
 70
     0
102
RTVSPropertyOp56
 70
     0
102
RTVSPropertyOp57
 70
     0
102
RTVSPropertyOp58
 70
     1
102
RTVSPropertyOp59
 70
     1
102
RTVSPropertyOp60
 70
     1
102
RTVSPropertyOp61
 70
     1
102
RTVSPropertyOp62
 70
     1
  0
XRECORD
  5
C55
102
{ACAD_REACTORS
330
C54
102
}
330
C54
100
AcDbXrecord
280
     1
102
RTVSPost2010Prop28
280
     0
102
RTVSPost2010PropOp28
 70
     1
102
RTVSPost2010Prop29
280
     1
102
RTVSPost2010PropOp29
 70
     1
102
RTVSPost2010Prop30
280
     1
102
RTVSPost2010PropOp30
 70
     1
102
RTVSPost2010Prop31
280
     0
102
RTVSPost2010PropOp31
 70
     1
102
RTVSPost2010Prop32
280
     0
102
RTVSPost2010PropOp32
 70
     1
102
RTVSPost2010Prop33
280
     0
102
RTVSPost2010PropOp33
 70
     1
102
RTVSPost2010Prop34
280
     0
102
RTVSPost2010PropOp34
 70
     1
102
RTVSPost2010Prop35
280
     0
102
RTVSPost2010PropOp35
 70
     1
102
RTVSPost2010Prop36
280
     0
102
RTVSPost2010PropOp36
 70
     1
102
RTVSPost2010Prop37
 90
       50
102
RTVSPost2010PropOp37
 70
     1
102
RTVSPost2010Prop38
140
0.0
102
RTVSPost2010PropOp38
 70
     1
102
RTVSPost2010Prop39
140
1.0
102
RTVSPost2010PropOp39
 70
     1
102
RTVSPost2010Prop40
 90
        0
102
RTVSPost2010PropOp40
 70
     1
102
RTVSPost2010Prop41ColorIndex
 90
       18
102
RTVSPost2010Prop41ColorRGB
 90
        0
102
RTVSPost2010PropOp41
 70
     1
102
RTVSPost2010Prop42
 90
       50
102
RTVSPost2010PropOp42
 70
     1
102
RTVSPost2010Prop43
 90
        3
102
RTVSPost2010PropOp43
 70
     1
102
RTVSPost2010Prop44ColorIndex
 90
        5
102
RTVSPost2010Prop44ColorRGB
 90
      255
102
RTVSPost2010PropOp44
 70
     1
102
RTVSPost2010Prop45
280
     0
102
RTVSPost2010PropOp45
 70
     1
102
RTVSPost2010Prop46
 90
       50
102
RTVSPost2010PropOp46
 70
     1
102
RTVSPost2010Prop47
 90
       50
102
RTVSPost2010PropOp47
 70
     1
102
RTVSPost2010Prop48
 90
       50
102
RTVSPost2010PropOp48
 70
     1
102
RTVSPost2010Prop49
280
     0
102
RTVSPost2010PropOp49
 70
     1
102
RTVSPost2010Prop50
 90
       50
102
RTVSPost2010PropOp50
 70
     1
102
RTVSPost2010Prop51ColorIndex
 90
      256
102
RTVSPost2010Prop51ColorRGB
 90
-16777216
102
RTVSPost2010PropOp51
 70
     0
102
RTVSPost2010Prop52
140
1.0
102
RTVSPost2010PropOp52
 70
     0
102
RTVSPost2010Prop53
 90
        2
102
RTVSPost2010PropOp53
 70
     1
102
RTVSPost2010Prop54
  1
strokes_ogs.tif
102
RTVSPost2010PropOp54
 70
     1
102
RTVSPost2010Prop55
280
     0
102
RTVSPost2010PropOp55
 70
     1
102
RTVSPost2010Prop56
140
1.0
102
RTVSPost2010PropOp56
 70
     1
102
RTVSPost2010Prop57
140
1.0
102
RTVSPost2010PropOp57
 70
     1
102
RTVSPropertyOp0
 70
     1
102
RTVSPropertyOp1
 70
     1
102
RTVSPropertyOp2
 70
     1
102
RTVSPropertyOp3
 70
     1
102
RTVSPropertyOp4
 70
     1
102
RTVSPropertyOp5
 70
     1
102
RTVSPropertyOp6
 70
     1
102
RTVSPropertyOp7
 70
     1
102
RTVSPropertyOp8
 70
     1
102
RTVSPropertyOp9
 70
     1
102
RTVSPropertyOp10
 70
     1
102
RTVSPropertyOp11
 70
     1
102
RTVSPropertyOp12
 70
     1
102
RTVSPropertyOp13
 70
     1
102
RTVSPropertyOp14
 70
     1
102
RTVSPropertyOp15
 70
     1
102
RTVSPropertyOp16
 70
     1
102
RTVSPropertyOp17
 70
     1
102
RTVSPropertyOp18
 70
     1
102
RTVSPropertyOp19
 70
     1
102
RTVSPropertyOp20
 70
     1
102
RTVSPropertyOp21
 70
     1
102
RTVSPropertyOp22
 70
     1
102
RTVSPropertyOp23
 70
     1
102
RTVSPropertyOp24
 70
     1
102
RTVSPropertyOp25
 70
     1
102
RTVSPropertyOp26
 70
     1
102
RTVSPropertyOp27
 70
     1
102
RTVSPropertyOp28
 70
     1
102
RTVSPropertyOp29
 70
     1
102
RTVSPropertyOp30
 70
     1
102
RTVSPropertyOp31
 70
     1
102
RTVSPropertyOp32
 70
     1
102
RTVSPropertyOp33
 70
     1
102
RTVSPropertyOp34
 70
     1
102
RTVSPropertyOp35
 70
     1
102
RTVSPropertyOp36
 70
     1
102
RTVSPropertyOp37
 70
     1
102
RTVSPropertyOp38
 70
     1
102
RTVSPropertyOp39
 70
     1
102
RTVSPropertyOp40
 70
     1
102
RTVSPropertyOp41
 70
     1
102
RTVSPropertyOp42
 70
     1
102
RTVSPropertyOp43
 70
     1
102
RTVSPropertyOp44
 70
     1
102
RTVSPropertyOp45
 70
     1
102
RTVSPropertyOp46
 70
     1
102
RTVSPropertyOp47
 70
     1
102
RTVSPropertyOp48
 70
     1
102
RTVSPropertyOp49
 70
     1
102
RTVSPropertyOp50
 70
     1
102
RTVSPropertyOp51
 70
     0
102
RTVSPropertyOp52
 70
     0
102
RTVSPropertyOp53
 70
     1
102
RTVSPropertyOp54
 70
     1
102
RTVSPropertyOp55
 70
     1
102
RTVSPropertyOp56
 70
     1
102
RTVSPropertyOp57
 70
     1
102
RTVSPropertyOp58
 70
     1
102
RTVSPropertyOp59
 70
     1
102
RTVSPropertyOp60
 70
     1
102
RTVSPropertyOp61
 70
     1
102
RTVSPropertyOp62
 70
     1
  0
XRECORD
  5
C39
102
{ACAD_REACTORS
330
C38
102
}
330
C38
100
AcDbXrecord
280
     1
102
RTVSPost2010Prop28
280
     0
102
RTVSPost2010PropOp28
 70
     1
102
RTVSPost2010Prop29
280
     1
102
RTVSPost2010PropOp29
 70
     1
102
RTVSPost2010Prop30
280
     1
102
RTVSPost2010PropOp30
 70
     1
102
RTVSPost2010Prop31
280
     0
102
RTVSPost2010PropOp31
 70
     1
102
RTVSPost2010Prop32
280
     0
102
RTVSPost2010PropOp32
 70
     1
102
RTVSPost2010Prop33
280
     0
102
RTVSPost2010PropOp33
 70
     1
102
RTVSPost2010Prop34
280
     0
102
RTVSPost2010PropOp34
 70
     1
102
RTVSPost2010Prop35
280
     0
102
RTVSPost2010PropOp35
 70
     1
102
RTVSPost2010Prop36
280
     0
102
RTVSPost2010PropOp36
 70
     1
102
RTVSPost2010Prop37
 90
       50
102
RTVSPost2010PropOp37
 70
     1
102
RTVSPost2010Prop38
140
0.0
102
RTVSPost2010PropOp38
 70
     1
102
RTVSPost2010Prop39
140
1.0
102
RTVSPost2010PropOp39
 70
     1
102
RTVSPost2010Prop40
 90
        0
102
RTVSPost2010PropOp40
 70
     1
102
RTVSPost2010Prop41ColorIndex
 90
       18
102
RTVSPost2010Prop41ColorRGB
 90
        0
102
RTVSPost2010PropOp41
 70
     1
102
RTVSPost2010Prop42
 90
       50
102
RTVSPost2010PropOp42
 70
     1
102
RTVSPost2010Prop43
 90
        3
102
RTVSPost2010PropOp43
 70
     1
102
RTVSPost2010Prop44ColorIndex
 90
        5
102
RTVSPost2010Prop44ColorRGB
 90
      255
102
RTVSPost2010PropOp44
 70
     1
102
RTVSPost2010Prop45
280
     0
102
RTVSPost2010PropOp45
 70
     1
102
RTVSPost2010Prop46
 90
       50
102
RTVSPost2010PropOp46
 70
     1
102
RTVSPost2010Prop47
 90
       50
102
RTVSPost2010PropOp47
 70
     1
102
RTVSPost2010Prop48
 90
       50
102
RTVSPost2010PropOp48
 70
     1
102
RTVSPost2010Prop49
280
     0
102
RTVSPost2010PropOp49
 70
     1
102
RTVSPost2010Prop50
 90
       50
102
RTVSPost2010PropOp50
 70
     1
102
RTVSPost2010Prop51ColorIndex
 90
      256
102
RTVSPost2010Prop51ColorRGB
 90
-16777216
102
RTVSPost2010PropOp51
 70
     0
102
RTVSPost2010Prop52
140
1.0
102
RTVSPost2010PropOp52
 70
     0
102
RTVSPost2010Prop53
 90
        2
102
RTVSPost2010PropOp53
 70
     1
102
RTVSPost2010Prop54
  1
strokes_ogs.tif
102
RTVSPost2010PropOp54
 70
     1
102
RTVSPost2010Prop55
280
     0
102
RTVSPost2010PropOp55
 70
     1
102
RTVSPost2010Prop56
140
1.0
102
RTVSPost2010PropOp56
 70
     1
102
RTVSPost2010Prop57
140
1.0
102
RTVSPost2010PropOp57
 70
     1
102
RTVSPropertyOp0
 70
     1
102
RTVSPropertyOp1
 70
     1
102
RTVSPropertyOp2
 70
     1
102
RTVSPropertyOp3
 70
     1
102
RTVSPropertyOp4
 70
     1
102
RTVSPropertyOp5
 70
     1
102
RTVSPropertyOp6
 70
     1
102
RTVSPropertyOp7
 70
     1
102
RTVSPropertyOp8
 70
     1
102
RTVSPropertyOp9
 70
     1
102
RTVSPropertyOp10
 70
     1
102
RTVSPropertyOp11
 70
     1
102
RTVSPropertyOp12
 70
     1
102
RTVSPropertyOp13
 70
     1
102
RTVSPropertyOp14
 70
     1
102
RTVSPropertyOp15
 70
     1
102
RTVSPropertyOp16
 70
     1
102
RTVSPropertyOp17
 70
     1
102
RTVSPropertyOp18
 70
     1
102
RTVSPropertyOp19
 70
     1
102
RTVSPropertyOp20
 70
     1
102
RTVSPropertyOp21
 70
     1
102
RTVSPropertyOp22
 70
     1
102
RTVSPropertyOp23
 70
     1
102
RTVSPropertyOp24
 70
     1
102
RTVSPropertyOp25
 70
     1
102
RTVSPropertyOp26
 70
     1
102
RTVSPropertyOp27
 70
     1
102
RTVSPropertyOp28
 70
     1
102
RTVSPropertyOp29
 70
     1
102
RTVSPropertyOp30
 70
     1
102
RTVSPropertyOp31
 70
     1
102
RTVSPropertyOp32
 70
     1
102
RTVSPropertyOp33
 70
     1
102
RTVSPropertyOp34
 70
     1
102
RTVSPropertyOp35
 70
     1
102
RTVSPropertyOp36
 70
     1
102
RTVSPropertyOp37
 70
     1
102
RTVSPropertyOp38
 70
     1
102
RTVSPropertyOp39
 70
     1
102
RTVSPropertyOp40
 70
     1
102
RTVSPropertyOp41
 70
     1
102
RTVSPropertyOp42
 70
     1
102
RTVSPropertyOp43
 70
     1
102
RTVSPropertyOp44
 70
     1
102
RTVSPropertyOp45
 70
     1
102
RTVSPropertyOp46
 70
     1
102
RTVSPropertyOp47
 70
     1
102
RTVSPropertyOp48
 70
     1
102
RTVSPropertyOp49
 70
     1
102
RTVSPropertyOp50
 70
     1
102
RTVSPropertyOp51
 70
     0
102
RTVSPropertyOp52
 70
     0
102
RTVSPropertyOp53
 70
     1
102
RTVSPropertyOp54
 70
     1
102
RTVSPropertyOp55
 70
     1
102
RTVSPropertyOp56
 70
     1
102
RTVSPropertyOp57
 70
     1
102
RTVSPropertyOp58
 70
     1
102
RTVSPropertyOp59
 70
     1
102
RTVSPropertyOp60
 70
     1
102
RTVSPropertyOp61
 70
     1
102
RTVSPropertyOp62
 70
     1
  0
XRECORD
  5
C3B
102
{ACAD_REACTORS
330
C3A
102
}
330
C3A
100
AcDbXrecord
280
     1
102
RTVSPost2010Prop28
280
     0
102
RTVSPost2010PropOp28
 70
     1
102
RTVSPost2010Prop29
280
     1
102
RTVSPost2010PropOp29
 70
     1
102
RTVSPost2010Prop30
280
     1
102
RTVSPost2010PropOp30
 70
     1
102
RTVSPost2010Prop31
280
     0
102
RTVSPost2010PropOp31
 70
     1
102
RTVSPost2010Prop32
280
     0
102
RTVSPost2010PropOp32
 70
     1
102
RTVSPost2010Prop33
280
     0
102
RTVSPost2010PropOp33
 70
     1
102
RTVSPost2010Prop34
280
     0
102
RTVSPost2010PropOp34
 70
     1
102
RTVSPost2010Prop35
280
     0
102
RTVSPost2010PropOp35
 70
     1
102
RTVSPost2010Prop36
280
     0
102
RTVSPost2010PropOp36
 70
     1
102
RTVSPost2010Prop37
 90
       50
102
RTVSPost2010PropOp37
 70
     1
102
RTVSPost2010Prop38
140
0.0
102
RTVSPost2010PropOp38
 70
     1
102
RTVSPost2010Prop39
140
1.0
102
RTVSPost2010PropOp39
 70
     1
102
RTVSPost2010Prop40
 90
        0
102
RTVSPost2010PropOp40
 70
     1
102
RTVSPost2010Prop41ColorIndex
 90
       18
102
RTVSPost2010Prop41ColorRGB
 90
        0
102
RTVSPost2010PropOp41
 70
     1
102
RTVSPost2010Prop42
 90
       50
102
RTVSPost2010PropOp42
 70
     1
102
RTVSPost2010Prop43
 90
        3
102
RTVSPost2010PropOp43
 70
     1
102
RTVSPost2010Prop44ColorIndex
 90
        5
102
RTVSPost2010Prop44ColorRGB
 90
      255
102
RTVSPost2010PropOp44
 70
     1
102
RTVSPost2010Prop45
280
     0
102
RTVSPost2010PropOp45
 70
     1
102
RTVSPost2010Prop46
 90
       50
102
RTVSPost2010PropOp46
 70
     1
102
RTVSPost2010Prop47
 90
       50
102
RTVSPost2010PropOp47
 70
     1
102
RTVSPost2010Prop48
 90
       50
102
RTVSPost2010PropOp48
 70
     1
102
RTVSPost2010Prop49
280
     0
102
RTVSPost2010PropOp49
 70
     1
102
RTVSPost2010Prop50
 90
       50
102
RTVSPost2010PropOp50
 70
     1
102
RTVSPost2010Prop51ColorIndex
 90
      256
102
RTVSPost2010Prop51ColorRGB
 90
-16777216
102
RTVSPost2010PropOp51
 70
     0
102
RTVSPost2010Prop52
140
1.0
102
RTVSPost2010PropOp52
 70
     0
102
RTVSPost2010Prop53
 90
        2
102
RTVSPost2010PropOp53
 70
     1
102
RTVSPost2010Prop54
  1
strokes_ogs.tif
102
RTVSPost2010PropOp54
 70
     1
102
RTVSPost2010Prop55
280
     0
102
RTVSPost2010PropOp55
 70
     1
102
RTVSPost2010Prop56
140
1.0
102
RTVSPost2010PropOp56
 70
     1
102
RTVSPost2010Prop57
140
1.0
102
RTVSPost2010PropOp57
 70
     1
102
RTVSPropertyOp0
 70
     1
102
RTVSPropertyOp1
 70
     1
102
RTVSPropertyOp2
 70
     1
102
RTVSPropertyOp3
 70
     1
102
RTVSPropertyOp4
 70
     1
102
RTVSPropertyOp5
 70
     1
102
RTVSPropertyOp6
 70
     1
102
RTVSPropertyOp7
 70
     1
102
RTVSPropertyOp8
 70
     1
102
RTVSPropertyOp9
 70
     1
102
RTVSPropertyOp10
 70
     1
102
RTVSPropertyOp11
 70
     1
102
RTVSPropertyOp12
 70
     1
102
RTVSPropertyOp13
 70
     1
102
RTVSPropertyOp14
 70
     1
102
RTVSPropertyOp15
 70
     1
102
RTVSPropertyOp16
 70
     1
102
RTVSPropertyOp17
 70
     1
102
RTVSPropertyOp18
 70
     1
102
RTVSPropertyOp19
 70
     1
102
RTVSPropertyOp20
 70
     1
102
RTVSPropertyOp21
 70
     1
102
RTVSPropertyOp22
 70
     1
102
RTVSPropertyOp23
 70
     1
102
RTVSPropertyOp24
 70
     1
102
RTVSPropertyOp25
 70
     1
102
RTVSPropertyOp26
 70
     1
102
RTVSPropertyOp27
 70
     1
102
RTVSPropertyOp28
 70
     1
102
RTVSPropertyOp29
 70
     1
102
RTVSPropertyOp30
 70
     1
102
RTVSPropertyOp31
 70
     1
102
RTVSPropertyOp32
 70
     1
102
RTVSPropertyOp33
 70
     1
102
RTVSPropertyOp34
 70
     1
102
RTVSPropertyOp35
 70
     1
102
RTVSPropertyOp36
 70
     1
102
RTVSPropertyOp37
 70
     1
102
RTVSPropertyOp38
 70
     1
102
RTVSPropertyOp39
 70
     1
102
RTVSPropertyOp40
 70
     1
102
RTVSPropertyOp41
 70
     1
102
RTVSPropertyOp42
 70
     1
102
RTVSPropertyOp43
 70
     1
102
RTVSPropertyOp44
 70
     1
102
RTVSPropertyOp45
 70
     1
102
RTVSPropertyOp46
 70
     1
102
RTVSPropertyOp47
 70
     1
102
RTVSPropertyOp48
 70
     1
102
RTVSPropertyOp49
 70
     1
102
RTVSPropertyOp50
 70
     1
102
RTVSPropertyOp51
 70
     0
102
RTVSPropertyOp52
 70
     0
102
RTVSPropertyOp53
 70
     1
102
RTVSPropertyOp54
 70
     1
102
RTVSPropertyOp55
 70
     1
102
RTVSPropertyOp56
 70
     1
102
RTVSPropertyOp57
 70
     1
102
RTVSPropertyOp58
 70
     1
102
RTVSPropertyOp59
 70
     1
102
RTVSPropertyOp60
 70
     1
102
RTVSPropertyOp61
 70
     1
102
RTVSPropertyOp62
 70
     1
  0
XRECORD
  5
C3D
102
{ACAD_REACTORS
330
C3C
102
}
330
C3C
100
AcDbXrecord
280
     1
102
RTVSPost2010Prop28
280
     0
102
RTVSPost2010PropOp28
 70
     1
102
RTVSPost2010Prop29
280
     1
102
RTVSPost2010PropOp29
 70
     1
102
RTVSPost2010Prop30
280
     1
102
RTVSPost2010PropOp30
 70
     1
102
RTVSPost2010Prop31
280
     0
102
RTVSPost2010PropOp31
 70
     1
102
RTVSPost2010Prop32
280
     0
102
RTVSPost2010PropOp32
 70
     1
102
RTVSPost2010Prop33
280
     0
102
RTVSPost2010PropOp33
 70
     1
102
RTVSPost2010Prop34
280
     0
102
RTVSPost2010PropOp34
 70
     1
102
RTVSPost2010Prop35
280
     0
102
RTVSPost2010PropOp35
 70
     1
102
RTVSPost2010Prop36
280
     0
102
RTVSPost2010PropOp36
 70
     1
102
RTVSPost2010Prop37
 90
       50
102
RTVSPost2010PropOp37
 70
     1
102
RTVSPost2010Prop38
140
0.0
102
RTVSPost2010PropOp38
 70
     1
102
RTVSPost2010Prop39
140
1.0
102
RTVSPost2010PropOp39
 70
     1
102
RTVSPost2010Prop40
 90
        0
102
RTVSPost2010PropOp40
 70
     1
102
RTVSPost2010Prop41ColorIndex
 90
       18
102
RTVSPost2010Prop41ColorRGB
 90
        0
102
RTVSPost2010PropOp41
 70
     1
102
RTVSPost2010Prop42
 90
       50
102
RTVSPost2010PropOp42
 70
     1
102
RTVSPost2010Prop43
 90
        3
102
RTVSPost2010PropOp43
 70
     1
102
RTVSPost2010Prop44ColorIndex
 90
        5
102
RTVSPost2010Prop44ColorRGB
 90
      255
102
RTVSPost2010PropOp44
 70
     1
102
RTVSPost2010Prop45
280
     0
102
RTVSPost2010PropOp45
 70
     1
102
RTVSPost2010Prop46
 90
       50
102
RTVSPost2010PropOp46
 70
     1
102
RTVSPost2010Prop47
 90
       50
102
RTVSPost2010PropOp47
 70
     1
102
RTVSPost2010Prop48
 90
       50
102
RTVSPost2010PropOp48
 70
     1
102
RTVSPost2010Prop49
280
     0
102
RTVSPost2010PropOp49
 70
     1
102
RTVSPost2010Prop50
 90
       50
102
RTVSPost2010PropOp50
 70
     1
102
RTVSPost2010Prop51ColorIndex
 90
      256
102
RTVSPost2010Prop51ColorRGB
 90
-16777216
102
RTVSPost2010PropOp51
 70
     0
102
RTVSPost2010Prop52
140
1.0
102
RTVSPost2010PropOp52
 70
     0
102
RTVSPost2010Prop53
 90
        2
102
RTVSPost2010PropOp53
 70
     1
102
RTVSPost2010Prop54
  1
strokes_ogs.tif
102
RTVSPost2010PropOp54
 70
     1
102
RTVSPost2010Prop55
280
     0
102
RTVSPost2010PropOp55
 70
     1
102
RTVSPost2010Prop56
140
1.0
102
RTVSPost2010PropOp56
 70
     1
102
RTVSPost2010Prop57
140
1.0
102
RTVSPost2010PropOp57
 70
     1
102
RTVSPropertyOp0
 70
     1
102
RTVSPropertyOp1
 70
     1
102
RTVSPropertyOp2
 70
     1
102
RTVSPropertyOp3
 70
     1
102
RTVSPropertyOp4
 70
     1
102
RTVSPropertyOp5
 70
     1
102
RTVSPropertyOp6
 70
     1
102
RTVSPropertyOp7
 70
     1
102
RTVSPropertyOp8
 70
     1
102
RTVSPropertyOp9
 70
     1
102
RTVSPropertyOp10
 70
     1
102
RTVSPropertyOp11
 70
     1
102
RTVSPropertyOp12
 70
     1
102
RTVSPropertyOp13
 70
     1
102
RTVSPropertyOp14
 70
     1
102
RTVSPropertyOp15
 70
     1
102
RTVSPropertyOp16
 70
     1
102
RTVSPropertyOp17
 70
     1
102
RTVSPropertyOp18
 70
     1
102
RTVSPropertyOp19
 70
     1
102
RTVSPropertyOp20
 70
     1
102
RTVSPropertyOp21
 70
     1
102
RTVSPropertyOp22
 70
     1
102
RTVSPropertyOp23
 70
     1
102
RTVSPropertyOp24
 70
     1
102
RTVSPropertyOp25
 70
     1
102
RTVSPropertyOp26
 70
     1
102
RTVSPropertyOp27
 70
     1
102
RTVSPropertyOp28
 70
     1
102
RTVSPropertyOp29
 70
     1
102
RTVSPropertyOp30
 70
     1
102
RTVSPropertyOp31
 70
     1
102
RTVSPropertyOp32
 70
     1
102
RTVSPropertyOp33
 70
     1
102
RTVSPropertyOp34
 70
     1
102
RTVSPropertyOp35
 70
     1
102
RTVSPropertyOp36
 70
     1
102
RTVSPropertyOp37
 70
     1
102
RTVSPropertyOp38
 70
     1
102
RTVSPropertyOp39
 70
     1
102
RTVSPropertyOp40
 70
     1
102
RTVSPropertyOp41
 70
     1
102
RTVSPropertyOp42
 70
     1
102
RTVSPropertyOp43
 70
     1
102
RTVSPropertyOp44
 70
     1
102
RTVSPropertyOp45
 70
     1
102
RTVSPropertyOp46
 70
     1
102
RTVSPropertyOp47
 70
     1
102
RTVSPropertyOp48
 70
     1
102
RTVSPropertyOp49
 70
     1
102
RTVSPropertyOp50
 70
     1
102
RTVSPropertyOp51
 70
     0
102
RTVSPropertyOp52
 70
     0
102
RTVSPropertyOp53
 70
     1
102
RTVSPropertyOp54
 70
     1
102
RTVSPropertyOp55
 70
     1
102
RTVSPropertyOp56
 70
     1
102
RTVSPropertyOp57
 70
     1
102
RTVSPropertyOp58
 70
     1
102
RTVSPropertyOp59
 70
     1
102
RTVSPropertyOp60
 70
     1
102
RTVSPropertyOp61
 70
     1
102
RTVSPropertyOp62
 70
     1
  0
XRECORD
  5
C3F
102
{ACAD_REACTORS
330
C3E
102
}
330
C3E
100
AcDbXrecord
280
     1
102
RTVSPost2010Prop28
280
     0
102
RTVSPost2010PropOp28
 70
     1
102
RTVSPost2010Prop29
280
     1
102
RTVSPost2010PropOp29
 70
     1
102
RTVSPost2010Prop30
280
     1
102
RTVSPost2010PropOp30
 70
     1
102
RTVSPost2010Prop31
280
     0
102
RTVSPost2010PropOp31
 70
     1
102
RTVSPost2010Prop32
280
     0
102
RTVSPost2010PropOp32
 70
     1
102
RTVSPost2010Prop33
280
     0
102
RTVSPost2010PropOp33
 70
     1
102
RTVSPost2010Prop34
280
     0
102
RTVSPost2010PropOp34
 70
     1
102
RTVSPost2010Prop35
280
     0
102
RTVSPost2010PropOp35
 70
     1
102
RTVSPost2010Prop36
280
     0
102
RTVSPost2010PropOp36
 70
     1
102
RTVSPost2010Prop37
 90
       50
102
RTVSPost2010PropOp37
 70
     1
102
RTVSPost2010Prop38
140
0.0
102
RTVSPost2010PropOp38
 70
     1
102
RTVSPost2010Prop39
140
1.0
102
RTVSPost2010PropOp39
 70
     1
102
RTVSPost2010Prop40
 90
        0
102
RTVSPost2010PropOp40
 70
     1
102
RTVSPost2010Prop41ColorIndex
 90
       18
102
RTVSPost2010Prop41ColorRGB
 90
        0
102
RTVSPost2010PropOp41
 70
     1
102
RTVSPost2010Prop42
 90
       50
102
RTVSPost2010PropOp42
 70
     1
102
RTVSPost2010Prop43
 90
        3
102
RTVSPost2010PropOp43
 70
     1
102
RTVSPost2010Prop44ColorIndex
 90
        5
102
RTVSPost2010Prop44ColorRGB
 90
      255
102
RTVSPost2010PropOp44
 70
     1
102
RTVSPost2010Prop45
280
     0
102
RTVSPost2010PropOp45
 70
     1
102
RTVSPost2010Prop46
 90
       50
102
RTVSPost2010PropOp46
 70
     1
102
RTVSPost2010Prop47
 90
       50
102
RTVSPost2010PropOp47
 70
     1
102
RTVSPost2010Prop48
 90
       50
102
RTVSPost2010PropOp48
 70
     1
102
RTVSPost2010Prop49
280
     0
102
RTVSPost2010PropOp49
 70
     1
102
RTVSPost2010Prop50
 90
       50
102
RTVSPost2010PropOp50
 70
     1
102
RTVSPost2010Prop51ColorIndex
 90
      256
102
RTVSPost2010Prop51ColorRGB
 90
-16777216
102
RTVSPost2010PropOp51
 70
     0
102
RTVSPost2010Prop52
140
1.0
102
RTVSPost2010PropOp52
 70
     0
102
RTVSPost2010Prop53
 90
        2
102
RTVSPost2010PropOp53
 70
     1
102
RTVSPost2010Prop54
  1
strokes_ogs.tif
102
RTVSPost2010PropOp54
 70
     1
102
RTVSPost2010Prop55
280
     0
102
RTVSPost2010PropOp55
 70
     1
102
RTVSPost2010Prop56
140
1.0
102
RTVSPost2010PropOp56
 70
     1
102
RTVSPost2010Prop57
140
1.0
102
RTVSPost2010PropOp57
 70
     1
102
RTVSPropertyOp0
 70
     1
102
RTVSPropertyOp1
 70
     1
102
RTVSPropertyOp2
 70
     1
102
RTVSPropertyOp3
 70
     1
102
RTVSPropertyOp4
 70
     1
102
RTVSPropertyOp5
 70
     1
102
RTVSPropertyOp6
 70
     1
102
RTVSPropertyOp7
 70
     1
102
RTVSPropertyOp8
 70
     1
102
RTVSPropertyOp9
 70
     1
102
RTVSPropertyOp10
 70
     1
102
RTVSPropertyOp11
 70
     1
102
RTVSPropertyOp12
 70
     1
102
RTVSPropertyOp13
 70
     1
102
RTVSPropertyOp14
 70
     1
102
RTVSPropertyOp15
 70
     1
102
RTVSPropertyOp16
 70
     1
102
RTVSPropertyOp17
 70
     1
102
RTVSPropertyOp18
 70
     1
102
RTVSPropertyOp19
 70
     1
102
RTVSPropertyOp20
 70
     1
102
RTVSPropertyOp21
 70
     1
102
RTVSPropertyOp22
 70
     1
102
RTVSPropertyOp23
 70
     1
102
RTVSPropertyOp24
 70
     1
102
RTVSPropertyOp25
 70
     1
102
RTVSPropertyOp26
 70
     1
102
RTVSPropertyOp27
 70
     1
102
RTVSPropertyOp28
 70
     1
102
RTVSPropertyOp29
 70
     1
102
RTVSPropertyOp30
 70
     1
102
RTVSPropertyOp31
 70
     1
102
RTVSPropertyOp32
 70
     1
102
RTVSPropertyOp33
 70
     1
102
RTVSPropertyOp34
 70
     1
102
RTVSPropertyOp35
 70
     1
102
RTVSPropertyOp36
 70
     1
102
RTVSPropertyOp37
 70
     1
102
RTVSPropertyOp38
 70
     1
102
RTVSPropertyOp39
 70
     1
102
RTVSPropertyOp40
 70
     1
102
RTVSPropertyOp41
 70
     1
102
RTVSPropertyOp42
 70
     1
102
RTVSPropertyOp43
 70
     1
102
RTVSPropertyOp44
 70
     1
102
RTVSPropertyOp45
 70
     1
102
RTVSPropertyOp46
 70
     1
102
RTVSPropertyOp47
 70
     1
102
RTVSPropertyOp48
 70
     1
102
RTVSPropertyOp49
 70
     1
102
RTVSPropertyOp50
 70
     1
102
RTVSPropertyOp51
 70
     0
102
RTVSPropertyOp52
 70
     0
102
RTVSPropertyOp53
 70
     1
102
RTVSPropertyOp54
 70
     1
102
RTVSPropertyOp55
 70
     1
102
RTVSPropertyOp56
 70
     1
102
RTVSPropertyOp57
 70
     1
102
RTVSPropertyOp58
 70
     1
102
RTVSPropertyOp59
 70
     1
102
RTVSPropertyOp60
 70
     1
102
RTVSPropertyOp61
 70
     1
102
RTVSPropertyOp62
 70
     1
  0
XRECORD
  5
C45
102
{ACAD_REACTORS
330
C44
102
}
330
C44
100
AcDbXrecord
280
     1
102
RTVSPost2010Prop28
280
     0
102
RTVSPost2010PropOp28
 70
     1
102
RTVSPost2010Prop29
280
     1
102
RTVSPost2010PropOp29
 70
     1
102
RTVSPost2010Prop30
280
     1
102
RTVSPost2010PropOp30
 70
     1
102
RTVSPost2010Prop31
280
     0
102
RTVSPost2010PropOp31
 70
     1
102
RTVSPost2010Prop32
280
     0
102
RTVSPost2010PropOp32
 70
     1
102
RTVSPost2010Prop33
280
     0
102
RTVSPost2010PropOp33
 70
     1
102
RTVSPost2010Prop34
280
     0
102
RTVSPost2010PropOp34
 70
     1
102
RTVSPost2010Prop35
280
     0
102
RTVSPost2010PropOp35
 70
     1
102
RTVSPost2010Prop36
280
     0
102
RTVSPost2010PropOp36
 70
     1
102
RTVSPost2010Prop37
 90
       50
102
RTVSPost2010PropOp37
 70
     1
102
RTVSPost2010Prop38
140
0.0
102
RTVSPost2010PropOp38
 70
     1
102
RTVSPost2010Prop39
140
1.0
102
RTVSPost2010PropOp39
 70
     1
102
RTVSPost2010Prop40
 90
        0
102
RTVSPost2010PropOp40
 70
     1
102
RTVSPost2010Prop41ColorIndex
 90
       18
102
RTVSPost2010Prop41ColorRGB
 90
        0
102
RTVSPost2010PropOp41
 70
     1
102
RTVSPost2010Prop42
 90
       50
102
RTVSPost2010PropOp42
 70
     1
102
RTVSPost2010Prop43
 90
        3
102
RTVSPost2010PropOp43
 70
     1
102
RTVSPost2010Prop44ColorIndex
 90
        5
102
RTVSPost2010Prop44ColorRGB
 90
      255
102
RTVSPost2010PropOp44
 70
     1
102
RTVSPost2010Prop45
280
     0
102
RTVSPost2010PropOp45
 70
     1
102
RTVSPost2010Prop46
 90
       50
102
RTVSPost2010PropOp46
 70
     1
102
RTVSPost2010Prop47
 90
       50
102
RTVSPost2010PropOp47
 70
     1
102
RTVSPost2010Prop48
 90
       50
102
RTVSPost2010PropOp48
 70
     1
102
RTVSPost2010Prop49
280
     0
102
RTVSPost2010PropOp49
 70
     1
102
RTVSPost2010Prop50
 90
       50
102
RTVSPost2010PropOp50
 70
     1
102
RTVSPost2010Prop51ColorIndex
 90
      256
102
RTVSPost2010Prop51ColorRGB
 90
-16777216
102
RTVSPost2010PropOp51
 70
     0
102
RTVSPost2010Prop52
140
1.0
102
RTVSPost2010PropOp52
 70
     0
102
RTVSPost2010Prop53
 90
        2
102
RTVSPost2010PropOp53
 70
     1
102
RTVSPost2010Prop54
  1
strokes_ogs.tif
102
RTVSPost2010PropOp54
 70
     1
102
RTVSPost2010Prop55
280
     0
102
RTVSPost2010PropOp55
 70
     1
102
RTVSPost2010Prop56
140
1.0
102
RTVSPost2010PropOp56
 70
     1
102
RTVSPost2010Prop57
140
1.0
102
RTVSPost2010PropOp57
 70
     1
102
RTVSPropertyOp0
 70
     1
102
RTVSPropertyOp1
 70
     1
102
RTVSPropertyOp2
 70
     1
102
RTVSPropertyOp3
 70
     1
102
RTVSPropertyOp4
 70
     1
102
RTVSPropertyOp5
 70
     1
102
RTVSPropertyOp6
 70
     1
102
RTVSPropertyOp7
 70
     1
102
RTVSPropertyOp8
 70
     1
102
RTVSPropertyOp9
 70
     1
102
RTVSPropertyOp10
 70
     1
102
RTVSPropertyOp11
 70
     1
102
RTVSPropertyOp12
 70
     1
102
RTVSPropertyOp13
 70
     1
102
RTVSPropertyOp14
 70
     1
102
RTVSPropertyOp15
 70
     1
102
RTVSPropertyOp16
 70
     1
102
RTVSPropertyOp17
 70
     1
102
RTVSPropertyOp18
 70
     1
102
RTVSPropertyOp19
 70
     1
102
RTVSPropertyOp20
 70
     1
102
RTVSPropertyOp21
 70
     1
102
RTVSPropertyOp22
 70
     1
102
RTVSPropertyOp23
 70
     1
102
RTVSPropertyOp24
 70
     1
102
RTVSPropertyOp25
 70
     1
102
RTVSPropertyOp26
 70
     1
102
RTVSPropertyOp27
 70
     1
102
RTVSPropertyOp28
 70
     1
102
RTVSPropertyOp29
 70
     1
102
RTVSPropertyOp30
 70
     1
102
RTVSPropertyOp31
 70
     1
102
RTVSPropertyOp32
 70
     1
102
RTVSPropertyOp33
 70
     1
102
RTVSPropertyOp34
 70
     1
102
RTVSPropertyOp35
 70
     1
102
RTVSPropertyOp36
 70
     1
102
RTVSPropertyOp37
 70
     1
102
RTVSPropertyOp38
 70
     1
102
RTVSPropertyOp39
 70
     1
102
RTVSPropertyOp40
 70
     1
102
RTVSPropertyOp41
 70
     1
102
RTVSPropertyOp42
 70
     1
102
RTVSPropertyOp43
 70
     1
102
RTVSPropertyOp44
 70
     1
102
RTVSPropertyOp45
 70
     1
102
RTVSPropertyOp46
 70
     1
102
RTVSPropertyOp47
 70
     1
102
RTVSPropertyOp48
 70
     1
102
RTVSPropertyOp49
 70
     1
102
RTVSPropertyOp50
 70
     1
102
RTVSPropertyOp51
 70
     0
102
RTVSPropertyOp52
 70
     0
102
RTVSPropertyOp53
 70
     1
102
RTVSPropertyOp54
 70
     1
102
RTVSPropertyOp55
 70
     1
102
RTVSPropertyOp56
 70
     1
102
RTVSPropertyOp57
 70
     1
102
RTVSPropertyOp58
 70
     1
102
RTVSPropertyOp59
 70
     1
102
RTVSPropertyOp60
 70
     1
102
RTVSPropertyOp61
 70
     1
102
RTVSPropertyOp62
 70
     1
  0
XRECORD
  5
C59
102
{ACAD_REACTORS
330
C58
102
}
330
C58
100
AcDbXrecord
280
     1
102
RTVSPost2010Prop28
280
     0
102
RTVSPost2010PropOp28
 70
     0
102
RTVSPost2010Prop29
280
     1
102
RTVSPost2010PropOp29
 70
     0
102
RTVSPost2010Prop30
280
     1
102
RTVSPost2010PropOp30
 70
     0
102
RTVSPost2010Prop31
280
     0
102
RTVSPost2010PropOp31
 70
     0
102
RTVSPost2010Prop32
280
     0
102
RTVSPost2010PropOp32
 70
     0
102
RTVSPost2010Prop33
280
     0
102
RTVSPost2010PropOp33
 70
     0
102
RTVSPost2010Prop34
280
     0
102
RTVSPost2010PropOp34
 70
     0
102
RTVSPost2010Prop35
280
     0
102
RTVSPost2010PropOp35
 70
     0
102
RTVSPost2010Prop36
280
     0
102
RTVSPost2010PropOp36
 70
     0
102
RTVSPost2010Prop37
 90
       50
102
RTVSPost2010PropOp37
 70
     0
102
RTVSPost2010Prop38
140
0.0
102
RTVSPost2010PropOp38
 70
     0
102
RTVSPost2010Prop39
140
1.0
102
RTVSPost2010PropOp39
 70
     0
102
RTVSPost2010Prop40
 90
        0
102
RTVSPost2010PropOp40
 70
     0
102
RTVSPost2010Prop41ColorIndex
 90
       18
102
RTVSPost2010Prop41ColorRGB
 90
        0
102
RTVSPost2010PropOp41
 70
     0
102
RTVSPost2010Prop42
 90
       50
102
RTVSPost2010PropOp42
 70
     0
102
RTVSPost2010Prop43
 90
        3
102
RTVSPost2010PropOp43
 70
     0
102
RTVSPost2010Prop44ColorIndex
 90
        5
102
RTVSPost2010Prop44ColorRGB
 90
      255
102
RTVSPost2010PropOp44
 70
     0
102
RTVSPost2010Prop45
280
     0
102
RTVSPost2010PropOp45
 70
     0
102
RTVSPost2010Prop46
 90
       50
102
RTVSPost2010PropOp46
 70
     0
102
RTVSPost2010Prop47
 90
       50
102
RTVSPost2010PropOp47
 70
     0
102
RTVSPost2010Prop48
 90
       50
102
RTVSPost2010PropOp48
 70
     0
102
RTVSPost2010Prop49
280
     0
102
RTVSPost2010PropOp49
 70
     0
102
RTVSPost2010Prop50
 90
       50
102
RTVSPost2010PropOp50
 70
     0
102
RTVSPost2010Prop51ColorIndex
 90
      256
102
RTVSPost2010Prop51ColorRGB
 90
-16777216
102
RTVSPost2010PropOp51
 70
     0
102
RTVSPost2010Prop52
140
1.0
102
RTVSPost2010PropOp52
 70
     0
102
RTVSPost2010Prop53
 90
        2
102
RTVSPost2010PropOp53
 70
     0
102
RTVSPost2010Prop54
  1
strokes_ogs.tif
102
RTVSPost2010PropOp54
 70
     0
102
RTVSPost2010Prop55
280
     0
102
RTVSPost2010PropOp55
 70
     0
102
RTVSPost2010Prop56
140
1.0
102
RTVSPost2010PropOp56
 70
     0
102
RTVSPost2010Prop57
140
1.0
102
RTVSPost2010PropOp57
 70
     0
102
RTVSPropertyOp0
 70
     0
102
RTVSPropertyOp1
 70
     0
102
RTVSPropertyOp2
 70
     0
102
RTVSPropertyOp3
 70
     0
102
RTVSPropertyOp4
 70
     0
102
RTVSPropertyOp5
 70
     0
102
RTVSPropertyOp6
 70
     0
102
RTVSPropertyOp7
 70
     0
102
RTVSPropertyOp8
 70
     0
102
RTVSPropertyOp9
 70
     0
102
RTVSPropertyOp10
 70
     0
102
RTVSPropertyOp11
 70
     0
102
RTVSPropertyOp12
 70
     0
102
RTVSPropertyOp13
 70
     0
102
RTVSPropertyOp14
 70
     2
102
RTVSPropertyOp15
 70
     0
102
RTVSPropertyOp16
 70
     0
102
RTVSPropertyOp17
 70
     0
102
RTVSPropertyOp18
 70
     0
102
RTVSPropertyOp19
 70
     0
102
RTVSPropertyOp20
 70
     0
102
RTVSPropertyOp21
 70
     0
102
RTVSPropertyOp22
 70
     0
102
RTVSPropertyOp23
 70
     0
102
RTVSPropertyOp24
 70
     0
102
RTVSPropertyOp25
 70
     0
102
RTVSPropertyOp26
 70
     0
102
RTVSPropertyOp27
 70
     0
102
RTVSPropertyOp28
 70
     0
102
RTVSPropertyOp29
 70
     0
102
RTVSPropertyOp30
 70
     0
102
RTVSPropertyOp31
 70
     0
102
RTVSPropertyOp32
 70
     0
102
RTVSPropertyOp33
 70
     0
102
RTVSPropertyOp34
 70
     0
102
RTVSPropertyOp35
 70
     0
102
RTVSPropertyOp36
 70
     0
102
RTVSPropertyOp37
 70
     0
102
RTVSPropertyOp38
 70
     0
102
RTVSPropertyOp39
 70
     0
102
RTVSPropertyOp40
 70
     0
102
RTVSPropertyOp41
 70
     0
102
RTVSPropertyOp42
 70
     0
102
RTVSPropertyOp43
 70
     0
102
RTVSPropertyOp44
 70
     0
102
RTVSPropertyOp45
 70
     0
102
RTVSPropertyOp46
 70
     0
102
RTVSPropertyOp47
 70
     0
102
RTVSPropertyOp48
 70
     0
102
RTVSPropertyOp49
 70
     0
102
RTVSPropertyOp50
 70
     0
102
RTVSPropertyOp51
 70
     0
102
RTVSPropertyOp52
 70
     0
102
RTVSPropertyOp53
 70
     0
102
RTVSPropertyOp54
 70
     0
102
RTVSPropertyOp55
 70
     0
102
RTVSPropertyOp56
 70
     0
102
RTVSPropertyOp57
 70
     0
102
RTVSPropertyOp58
 70
     1
102
RTVSPropertyOp59
 70
     1
102
RTVSPropertyOp60
 70
     1
102
RTVSPropertyOp61
 70
     1
102
RTVSPropertyOp62
 70
     1
  0
XRECORD
  5
C53
102
{ACAD_REACTORS
330
C52
102
}
330
C52
100
AcDbXrecord
280
     1
102
RTVSPost2010Prop28
280
     0
102
RTVSPost2010PropOp28
 70
     1
102
RTVSPost2010Prop29
280
     1
102
RTVSPost2010PropOp29
 70
     1
102
RTVSPost2010Prop30
280
     1
102
RTVSPost2010PropOp30
 70
     1
102
RTVSPost2010Prop31
280
     0
102
RTVSPost2010PropOp31
 70
     1
102
RTVSPost2010Prop32
280
     0
102
RTVSPost2010PropOp32
 70
     1
102
RTVSPost2010Prop33
280
     0
102
RTVSPost2010PropOp33
 70
     1
102
RTVSPost2010Prop34
280
     0
102
RTVSPost2010PropOp34
 70
     1
102
RTVSPost2010Prop35
280
     0
102
RTVSPost2010PropOp35
 70
     1
102
RTVSPost2010Prop36
280
     0
102
RTVSPost2010PropOp36
 70
     1
102
RTVSPost2010Prop37
 90
       50
102
RTVSPost2010PropOp37
 70
     1
102
RTVSPost2010Prop38
140
0.0
102
RTVSPost2010PropOp38
 70
     1
102
RTVSPost2010Prop39
140
1.0
102
RTVSPost2010PropOp39
 70
     1
102
RTVSPost2010Prop40
 90
        0
102
RTVSPost2010PropOp40
 70
     1
102
RTVSPost2010Prop41ColorIndex
 90
       18
102
RTVSPost2010Prop41ColorRGB
 90
        0
102
RTVSPost2010PropOp41
 70
     1
102
RTVSPost2010Prop42
 90
       50
102
RTVSPost2010PropOp42
 70
     1
102
RTVSPost2010Prop43
 90
        3
102
RTVSPost2010PropOp43
 70
     1
102
RTVSPost2010Prop44ColorIndex
 90
        5
102
RTVSPost2010Prop44ColorRGB
 90
      255
102
RTVSPost2010PropOp44
 70
     1
102
RTVSPost2010Prop45
280
     0
102
RTVSPost2010PropOp45
 70
     1
102
RTVSPost2010Prop46
 90
       50
102
RTVSPost2010PropOp46
 70
     1
102
RTVSPost2010Prop47
 90
       50
102
RTVSPost2010PropOp47
 70
     1
102
RTVSPost2010Prop48
 90
       50
102
RTVSPost2010PropOp48
 70
     1
102
RTVSPost2010Prop49
280
     0
102
RTVSPost2010PropOp49
 70
     1
102
RTVSPost2010Prop50
 90
       50
102
RTVSPost2010PropOp50
 70
     1
102
RTVSPost2010Prop51ColorIndex
 90
      256
102
RTVSPost2010Prop51ColorRGB
 90
-16777216
102
RTVSPost2010PropOp51
 70
     0
102
RTVSPost2010Prop52
140
1.0
102
RTVSPost2010PropOp52
 70
     0
102
RTVSPost2010Prop53
 90
        2
102
RTVSPost2010PropOp53
 70
     1
102
RTVSPost2010Prop54
  1
strokes_ogs.tif
102
RTVSPost2010PropOp54
 70
     1
102
RTVSPost2010Prop55
280
     0
102
RTVSPost2010PropOp55
 70
     1
102
RTVSPost2010Prop56
140
1.0
102
RTVSPost2010PropOp56
 70
     1
102
RTVSPost2010Prop57
140
1.0
102
RTVSPost2010PropOp57
 70
     1
102
RTVSPropertyOp0
 70
     1
102
RTVSPropertyOp1
 70
     1
102
RTVSPropertyOp2
 70
     1
102
RTVSPropertyOp3
 70
     1
102
RTVSPropertyOp4
 70
     1
102
RTVSPropertyOp5
 70
     1
102
RTVSPropertyOp6
 70
     1
102
RTVSPropertyOp7
 70
     1
102
RTVSPropertyOp8
 70
     1
102
RTVSPropertyOp9
 70
     1
102
RTVSPropertyOp10
 70
     1
102
RTVSPropertyOp11
 70
     1
102
RTVSPropertyOp12
 70
     1
102
RTVSPropertyOp13
 70
     1
102
RTVSPropertyOp14
 70
     1
102
RTVSPropertyOp15
 70
     1
102
RTVSPropertyOp16
 70
     1
102
RTVSPropertyOp17
 70
     1
102
RTVSPropertyOp18
 70
     1
102
RTVSPropertyOp19
 70
     1
102
RTVSPropertyOp20
 70
     1
102
RTVSPropertyOp21
 70
     1
102
RTVSPropertyOp22
 70
     1
102
RTVSPropertyOp23
 70
     1
102
RTVSPropertyOp24
 70
     1
102
RTVSPropertyOp25
 70
     1
102
RTVSPropertyOp26
 70
     1
102
RTVSPropertyOp27
 70
     1
102
RTVSPropertyOp28
 70
     1
102
RTVSPropertyOp29
 70
     1
102
RTVSPropertyOp30
 70
     1
102
RTVSPropertyOp31
 70
     1
102
RTVSPropertyOp32
 70
     1
102
RTVSPropertyOp33
 70
     1
102
RTVSPropertyOp34
 70
     1
102
RTVSPropertyOp35
 70
     1
102
RTVSPropertyOp36
 70
     1
102
RTVSPropertyOp37
 70
     1
102
RTVSPropertyOp38
 70
     1
102
RTVSPropertyOp39
 70
     1
102
RTVSPropertyOp40
 70
     1
102
RTVSPropertyOp41
 70
     1
102
RTVSPropertyOp42
 70
     1
102
RTVSPropertyOp43
 70
     1
102
RTVSPropertyOp44
 70
     1
102
RTVSPropertyOp45
 70
     1
102
RTVSPropertyOp46
 70
     1
102
RTVSPropertyOp47
 70
     1
102
RTVSPropertyOp48
 70
     1
102
RTVSPropertyOp49
 70
     1
102
RTVSPropertyOp50
 70
     1
102
RTVSPropertyOp51
 70
     0
102
RTVSPropertyOp52
 70
     0
102
RTVSPropertyOp53
 70
     1
102
RTVSPropertyOp54
 70
     1
102
RTVSPropertyOp55
 70
     1
102
RTVSPropertyOp56
 70
     1
102
RTVSPropertyOp57
 70
     1
102
RTVSPropertyOp58
 70
     1
102
RTVSPropertyOp59
 70
     1
102
RTVSPropertyOp60
 70
     1
102
RTVSPropertyOp61
 70
     1
102
RTVSPropertyOp62
 70
     1
  0
XRECORD
  5
C5B
102
{ACAD_REACTORS
330
C5A
102
}
330
C5A
100
AcDbXrecord
280
     1
102
RTVSPost2010Prop28
280
     0
102
RTVSPost2010PropOp28
 70
     0
102
RTVSPost2010Prop29
280
     1
102
RTVSPost2010PropOp29
 70
     0
102
RTVSPost2010Prop30
280
     1
102
RTVSPost2010PropOp30
 70
     0
102
RTVSPost2010Prop31
280
     0
102
RTVSPost2010PropOp31
 70
     0
102
RTVSPost2010Prop32
280
     0
102
RTVSPost2010PropOp32
 70
     0
102
RTVSPost2010Prop33
280
     0
102
RTVSPost2010PropOp33
 70
     0
102
RTVSPost2010Prop34
280
     0
102
RTVSPost2010PropOp34
 70
     0
102
RTVSPost2010Prop35
280
     0
102
RTVSPost2010PropOp35
 70
     0
102
RTVSPost2010Prop36
280
     0
102
RTVSPost2010PropOp36
 70
     0
102
RTVSPost2010Prop37
 90
       50
102
RTVSPost2010PropOp37
 70
     0
102
RTVSPost2010Prop38
140
0.0
102
RTVSPost2010PropOp38
 70
     0
102
RTVSPost2010Prop39
140
1.0
102
RTVSPost2010PropOp39
 70
     0
102
RTVSPost2010Prop40
 90
        0
102
RTVSPost2010PropOp40
 70
     0
102
RTVSPost2010Prop41ColorIndex
 90
       18
102
RTVSPost2010Prop41ColorRGB
 90
        0
102
RTVSPost2010PropOp41
 70
     0
102
RTVSPost2010Prop42
 90
       50
102
RTVSPost2010PropOp42
 70
     0
102
RTVSPost2010Prop43
 90
        3
102
RTVSPost2010PropOp43
 70
     0
102
RTVSPost2010Prop44ColorIndex
 90
        5
102
RTVSPost2010Prop44ColorRGB
 90
      255
102
RTVSPost2010PropOp44
 70
     0
102
RTVSPost2010Prop45
280
     0
102
RTVSPost2010PropOp45
 70
     0
102
RTVSPost2010Prop46
 90
       50
102
RTVSPost2010PropOp46
 70
     0
102
RTVSPost2010Prop47
 90
       50
102
RTVSPost2010PropOp47
 70
     0
102
RTVSPost2010Prop48
 90
       50
102
RTVSPost2010PropOp48
 70
     0
102
RTVSPost2010Prop49
280
     0
102
RTVSPost2010PropOp49
 70
     0
102
RTVSPost2010Prop50
 90
       50
102
RTVSPost2010PropOp50
 70
     0
102
RTVSPost2010Prop51ColorIndex
 90
      256
102
RTVSPost2010Prop51ColorRGB
 90
-16777216
102
RTVSPost2010PropOp51
 70
     0
102
RTVSPost2010Prop52
140
1.0
102
RTVSPost2010PropOp52
 70
     0
102
RTVSPost2010Prop53
 90
        2
102
RTVSPost2010PropOp53
 70
     0
102
RTVSPost2010Prop54
  1
strokes_ogs.tif
102
RTVSPost2010PropOp54
 70
     0
102
RTVSPost2010Prop55
280
     0
102
RTVSPost2010PropOp55
 70
     0
102
RTVSPost2010Prop56
140
1.0
102
RTVSPost2010PropOp56
 70
     0
102
RTVSPost2010Prop57
140
1.0
102
RTVSPost2010PropOp57
 70
     0
102
RTVSPropertyOp0
 70
     0
102
RTVSPropertyOp1
 70
     0
102
RTVSPropertyOp2
 70
     0
102
RTVSPropertyOp3
 70
     0
102
RTVSPropertyOp4
 70
     0
102
RTVSPropertyOp5
 70
     0
102
RTVSPropertyOp6
 70
     0
102
RTVSPropertyOp7
 70
     0
102
RTVSPropertyOp8
 70
     0
102
RTVSPropertyOp9
 70
     0
102
RTVSPropertyOp10
 70
     0
102
RTVSPropertyOp11
 70
     0
102
RTVSPropertyOp12
 70
     0
102
RTVSPropertyOp13
 70
     0
102
RTVSPropertyOp14
 70
     2
102
RTVSPropertyOp15
 70
     0
102
RTVSPropertyOp16
 70
     0
102
RTVSPropertyOp17
 70
     0
102
RTVSPropertyOp18
 70
     0
102
RTVSPropertyOp19
 70
     0
102
RTVSPropertyOp20
 70
     0
102
RTVSPropertyOp21
 70
     0
102
RTVSPropertyOp22
 70
     0
102
RTVSPropertyOp23
 70
     0
102
RTVSPropertyOp24
 70
     0
102
RTVSPropertyOp25
 70
     0
102
RTVSPropertyOp26
 70
     0
102
RTVSPropertyOp27
 70
     0
102
RTVSPropertyOp28
 70
     0
102
RTVSPropertyOp29
 70
     0
102
RTVSPropertyOp30
 70
     0
102
RTVSPropertyOp31
 70
     0
102
RTVSPropertyOp32
 70
     0
102
RTVSPropertyOp33
 70
     0
102
RTVSPropertyOp34
 70
     0
102
RTVSPropertyOp35
 70
     0
102
RTVSPropertyOp36
 70
     0
102
RTVSPropertyOp37
 70
     0
102
RTVSPropertyOp38
 70
     0
102
RTVSPropertyOp39
 70
     0
102
RTVSPropertyOp40
 70
     0
102
RTVSPropertyOp41
 70
     0
102
RTVSPropertyOp42
 70
     0
102
RTVSPropertyOp43
 70
     0
102
RTVSPropertyOp44
 70
     0
102
RTVSPropertyOp45
 70
     0
102
RTVSPropertyOp46
 70
     0
102
RTVSPropertyOp47
 70
     0
102
RTVSPropertyOp48
 70
     0
102
RTVSPropertyOp49
 70
     0
102
RTVSPropertyOp50
 70
     0
102
RTVSPropertyOp51
 70
     0
102
RTVSPropertyOp52
 70
     0
102
RTVSPropertyOp53
 70
     0
102
RTVSPropertyOp54
 70
     0
102
RTVSPropertyOp55
 70
     0
102
RTVSPropertyOp56
 70
     0
102
RTVSPropertyOp57
 70
     0
102
RTVSPropertyOp58
 70
     1
102
RTVSPropertyOp59
 70
     1
102
RTVSPropertyOp60
 70
     1
102
RTVSPropertyOp61
 70
     1
102
RTVSPropertyOp62
 70
     1
  0
XRECORD
  5
C49
102
{ACAD_REACTORS
330
C48
102
}
330
C48
100
AcDbXrecord
280
     1
102
RTVSPost2010Prop28
280
     0
102
RTVSPost2010PropOp28
 70
     1
102
RTVSPost2010Prop29
280
     1
102
RTVSPost2010PropOp29
 70
     1
102
RTVSPost2010Prop30
280
     1
102
RTVSPost2010PropOp30
 70
     1
102
RTVSPost2010Prop31
280
     0
102
RTVSPost2010PropOp31
 70
     1
102
RTVSPost2010Prop32
280
     0
102
RTVSPost2010PropOp32
 70
     1
102
RTVSPost2010Prop33
280
     0
102
RTVSPost2010PropOp33
 70
     1
102
RTVSPost2010Prop34
280
     0
102
RTVSPost2010PropOp34
 70
     1
102
RTVSPost2010Prop35
280
     0
102
RTVSPost2010PropOp35
 70
     1
102
RTVSPost2010Prop36
280
     0
102
RTVSPost2010PropOp36
 70
     1
102
RTVSPost2010Prop37
 90
       50
102
RTVSPost2010PropOp37
 70
     1
102
RTVSPost2010Prop38
140
0.0
102
RTVSPost2010PropOp38
 70
     1
102
RTVSPost2010Prop39
140
1.0
102
RTVSPost2010PropOp39
 70
     1
102
RTVSPost2010Prop40
 90
        0
102
RTVSPost2010PropOp40
 70
     1
102
RTVSPost2010Prop41ColorIndex
 90
       18
102
RTVSPost2010Prop41ColorRGB
 90
        0
102
RTVSPost2010PropOp41
 70
     1
102
RTVSPost2010Prop42
 90
       50
102
RTVSPost2010PropOp42
 70
     1
102
RTVSPost2010Prop43
 90
        3
102
RTVSPost2010PropOp43
 70
     1
102
RTVSPost2010Prop44ColorIndex
 90
        5
102
RTVSPost2010Prop44ColorRGB
 90
      255
102
RTVSPost2010PropOp44
 70
     1
102
RTVSPost2010Prop45
280
     0
102
RTVSPost2010PropOp45
 70
     1
102
RTVSPost2010Prop46
 90
       50
102
RTVSPost2010PropOp46
 70
     1
102
RTVSPost2010Prop47
 90
       50
102
RTVSPost2010PropOp47
 70
     1
102
RTVSPost2010Prop48
 90
       50
102
RTVSPost2010PropOp48
 70
     1
102
RTVSPost2010Prop49
280
     0
102
RTVSPost2010PropOp49
 70
     1
102
RTVSPost2010Prop50
 90
       50
102
RTVSPost2010PropOp50
 70
     1
102
RTVSPost2010Prop51ColorIndex
 90
      256
102
RTVSPost2010Prop51ColorRGB
 90
-16777216
102
RTVSPost2010PropOp51
 70
     0
102
RTVSPost2010Prop52
140
1.0
102
RTVSPost2010PropOp52
 70
     0
102
RTVSPost2010Prop53
 90
        2
102
RTVSPost2010PropOp53
 70
     1
102
RTVSPost2010Prop54
  1
strokes_ogs.tif
102
RTVSPost2010PropOp54
 70
     1
102
RTVSPost2010Prop55
280
     0
102
RTVSPost2010PropOp55
 70
     1
102
RTVSPost2010Prop56
140
1.0
102
RTVSPost2010PropOp56
 70
     1
102
RTVSPost2010Prop57
140
1.0
102
RTVSPost2010PropOp57
 70
     1
102
RTVSPropertyOp0
 70
     1
102
RTVSPropertyOp1
 70
     1
102
RTVSPropertyOp2
 70
     1
102
RTVSPropertyOp3
 70
     1
102
RTVSPropertyOp4
 70
     1
102
RTVSPropertyOp5
 70
     1
102
RTVSPropertyOp6
 70
     1
102
RTVSPropertyOp7
 70
     1
102
RTVSPropertyOp8
 70
     1
102
RTVSPropertyOp9
 70
     1
102
RTVSPropertyOp10
 70
     1
102
RTVSPropertyOp11
 70
     1
102
RTVSPropertyOp12
 70
     1
102
RTVSPropertyOp13
 70
     1
102
RTVSPropertyOp14
 70
     1
102
RTVSPropertyOp15
 70
     1
102
RTVSPropertyOp16
 70
     1
102
RTVSPropertyOp17
 70
     1
102
RTVSPropertyOp18
 70
     1
102
RTVSPropertyOp19
 70
     1
102
RTVSPropertyOp20
 70
     1
102
RTVSPropertyOp21
 70
     1
102
RTVSPropertyOp22
 70
     1
102
RTVSPropertyOp23
 70
     1
102
RTVSPropertyOp24
 70
     1
102
RTVSPropertyOp25
 70
     1
102
RTVSPropertyOp26
 70
     1
102
RTVSPropertyOp27
 70
     1
102
RTVSPropertyOp28
 70
     1
102
RTVSPropertyOp29
 70
     1
102
RTVSPropertyOp30
 70
     1
102
RTVSPropertyOp31
 70
     1
102
RTVSPropertyOp32
 70
     1
102
RTVSPropertyOp33
 70
     1
102
RTVSPropertyOp34
 70
     1
102
RTVSPropertyOp35
 70
     1
102
RTVSPropertyOp36
 70
     1
102
RTVSPropertyOp37
 70
     1
102
RTVSPropertyOp38
 70
     1
102
RTVSPropertyOp39
 70
     1
102
RTVSPropertyOp40
 70
     1
102
RTVSPropertyOp41
 70
     1
102
RTVSPropertyOp42
 70
     1
102
RTVSPropertyOp43
 70
     1
102
RTVSPropertyOp44
 70
     1
102
RTVSPropertyOp45
 70
     1
102
RTVSPropertyOp46
 70
     1
102
RTVSPropertyOp47
 70
     1
102
RTVSPropertyOp48
 70
     1
102
RTVSPropertyOp49
 70
     1
102
RTVSPropertyOp50
 70
     1
102
RTVSPropertyOp51
 70
     0
102
RTVSPropertyOp52
 70
     0
102
RTVSPropertyOp53
 70
     1
102
RTVSPropertyOp54
 70
     1
102
RTVSPropertyOp55
 70
     1
102
RTVSPropertyOp56
 70
     1
102
RTVSPropertyOp57
 70
     1
102
RTVSPropertyOp58
 70
     1
102
RTVSPropertyOp59
 70
     1
102
RTVSPropertyOp60
 70
     1
102
RTVSPropertyOp61
 70
     1
102
RTVSPropertyOp62
 70
     1
  0
XRECORD
  5
C67
102
{ACAD_REACTORS
330
C66
102
}
330
C66
100
AcDbXrecord
280
     1
102
RTVSPost2010Prop28
280
     0
102
RTVSPost2010PropOp28
 70
     1
102
RTVSPost2010Prop29
280
     1
102
RTVSPost2010PropOp29
 70
     1
102
RTVSPost2010Prop30
280
     1
102
RTVSPost2010PropOp30
 70
     1
102
RTVSPost2010Prop31
280
     0
102
RTVSPost2010PropOp31
 70
     1
102
RTVSPost2010Prop32
280
     0
102
RTVSPost2010PropOp32
 70
     1
102
RTVSPost2010Prop33
280
     0
102
RTVSPost2010PropOp33
 70
     1
102
RTVSPost2010Prop34
280
     0
102
RTVSPost2010PropOp34
 70
     1
102
RTVSPost2010Prop35
280
     0
102
RTVSPost2010PropOp35
 70
     1
102
RTVSPost2010Prop36
280
     0
102
RTVSPost2010PropOp36
 70
     1
102
RTVSPost2010Prop37
 90
       50
102
RTVSPost2010PropOp37
 70
     1
102
RTVSPost2010Prop38
140
0.0
102
RTVSPost2010PropOp38
 70
     1
102
RTVSPost2010Prop39
140
1.0
102
RTVSPost2010PropOp39
 70
     1
102
RTVSPost2010Prop40
 90
        0
102
RTVSPost2010PropOp40
 70
     1
102
RTVSPost2010Prop41ColorIndex
 90
       18
102
RTVSPost2010Prop41ColorRGB
 90
        0
102
RTVSPost2010PropOp41
 70
     1
102
RTVSPost2010Prop42
 90
       50
102
RTVSPost2010PropOp42
 70
     1
102
RTVSPost2010Prop43
 90
        3
102
RTVSPost2010PropOp43
 70
     1
102
RTVSPost2010Prop44ColorIndex
 90
        5
102
RTVSPost2010Prop44ColorRGB
 90
      255
102
RTVSPost2010PropOp44
 70
     1
102
RTVSPost2010Prop45
280
     0
102
RTVSPost2010PropOp45
 70
     1
102
RTVSPost2010Prop46
 90
       50
102
RTVSPost2010PropOp46
 70
     1
102
RTVSPost2010Prop47
 90
       50
102
RTVSPost2010PropOp47
 70
     1
102
RTVSPost2010Prop48
 90
       50
102
RTVSPost2010PropOp48
 70
     1
102
RTVSPost2010Prop49
280
     0
102
RTVSPost2010PropOp49
 70
     1
102
RTVSPost2010Prop50
 90
       50
102
RTVSPost2010PropOp50
 70
     1
102
RTVSPost2010Prop51ColorIndex
 90
      256
102
RTVSPost2010Prop51ColorRGB
 90
-16777216
102
RTVSPost2010PropOp51
 70
     0
102
RTVSPost2010Prop52
140
1.0
102
RTVSPost2010PropOp52
 70
     0
102
RTVSPost2010Prop53
 90
        2
102
RTVSPost2010PropOp53
 70
     1
102
RTVSPost2010Prop54
  1
strokes_ogs.tif
102
RTVSPost2010PropOp54
 70
     1
102
RTVSPost2010Prop55
280
     0
102
RTVSPost2010PropOp55
 70
     1
102
RTVSPost2010Prop56
140
1.0
102
RTVSPost2010PropOp56
 70
     1
102
RTVSPost2010Prop57
140
1.0
102
RTVSPost2010PropOp57
 70
     1
102
RTVSPropertyOp0
 70
     1
102
RTVSPropertyOp1
 70
     1
102
RTVSPropertyOp2
 70
     1
102
RTVSPropertyOp3
 70
     1
102
RTVSPropertyOp4
 70
     1
102
RTVSPropertyOp5
 70
     1
102
RTVSPropertyOp6
 70
     1
102
RTVSPropertyOp7
 70
     1
102
RTVSPropertyOp8
 70
     1
102
RTVSPropertyOp9
 70
     1
102
RTVSPropertyOp10
 70
     1
102
RTVSPropertyOp11
 70
     1
102
RTVSPropertyOp12
 70
     1
102
RTVSPropertyOp13
 70
     1
102
RTVSPropertyOp14
 70
     1
102
RTVSPropertyOp15
 70
     1
102
RTVSPropertyOp16
 70
     1
102
RTVSPropertyOp17
 70
     1
102
RTVSPropertyOp18
 70
     1
102
RTVSPropertyOp19
 70
     1
102
RTVSPropertyOp20
 70
     1
102
RTVSPropertyOp21
 70
     1
102
RTVSPropertyOp22
 70
     1
102
RTVSPropertyOp23
 70
     1
102
RTVSPropertyOp24
 70
     1
102
RTVSPropertyOp25
 70
     1
102
RTVSPropertyOp26
 70
     1
102
RTVSPropertyOp27
 70
     1
102
RTVSPropertyOp28
 70
     1
102
RTVSPropertyOp29
 70
     1
102
RTVSPropertyOp30
 70
     1
102
RTVSPropertyOp31
 70
     1
102
RTVSPropertyOp32
 70
     1
102
RTVSPropertyOp33
 70
     1
102
RTVSPropertyOp34
 70
     1
102
RTVSPropertyOp35
 70
     1
102
RTVSPropertyOp36
 70
     1
102
RTVSPropertyOp37
 70
     1
102
RTVSPropertyOp38
 70
     1
102
RTVSPropertyOp39
 70
     1
102
RTVSPropertyOp40
 70
     1
102
RTVSPropertyOp41
 70
     1
102
RTVSPropertyOp42
 70
     1
102
RTVSPropertyOp43
 70
     1
102
RTVSPropertyOp44
 70
     1
102
RTVSPropertyOp45
 70
     1
102
RTVSPropertyOp46
 70
     1
102
RTVSPropertyOp47
 70
     1
102
RTVSPropertyOp48
 70
     1
102
RTVSPropertyOp49
 70
     1
102
RTVSPropertyOp50
 70
     1
102
RTVSPropertyOp51
 70
     0
102
RTVSPropertyOp52
 70
     0
102
RTVSPropertyOp53
 70
     1
102
RTVSPropertyOp54
 70
     1
102
RTVSPropertyOp55
 70
     1
102
RTVSPropertyOp56
 70
     1
102
RTVSPropertyOp57
 70
     1
102
RTVSPropertyOp58
 70
     1
102
RTVSPropertyOp59
 70
     1
102
RTVSPropertyOp60
 70
     1
102
RTVSPropertyOp61
 70
     1
102
RTVSPropertyOp62
 70
     1
  0
XRECORD
  5
C65
102
{ACAD_REACTORS
330
C64
102
}
330
C64
100
AcDbXrecord
280
     1
102
RTVSPost2010Prop28
280
     0
102
RTVSPost2010PropOp28
 70
     1
102
RTVSPost2010Prop29
280
     1
102
RTVSPost2010PropOp29
 70
     1
102
RTVSPost2010Prop30
280
     1
102
RTVSPost2010PropOp30
 70
     1
102
RTVSPost2010Prop31
280
     0
102
RTVSPost2010PropOp31
 70
     1
102
RTVSPost2010Prop32
280
     0
102
RTVSPost2010PropOp32
 70
     1
102
RTVSPost2010Prop33
280
     0
102
RTVSPost2010PropOp33
 70
     1
102
RTVSPost2010Prop34
280
     0
102
RTVSPost2010PropOp34
 70
     1
102
RTVSPost2010Prop35
280
     0
102
RTVSPost2010PropOp35
 70
     1
102
RTVSPost2010Prop36
280
     0
102
RTVSPost2010PropOp36
 70
     1
102
RTVSPost2010Prop37
 90
       50
102
RTVSPost2010PropOp37
 70
     1
102
RTVSPost2010Prop38
140
0.0
102
RTVSPost2010PropOp38
 70
     1
102
RTVSPost2010Prop39
140
1.0
102
RTVSPost2010PropOp39
 70
     1
102
RTVSPost2010Prop40
 90
        0
102
RTVSPost2010PropOp40
 70
     1
102
RTVSPost2010Prop41ColorIndex
 90
       18
102
RTVSPost2010Prop41ColorRGB
 90
        0
102
RTVSPost2010PropOp41
 70
     1
102
RTVSPost2010Prop42
 90
       50
102
RTVSPost2010PropOp42
 70
     1
102
RTVSPost2010Prop43
 90
        3
102
RTVSPost2010PropOp43
 70
     1
102
RTVSPost2010Prop44ColorIndex
 90
        5
102
RTVSPost2010Prop44ColorRGB
 90
      255
102
RTVSPost2010PropOp44
 70
     1
102
RTVSPost2010Prop45
280
     0
102
RTVSPost2010PropOp45
 70
     1
102
RTVSPost2010Prop46
 90
       50
102
RTVSPost2010PropOp46
 70
     1
102
RTVSPost2010Prop47
 90
       50
102
RTVSPost2010PropOp47
 70
     1
102
RTVSPost2010Prop48
 90
       50
102
RTVSPost2010PropOp48
 70
     1
102
RTVSPost2010Prop49
280
     0
102
RTVSPost2010PropOp49
 70
     1
102
RTVSPost2010Prop50
 90
       50
102
RTVSPost2010PropOp50
 70
     1
102
RTVSPost2010Prop51ColorIndex
 90
      256
102
RTVSPost2010Prop51ColorRGB
 90
-16777216
102
RTVSPost2010PropOp51
 70
     0
102
RTVSPost2010Prop52
140
1.0
102
RTVSPost2010PropOp52
 70
     0
102
RTVSPost2010Prop53
 90
        2
102
RTVSPost2010PropOp53
 70
     1
102
RTVSPost2010Prop54
  1
strokes_ogs.tif
102
RTVSPost2010PropOp54
 70
     1
102
RTVSPost2010Prop55
280
     0
102
RTVSPost2010PropOp55
 70
     1
102
RTVSPost2010Prop56
140
1.0
102
RTVSPost2010PropOp56
 70
     1
102
RTVSPost2010Prop57
140
1.0
102
RTVSPost2010PropOp57
 70
     1
102
RTVSPropertyOp0
 70
     1
102
RTVSPropertyOp1
 70
     1
102
RTVSPropertyOp2
 70
     1
102
RTVSPropertyOp3
 70
     1
102
RTVSPropertyOp4
 70
     1
102
RTVSPropertyOp5
 70
     1
102
RTVSPropertyOp6
 70
     1
102
RTVSPropertyOp7
 70
     1
102
RTVSPropertyOp8
 70
     1
102
RTVSPropertyOp9
 70
     1
102
RTVSPropertyOp10
 70
     1
102
RTVSPropertyOp11
 70
     1
102
RTVSPropertyOp12
 70
     1
102
RTVSPropertyOp13
 70
     1
102
RTVSPropertyOp14
 70
     1
102
RTVSPropertyOp15
 70
     1
102
RTVSPropertyOp16
 70
     1
102
RTVSPropertyOp17
 70
     1
102
RTVSPropertyOp18
 70
     1
102
RTVSPropertyOp19
 70
     1
102
RTVSPropertyOp20
 70
     1
102
RTVSPropertyOp21
 70
     1
102
RTVSPropertyOp22
 70
     1
102
RTVSPropertyOp23
 70
     1
102
RTVSPropertyOp24
 70
     1
102
RTVSPropertyOp25
 70
     1
102
RTVSPropertyOp26
 70
     1
102
RTVSPropertyOp27
 70
     1
102
RTVSPropertyOp28
 70
     1
102
RTVSPropertyOp29
 70
     1
102
RTVSPropertyOp30
 70
     1
102
RTVSPropertyOp31
 70
     1
102
RTVSPropertyOp32
 70
     1
102
RTVSPropertyOp33
 70
     1
102
RTVSPropertyOp34
 70
     1
102
RTVSPropertyOp35
 70
     1
102
RTVSPropertyOp36
 70
     1
102
RTVSPropertyOp37
 70
     1
102
RTVSPropertyOp38
 70
     1
102
RTVSPropertyOp39
 70
     1
102
RTVSPropertyOp40
 70
     1
102
RTVSPropertyOp41
 70
     1
102
RTVSPropertyOp42
 70
     1
102
RTVSPropertyOp43
 70
     1
102
RTVSPropertyOp44
 70
     1
102
RTVSPropertyOp45
 70
     1
102
RTVSPropertyOp46
 70
     1
102
RTVSPropertyOp47
 70
     1
102
RTVSPropertyOp48
 70
     1
102
RTVSPropertyOp49
 70
     1
102
RTVSPropertyOp50
 70
     1
102
RTVSPropertyOp51
 70
     0
102
RTVSPropertyOp52
 70
     0
102
RTVSPropertyOp53
 70
     1
102
RTVSPropertyOp54
 70
     1
102
RTVSPropertyOp55
 70
     1
102
RTVSPropertyOp56
 70
     1
102
RTVSPropertyOp57
 70
     1
102
RTVSPropertyOp58
 70
     1
102
RTVSPropertyOp59
 70
     1
102
RTVSPropertyOp60
 70
     1
102
RTVSPropertyOp61
 70
     1
102
RTVSPropertyOp62
 70
     1
  0
XRECORD
  5
C5F
102
{ACAD_REACTORS
330
C5E
102
}
330
C5E
100
AcDbXrecord
280
     1
102
RTVSPost2010Prop28
280
     0
102
RTVSPost2010PropOp28
 70
     1
102
RTVSPost2010Prop29
280
     1
102
RTVSPost2010PropOp29
 70
     1
102
RTVSPost2010Prop30
280
     1
102
RTVSPost2010PropOp30
 70
     1
102
RTVSPost2010Prop31
280
     0
102
RTVSPost2010PropOp31
 70
     1
102
RTVSPost2010Prop32
280
     0
102
RTVSPost2010PropOp32
 70
     1
102
RTVSPost2010Prop33
280
     0
102
RTVSPost2010PropOp33
 70
     1
102
RTVSPost2010Prop34
280
     0
102
RTVSPost2010PropOp34
 70
     1
102
RTVSPost2010Prop35
280
     0
102
RTVSPost2010PropOp35
 70
     1
102
RTVSPost2010Prop36
280
     0
102
RTVSPost2010PropOp36
 70
     1
102
RTVSPost2010Prop37
 90
       50
102
RTVSPost2010PropOp37
 70
     1
102
RTVSPost2010Prop38
140
0.0
102
RTVSPost2010PropOp38
 70
     1
102
RTVSPost2010Prop39
140
1.0
102
RTVSPost2010PropOp39
 70
     1
102
RTVSPost2010Prop40
 90
        0
102
RTVSPost2010PropOp40
 70
     1
102
RTVSPost2010Prop41ColorIndex
 90
       18
102
RTVSPost2010Prop41ColorRGB
 90
        0
102
RTVSPost2010PropOp41
 70
     1
102
RTVSPost2010Prop42
 90
       50
102
RTVSPost2010PropOp42
 70
     1
102
RTVSPost2010Prop43
 90
        3
102
RTVSPost2010PropOp43
 70
     1
102
RTVSPost2010Prop44ColorIndex
 90
        5
102
RTVSPost2010Prop44ColorRGB
 90
      255
102
RTVSPost2010PropOp44
 70
     1
102
RTVSPost2010Prop45
280
     0
102
RTVSPost2010PropOp45
 70
     1
102
RTVSPost2010Prop46
 90
       50
102
RTVSPost2010PropOp46
 70
     1
102
RTVSPost2010Prop47
 90
       50
102
RTVSPost2010PropOp47
 70
     1
102
RTVSPost2010Prop48
 90
       50
102
RTVSPost2010PropOp48
 70
     1
102
RTVSPost2010Prop49
280
     0
102
RTVSPost2010PropOp49
 70
     1
102
RTVSPost2010Prop50
 90
       50
102
RTVSPost2010PropOp50
 70
     1
102
RTVSPost2010Prop51ColorIndex
 90
      256
102
RTVSPost2010Prop51ColorRGB
 90
-16777216
102
RTVSPost2010PropOp51
 70
     0
102
RTVSPost2010Prop52
140
1.0
102
RTVSPost2010PropOp52
 70
     0
102
RTVSPost2010Prop53
 90
        2
102
RTVSPost2010PropOp53
 70
     1
102
RTVSPost2010Prop54
  1
strokes_ogs.tif
102
RTVSPost2010PropOp54
 70
     1
102
RTVSPost2010Prop55
280
     0
102
RTVSPost2010PropOp55
 70
     1
102
RTVSPost2010Prop56
140
1.0
102
RTVSPost2010PropOp56
 70
     1
102
RTVSPost2010Prop57
140
1.0
102
RTVSPost2010PropOp57
 70
     1
102
RTVSPropertyOp0
 70
     1
102
RTVSPropertyOp1
 70
     1
102
RTVSPropertyOp2
 70
     1
102
RTVSPropertyOp3
 70
     1
102
RTVSPropertyOp4
 70
     1
102
RTVSPropertyOp5
 70
     1
102
RTVSPropertyOp6
 70
     1
102
RTVSPropertyOp7
 70
     1
102
RTVSPropertyOp8
 70
     1
102
RTVSPropertyOp9
 70
     1
102
RTVSPropertyOp10
 70
     1
102
RTVSPropertyOp11
 70
     1
102
RTVSPropertyOp12
 70
     1
102
RTVSPropertyOp13
 70
     1
102
RTVSPropertyOp14
 70
     1
102
RTVSPropertyOp15
 70
     1
102
RTVSPropertyOp16
 70
     1
102
RTVSPropertyOp17
 70
     1
102
RTVSPropertyOp18
 70
     1
102
RTVSPropertyOp19
 70
     1
102
RTVSPropertyOp20
 70
     1
102
RTVSPropertyOp21
 70
     1
102
RTVSPropertyOp22
 70
     1
102
RTVSPropertyOp23
 70
     1
102
RTVSPropertyOp24
 70
     1
102
RTVSPropertyOp25
 70
     1
102
RTVSPropertyOp26
 70
     1
102
RTVSPropertyOp27
 70
     1
102
RTVSPropertyOp28
 70
     1
102
RTVSPropertyOp29
 70
     1
102
RTVSPropertyOp30
 70
     1
102
RTVSPropertyOp31
 70
     1
102
RTVSPropertyOp32
 70
     1
102
RTVSPropertyOp33
 70
     1
102
RTVSPropertyOp34
 70
     1
102
RTVSPropertyOp35
 70
     1
102
RTVSPropertyOp36
 70
     1
102
RTVSPropertyOp37
 70
     1
102
RTVSPropertyOp38
 70
     1
102
RTVSPropertyOp39
 70
     1
102
RTVSPropertyOp40
 70
     1
102
RTVSPropertyOp41
 70
     1
102
RTVSPropertyOp42
 70
     1
102
RTVSPropertyOp43
 70
     1
102
RTVSPropertyOp44
 70
     1
102
RTVSPropertyOp45
 70
     1
102
RTVSPropertyOp46
 70
     1
102
RTVSPropertyOp47
 70
     1
102
RTVSPropertyOp48
 70
     1
102
RTVSPropertyOp49
 70
     1
102
RTVSPropertyOp50
 70
     1
102
RTVSPropertyOp51
 70
     0
102
RTVSPropertyOp52
 70
     0
102
RTVSPropertyOp53
 70
     1
102
RTVSPropertyOp54
 70
     1
102
RTVSPropertyOp55
 70
     1
102
RTVSPropertyOp56
 70
     1
102
RTVSPropertyOp57
 70
     1
102
RTVSPropertyOp58
 70
     1
102
RTVSPropertyOp59
 70
     1
102
RTVSPropertyOp60
 70
     1
102
RTVSPropertyOp61
 70
     1
102
RTVSPropertyOp62
 70
     1
  0
XRECORD
  5
C61
102
{ACAD_REACTORS
330
C60
102
}
330
C60
100
AcDbXrecord
280
     1
102
RTVSPost2010Prop28
280
     0
102
RTVSPost2010PropOp28
 70
     1
102
RTVSPost2010Prop29
280
     1
102
RTVSPost2010PropOp29
 70
     1
102
RTVSPost2010Prop30
280
     1
102
RTVSPost2010PropOp30
 70
     1
102
RTVSPost2010Prop31
280
     0
102
RTVSPost2010PropOp31
 70
     1
102
RTVSPost2010Prop32
280
     0
102
RTVSPost2010PropOp32
 70
     1
102
RTVSPost2010Prop33
280
     0
102
RTVSPost2010PropOp33
 70
     1
102
RTVSPost2010Prop34
280
     0
102
RTVSPost2010PropOp34
 70
     1
102
RTVSPost2010Prop35
280
     0
102
RTVSPost2010PropOp35
 70
     1
102
RTVSPost2010Prop36
280
     0
102
RTVSPost2010PropOp36
 70
     1
102
RTVSPost2010Prop37
 90
       50
102
RTVSPost2010PropOp37
 70
     1
102
RTVSPost2010Prop38
140
0.0
102
RTVSPost2010PropOp38
 70
     1
102
RTVSPost2010Prop39
140
1.0
102
RTVSPost2010PropOp39
 70
     1
102
RTVSPost2010Prop40
 90
        0
102
RTVSPost2010PropOp40
 70
     1
102
RTVSPost2010Prop41ColorIndex
 90
       18
102
RTVSPost2010Prop41ColorRGB
 90
        0
102
RTVSPost2010PropOp41
 70
     1
102
RTVSPost2010Prop42
 90
       50
102
RTVSPost2010PropOp42
 70
     1
102
RTVSPost2010Prop43
 90
        3
102
RTVSPost2010PropOp43
 70
     1
102
RTVSPost2010Prop44ColorIndex
 90
        5
102
RTVSPost2010Prop44ColorRGB
 90
      255
102
RTVSPost2010PropOp44
 70
     1
102
RTVSPost2010Prop45
280
     0
102
RTVSPost2010PropOp45
 70
     1
102
RTVSPost2010Prop46
 90
       50
102
RTVSPost2010PropOp46
 70
     1
102
RTVSPost2010Prop47
 90
       50
102
RTVSPost2010PropOp47
 70
     1
102
RTVSPost2010Prop48
 90
       50
102
RTVSPost2010PropOp48
 70
     1
102
RTVSPost2010Prop49
280
     0
102
RTVSPost2010PropOp49
 70
     1
102
RTVSPost2010Prop50
 90
       50
102
RTVSPost2010PropOp50
 70
     1
102
RTVSPost2010Prop51ColorIndex
 90
      256
102
RTVSPost2010Prop51ColorRGB
 90
-16777216
102
RTVSPost2010PropOp51
 70
     0
102
RTVSPost2010Prop52
140
1.0
102
RTVSPost2010PropOp52
 70
     0
102
RTVSPost2010Prop53
 90
        2
102
RTVSPost2010PropOp53
 70
     1
102
RTVSPost2010Prop54
  1
strokes_ogs.tif
102
RTVSPost2010PropOp54
 70
     1
102
RTVSPost2010Prop55
280
     0
102
RTVSPost2010PropOp55
 70
     1
102
RTVSPost2010Prop56
140
1.0
102
RTVSPost2010PropOp56
 70
     1
102
RTVSPost2010Prop57
140
1.0
102
RTVSPost2010PropOp57
 70
     1
102
RTVSPropertyOp0
 70
     1
102
RTVSPropertyOp1
 70
     1
102
RTVSPropertyOp2
 70
     1
102
RTVSPropertyOp3
 70
     1
102
RTVSPropertyOp4
 70
     1
102
RTVSPropertyOp5
 70
     1
102
RTVSPropertyOp6
 70
     1
102
RTVSPropertyOp7
 70
     1
102
RTVSPropertyOp8
 70
     1
102
RTVSPropertyOp9
 70
     1
102
RTVSPropertyOp10
 70
     1
102
RTVSPropertyOp11
 70
     1
102
RTVSPropertyOp12
 70
     1
102
RTVSPropertyOp13
 70
     1
102
RTVSPropertyOp14
 70
     1
102
RTVSPropertyOp15
 70
     1
102
RTVSPropertyOp16
 70
     1
102
RTVSPropertyOp17
 70
     1
102
RTVSPropertyOp18
 70
     1
102
RTVSPropertyOp19
 70
     1
102
RTVSPropertyOp20
 70
     1
102
RTVSPropertyOp21
 70
     1
102
RTVSPropertyOp22
 70
     1
102
RTVSPropertyOp23
 70
     1
102
RTVSPropertyOp24
 70
     1
102
RTVSPropertyOp25
 70
     1
102
RTVSPropertyOp26
 70
     1
102
RTVSPropertyOp27
 70
     1
102
RTVSPropertyOp28
 70
     1
102
RTVSPropertyOp29
 70
     1
102
RTVSPropertyOp30
 70
     1
102
RTVSPropertyOp31
 70
     1
102
RTVSPropertyOp32
 70
     1
102
RTVSPropertyOp33
 70
     1
102
RTVSPropertyOp34
 70
     1
102
RTVSPropertyOp35
 70
     1
102
RTVSPropertyOp36
 70
     1
102
RTVSPropertyOp37
 70
     1
102
RTVSPropertyOp38
 70
     1
102
RTVSPropertyOp39
 70
     1
102
RTVSPropertyOp40
 70
     1
102
RTVSPropertyOp41
 70
     1
102
RTVSPropertyOp42
 70
     1
102
RTVSPropertyOp43
 70
     1
102
RTVSPropertyOp44
 70
     1
102
RTVSPropertyOp45
 70
     1
102
RTVSPropertyOp46
 70
     1
102
RTVSPropertyOp47
 70
     1
102
RTVSPropertyOp48
 70
     1
102
RTVSPropertyOp49
 70
     1
102
RTVSPropertyOp50
 70
     1
102
RTVSPropertyOp51
 70
     0
102
RTVSPropertyOp52
 70
     0
102
RTVSPropertyOp53
 70
     1
102
RTVSPropertyOp54
 70
     1
102
RTVSPropertyOp55
 70
     1
102
RTVSPropertyOp56
 70
     1
102
RTVSPropertyOp57
 70
     1
102
RTVSPropertyOp58
 70
     1
102
RTVSPropertyOp59
 70
     1
102
RTVSPropertyOp60
 70
     1
102
RTVSPropertyOp61
 70
     1
102
RTVSPropertyOp62
 70
     1
  0
XRECORD
  5
C51
102
{ACAD_REACTORS
330
C50
102
}
330
C50
100
AcDbXrecord
280
     1
102
RTVSPost2010Prop28
280
     0
102
RTVSPost2010PropOp28
 70
     1
102
RTVSPost2010Prop29
280
     1
102
RTVSPost2010PropOp29
 70
     1
102
RTVSPost2010Prop30
280
     1
102
RTVSPost2010PropOp30
 70
     1
102
RTVSPost2010Prop31
280
     0
102
RTVSPost2010PropOp31
 70
     1
102
RTVSPost2010Prop32
280
     0
102
RTVSPost2010PropOp32
 70
     1
102
RTVSPost2010Prop33
280
     0
102
RTVSPost2010PropOp33
 70
     1
102
RTVSPost2010Prop34
280
     0
102
RTVSPost2010PropOp34
 70
     1
102
RTVSPost2010Prop35
280
     0
102
RTVSPost2010PropOp35
 70
     1
102
RTVSPost2010Prop36
280
     0
102
RTVSPost2010PropOp36
 70
     1
102
RTVSPost2010Prop37
 90
       50
102
RTVSPost2010PropOp37
 70
     1
102
RTVSPost2010Prop38
140
0.0
102
RTVSPost2010PropOp38
 70
     1
102
RTVSPost2010Prop39
140
1.0
102
RTVSPost2010PropOp39
 70
     1
102
RTVSPost2010Prop40
 90
        0
102
RTVSPost2010PropOp40
 70
     1
102
RTVSPost2010Prop41ColorIndex
 90
       18
102
RTVSPost2010Prop41ColorRGB
 90
        0
102
RTVSPost2010PropOp41
 70
     1
102
RTVSPost2010Prop42
 90
       50
102
RTVSPost2010PropOp42
 70
     1
102
RTVSPost2010Prop43
 90
        3
102
RTVSPost2010PropOp43
 70
     1
102
RTVSPost2010Prop44ColorIndex
 90
        5
102
RTVSPost2010Prop44ColorRGB
 90
      255
102
RTVSPost2010PropOp44
 70
     1
102
RTVSPost2010Prop45
280
     0
102
RTVSPost2010PropOp45
 70
     1
102
RTVSPost2010Prop46
 90
       50
102
RTVSPost2010PropOp46
 70
     1
102
RTVSPost2010Prop47
 90
       50
102
RTVSPost2010PropOp47
 70
     1
102
RTVSPost2010Prop48
 90
       50
102
RTVSPost2010PropOp48
 70
     1
102
RTVSPost2010Prop49
280
     0
102
RTVSPost2010PropOp49
 70
     1
102
RTVSPost2010Prop50
 90
       50
102
RTVSPost2010PropOp50
 70
     1
102
RTVSPost2010Prop51ColorIndex
 90
      256
102
RTVSPost2010Prop51ColorRGB
 90
-16777216
102
RTVSPost2010PropOp51
 70
     0
102
RTVSPost2010Prop52
140
1.0
102
RTVSPost2010PropOp52
 70
     0
102
RTVSPost2010Prop53
 90
        2
102
RTVSPost2010PropOp53
 70
     1
102
RTVSPost2010Prop54
  1
strokes_ogs.tif
102
RTVSPost2010PropOp54
 70
     1
102
RTVSPost2010Prop55
280
     0
102
RTVSPost2010PropOp55
 70
     1
102
RTVSPost2010Prop56
140
1.0
102
RTVSPost2010PropOp56
 70
     1
102
RTVSPost2010Prop57
140
1.0
102
RTVSPost2010PropOp57
 70
     1
102
RTVSPropertyOp0
 70
     1
102
RTVSPropertyOp1
 70
     1
102
RTVSPropertyOp2
 70
     1
102
RTVSPropertyOp3
 70
     1
102
RTVSPropertyOp4
 70
     1
102
RTVSPropertyOp5
 70
     1
102
RTVSPropertyOp6
 70
     1
102
RTVSPropertyOp7
 70
     1
102
RTVSPropertyOp8
 70
     1
102
RTVSPropertyOp9
 70
     1
102
RTVSPropertyOp10
 70
     1
102
RTVSPropertyOp11
 70
     1
102
RTVSPropertyOp12
 70
     1
102
RTVSPropertyOp13
 70
     1
102
RTVSPropertyOp14
 70
     1
102
RTVSPropertyOp15
 70
     1
102
RTVSPropertyOp16
 70
     1
102
RTVSPropertyOp17
 70
     1
102
RTVSPropertyOp18
 70
     1
102
RTVSPropertyOp19
 70
     1
102
RTVSPropertyOp20
 70
     1
102
RTVSPropertyOp21
 70
     1
102
RTVSPropertyOp22
 70
     1
102
RTVSPropertyOp23
 70
     1
102
RTVSPropertyOp24
 70
     1
102
RTVSPropertyOp25
 70
     1
102
RTVSPropertyOp26
 70
     1
102
RTVSPropertyOp27
 70
     1
102
RTVSPropertyOp28
 70
     1
102
RTVSPropertyOp29
 70
     1
102
RTVSPropertyOp30
 70
     1
102
RTVSPropertyOp31
 70
     1
102
RTVSPropertyOp32
 70
     1
102
RTVSPropertyOp33
 70
     1
102
RTVSPropertyOp34
 70
     1
102
RTVSPropertyOp35
 70
     1
102
RTVSPropertyOp36
 70
     1
102
RTVSPropertyOp37
 70
     1
102
RTVSPropertyOp38
 70
     1
102
RTVSPropertyOp39
 70
     1
102
RTVSPropertyOp40
 70
     1
102
RTVSPropertyOp41
 70
     1
102
RTVSPropertyOp42
 70
     1
102
RTVSPropertyOp43
 70
     1
102
RTVSPropertyOp44
 70
     1
102
RTVSPropertyOp45
 70
     1
102
RTVSPropertyOp46
 70
     1
102
RTVSPropertyOp47
 70
     1
102
RTVSPropertyOp48
 70
     1
102
RTVSPropertyOp49
 70
     1
102
RTVSPropertyOp50
 70
     1
102
RTVSPropertyOp51
 70
     0
102
RTVSPropertyOp52
 70
     0
102
RTVSPropertyOp53
 70
     1
102
RTVSPropertyOp54
 70
     1
102
RTVSPropertyOp55
 70
     1
102
RTVSPropertyOp56
 70
     1
102
RTVSPropertyOp57
 70
     1
102
RTVSPropertyOp58
 70
     1
102
RTVSPropertyOp59
 70
     1
102
RTVSPropertyOp60
 70
     1
102
RTVSPropertyOp61
 70
     1
102
RTVSPropertyOp62
 70
     1
  0
XRECORD
  5
C43
102
{ACAD_REACTORS
330
C42
102
}
330
C42
100
AcDbXrecord
280
     1
102
RTVSPost2010Prop28
280
     0
102
RTVSPost2010PropOp28
 70
     1
102
RTVSPost2010Prop29
280
     1
102
RTVSPost2010PropOp29
 70
     1
102
RTVSPost2010Prop30
280
     1
102
RTVSPost2010PropOp30
 70
     1
102
RTVSPost2010Prop31
280
     0
102
RTVSPost2010PropOp31
 70
     1
102
RTVSPost2010Prop32
280
     0
102
RTVSPost2010PropOp32
 70
     1
102
RTVSPost2010Prop33
280
     0
102
RTVSPost2010PropOp33
 70
     1
102
RTVSPost2010Prop34
280
     0
102
RTVSPost2010PropOp34
 70
     1
102
RTVSPost2010Prop35
280
     0
102
RTVSPost2010PropOp35
 70
     1
102
RTVSPost2010Prop36
280
     0
102
RTVSPost2010PropOp36
 70
     1
102
RTVSPost2010Prop37
 90
       50
102
RTVSPost2010PropOp37
 70
     1
102
RTVSPost2010Prop38
140
0.0
102
RTVSPost2010PropOp38
 70
     1
102
RTVSPost2010Prop39
140
1.0
102
RTVSPost2010PropOp39
 70
     1
102
RTVSPost2010Prop40
 90
        0
102
RTVSPost2010PropOp40
 70
     1
102
RTVSPost2010Prop41ColorIndex
 90
       18
102
RTVSPost2010Prop41ColorRGB
 90
        0
102
RTVSPost2010PropOp41
 70
     1
102
RTVSPost2010Prop42
 90
       50
102
RTVSPost2010PropOp42
 70
     1
102
RTVSPost2010Prop43
 90
        3
102
RTVSPost2010PropOp43
 70
     1
102
RTVSPost2010Prop44ColorIndex
 90
        5
102
RTVSPost2010Prop44ColorRGB
 90
      255
102
RTVSPost2010PropOp44
 70
     1
102
RTVSPost2010Prop45
280
     0
102
RTVSPost2010PropOp45
 70
     1
102
RTVSPost2010Prop46
 90
       50
102
RTVSPost2010PropOp46
 70
     1
102
RTVSPost2010Prop47
 90
       50
102
RTVSPost2010PropOp47
 70
     1
102
RTVSPost2010Prop48
 90
       50
102
RTVSPost2010PropOp48
 70
     1
102
RTVSPost2010Prop49
280
     0
102
RTVSPost2010PropOp49
 70
     1
102
RTVSPost2010Prop50
 90
       50
102
RTVSPost2010PropOp50
 70
     1
102
RTVSPost2010Prop51ColorIndex
 90
      256
102
RTVSPost2010Prop51ColorRGB
 90
-16777216
102
RTVSPost2010PropOp51
 70
     0
102
RTVSPost2010Prop52
140
1.0
102
RTVSPost2010PropOp52
 70
     0
102
RTVSPost2010Prop53
 90
        2
102
RTVSPost2010PropOp53
 70
     1
102
RTVSPost2010Prop54
  1
strokes_ogs.tif
102
RTVSPost2010PropOp54
 70
     1
102
RTVSPost2010Prop55
280
     0
102
RTVSPost2010PropOp55
 70
     1
102
RTVSPost2010Prop56
140
1.0
102
RTVSPost2010PropOp56
 70
     1
102
RTVSPost2010Prop57
140
1.0
102
RTVSPost2010PropOp57
 70
     1
102
RTVSPropertyOp0
 70
     1
102
RTVSPropertyOp1
 70
     1
102
RTVSPropertyOp2
 70
     1
102
RTVSPropertyOp3
 70
     1
102
RTVSPropertyOp4
 70
     1
102
RTVSPropertyOp5
 70
     1
102
RTVSPropertyOp6
 70
     1
102
RTVSPropertyOp7
 70
     1
102
RTVSPropertyOp8
 70
     1
102
RTVSPropertyOp9
 70
     1
102
RTVSPropertyOp10
 70
     1
102
RTVSPropertyOp11
 70
     1
102
RTVSPropertyOp12
 70
     1
102
RTVSPropertyOp13
 70
     1
102
RTVSPropertyOp14
 70
     1
102
RTVSPropertyOp15
 70
     1
102
RTVSPropertyOp16
 70
     1
102
RTVSPropertyOp17
 70
     1
102
RTVSPropertyOp18
 70
     1
102
RTVSPropertyOp19
 70
     1
102
RTVSPropertyOp20
 70
     1
102
RTVSPropertyOp21
 70
     1
102
RTVSPropertyOp22
 70
     1
102
RTVSPropertyOp23
 70
     1
102
RTVSPropertyOp24
 70
     1
102
RTVSPropertyOp25
 70
     1
102
RTVSPropertyOp26
 70
     1
102
RTVSPropertyOp27
 70
     1
102
RTVSPropertyOp28
 70
     1
102
RTVSPropertyOp29
 70
     1
102
RTVSPropertyOp30
 70
     1
102
RTVSPropertyOp31
 70
     1
102
RTVSPropertyOp32
 70
     1
102
RTVSPropertyOp33
 70
     1
102
RTVSPropertyOp34
 70
     1
102
RTVSPropertyOp35
 70
     1
102
RTVSPropertyOp36
 70
     1
102
RTVSPropertyOp37
 70
     1
102
RTVSPropertyOp38
 70
     1
102
RTVSPropertyOp39
 70
     1
102
RTVSPropertyOp40
 70
     1
102
RTVSPropertyOp41
 70
     1
102
RTVSPropertyOp42
 70
     1
102
RTVSPropertyOp43
 70
     1
102
RTVSPropertyOp44
 70
     1
102
RTVSPropertyOp45
 70
     1
102
RTVSPropertyOp46
 70
     1
102
RTVSPropertyOp47
 70
     1
102
RTVSPropertyOp48
 70
     1
102
RTVSPropertyOp49
 70
     1
102
RTVSPropertyOp50
 70
     1
102
RTVSPropertyOp51
 70
     0
102
RTVSPropertyOp52
 70
     0
102
RTVSPropertyOp53
 70
     1
102
RTVSPropertyOp54
 70
     1
102
RTVSPropertyOp55
 70
     1
102
RTVSPropertyOp56
 70
     1
102
RTVSPropertyOp57
 70
     1
102
RTVSPropertyOp58
 70
     1
102
RTVSPropertyOp59
 70
     1
102
RTVSPropertyOp60
 70
     1
102
RTVSPropertyOp61
 70
     1
102
RTVSPropertyOp62
 70
     1
  0
XRECORD
  5
C63
102
{ACAD_REACTORS
330
C62
102
}
330
C62
100
AcDbXrecord
280
     1
102
RTVSPost2010Prop28
280
     0
102
RTVSPost2010PropOp28
 70
     1
102
RTVSPost2010Prop29
280
     1
102
RTVSPost2010PropOp29
 70
     1
102
RTVSPost2010Prop30
280
     1
102
RTVSPost2010PropOp30
 70
     1
102
RTVSPost2010Prop31
280
     0
102
RTVSPost2010PropOp31
 70
     1
102
RTVSPost2010Prop32
280
     0
102
RTVSPost2010PropOp32
 70
     1
102
RTVSPost2010Prop33
280
     0
102
RTVSPost2010PropOp33
 70
     1
102
RTVSPost2010Prop34
280
     0
102
RTVSPost2010PropOp34
 70
     1
102
RTVSPost2010Prop35
280
     0
102
RTVSPost2010PropOp35
 70
     1
102
RTVSPost2010Prop36
280
     0
102
RTVSPost2010PropOp36
 70
     1
102
RTVSPost2010Prop37
 90
       50
102
RTVSPost2010PropOp37
 70
     1
102
RTVSPost2010Prop38
140
0.0
102
RTVSPost2010PropOp38
 70
     1
102
RTVSPost2010Prop39
140
1.0
102
RTVSPost2010PropOp39
 70
     1
102
RTVSPost2010Prop40
 90
        0
102
RTVSPost2010PropOp40
 70
     1
102
RTVSPost2010Prop41ColorIndex
 90
       18
102
RTVSPost2010Prop41ColorRGB
 90
        0
102
RTVSPost2010PropOp41
 70
     1
102
RTVSPost2010Prop42
 90
       50
102
RTVSPost2010PropOp42
 70
     1
102
RTVSPost2010Prop43
 90
        3
102
RTVSPost2010PropOp43
 70
     1
102
RTVSPost2010Prop44ColorIndex
 90
        5
102
RTVSPost2010Prop44ColorRGB
 90
      255
102
RTVSPost2010PropOp44
 70
     1
102
RTVSPost2010Prop45
280
     0
102
RTVSPost2010PropOp45
 70
     1
102
RTVSPost2010Prop46
 90
       50
102
RTVSPost2010PropOp46
 70
     1
102
RTVSPost2010Prop47
 90
       50
102
RTVSPost2010PropOp47
 70
     1
102
RTVSPost2010Prop48
 90
       50
102
RTVSPost2010PropOp48
 70
     1
102
RTVSPost2010Prop49
280
     0
102
RTVSPost2010PropOp49
 70
     1
102
RTVSPost2010Prop50
 90
       50
102
RTVSPost2010PropOp50
 70
     1
102
RTVSPost2010Prop51ColorIndex
 90
      256
102
RTVSPost2010Prop51ColorRGB
 90
-16777216
102
RTVSPost2010PropOp51
 70
     0
102
RTVSPost2010Prop52
140
1.0
102
RTVSPost2010PropOp52
 70
     0
102
RTVSPost2010Prop53
 90
        2
102
RTVSPost2010PropOp53
 70
     1
102
RTVSPost2010Prop54
  1
strokes_ogs.tif
102
RTVSPost2010PropOp54
 70
     1
102
RTVSPost2010Prop55
280
     0
102
RTVSPost2010PropOp55
 70
     1
102
RTVSPost2010Prop56
140
1.0
102
RTVSPost2010PropOp56
 70
     1
102
RTVSPost2010Prop57
140
1.0
102
RTVSPost2010PropOp57
 70
     1
102
RTVSPropertyOp0
 70
     1
102
RTVSPropertyOp1
 70
     1
102
RTVSPropertyOp2
 70
     1
102
RTVSPropertyOp3
 70
     1
102
RTVSPropertyOp4
 70
     1
102
RTVSPropertyOp5
 70
     1
102
RTVSPropertyOp6
 70
     1
102
RTVSPropertyOp7
 70
     1
102
RTVSPropertyOp8
 70
     1
102
RTVSPropertyOp9
 70
     1
102
RTVSPropertyOp10
 70
     1
102
RTVSPropertyOp11
 70
     1
102
RTVSPropertyOp12
 70
     1
102
RTVSPropertyOp13
 70
     1
102
RTVSPropertyOp14
 70
     1
102
RTVSPropertyOp15
 70
     1
102
RTVSPropertyOp16
 70
     1
102
RTVSPropertyOp17
 70
     1
102
RTVSPropertyOp18
 70
     1
102
RTVSPropertyOp19
 70
     1
102
RTVSPropertyOp20
 70
     1
102
RTVSPropertyOp21
 70
     1
102
RTVSPropertyOp22
 70
     1
102
RTVSPropertyOp23
 70
     1
102
RTVSPropertyOp24
 70
     1
102
RTVSPropertyOp25
 70
     1
102
RTVSPropertyOp26
 70
     1
102
RTVSPropertyOp27
 70
     1
102
RTVSPropertyOp28
 70
     1
102
RTVSPropertyOp29
 70
     1
102
RTVSPropertyOp30
 70
     1
102
RTVSPropertyOp31
 70
     1
102
RTVSPropertyOp32
 70
     1
102
RTVSPropertyOp33
 70
     1
102
RTVSPropertyOp34
 70
     1
102
RTVSPropertyOp35
 70
     1
102
RTVSPropertyOp36
 70
     1
102
RTVSPropertyOp37
 70
     1
102
RTVSPropertyOp38
 70
     1
102
RTVSPropertyOp39
 70
     1
102
RTVSPropertyOp40
 70
     1
102
RTVSPropertyOp41
 70
     1
102
RTVSPropertyOp42
 70
     1
102
RTVSPropertyOp43
 70
     1
102
RTVSPropertyOp44
 70
     1
102
RTVSPropertyOp45
 70
     1
102
RTVSPropertyOp46
 70
     1
102
RTVSPropertyOp47
 70
     1
102
RTVSPropertyOp48
 70
     1
102
RTVSPropertyOp49
 70
     1
102
RTVSPropertyOp50
 70
     1
102
RTVSPropertyOp51
 70
     0
102
RTVSPropertyOp52
 70
     0
102
RTVSPropertyOp53
 70
     1
102
RTVSPropertyOp54
 70
     1
102
RTVSPropertyOp55
 70
     1
102
RTVSPropertyOp56
 70
     1
102
RTVSPropertyOp57
 70
     1
102
RTVSPropertyOp58
 70
     1
102
RTVSPropertyOp59
 70
     1
102
RTVSPropertyOp60
 70
     1
102
RTVSPropertyOp61
 70
     1
102
RTVSPropertyOp62
 70
     1
  0
ENDSEC
  0
EOF
