  0
SECTION
  2
HEADER
  9
$ACADVER
  1
AC1015
  9
$ACADMAINTVER
 70
    20
  9
$DWGCODEPAGE
  3
ANSI_932
  9
$INSBASE
 10
0.0
 20
0.0
 30
0.0
  9
$EXTMIN
 10
30.24142066908553
 20
-50.77920905181962
 30
0.0
  9
$EXTMAX
 10
2756.081725643152
 20
1808.012429977935
 30
0.0
  9
$LIMMIN
 10
-807.4169036865235
 20
-869.6697341918946
  9
$LIMMAX
 10
1853.97632598877
 20
936.7003433227541
  9
$ORTHOMODE
 70
     1
  9
$REGENMODE
 70
     1
  9
$FILLMODE
 70
     1
  9
$QTEXTMODE
 70
     0
  9
$MIRRTEXT
 70
     1
  9
$LTSCALE
 40
1.152571871119219
  9
$ATTMODE
 70
     1
  9
$TEXTSIZE
 40
2.5
  9
$TRACEWID
 40
1.0
  9
$TEXTSTYLE
  7
Standard
  9
$CLAYER
  8
0
  9
$CELTYPE
  6
ByLayer
  9
$CECOLOR
 62
   256
  9
$CELTSCALE
 40
1.0
  9
$DISPSILH
 70
     0
  9
$DIMSCALE
 40
1.0
  9
$DIMASZ
 40
2.5
  9
$DIMEXO
 40
0.625
  9
$DIMDLI
 40
3.75
  9
$DIMRND
 40
0.0
  9
$DIMDLE
 40
0.0
  9
$DIMEXE
 40
1.25
  9
$DIMTP
 40
0.0
  9
$DIMTM
 40
0.0
  9
$DIMTXT
 40
2.5
  9
$DIMCEN
 40
2.5
  9
$DIMTSZ
 40
0.0
  9
$DIMTOL
 70
     0
  9
$DIMLIM
 70
     0
  9
$DIMTIH
 70
     0
  9
$DIMTOH
 70
     0
  9
$DIMSE1
 70
     0
  9
$DIMSE2
 70
     0
  9
$DIMTAD
 70
     1
  9
$DIMZIN
 70
     0
  9
$DIMBLK
  1

  9
$DIMASO
 70
     1
  9
$DIMSHO
 70
     1
  9
$DIMPOST
  1

  9
$DIMAPOST
  1

  9
$DIMALT
 70
     0
  9
$DIMALTD
 70
     3
  9
$DIMALTF
 40
0.03937007874016
  9
$DIMLFAC
 40
1.0
  9
$DIMTOFL
 70
     1
  9
$DIMTVP
 40
0.0
  9
$DIMTIX
 70
     0
  9
$DIMSOXD
 70
     0
  9
$DIMSAH
 70
     0
  9
$DIMBLK1
  1

  9
$DIMBLK2
  1

  9
$DIMSTYLE
  2
Standard
  9
$DIMCLRD
 70
     0
  9
$DIMCLRE
 70
     0
  9
$DIMCLRT
 70
     0
  9
$DIMTFAC
 40
0.75
  9
$DIMGAP
 40
0.625
  9
$DIMJUST
 70
     0
  9
$DIMSD1
 70
     0
  9
$DIMSD2
 70
     0
  9
$DIMTOLJ
 70
     0
  9
$DIMTZIN
 70
     8
  9
$DIMALTZ
 70
     0
  9
$DIMALTTZ
 70
     0
  9
$DIMUPT
 70
     0
  9
$DIMDEC
 70
     2
  9
$DIMTDEC
 70
     2
  9
$DIMALTU
 70
     2
  9
$DIMALTTD
 70
     3
  9
$DIMTXSTY
  7
Standard
  9
$DIMAUNIT
 70
     0
  9
$DIMADEC
 70
     0
  9
$DIMALTRND
 40
0.0
  9
$DIMAZIN
 70
     0
  9
$DIMDSEP
 70
    46
  9
$DIMATFIT
 70
     3
  9
$DIMFRAC
 70
     0
  9
$DIMLDRBLK
  1

  9
$DIMLUNIT
 70
     2
  9
$DIMLWD
 70
    -2
  9
$DIMLWE
 70
    -2
  9
$DIMTMOVE
 70
     0
  9
$LUNITS
 70
     2
  9
$LUPREC
 70
     4
  9
$SKETCHINC
 40
1.0
  9
$FILLETRAD
 40
0.0
  9
$AUNITS
 70
     0
  9
$AUPREC
 70
     0
  9
$MENU
  1
.
  9
$ELEVATION
 40
0.0
  9
$PELEVATION
 40
0.0
  9
$THICKNESS
 40
0.0
  9
$LIMCHECK
 70
     0
  9
$CHAMFERA
 40
10.0
  9
$CHAMFERB
 40
10.0
  9
$CHAMFERC
 40
20.0
  9
$CHAMFERD
 40
0.0
  9
$SKPOLY
 70
     0
  9
$TDCREATE
 40
2455188.750000000
  9
$TDUCREATE
 40
2455188.375000000
  9
$TDUPDATE
 40
2459753.402626285
  9
$TDUUPDATE
 40
2459753.027626285
  9
$TDINDWG
 40
0.0594244444
  9
$TDUSRTIMER
 40
0.0594242593
  9
$USRTIMER
 70
     1
  9
$ANGBASE
 50
0.0
  9
$ANGDIR
 70
     0
  9
$PDMODE
 70
     0
  9
$PDSIZE
 40
0.0
  9
$PLINEWID
 40
0.0
  9
$SPLFRAME
 70
     0
  9
$SPLINETYPE
 70
     6
  9
$SPLINESEGS
 70
     8
  9
$HANDSEED
  5
CF8
  9
$SURFTAB1
 70
     6
  9
$SURFTAB2
 70
     6
  9
$SURFTYPE
 70
     6
  9
$SURFU
 70
     6
  9
$SURFV
 70
     6
  9
$UCSBASE
  2

  9
$UCSNAME
  2

  9
$UCSORG
 10
0.0
 20
0.0
 30
0.0
  9
$UCSXDIR
 10
1.0
 20
0.0
 30
0.0
  9
$UCSYDIR
 10
0.0
 20
1.0
 30
0.0
  9
$UCSORTHOREF
  2

  9
$UCSORTHOVIEW
 70
     0
  9
$UCSORGTOP
 10
0.0
 20
0.0
 30
0.0
  9
$UCSORGBOTTOM
 10
0.0
 20
0.0
 30
0.0
  9
$UCSORGLEFT
 10
0.0
 20
0.0
 30
0.0
  9
$UCSORGRIGHT
 10
0.0
 20
0.0
 30
0.0
  9
$UCSORGFRONT
 10
0.0
 20
0.0
 30
0.0
  9
$UCSORGBACK
 10
0.0
 20
0.0
 30
0.0
  9
$PUCSBASE
  2

  9
$PUCSNAME
  2

  9
$PUCSORG
 10
0.0
 20
0.0
 30
0.0
  9
$PUCSXDIR
 10
1.0
 20
0.0
 30
0.0
  9
$PUCSYDIR
 10
0.0
 20
1.0
 30
0.0
  9
$PUCSORTHOREF
  2

  9
$PUCSORTHOVIEW
 70
     0
  9
$PUCSORGTOP
 10
0.0
 20
0.0
 30
0.0
  9
$PUCSORGBOTTOM
 10
0.0
 20
0.0
 30
0.0
  9
$PUCSORGLEFT
 10
0.0
 20
0.0
 30
0.0
  9
$PUCSORGRIGHT
 10
0.0
 20
0.0
 30
0.0
  9
$PUCSORGFRONT
 10
0.0
 20
0.0
 30
0.0
  9
$PUCSORGBACK
 10
0.0
 20
0.0
 30
0.0
  9
$USERI1
 70
     0
  9
$USERI2
 70
     0
  9
$USERI3
 70
     0
  9
$USERI4
 70
     0
  9
$USERI5
 70
     0
  9
$USERR1
 40
0.0
  9
$USERR2
 40
0.0
  9
$USERR3
 40
0.0
  9
$USERR4
 40
0.0
  9
$USERR5
 40
0.0
  9
$WORLDVIEW
 70
     1
  9
$SHADEDGE
 70
     3
  9
$SHADEDIF
 70
    70
  9
$TILEMODE
 70
     1
  9
$MAXACTVP
 70
    64
  9
$PINSBASE
 10
0.0
 20
0.0
 30
0.0
  9
$PLIMCHECK
 70
     0
  9
$PEXTMIN
 10
1.000000000000000E+20
 20
1.000000000000000E+20
 30
1.000000000000000E+20
  9
$PEXTMAX
 10
-1.000000000000000E+20
 20
-1.000000000000000E+20
 30
-1.000000000000000E+20
  9
$PLIMMIN
 10
0.0
 20
0.0
  9
$PLIMMAX
 10
420.0
 20
297.0
  9
$UNITMODE
 70
     0
  9
$VISRETAIN
 70
     1
  9
$PLINEGEN
 70
     0
  9
$PSLTSCALE
 70
     1
  9
$TREEDEPTH
 70
  3020
  9
$CMLSTYLE
  2
Standard
  9
$CMLJUST
 70
     0
  9
$CMLSCALE
 40
20.0
  9
$PROXYGRAPHICS
 70
     1
  9
$MEASUREMENT
 70
     1
  9
$CELWEIGHT
370
    -1
  9
$ENDCAPS
280
     0
  9
$JOINSTYLE
280
     0
  9
$LWDISPLAY
290
     0
  9
$INSUNITS
 70
     4
  9
$HYPERLINKBASE
  1

  9
$STYLESHEET
  1

  9
$XEDIT
290
     1
  9
$CEPSNTYPE
380
     0
  9
$PSTYLEMODE
290
     1
  9
$FINGERPRINTGUID
  2
{770E8910-D064-4AC5-8E3D-884D6432A92D}
  9
$VERSIONGUID
  2
{C86C6444-6069-4A9F-B837-08FB2C98F182}
  9
$EXTNAMES
290
     1
  9
$PSVPSCALE
 40
0.0
  9
$OLESTARTUP
290
     0
  0
ENDSEC
  0
SECTION
  2
CLASSES
  0
CLASS
  1
ACDBDICTIONARYWDFLT
  2
AcDbDictionaryWithDefault
  3
ObjectDBX Classes
 90
        0
280
     0
281
     0
  0
CLASS
  1
VISUALSTYLE
  2
AcDbVisualStyle
  3
ObjectDBX Classes
 90
     4095
280
     0
281
     0
  0
CLASS
  1
MATERIAL
  2
AcDbMaterial
  3
ObjectDBX Classes
 90
     1153
280
     0
281
     0
  0
CLASS
  1
SCALE
  2
AcDbScale
  3
ObjectDBX Classes
 90
     1153
280
     0
281
     0
  0
CLASS
  1
TABLESTYLE
  2
AcDbTableStyle
  3
ObjectDBX Classes
 90
     4095
280
     0
281
     0
  0
CLASS
  1
MLEADERSTYLE
  2
AcDbMLeaderStyle
  3
ACDB_MLEADERSTYLE_CLASS
 90
     4095
280
     0
281
     0
  0
CLASS
  1
SUN
  2
AcDbSun
  3
SCENEOE
 90
    33921
280
     0
281
     0
  0
CLASS
  1
DICTIONARYVAR
  2
AcDbDictionaryVar
  3
ObjectDBX Classes
 90
        0
280
     0
281
     0
  0
CLASS
  1
ACDBSECTIONVIEWSTYLE
  2
AcDbSectionViewStyle
  3
ObjectDBX Classes
 90
     1025
280
     0
281
     0
  0
CLASS
  1
ACDBDETAILVIEWSTYLE
  2
AcDbDetailViewStyle
  3
ObjectDBX Classes
 90
     1025
280
     0
281
     0
  0
CLASS
  1
SORTENTSTABLE
  2
AcDbSortentsTable
  3
ObjectDBX Classes
 90
        0
280
     0
281
     0
  0
CLASS
  1
CELLSTYLEMAP
  2
AcDbCellStyleMap
  3
ObjectDBX Classes
 90
     1152
280
     0
281
     0
  0
CLASS
  1
ACDBPLACEHOLDER
  2
AcDbPlaceHolder
  3
ObjectDBX Classes
 90
        0
280
     0
281
     0
  0
CLASS
  1
LAYOUT
  2
AcDbLayout
  3
ObjectDBX Classes
 90
        0
280
     0
281
     0
  0
ENDSEC
  0
SECTION
  2
TABLES
  0
TABLE
  2
VPORT
  5
8
330
0
100
AcDbSymbolTable
 70
     1
  0
VPORT
  5
29
330
8
100
AcDbSymbolTableRecord
100
AcDbViewportTableRecord
  2
*Active
 70
     0
 10
0.0
 20
0.0
 11
1.0
 21
1.0
 12
1322.777428361724
 22
299.8508079813819
 13
0.0
 23
0.0
 14
10.0
 24
10.0
 15
10.0
 25
10.0
 16
0.0
 26
0.0
 36
1.0
 17
0.0
 27
0.0
 37
0.0
 40
1942.850423968762
 41
2.204301075268817
 42
50.0
 43
0.0
 44
0.0
 50
0.0
 51
0.0
 71
     0
 72
 20000
 73
     1
 74
     3
 75
     0
 76
     0
 77
     0
 78
     0
281
     0
 65
     1
110
0.0
120
0.0
130
0.0
111
1.0
121
0.0
131
0.0
112
0.0
122
1.0
132
0.0
 79
     0
146
0.0
1001
ACAD_NAV_VCDISPLAY
1070
     3
  0
ENDTAB
  0
TABLE
  2
LTYPE
  5
5
330
0
100
AcDbSymbolTable
 70
     3
  0
LTYPE
  5
14
330
5
100
AcDbSymbolTableRecord
100
AcDbLinetypeTableRecord
  2
ByBlock
 70
     0
  3

 72
    65
 73
     0
 40
0.0
  0
LTYPE
  5
15
330
5
100
AcDbSymbolTableRecord
100
AcDbLinetypeTableRecord
  2
ByLayer
 70
     0
  3

 72
    65
 73
     0
 40
0.0
  0
LTYPE
  5
16
330
5
100
AcDbSymbolTableRecord
100
AcDbLinetypeTableRecord
  2
Continuous
 70
     0
  3
Solid line
 72
    65
 73
     0
 40
0.0
  0
LTYPE
  5
32A
330
5
100
AcDbSymbolTableRecord
100
AcDbLinetypeTableRecord
  2
CENTER2
 70
     0
  3
Center (.5x) ___ _ ___ _ ___ _ ___ _ ___ _ ___
 72
    65
 73
     4
 40
28.575
 49
19.05
 74
     0
 49
-3.174999999999998
 74
     0
 49
3.174999999999998
 74
     0
 49
-3.174999999999998
 74
     0
  0
ENDTAB
  0
TABLE
  2
LAYER
  5
2
102
{ACAD_XDICTIONARY
360
330
102
}
330
0
100
AcDbSymbolTable
 70
     4
  0
LAYER
  5
10
102
{ACAD_XDICTIONARY
360
B3C
102
}
330
2
100
AcDbSymbolTableRecord
100
AcDbLayerTableRecord
  2
0
 70
     0
 62
     7
  6
Continuous
370
    -3
390
F
  0
LAYER
  5
66
330
2
100
AcDbSymbolTableRecord
100
AcDbLayerTableRecord
  2
Defpoints
 70
     0
 62
     7
  6
Continuous
290
     0
370
    -3
390
F
  0
LAYER
  5
32B
102
{ACAD_XDICTIONARY
360
32C
102
}
330
2
100
AcDbSymbolTableRecord
100
AcDbLayerTableRecord
  2
中心線
 70
     0
 62
     3
  6
CENTER2
370
    -3
390
F
  0
LAYER
  5
32D
102
{ACAD_XDICTIONARY
360
32E
102
}
330
2
100
AcDbSymbolTableRecord
100
AcDbLayerTableRecord
  2
実線
 70
     0
 62
     7
  6
Continuous
370
    -3
390
F
  0
ENDTAB
  0
TABLE
  2
STYLE
  5
3
330
0
100
AcDbSymbolTable
 70
     1
  0
STYLE
  5
11
330
3
100
AcDbSymbolTableRecord
100
AcDbTextStyleTableRecord
  2
Standard
 70
     0
 40
0.0
 41
1.0
 50
0.0
 71
     0
 42
2.5
  3
txt
  4
extfont2
  0
ENDTAB
  0
TABLE
  2
VIEW
  5
6
330
0
100
AcDbSymbolTable
 70
     0
  0
ENDTAB
  0
TABLE
  2
UCS
  5
7
330
0
100
AcDbSymbolTable
 70
     0
  0
ENDTAB
  0
TABLE
  2
APPID
  5
9
330
0
100
AcDbSymbolTable
 70
     5
  0
APPID
  5
12
330
9
100
AcDbSymbolTableRecord
100
AcDbRegAppTableRecord
  2
ACAD
 70
     0
  0
APPID
  5
31A
330
9
100
AcDbSymbolTableRecord
100
AcDbRegAppTableRecord
  2
ACAD_MLEADERVER
 70
     0
  0
APPID
  5
32F
330
9
100
AcDbSymbolTableRecord
100
AcDbRegAppTableRecord
  2
ACAD_NAV_VCDISPLAY
 70
     0
  0
APPID
  5
B2E
330
9
100
AcDbSymbolTableRecord
100
AcDbRegAppTableRecord
  2
ACAD_EXEMPT_FROM_CAD_STANDARDS
 70
     0
  0
APPID
  5
B93
330
9
100
AcDbSymbolTableRecord
100
AcDbRegAppTableRecord
  2
ACAD_DSTYLE_DIMRADIAL_EXTENSION
 70
     0
  0
ENDTAB
  0
TABLE
  2
DIMSTYLE
  5
A
330
0
100
AcDbSymbolTable
 70
     2
100
AcDbDimStyleTable
 71
     1
340
27
  0
DIMSTYLE
105
27
330
A
100
AcDbSymbolTableRecord
100
AcDbDimStyleTableRecord
  2
Standard
 70
     0
 41
2.5
 42
0.625
 43
3.75
 44
1.25
 73
     0
 74
     0
 77
     1
140
2.5
141
2.5
143
0.03937007874016
146
0.75
147
0.625
171
     3
172
     1
271
     2
272
     2
274
     3
283
     0
284
     8
340
11
  0
ENDTAB
  0
TABLE
  2
BLOCK_RECORD
  5
1
330
0
100
AcDbSymbolTable
 70
     2
  0
BLOCK_RECORD
  5
1F
102
{ACAD_XDICTIONARY
360
95D
102
}
330
1
100
AcDbSymbolTableRecord
100
AcDbBlockTableRecord
  2
*Model_Space
340
22
  0
BLOCK_RECORD
  5
1B
330
1
100
AcDbSymbolTableRecord
100
AcDbBlockTableRecord
  2
*Paper_Space
340
1E
  0
BLOCK_RECORD
  5
23
330
1
100
AcDbSymbolTableRecord
100
AcDbBlockTableRecord
  2
*Paper_Space0
340
324
  0
ENDTAB
  0
ENDSEC
  0
SECTION
  2
BLOCKS
  0
BLOCK
  5
20
330
1F
100
AcDbEntity
  8
0
100
AcDbBlockBegin
  2
*Model_Space
 70
     0
 10
0.0
 20
0.0
 30
0.0
  3
*Model_Space
  1

  0
ENDBLK
  5
21
330
1F
100
AcDbEntity
  8
0
100
AcDbBlockEnd
  0
BLOCK
  5
1C
330
1B
100
AcDbEntity
 67
     1
  8
0
100
AcDbBlockBegin
  2
*Paper_Space
 70
     0
 10
0.0
 20
0.0
 30
0.0
  3
*Paper_Space
  1

  0
ENDBLK
  5
1D
330
1B
100
AcDbEntity
 67
     1
  8
0
100
AcDbBlockEnd
  0
BLOCK
  5
24
330
23
100
AcDbEntity
 67
     1
  8
0
100
AcDbBlockBegin
  2
*Paper_Space0
 70
     0
 10
0.0
 20
0.0
 30
0.0
  3
*Paper_Space0
  1

  0
ENDBLK
  5
25
330
23
100
AcDbEntity
 67
     1
  8
0
100
AcDbBlockEnd
  0
ENDSEC
  0
SECTION
  2
ENTITIES
  0
LINE
  5
8C2
102
{ACAD_REACTORS
330
BAF
102
}
330
1F
100
AcDbEntity
  8
中心線
100
AcDbLine
 10
717.470143726543
 20
510.5952208508274
 30
0.0
 11
904.4700850167854
 21
510.5952208508273
 31
0.0
  0
LINE
  5
8C3
102
{ACAD_REACTORS
330
BAF
102
}
330
1F
100
AcDbEntity
  8
中心線
100
AcDbLine
 10
829.4701437265857
 20
31.70491311103001
 30
0.0
 11
829.4701437265857
 21
555.5952208508274
 31
0.0
  0
LINE
  5
8C4
102
{ACAD_REACTORS
330
BAF
102
}
330
1F
100
AcDbEntity
  8
中心線
100
AcDbLine
 10
829.4701437265857
 20
447.7952208508273
 30
0.0
 11
1053.470143726628
 21
447.7952208508273
 31
0.0
  0
LINE
  5
8C5
102
{ACAD_REACTORS
330
BAD
102
}
330
1F
100
AcDbEntity
  8
中心線
100
AcDbLine
 10
1319.270143726585
 20
781.6952208508276
 30
0.0
 11
1319.270143726585
 21
691.6952208508275
 31
0.0
  0
LINE
  5
8C6
102
{ACAD_REACTORS
330
BAD
102
}
330
1F
100
AcDbEntity
  8
中心線
100
AcDbLine
 10
1274.270143726585
 20
736.6952208508275
 30
0.0
 11
1364.270143726585
 21
736.6952208508275
 31
0.0
  0
LINE
  5
8C7
102
{ACAD_REACTORS
330
BA5
102
}
330
1F
100
AcDbEntity
  8
中心線
100
AcDbLine
 10
896.4701437265855
 20
897.695220850827
 30
0.0
 11
896.4701437265855
 21
677.6952208508271
 31
0.0
  0
LINE
  5
8C8
102
{ACAD_REACTORS
330
BA5
102
}
330
1F
100
AcDbEntity
  8
中心線
100
AcDbLine
 10
786.4701437265855
 20
787.6952208508275
 30
0.0
 11
1006.470143726585
 21
787.6952208508274
 31
0.0
  0
LINE
  5
8C9
102
{ACAD_REACTORS
330
BA6
102
}
330
1F
100
AcDbEntity
  8
中心線
100
AcDbLine
 10
717.470143726543
 20
1050.595220850827
 30
0.0
 11
904.4700850167854
 21
1050.595220850827
 31
0.0
  0
LINE
  5
8CB
102
{ACAD_REACTORS
330
BA6
102
}
330
1F
100
AcDbEntity
  8
中心線
100
AcDbLine
 10
829.4701437265857
 20
1113.395220850827
 30
0.0
 11
1053.470143726628
 21
1113.395220850827
 31
0.0
  0
LINE
  5
8CC
102
{ACAD_REACTORS
330
BAE
102
}
330
1F
100
AcDbEntity
  8
中心線
100
AcDbLine
 10
529.4701437265858
 20
795.5927126435154
 30
0.0
 11
529.4701437265858
 21
705.5977290581394
 31
0.0
  0
LINE
  5
8CD
102
{ACAD_REACTORS
330
BAE
102
}
330
1F
100
AcDbEntity
  8
中心線
100
AcDbLine
 10
51.04950379551246
 20
750.5952208508274
 30
0.0
 11
573.9950307221671
 21
750.5952208508274
 31
0.0
  0
LINE
  5
8CE
102
{ACAD_REACTORS
330
BAD
102
}
330
1F
100
AcDbEntity
  8
中心線
100
AcDbLine
 10
1210.995030722167
 20
750.5952208508273
 30
0.0
 11
1732.665630485936
 21
750.5952208508273
 31
0.0
  0
LINE
  5
8CF
102
{ACAD_REACTORS
330
BA5
102
}
330
1F
100
AcDbEntity
  8
中心線
100
AcDbLine
 10
829.4701437265857
 20
736.6952208508273
 30
0.0
 11
1053.470143726628
 21
736.6952208508275
 31
0.0
  0
LINE
  5
8D0
102
{ACAD_REACTORS
330
BA5
102
}
330
1F
100
AcDbEntity
  8
中心線
100
AcDbLine
 10
717.470143726543
 20
750.5952208508274
 30
0.0
 11
904.4700850167854
 21
750.5952208508274
 31
0.0
  0
LINE
  5
8D4
102
{ACAD_REACTORS
330
BA6
102
}
330
1F
100
AcDbEntity
  8
実線
100
AcDbLine
 10
785.4701437265857
 20
1396.395220850827
 30
0.0
 11
873.4701437265854
 21
1396.395220850827
 31
0.0
  0
LINE
  5
8D5
102
{ACAD_REACTORS
330
BA6
102
}
330
1F
100
AcDbEntity
  8
実線
100
AcDbLine
 10
872.7701437265855
 20
1400.095220850827
 30
0.0
 11
786.1701437265857
 21
1400.095220850827
 31
0.0
  0
LINE
  5
8D6
102
{ACAD_REACTORS
330
BA6
102
}
330
1F
100
AcDbEntity
  8
実線
100
AcDbLine
 10
786.1701437265857
 20
1400.095220850827
 30
0.0
 11
785.4701437265857
 21
1396.395220850827
 31
0.0
  0
LINE
  5
8D7
102
{ACAD_REACTORS
330
BA6
102
}
330
1F
100
AcDbEntity
  8
実線
100
AcDbLine
 10
873.4701437265854
 20
1396.395220850827
 30
0.0
 11
872.7701437265855
 21
1400.095220850827
 31
0.0
  0
LINE
  5
8D8
102
{ACAD_REACTORS
330
BA6
102
}
330
1F
100
AcDbEntity
  8
実線
100
AcDbLine
 10
872.7701437265855
 20
1436.095220850828
 30
0.0
 11
786.1701437265857
 21
1436.095220850828
 31
0.0
  0
LINE
  5
8D9
102
{ACAD_REACTORS
330
BA6
102
}
330
1F
100
AcDbEntity
  8
実線
100
AcDbLine
 10
872.7701437265855
 20
1400.095220850827
 30
0.0
 11
872.7701437265855
 21
1436.095220850828
 31
0.0
  0
LINE
  5
8DA
102
{ACAD_REACTORS
330
BA6
102
}
330
1F
100
AcDbEntity
  8
実線
100
AcDbLine
 10
786.1701437265857
 20
1436.095220850828
 30
0.0
 11
786.1701437265857
 21
1400.095220850827
 31
0.0
  0
LINE
  5
8DB
102
{ACAD_REACTORS
330
BA6
102
}
330
1F
100
AcDbEntity
  8
実線
100
AcDbLine
 10
786.9701437265859
 20
1513.095220850827
 30
0.0
 11
871.9701437265856
 21
1513.095220850827
 31
0.0
  0
LINE
  5
8DC
102
{ACAD_REACTORS
330
BA6
102
}
330
1F
100
AcDbEntity
  8
実線
100
AcDbLine
 10
845.9701437265854
 20
1522.295220850827
 30
0.0
 11
812.9701437265859
 21
1522.295220850827
 31
0.0
  0
LINE
  5
8DD
102
{ACAD_REACTORS
330
BA6
102
}
330
1F
100
AcDbEntity
  8
実線
100
AcDbLine
 10
812.9701437265859
 20
1522.295220850827
 30
0.0
 11
786.9701437265858
 21
1513.095220850827
 31
0.0
  0
LINE
  5
8DE
102
{ACAD_REACTORS
330
BA6
102
}
330
1F
100
AcDbEntity
  8
実線
100
AcDbLine
 10
871.9701437265856
 20
1513.095220850827
 30
0.0
 11
845.9701437265854
 21
1522.295220850827
 31
0.0
  0
LINE
  5
8DF
102
{ACAD_REACTORS
330
BA6
102
}
330
1F
100
AcDbEntity
  8
実線
100
AcDbLine
 10
871.9701437265856
 20
1436.095220850828
 30
0.0
 11
871.9701437265856
 21
1513.095220850827
 31
0.0
  0
LINE
  5
8E0
102
{ACAD_REACTORS
330
BA6
102
}
330
1F
100
AcDbEntity
  8
実線
100
AcDbLine
 10
786.9701437265859
 20
1513.095220850827
 30
0.0
 11
786.9701437265859
 21
1436.095220850828
 31
0.0
  0
LINE
  5
8E1
102
{ACAD_REACTORS
330
BA6
102
}
330
1F
100
AcDbEntity
  8
実線
100
AcDbLine
 10
846.4701437265855
 20
1389.395220850827
 30
0.0
 11
846.4701437265855
 21
1396.395220850827
 31
0.0
  0
LINE
  5
8E2
102
{ACAD_REACTORS
330
BA6
102
}
330
1F
100
AcDbEntity
  8
実線
100
AcDbLine
 10
812.4701437265857
 20
1396.395220850827
 30
0.0
 11
812.4701437265857
 21
1389.395220850827
 31
0.0
  0
LINE
  5
8E3
102
{ACAD_REACTORS
330
BA6
102
}
330
1F
100
AcDbEntity
  8
実線
100
AcDbLine
 10
875.4701437265856
 20
1389.395220850827
 30
0.0
 11
783.4701437265858
 21
1389.395220850827
 31
0.0
  0
LINE
  5
8E4
102
{ACAD_REACTORS
330
BA6
102
}
330
1F
100
AcDbEntity
  8
実線
100
AcDbLine
 10
875.4701437265856
 20
1378.395220850827
 30
0.0
 11
875.4701437265856
 21
1389.395220850827
 31
0.0
  0
LINE
  5
8E5
102
{ACAD_REACTORS
330
BA6
102
}
330
1F
100
AcDbEntity
  8
実線
100
AcDbLine
 10
783.4701437265858
 20
1389.395220850827
 30
0.0
 11
783.4701437265858
 21
1378.395220850827
 31
0.0
  0
LINE
  5
8E6
102
{ACAD_REACTORS
330
BA6
102
}
330
1F
100
AcDbEntity
  8
実線
100
AcDbLine
 10
980.5933756913834
 20
966.3952208508273
 30
0.0
 11
997.0933756913835
 21
966.3952208508273
 31
0.0
  0
LINE
  5
8E7
102
{ACAD_REACTORS
330
BA6
102
}
330
1F
100
AcDbEntity
  8
実線
100
AcDbLine
 10
980.5933756913834
 20
974.8952208508274
 30
0.0
 11
980.5933756913834
 21
966.3952208508273
 31
0.0
  0
LINE
  5
8E8
102
{ACAD_REACTORS
330
BA6
102
}
330
1F
100
AcDbEntity
  8
実線
100
AcDbLine
 10
997.0933756913835
 20
966.3952208508273
 30
0.0
 11
997.0933756913835
 21
974.8952208508274
 31
0.0
  0
LINE
  5
8E9
102
{ACAD_REACTORS
330
BA6
102
}
330
1F
100
AcDbEntity
  8
実線
100
AcDbLine
 10
950.1147248147795
 20
966.3952208508273
 30
0.0
 11
966.6147248147794
 21
966.3952208508273
 31
0.0
  0
LINE
  5
8EA
102
{ACAD_REACTORS
330
BA6
102
}
330
1F
100
AcDbEntity
  8
実線
100
AcDbLine
 10
950.1147248147795
 20
974.8952208508274
 30
0.0
 11
950.1147248147795
 21
966.3952208508273
 31
0.0
  0
LINE
  5
8EB
102
{ACAD_REACTORS
330
BA6
102
}
330
1F
100
AcDbEntity
  8
実線
100
AcDbLine
 10
966.6147248147794
 20
966.3952208508273
 30
0.0
 11
966.6147248147794
 21
974.8952208508274
 31
0.0
  0
ELLIPSE
  5
8EC
102
{ACAD_REACTORS
330
BA6
102
}
330
1F
100
AcDbEntity
  8
実線
100
AcDbEllipse
 10
964.1891223007544
 20
1054.895220850827
 30
0.0
 11
0.0
 21
6.0
 31
0.0
210
0.0
220
0.0
230
1.0
 40
0.4999999999999976
 41
1.570796326794897
 42
3.141592653589792
  0
ELLIPSE
  5
8ED
102
{ACAD_REACTORS
330
BA6
102
}
330
1F
100
AcDbEntity
  8
実線
100
AcDbEllipse
 10
1017.88269733539
 20
1054.895220850827
 30
0.0
 11
0.0
 21
6.0
 31
0.0
210
0.0
220
0.0
230
1.0
 40
0.4999999999999976
 41
3.141592653589792
 42
4.71238898038469
  0
LINE
  5
8EE
102
{ACAD_REACTORS
330
BA6
102
}
330
1F
100
AcDbEntity
  8
実線
100
AcDbLine
 10
975.4067446934737
 20
1060.895220850827
 30
0.0
 11
964.1891223007544
 21
1060.895220850827
 31
0.0
  0
LINE
  5
8EF
102
{ACAD_REACTORS
330
BA6
102
}
330
1F
100
AcDbEntity
  8
実線
100
AcDbLine
 10
1017.88269733539
 20
1060.895220850827
 30
0.0
 11
986.7057827991505
 21
1060.895220850827
 31
0.0
  0
LINE
  5
8F0
102
{ACAD_REACTORS
330
BA6
102
}
330
1F
100
AcDbEntity
  8
実線
100
AcDbLine
 10
986.7057827991505
 20
1048.895220850827
 30
0.0
 11
1017.88269733539
 21
1048.895220850827
 31
0.0
  0
LINE
  5
8F1
102
{ACAD_REACTORS
330
BA6
102
}
330
1F
100
AcDbEntity
  8
実線
100
AcDbLine
 10
964.1891223007544
 20
1048.895220850827
 30
0.0
 11
975.4067446934737
 21
1048.895220850827
 31
0.0
  0
ELLIPSE
  5
8F2
102
{ACAD_REACTORS
330
BA6
102
}
330
1F
100
AcDbEntity
  8
実線
100
AcDbEllipse
 10
964.1891223007544
 20
1054.895220850827
 30
0.0
 11
0.0
 21
6.0
 31
0.0
210
0.0
220
0.0
230
1.0
 40
0.4999999999999976
 41
0.0
 42
1.570796326794897
  0
ELLIPSE
  5
8F3
102
{ACAD_REACTORS
330
BA6
102
}
330
1F
100
AcDbEntity
  8
実線
100
AcDbEllipse
 10
1017.88269733539
 20
1054.895220850827
 30
0.0
 11
0.0
 21
6.0
 31
0.0
210
0.0
220
0.0
230
1.0
 40
0.4999999999999976
 41
0.0
 42
3.141592653589792
  0
ELLIPSE
  5
8F4
102
{ACAD_REACTORS
330
BA6
102
}
330
1F
100
AcDbEntity
  8
実線
100
AcDbEllipse
 10
1017.88269733539
 20
1054.895220850827
 30
0.0
 11
0.0
 21
6.0
 31
0.0
210
0.0
220
0.0
230
1.0
 40
0.4999999999999976
 41
4.71238898038469
 42
6.283185307179584
  0
LINE
  5
8F5
102
{ACAD_REACTORS
330
BA6
102
}
330
1F
100
AcDbEntity
  8
実線
100
AcDbLine
 10
965.2251435447803
 20
1085.495220850827
 30
0.0
 11
827.7151439083906
 21
1085.495220850827
 31
0.0
  0
LINE
  5
8F6
102
{ACAD_REACTORS
330
BA6
102
}
330
1F
100
AcDbEntity
  8
実線
100
AcDbLine
 10
1044.870143726628
 20
1145.145220850827
 30
0.0
 11
1001.470143726595
 21
1145.145220850827
 31
0.0
  0
LINE
  5
8F7
102
{ACAD_REACTORS
330
BA6
102
}
330
1F
100
AcDbEntity
  8
実線
100
AcDbLine
 10
1001.470143726595
 20
1081.645220850827
 30
0.0
 11
1044.870143726628
 21
1081.645220850827
 31
0.0
  0
LINE
  5
8F8
102
{ACAD_REACTORS
330
BA6
102
}
330
1F
100
AcDbEntity
  8
実線
100
AcDbLine
 10
1051.470143726628
 20
1152.145220850828
 30
0.0
 11
1047.970143726628
 21
1152.145220850828
 31
0.0
  0
LINE
  5
8F9
102
{ACAD_REACTORS
330
BA6
102
}
330
1F
100
AcDbEntity
  8
実線
100
AcDbLine
 10
1047.970143726628
 20
1074.645220850827
 30
0.0
 11
1051.470143726628
 21
1074.645220850827
 31
0.0
  0
LINE
  5
8FA
102
{ACAD_REACTORS
330
BA6
102
}
330
1F
100
AcDbEntity
  8
実線
100
AcDbLine
 10
1051.470143726628
 20
1152.145220850828
 30
0.0
 11
1051.470143726628
 21
1074.645220850827
 31
0.0
  0
LINE
  5
8FB
102
{ACAD_REACTORS
330
BA6
102
}
330
1F
100
AcDbEntity
  8
実線
100
AcDbLine
 10
1044.870143726628
 20
1081.645220850827
 30
0.0
 11
1047.970143726628
 21
1074.645220850827
 31
0.0
  0
LINE
  5
8FC
102
{ACAD_REACTORS
330
BA6
102
}
330
1F
100
AcDbEntity
  8
実線
100
AcDbLine
 10
1047.970143726628
 20
1152.145220850828
 30
0.0
 11
1044.870143726628
 21
1145.145220850827
 31
0.0
  0
LINE
  5
8FD
102
{ACAD_REACTORS
330
BA6
102
}
330
1F
100
AcDbEntity
  8
実線
100
AcDbLine
 10
1047.970143726628
 20
1074.645220850827
 30
0.0
 11
1047.970143726628
 21
1152.145220850828
 31
0.0
  0
LINE
  5
8FE
102
{ACAD_REACTORS
330
BA6
102
}
330
1F
100
AcDbEntity
  8
実線
100
AcDbLine
 10
1044.870143726628
 20
1081.645220850827
 30
0.0
 11
1044.870143726628
 21
1145.145220850827
 31
0.0
  0
LINE
  5
8FF
102
{ACAD_REACTORS
330
BA6
102
}
330
1F
100
AcDbEntity
  8
実線
100
AcDbLine
 10
726.0701437265431
 20
1018.845220850827
 30
0.0
 11
769.4701437265761
 21
1018.845220850827
 31
0.0
  0
LINE
  5
900
102
{ACAD_REACTORS
330
BA6
102
}
330
1F
100
AcDbEntity
  8
実線
100
AcDbLine
 10
769.4701437265761
 20
1082.345220850827
 30
0.0
 11
726.0701437265431
 21
1082.345220850827
 31
0.0
  0
LINE
  5
901
102
{ACAD_REACTORS
330
BA6
102
}
330
1F
100
AcDbEntity
  8
実線
100
AcDbLine
 10
719.470143726543
 20
1011.845220850827
 30
0.0
 11
722.970143726543
 21
1011.845220850827
 31
0.0
  0
LINE
  5
902
102
{ACAD_REACTORS
330
BA6
102
}
330
1F
100
AcDbEntity
  8
実線
100
AcDbLine
 10
722.970143726543
 20
1089.345220850827
 30
0.0
 11
719.470143726543
 21
1089.345220850827
 31
0.0
  0
LINE
  5
903
102
{ACAD_REACTORS
330
BA6
102
}
330
1F
100
AcDbEntity
  8
実線
100
AcDbLine
 10
719.470143726543
 20
1089.345220850827
 30
0.0
 11
719.470143726543
 21
1011.845220850827
 31
0.0
  0
LINE
  5
904
102
{ACAD_REACTORS
330
BA6
102
}
330
1F
100
AcDbEntity
  8
実線
100
AcDbLine
 10
726.0701437265431
 20
1082.345220850827
 30
0.0
 11
722.970143726543
 21
1089.345220850827
 31
0.0
  0
LINE
  5
905
102
{ACAD_REACTORS
330
BA6
102
}
330
1F
100
AcDbEntity
  8
実線
100
AcDbLine
 10
722.970143726543
 20
1011.845220850827
 30
0.0
 11
726.0701437265431
 21
1018.845220850827
 31
0.0
  0
LINE
  5
906
102
{ACAD_REACTORS
330
BA6
102
}
330
1F
100
AcDbEntity
  8
実線
100
AcDbLine
 10
722.970143726543
 20
1089.345220850827
 30
0.0
 11
722.970143726543
 21
1011.845220850827
 31
0.0
  0
LINE
  5
907
102
{ACAD_REACTORS
330
BA6
102
}
330
1F
100
AcDbEntity
  8
実線
100
AcDbLine
 10
726.0701437265431
 20
1082.345220850827
 30
0.0
 11
726.0701437265431
 21
1018.845220850827
 31
0.0
  0
LINE
  5
908
102
{ACAD_REACTORS
330
BA6
102
}
330
1F
100
AcDbEntity
  8
実線
100
AcDbLine
 10
883.3790677741134
 20
966.3952208508273
 30
0.0
 11
899.8790677741135
 21
966.3952208508273
 31
0.0
  0
LINE
  5
909
102
{ACAD_REACTORS
330
BA6
102
}
330
1F
100
AcDbEntity
  8
実線
100
AcDbLine
 10
883.3790677741134
 20
974.8952208508274
 30
0.0
 11
883.3790677741134
 21
966.3952208508273
 31
0.0
  0
LINE
  5
90A
102
{ACAD_REACTORS
330
BA6
102
}
330
1F
100
AcDbEntity
  8
実線
100
AcDbLine
 10
899.8790677741135
 20
966.3952208508273
 30
0.0
 11
899.8790677741135
 21
974.8952208508274
 31
0.0
  0
LINE
  5
90B
102
{ACAD_REACTORS
330
BA6
102
}
330
1F
100
AcDbEntity
  8
実線
100
AcDbLine
 10
819.4792473699267
 20
966.3952208508273
 30
0.0
 11
835.9792473699268
 21
966.3952208508273
 31
0.0
  0
LINE
  5
90C
102
{ACAD_REACTORS
330
BA6
102
}
330
1F
100
AcDbEntity
  8
実線
100
AcDbLine
 10
819.4792473699267
 20
974.8952208508274
 30
0.0
 11
819.4792473699267
 21
966.3952208508273
 31
0.0
  0
LINE
  5
90D
102
{ACAD_REACTORS
330
BA6
102
}
330
1F
100
AcDbEntity
  8
実線
100
AcDbLine
 10
835.9792473699268
 20
966.3952208508273
 30
0.0
 11
835.9792473699268
 21
974.8952208508274
 31
0.0
  0
LINE
  5
90E
102
{ACAD_REACTORS
330
BA6
102
}
330
1F
100
AcDbEntity
  8
実線
100
AcDbLine
 10
795.8469117617877
 20
966.3952208508273
 30
0.0
 11
812.3469117617874
 21
966.3952208508273
 31
0.0
  0
LINE
  5
90F
102
{ACAD_REACTORS
330
BA6
102
}
330
1F
100
AcDbEntity
  8
実線
100
AcDbLine
 10
795.8469117617877
 20
974.8952208508274
 30
0.0
 11
795.8469117617877
 21
966.3952208508273
 31
0.0
  0
LINE
  5
910
102
{ACAD_REACTORS
330
BA6
102
}
330
1F
100
AcDbEntity
  8
実線
100
AcDbLine
 10
812.3469117617874
 20
966.3952208508273
 30
0.0
 11
812.3469117617874
 21
974.8952208508274
 31
0.0
  0
LINE
  5
911
102
{ACAD_REACTORS
330
BA6
102
}
330
1F
100
AcDbEntity
  8
実線
100
AcDbLine
 10
835.9792473699268
 20
966.3952208508273
 30
0.0
 11
842.8255626383915
 21
966.3952208508273
 31
0.0
  0
LINE
  5
912
102
{ACAD_REACTORS
330
BA6
102
}
330
1F
100
AcDbEntity
  8
実線
100
AcDbLine
 10
842.8255626383915
 20
966.3952208508273
 30
0.0
 11
842.8255626383915
 21
974.8952208508274
 31
0.0
  0
LINE
  5
913
102
{ACAD_REACTORS
330
BA6
102
}
330
1F
100
AcDbEntity
  8
実線
100
AcDbLine
 10
899.8790677741135
 20
966.3952208508273
 30
0.0
 11
909.5612196790575
 21
966.3952208508273
 31
0.0
  0
LINE
  5
914
102
{ACAD_REACTORS
330
BA6
102
}
330
1F
100
AcDbEntity
  8
実線
100
AcDbLine
 10
909.5612196790575
 20
966.3952208508273
 30
0.0
 11
909.5612196790575
 21
974.8952208508274
 31
0.0
  0
LINE
  5
915
102
{ACAD_REACTORS
330
BA6
102
}
330
1F
100
AcDbEntity
  8
実線
100
AcDbLine
 10
966.6147248147794
 20
966.3952208508273
 30
0.0
 11
973.4610400832446
 21
966.3952208508273
 31
0.0
  0
LINE
  5
916
102
{ACAD_REACTORS
330
BA6
102
}
330
1F
100
AcDbEntity
  8
実線
100
AcDbLine
 10
973.4610400832446
 20
966.3952208508273
 30
0.0
 11
973.4610400832446
 21
974.8952208508274
 31
0.0
  0
LINE
  5
917
102
{ACAD_REACTORS
330
BA6
102
}
330
1F
100
AcDbEntity
  8
実線
100
AcDbLine
 10
837.4701437265857
 20
1167.439317399425
 30
0.0
 11
837.4701437265857
 21
1205.395220850827
 31
0.0
  0
LINE
  5
918
102
{ACAD_REACTORS
330
BA6
102
}
330
1F
100
AcDbEntity
  8
実線
100
AcDbLine
 10
821.4701437265857
 20
1205.395220850827
 30
0.0
 11
821.4701437265857
 21
1167.439317399425
 31
0.0
  0
LINE
  5
919
102
{ACAD_REACTORS
330
BA6
102
}
330
1F
100
AcDbEntity
  8
実線
100
AcDbLine
 10
761.9701437265858
 20
1270.395220850828
 30
0.0
 11
896.9701437265856
 21
1270.395220850828
 31
0.0
  0
LINE
  5
91A
102
{ACAD_REACTORS
330
BA6
102
}
330
1F
100
AcDbEntity
  8
実線
100
AcDbLine
 10
896.9701437265856
 20
1270.395220850828
 30
0.0
 11
896.9701437265856
 21
1272.395220850828
 31
0.0
  0
LINE
  5
91B
102
{ACAD_REACTORS
330
BA6
102
}
330
1F
100
AcDbEntity
  8
実線
100
AcDbLine
 10
761.9701437265858
 20
1272.395220850828
 30
0.0
 11
761.9701437265858
 21
1270.395220850828
 31
0.0
  0
LINE
  5
91C
102
{ACAD_REACTORS
330
BA6
102
}
330
1F
100
AcDbEntity
  8
実線
100
AcDbLine
 10
756.9701437265857
 20
1272.395220850828
 30
0.0
 11
901.9701437265855
 21
1272.395220850828
 31
0.0
  0
LINE
  5
91D
102
{ACAD_REACTORS
330
BA6
102
}
330
1F
100
AcDbEntity
  8
実線
100
AcDbLine
 10
901.9701437265855
 20
1373.395220850827
 30
0.0
 11
756.9701437265857
 21
1373.395220850827
 31
0.0
  0
LINE
  5
91E
102
{ACAD_REACTORS
330
BA6
102
}
330
1F
100
AcDbEntity
  8
実線
100
AcDbLine
 10
901.9701437265855
 20
1272.395220850828
 30
0.0
 11
901.9701437265855
 21
1373.395220850827
 31
0.0
  0
LINE
  5
91F
102
{ACAD_REACTORS
330
BA6
102
}
330
1F
100
AcDbEntity
  8
実線
100
AcDbLine
 10
756.9701437265857
 20
1373.395220850827
 30
0.0
 11
756.9701437265857
 21
1272.395220850828
 31
0.0
  0
LINE
  5
920
102
{ACAD_REACTORS
330
BA6
102
}
330
1F
100
AcDbEntity
  8
実線
100
AcDbLine
 10
890.2498329044245
 20
1167.395220850828
 30
0.0
 11
768.6904545487474
 21
1167.395220850828
 31
0.0
  0
LINE
  5
921
102
{ACAD_REACTORS
330
BA6
102
}
330
1F
100
AcDbEntity
  8
実線
100
AcDbLine
 10
769.4701437265857
 20
1153.895220850827
 30
0.0
 11
768.6904545487474
 21
1153.895220850827
 31
0.0
  0
LINE
  5
922
102
{ACAD_REACTORS
330
BA6
102
}
330
1F
100
AcDbEntity
  8
実線
100
AcDbLine
 10
768.6904545487474
 20
1167.395220850828
 30
0.0
 11
768.6904545487474
 21
1153.895220850827
 31
0.0
  0
LINE
  5
923
102
{ACAD_REACTORS
330
BA6
102
}
330
1F
100
AcDbEntity
  8
実線
100
AcDbLine
 10
890.2498329044245
 20
1153.895220850827
 30
0.0
 11
890.2498329044245
 21
1167.395220850828
 31
0.0
  0
LINE
  5
924
102
{ACAD_REACTORS
330
BA6
102
}
330
1F
100
AcDbEntity
  8
実線
100
AcDbLine
 10
802.6601715766444
 20
1153.895220850827
 30
0.0
 11
802.6601715766444
 21
1167.395220850828
 31
0.0
  0
LINE
  5
925
102
{ACAD_REACTORS
330
BA6
102
}
330
1F
100
AcDbEntity
  8
実線
100
AcDbLine
 10
856.2801158765266
 20
1153.895220850827
 30
0.0
 11
856.2801158765266
 21
1167.395220850828
 31
0.0
  0
LINE
  5
926
102
{ACAD_REACTORS
330
BA6
102
}
330
1F
100
AcDbEntity
  8
実線
100
AcDbLine
 10
784.9127776346805
 20
1153.895220850827
 30
0.0
 11
777.6652108213817
 21
1153.895220850827
 31
0.0
  0
LINE
  5
927
102
{ACAD_REACTORS
330
BA6
102
}
330
1F
100
AcDbEntity
  8
実線
100
AcDbLine
 10
881.2750766317906
 20
1153.895220850827
 30
0.0
 11
874.0275098184895
 21
1153.895220850827
 31
0.0
  0
LINE
  5
928
102
{ACAD_REACTORS
330
BA6
102
}
330
1F
100
AcDbEntity
  8
実線
100
AcDbLine
 10
839.7292473699268
 20
974.8952208508274
 30
0.0
 11
846.5755626383915
 21
974.8952208508274
 31
0.0
  0
LINE
  5
929
102
{ACAD_REACTORS
330
BA6
102
}
330
1F
100
AcDbEntity
  8
実線
100
AcDbLine
 10
846.5755626383915
 20
974.8952208508274
 30
0.0
 11
846.5755626383915
 21
987.3952208508274
 31
0.0
  0
LINE
  5
92A
102
{ACAD_REACTORS
330
BA6
102
}
330
1F
100
AcDbEntity
  8
実線
100
AcDbLine
 10
769.4701437265857
 20
1153.895220850827
 30
0.0
 11
769.4701437265857
 21
1015.895220850827
 31
0.0
  0
LINE
  5
92B
102
{ACAD_REACTORS
330
BA6
102
}
330
1F
100
AcDbEntity
  8
実線
100
AcDbLine
 10
777.6652108213817
 20
1153.895220850827
 30
0.0
 11
769.4701437265857
 21
1153.895220850827
 31
0.0
  0
LINE
  5
92C
102
{ACAD_REACTORS
330
BA6
102
}
330
1F
100
AcDbEntity
  8
実線
100
AcDbLine
 10
874.0275098184895
 20
1153.895220850827
 30
0.0
 11
784.9127776346805
 21
1153.895220850827
 31
0.0
  0
LINE
  5
92D
102
{ACAD_REACTORS
330
BA6
102
}
330
1F
100
AcDbEntity
  8
実線
100
AcDbLine
 10
881.2750766317906
 20
1153.895220850827
 30
0.0
 11
1001.470143726585
 21
1153.895220850827
 31
0.0
  0
LINE
  5
92E
102
{ACAD_REACTORS
330
BA6
102
}
330
1F
100
AcDbEntity
  8
実線
100
AcDbLine
 10
769.4701437265857
 20
1015.895220850827
 30
0.0
 11
1001.470143726585
 21
1015.895220850827
 31
0.0
  0
LINE
  5
92F
102
{ACAD_REACTORS
330
BA6
102
}
330
1F
100
AcDbEntity
  8
実線
100
AcDbLine
 10
769.4701437265857
 20
1037.895220850827
 30
0.0
 11
998.9201315255115
 21
1037.895220850827
 31
0.0
  0
LINE
  5
930
102
{ACAD_REACTORS
330
BA6
102
}
330
1F
100
AcDbEntity
  8
実線
100
AcDbLine
 10
998.9201315255115
 20
1048.895220850827
 30
0.0
 11
998.9201315255115
 21
1037.895220850827
 31
0.0
  0
LINE
  5
931
102
{ACAD_REACTORS
330
BA6
102
}
330
1F
100
AcDbEntity
  8
実線
100
AcDbLine
 10
998.9201315255115
 20
1153.895220850827
 30
0.0
 11
998.9201315255115
 21
1060.895220850827
 31
0.0
  0
LINE
  5
932
102
{ACAD_REACTORS
330
BA6
102
}
330
1F
100
AcDbEntity
  8
実線
100
AcDbLine
 10
1001.470143726585
 20
1060.895220850827
 30
0.0
 11
1001.470143726585
 21
1153.895220850827
 31
0.0
  0
LINE
  5
933
102
{ACAD_REACTORS
330
BA6
102
}
330
1F
100
AcDbEntity
  8
実線
100
AcDbLine
 10
1001.470143726585
 20
1015.895220850827
 30
0.0
 11
1001.470143726585
 21
1048.895220850827
 31
0.0
  0
LINE
  5
934
102
{ACAD_REACTORS
330
BA6
102
}
330
1F
100
AcDbEntity
  8
実線
100
AcDbLine
 10
996.7057827991505
 20
1060.895220850827
 30
0.0
 11
996.7057827991505
 21
1067.895220850827
 31
0.0
  0
LINE
  5
935
102
{ACAD_REACTORS
330
BA6
102
}
330
1F
100
AcDbEntity
  8
実線
100
AcDbLine
 10
996.7057827991505
 20
1037.895220850827
 30
0.0
 11
996.7057827991505
 21
1048.895220850827
 31
0.0
  0
LINE
  5
936
102
{ACAD_REACTORS
330
BA6
102
}
330
1F
100
AcDbEntity
  8
実線
100
AcDbLine
 10
996.7057827991505
 20
1067.895220850827
 30
0.0
 11
975.4067446934737
 21
1067.895220850827
 31
0.0
  0
LINE
  5
937
102
{ACAD_REACTORS
330
BA6
102
}
330
1F
100
AcDbEntity
  8
実線
100
AcDbLine
 10
976.7057827991505
 20
1037.895220850827
 30
0.0
 11
976.7057827991505
 21
1067.895220850827
 31
0.0
  0
LINE
  5
938
102
{ACAD_REACTORS
330
BA6
102
}
330
1F
100
AcDbEntity
  8
実線
100
AcDbLine
 10
975.4067446934737
 20
1039.395220850827
 30
0.0
 11
975.4067446934737
 21
1067.895220850827
 31
0.0
  0
LINE
  5
939
102
{ACAD_REACTORS
330
BA6
102
}
330
1F
100
AcDbEntity
  8
実線
100
AcDbLine
 10
975.4067446934737
 20
1039.395220850827
 30
0.0
 11
963.7154017423846
 21
1039.395220850827
 31
0.0
  0
LINE
  5
93A
102
{ACAD_REACTORS
330
BA6
102
}
330
1F
100
AcDbEntity
  8
実線
100
AcDbLine
 10
963.7154017423846
 20
1037.895220850827
 30
0.0
 11
963.7154017423846
 21
1039.395220850827
 31
0.0
  0
LINE
  5
93B
102
{ACAD_REACTORS
330
BA6
102
}
330
1F
100
AcDbEntity
  8
実線
100
AcDbLine
 10
792.0969117617877
 20
974.8952208508274
 30
0.0
 11
815.7292473699268
 21
974.8952208508274
 31
0.0
  0
LINE
  5
93C
102
{ACAD_REACTORS
330
BA6
102
}
330
1F
100
AcDbEntity
  8
実線
100
AcDbLine
 10
792.0969117617877
 20
987.3952208508274
 30
0.0
 11
792.0969117617877
 21
974.8952208508274
 31
0.0
  0
LINE
  5
93D
102
{ACAD_REACTORS
330
BA6
102
}
330
1F
100
AcDbEntity
  8
実線
100
AcDbLine
 10
879.6290677741135
 20
974.8952208508274
 30
0.0
 11
903.6290677741135
 21
974.8952208508274
 31
0.0
  0
LINE
  5
93E
102
{ACAD_REACTORS
330
BA6
102
}
330
1F
100
AcDbEntity
  8
実線
100
AcDbLine
 10
879.6290677741135
 20
987.3952208508274
 30
0.0
 11
879.6290677741135
 21
974.8952208508274
 31
0.0
  0
LINE
  5
93F
102
{ACAD_REACTORS
330
BA6
102
}
330
1F
100
AcDbEntity
  8
実線
100
AcDbLine
 10
903.6290677741135
 20
974.8952208508274
 30
0.0
 11
903.6290677741135
 21
987.3952208508274
 31
0.0
  0
LINE
  5
940
102
{ACAD_REACTORS
330
BA6
102
}
330
1F
100
AcDbEntity
  8
実線
100
AcDbLine
 10
791.4701437265858
 20
987.3952208508274
 30
0.0
 11
1001.470143726585
 21
987.3952208508274
 31
0.0
  0
LINE
  5
941
102
{ACAD_REACTORS
330
BA6
102
}
330
1F
100
AcDbEntity
  8
実線
100
AcDbLine
 10
791.4701437265858
 20
1015.895220850793
 30
0.0
 11
791.4701437265858
 21
987.3952208508274
 31
0.0
  0
LINE
  5
942
102
{ACAD_REACTORS
330
BA6
102
}
330
1F
100
AcDbEntity
  8
実線
100
AcDbLine
 10
1001.470143726585
 20
987.3952208508274
 30
0.0
 11
1001.470143726585
 21
1015.895220850793
 31
0.0
  0
LINE
  5
943
102
{ACAD_REACTORS
330
BA6
102
}
330
1F
100
AcDbEntity
  8
実線
100
AcDbLine
 10
970.3647248147804
 20
974.8952208508274
 30
0.0
 11
976.8433756913834
 21
974.8952208508274
 31
0.0
  0
LINE
  5
944
102
{ACAD_REACTORS
330
BA6
102
}
330
1F
100
AcDbEntity
  8
実線
100
AcDbLine
 10
898.9701437265855
 20
1378.395220850827
 30
0.0
 11
759.9701437265857
 21
1378.395220850827
 31
0.0
  0
ARC
  5
945
102
{ACAD_REACTORS
330
BA6
102
}
330
1F
100
AcDbEntity
  8
実線
100
AcDbCircle
 10
898.9701437265855
 20
1375.395220850827
 30
0.0
 40
3.0
100
AcDbArc
 50
0.0
 51
90.0
  0
ARC
  5
946
102
{ACAD_REACTORS
330
BA6
102
}
330
1F
100
AcDbEntity
  8
実線
100
AcDbCircle
 10
759.9701437265858
 20
1375.395220850827
 30
0.0
 40
3.0
100
AcDbArc
 50
90.0
 51
180.0
  0
LINE
  5
947
102
{ACAD_REACTORS
330
BA6
102
}
330
1F
100
AcDbEntity
  8
実線
100
AcDbLine
 10
901.9701437265855
 20
1373.395220850827
 30
0.0
 11
901.9701437265855
 21
1375.395220850827
 31
0.0
  0
LINE
  5
948
102
{ACAD_REACTORS
330
BA6
102
}
330
1F
100
AcDbEntity
  8
実線
100
AcDbLine
 10
756.9701437265857
 20
1375.395220850827
 30
0.0
 11
756.9701437265857
 21
1373.395220850827
 31
0.0
  0
LINE
  5
949
102
{ACAD_REACTORS
330
BA6
102
}
330
1F
100
AcDbEntity
  8
実線
100
AcDbLine
 10
815.7292473699268
 20
974.8952208508274
 30
0.0
 11
839.7292473699268
 21
974.8952208508274
 31
0.0
  0
LINE
  5
94A
102
{ACAD_REACTORS
330
BA6
102
}
330
1F
100
AcDbEntity
  8
実線
100
AcDbLine
 10
815.7292473699268
 20
987.3952208508274
 30
0.0
 11
815.7292473699268
 21
974.8952208508274
 31
0.0
  0
LINE
  5
94B
102
{ACAD_REACTORS
330
BA6
102
}
330
1F
100
AcDbEntity
  8
実線
100
AcDbLine
 10
839.7292473699268
 20
974.8952208508274
 30
0.0
 11
839.7292473699268
 21
987.3952208508274
 31
0.0
  0
LINE
  5
94C
102
{ACAD_REACTORS
330
BA6
102
}
330
1F
100
AcDbEntity
  8
実線
100
AcDbLine
 10
903.6290677741135
 20
974.8952208508274
 30
0.0
 11
913.3112196790575
 21
974.8952208508274
 31
0.0
  0
LINE
  5
94D
102
{ACAD_REACTORS
330
BA6
102
}
330
1F
100
AcDbEntity
  8
実線
100
AcDbLine
 10
913.3112196790575
 20
974.8952208508274
 30
0.0
 11
913.3112196790575
 21
987.3952208508274
 31
0.0
  0
LINE
  5
94E
102
{ACAD_REACTORS
330
BA6
102
}
330
1F
100
AcDbEntity
  8
実線
100
AcDbLine
 10
946.3647248147804
 20
974.8952208508274
 30
0.0
 11
970.3647248147804
 21
974.8952208508274
 31
0.0
  0
LINE
  5
94F
102
{ACAD_REACTORS
330
BA6
102
}
330
1F
100
AcDbEntity
  8
実線
100
AcDbLine
 10
946.3647248147804
 20
987.3952208508274
 30
0.0
 11
946.3647248147804
 21
974.8952208508274
 31
0.0
  0
LINE
  5
950
102
{ACAD_REACTORS
330
BA6
102
}
330
1F
100
AcDbEntity
  8
実線
100
AcDbLine
 10
970.3647248147804
 20
974.8952208508274
 30
0.0
 11
970.3647248147804
 21
987.3952208508274
 31
0.0
  0
LINE
  5
951
102
{ACAD_REACTORS
330
BA6
102
}
330
1F
100
AcDbEntity
  8
実線
100
AcDbLine
 10
891.7701437265854
 20
1270.395220850828
 30
0.0
 11
891.7701437265854
 21
1218.895220850827
 31
0.0
  0
ARC
  5
952
102
{ACAD_REACTORS
330
BA6
102
}
330
1F
100
AcDbEntity
  8
実線
100
AcDbCircle
 10
824.770143726586
 20
1218.895220850827
 30
0.0
 40
66.99999999999993
100
AcDbArc
 50
309.7665840691637
 51
0.0
  0
ARC
  5
953
102
{ACAD_REACTORS
330
BA6
102
}
330
1F
100
AcDbEntity
  8
実線
100
AcDbCircle
 10
824.770143726586
 20
1218.895220850827
 30
0.0
 40
53.0
100
AcDbArc
 50
283.6639089969456
 51
345.24318439367
  0
ARC
  5
954
102
{ACAD_REACTORS
330
BA6
102
}
330
1F
100
AcDbEntity
  8
実線
100
AcDbCircle
 10
834.1701437265857
 20
1218.895220850827
 30
0.0
 40
66.99999999999993
100
AcDbArc
 50
180.0
 51
230.2334159308363
  0
LINE
  5
955
102
{ACAD_REACTORS
330
BA6
102
}
330
1F
100
AcDbEntity
  8
実線
100
AcDbLine
 10
767.1701437265856
 20
1270.395220850828
 30
0.0
 11
767.1701437265856
 21
1218.895220850827
 31
0.0
  0
ARC
  5
956
102
{ACAD_REACTORS
330
BA6
102
}
330
1F
100
AcDbEntity
  8
実線
100
AcDbCircle
 10
834.1701437265857
 20
1218.895220850827
 30
0.0
 40
53.0
100
AcDbArc
 50
194.7568156063299
 51
256.3360910030542
  0
LINE
  5
957
102
{ACAD_REACTORS
330
BA6
102
}
330
1F
100
AcDbEntity
  8
実線
100
AcDbLine
 10
781.3271276183277
 20
1205.395220850827
 30
0.0
 11
877.6131598348436
 21
1205.395220850827
 31
0.0
  0
LINE
  5
958
102
{ACAD_REACTORS
330
BA6
102
}
330
1F
100
AcDbEntity
  8
実線
100
AcDbLine
 10
877.6131598348436
 20
1205.395220850827
 30
0.0
 11
877.6131598348436
 21
1270.395220850828
 31
0.0
  0
LINE
  5
959
102
{ACAD_REACTORS
330
BA6
102
}
330
1F
100
AcDbEntity
  8
実線
100
AcDbLine
 10
781.3271276183277
 20
1270.395220850828
 30
0.0
 11
781.3271276183277
 21
1205.395220850827
 31
0.0
  0
LINE
  5
95A
102
{ACAD_REACTORS
330
BA6
102
}
330
1F
100
AcDbEntity
  8
実線
100
AcDbLine
 10
976.8433756913834
 20
974.8952208508274
 30
0.0
 11
1000.843375691383
 21
974.8952208508274
 31
0.0
  0
LINE
  5
95B
102
{ACAD_REACTORS
330
BA6
102
}
330
1F
100
AcDbEntity
  8
実線
100
AcDbLine
 10
976.8433756913834
 20
987.3952208508274
 30
0.0
 11
976.8433756913834
 21
974.8952208508274
 31
0.0
  0
LINE
  5
95C
102
{ACAD_REACTORS
330
BA6
102
}
330
1F
100
AcDbEntity
  8
実線
100
AcDbLine
 10
1000.843375691383
 20
974.8952208508274
 30
0.0
 11
1000.843375691383
 21
987.3952208508274
 31
0.0
  0
LINE
  5
95F
102
{ACAD_REACTORS
330
BAF
102
}
330
1F
100
AcDbEntity
  8
実線
100
AcDbLine
 10
872.7701437265855
 20
161.0952208508272
 30
0.0
 11
873.4701437265854
 21
164.7952208508272
 31
0.0
  0
LINE
  5
960
102
{ACAD_REACTORS
330
BAF
102
}
330
1F
100
AcDbEntity
  8
実線
100
AcDbLine
 10
785.4701437265857
 20
164.7952208508272
 30
0.0
 11
786.1701437265857
 21
161.0952208508272
 31
0.0
  0
LINE
  5
961
102
{ACAD_REACTORS
330
BAF
102
}
330
1F
100
AcDbEntity
  8
実線
100
AcDbLine
 10
873.4701437265854
 20
164.7952208508272
 30
0.0
 11
785.4701437265857
 21
164.7952208508272
 31
0.0
  0
LINE
  5
962
102
{ACAD_REACTORS
330
BAF
102
}
330
1F
100
AcDbEntity
  8
実線
100
AcDbLine
 10
786.1701437265857
 20
161.0952208508272
 30
0.0
 11
872.7701437265855
 21
161.0952208508272
 31
0.0
  0
LINE
  5
963
102
{ACAD_REACTORS
330
BAF
102
}
330
1F
100
AcDbEntity
  8
実線
100
AcDbLine
 10
786.1701437265857
 20
161.0952208508272
 30
0.0
 11
786.1701437265857
 21
125.0952208508272
 31
0.0
  0
LINE
  5
964
102
{ACAD_REACTORS
330
BAF
102
}
330
1F
100
AcDbEntity
  8
実線
100
AcDbLine
 10
872.7701437265855
 20
125.0952208508272
 30
0.0
 11
872.7701437265855
 21
161.0952208508272
 31
0.0
  0
LINE
  5
965
102
{ACAD_REACTORS
330
BAF
102
}
330
1F
100
AcDbEntity
  8
実線
100
AcDbLine
 10
786.1701437265857
 20
125.0952208508272
 30
0.0
 11
872.7701437265855
 21
125.0952208508272
 31
0.0
  0
LINE
  5
966
102
{ACAD_REACTORS
330
BAF
102
}
330
1F
100
AcDbEntity
  8
実線
100
AcDbLine
 10
845.9701437265854
 20
38.89522085082717
 30
0.0
 11
871.9701437265856
 21
48.09522085082722
 31
0.0
  0
LINE
  5
967
102
{ACAD_REACTORS
330
BAF
102
}
330
1F
100
AcDbEntity
  8
実線
100
AcDbLine
 10
786.9701437265858
 20
48.09522085082722
 30
0.0
 11
812.9701437265859
 21
38.89522085082717
 31
0.0
  0
LINE
  5
968
102
{ACAD_REACTORS
330
BAF
102
}
330
1F
100
AcDbEntity
  8
実線
100
AcDbLine
 10
871.9701437265856
 20
48.09522085082722
 30
0.0
 11
786.9701437265859
 21
48.09522085082722
 31
0.0
  0
LINE
  5
969
102
{ACAD_REACTORS
330
BAF
102
}
330
1F
100
AcDbEntity
  8
実線
100
AcDbLine
 10
812.9701437265859
 20
38.89522085082717
 30
0.0
 11
845.9701437265854
 21
38.89522085082717
 31
0.0
  0
LINE
  5
96A
102
{ACAD_REACTORS
330
BAF
102
}
330
1F
100
AcDbEntity
  8
実線
100
AcDbLine
 10
786.9701437265859
 20
125.0952208508272
 30
0.0
 11
786.9701437265859
 21
48.09522085082722
 31
0.0
  0
LINE
  5
96B
102
{ACAD_REACTORS
330
BAF
102
}
330
1F
100
AcDbEntity
  8
実線
100
AcDbLine
 10
871.9701437265856
 20
48.09522085082722
 30
0.0
 11
871.9701437265856
 21
125.0952208508272
 31
0.0
  0
LINE
  5
96C
102
{ACAD_REACTORS
330
BAF
102
}
330
1F
100
AcDbEntity
  8
実線
100
AcDbLine
 10
812.4701437265857
 20
171.7952208508272
 30
0.0
 11
812.4701437265857
 21
164.7952208508272
 31
0.0
  0
LINE
  5
96D
102
{ACAD_REACTORS
330
BAF
102
}
330
1F
100
AcDbEntity
  8
実線
100
AcDbLine
 10
846.4701437265855
 20
164.7952208508272
 30
0.0
 11
846.4701437265855
 21
171.7952208508272
 31
0.0
  0
LINE
  5
96E
102
{ACAD_REACTORS
330
BAF
102
}
330
1F
100
AcDbEntity
  8
実線
100
AcDbLine
 10
783.4701437265858
 20
182.7952208508272
 30
0.0
 11
783.4701437265858
 21
171.7952208508272
 31
0.0
  0
LINE
  5
96F
102
{ACAD_REACTORS
330
BAF
102
}
330
1F
100
AcDbEntity
  8
実線
100
AcDbLine
 10
875.4701437265856
 20
171.7952208508271
 30
0.0
 11
875.4701437265856
 21
182.7952208508271
 31
0.0
  0
LINE
  5
970
102
{ACAD_REACTORS
330
BAF
102
}
330
1F
100
AcDbEntity
  8
実線
100
AcDbLine
 10
783.4701437265858
 20
171.7952208508271
 30
0.0
 11
875.4701437265856
 21
171.7952208508271
 31
0.0
  0
LINE
  5
971
102
{ACAD_REACTORS
330
BAF
102
}
330
1F
100
AcDbEntity
  8
実線
100
AcDbLine
 10
997.0933756913835
 20
586.2952208508271
 30
0.0
 11
997.0933756913835
 21
594.7952208508271
 31
0.0
  0
LINE
  5
972
102
{ACAD_REACTORS
330
BAF
102
}
330
1F
100
AcDbEntity
  8
実線
100
AcDbLine
 10
980.5933756913834
 20
594.7952208508271
 30
0.0
 11
980.5933756913834
 21
586.2952208508271
 31
0.0
  0
LINE
  5
973
102
{ACAD_REACTORS
330
BAF
102
}
330
1F
100
AcDbEntity
  8
実線
100
AcDbLine
 10
997.0933756913835
 20
594.7952208508271
 30
0.0
 11
980.5933756913834
 21
594.7952208508271
 31
0.0
  0
LINE
  5
974
102
{ACAD_REACTORS
330
BAF
102
}
330
1F
100
AcDbEntity
  8
実線
100
AcDbLine
 10
950.1147248147795
 20
594.7952208508271
 30
0.0
 11
950.1147248147795
 21
586.2952208508271
 31
0.0
  0
LINE
  5
975
102
{ACAD_REACTORS
330
BAF
102
}
330
1F
100
AcDbEntity
  8
実線
100
AcDbLine
 10
956.9610400832445
 20
594.7952208508271
 30
0.0
 11
950.1147248147795
 21
594.7952208508271
 31
0.0
  0
ELLIPSE
  5
976
102
{ACAD_REACTORS
330
BAF
102
}
330
1F
100
AcDbEntity
  8
実線
100
AcDbEllipse
 10
1017.88269733539
 20
506.2952208508272
 30
0.0
 11
0.0
 21
6.0
 31
0.0
210
0.0
220
0.0
230
1.0
 40
0.4999999999999976
 41
4.71238898038469
 42
6.283185307179584
  0
LINE
  5
977
102
{ACAD_REACTORS
330
BAF
102
}
330
1F
100
AcDbEntity
  8
実線
100
AcDbLine
 10
1017.88269733539
 20
512.2952208508272
 30
0.0
 11
1001.470143726585
 21
512.2952208508272
 31
0.0
  0
LINE
  5
978
102
{ACAD_REACTORS
330
BAF
102
}
330
1F
100
AcDbEntity
  8
実線
100
AcDbLine
 10
1001.470143726585
 20
500.2952208508272
 30
0.0
 11
1017.88269733539
 21
500.2952208508272
 31
0.0
  0
ELLIPSE
  5
979
102
{ACAD_REACTORS
330
BAF
102
}
330
1F
100
AcDbEntity
  8
実線
100
AcDbEllipse
 10
1017.88269733539
 20
506.2952208508272
 30
0.0
 11
0.0
 21
6.0
 31
0.0
210
0.0
220
0.0
230
1.0
 40
0.4999999999999976
 41
3.141592653589792
 42
4.71238898038469
  0
LINE
  5
97A
102
{ACAD_REACTORS
330
BAF
102
}
330
1F
100
AcDbEntity
  8
実線
100
AcDbLine
 10
1044.870143726628
 20
479.5452208508272
 30
0.0
 11
1001.470143726595
 21
479.5452208508272
 31
0.0
  0
LINE
  5
97B
102
{ACAD_REACTORS
330
BAF
102
}
330
1F
100
AcDbEntity
  8
実線
100
AcDbLine
 10
1001.470143726595
 20
416.0452208508273
 30
0.0
 11
1044.870143726628
 21
416.0452208508273
 31
0.0
  0
LINE
  5
97C
102
{ACAD_REACTORS
330
BAF
102
}
330
1F
100
AcDbEntity
  8
実線
100
AcDbLine
 10
1044.870143726628
 20
479.5452208508272
 30
0.0
 11
1044.870143726628
 21
416.0452208508273
 31
0.0
  0
LINE
  5
97D
102
{ACAD_REACTORS
330
BAF
102
}
330
1F
100
AcDbEntity
  8
実線
100
AcDbLine
 10
1044.870143726628
 20
416.0452208508273
 30
0.0
 11
1047.970143726628
 21
409.0452208508272
 31
0.0
  0
LINE
  5
97E
102
{ACAD_REACTORS
330
BAF
102
}
330
1F
100
AcDbEntity
  8
実線
100
AcDbLine
 10
1047.970143726628
 20
486.5452208508272
 30
0.0
 11
1044.870143726628
 21
479.5452208508272
 31
0.0
  0
LINE
  5
97F
102
{ACAD_REACTORS
330
BAF
102
}
330
1F
100
AcDbEntity
  8
実線
100
AcDbLine
 10
1051.470143726628
 20
486.5452208508272
 30
0.0
 11
1051.470143726628
 21
409.0452208508272
 31
0.0
  0
LINE
  5
980
102
{ACAD_REACTORS
330
BAF
102
}
330
1F
100
AcDbEntity
  8
実線
100
AcDbLine
 10
1047.970143726628
 20
486.5452208508272
 30
0.0
 11
1047.970143726628
 21
409.0452208508272
 31
0.0
  0
LINE
  5
981
102
{ACAD_REACTORS
330
BAF
102
}
330
1F
100
AcDbEntity
  8
実線
100
AcDbLine
 10
1051.470143726628
 20
486.5452208508272
 30
0.0
 11
1047.970143726628
 21
486.5452208508272
 31
0.0
  0
LINE
  5
982
102
{ACAD_REACTORS
330
BAF
102
}
330
1F
100
AcDbEntity
  8
実線
100
AcDbLine
 10
1047.970143726628
 20
409.0452208508272
 30
0.0
 11
1051.470143726628
 21
409.0452208508272
 31
0.0
  0
LINE
  5
983
102
{ACAD_REACTORS
330
BAF
102
}
330
1F
100
AcDbEntity
  8
実線
100
AcDbLine
 10
726.0701437265431
 20
478.8452208508269
 30
0.0
 11
769.4701437265761
 21
478.8452208508269
 31
0.0
  0
LINE
  5
984
102
{ACAD_REACTORS
330
BAF
102
}
330
1F
100
AcDbEntity
  8
実線
100
AcDbLine
 10
769.4701437265761
 20
542.3452208508272
 30
0.0
 11
726.0701437265431
 21
542.3452208508272
 31
0.0
  0
LINE
  5
985
102
{ACAD_REACTORS
330
BAF
102
}
330
1F
100
AcDbEntity
  8
実線
100
AcDbLine
 10
719.470143726543
 20
471.8452208508272
 30
0.0
 11
719.470143726543
 21
549.3452208508269
 31
0.0
  0
LINE
  5
986
102
{ACAD_REACTORS
330
BAF
102
}
330
1F
100
AcDbEntity
  8
実線
100
AcDbLine
 10
719.470143726543
 20
471.8452208508272
 30
0.0
 11
722.970143726543
 21
471.8452208508272
 31
0.0
  0
LINE
  5
987
102
{ACAD_REACTORS
330
BAF
102
}
330
1F
100
AcDbEntity
  8
実線
100
AcDbLine
 10
722.970143726543
 20
549.3452208508269
 30
0.0
 11
719.470143726543
 21
549.3452208508269
 31
0.0
  0
LINE
  5
988
102
{ACAD_REACTORS
330
BAF
102
}
330
1F
100
AcDbEntity
  8
実線
100
AcDbLine
 10
722.970143726543
 20
471.8452208508272
 30
0.0
 11
722.970143726543
 21
549.3452208508269
 31
0.0
  0
LINE
  5
989
102
{ACAD_REACTORS
330
BAF
102
}
330
1F
100
AcDbEntity
  8
実線
100
AcDbLine
 10
726.0701437265431
 20
478.8452208508269
 30
0.0
 11
726.0701437265431
 21
542.3452208508272
 31
0.0
  0
LINE
  5
98A
102
{ACAD_REACTORS
330
BAF
102
}
330
1F
100
AcDbEntity
  8
実線
100
AcDbLine
 10
726.0701437265431
 20
542.3452208508272
 30
0.0
 11
722.970143726543
 21
549.3452208508269
 31
0.0
  0
LINE
  5
98B
102
{ACAD_REACTORS
330
BAF
102
}
330
1F
100
AcDbEntity
  8
実線
100
AcDbLine
 10
722.970143726543
 20
471.8452208508272
 30
0.0
 11
726.0701437265431
 21
478.8452208508269
 31
0.0
  0
LINE
  5
98C
102
{ACAD_REACTORS
330
BAF
102
}
330
1F
100
AcDbEntity
  8
実線
100
AcDbLine
 10
883.3790677741134
 20
594.7952208508271
 30
0.0
 11
883.3790677741134
 21
586.2952208508271
 31
0.0
  0
LINE
  5
98D
102
{ACAD_REACTORS
330
BAF
102
}
330
1F
100
AcDbEntity
  8
実線
100
AcDbLine
 10
893.0612196790574
 20
594.7952208508271
 30
0.0
 11
883.3790677741134
 21
594.7952208508271
 31
0.0
  0
LINE
  5
98E
102
{ACAD_REACTORS
330
BAF
102
}
330
1F
100
AcDbEntity
  8
実線
100
AcDbLine
 10
819.4792473699267
 20
594.7952208508271
 30
0.0
 11
819.4792473699267
 21
586.2952208508271
 31
0.0
  0
LINE
  5
98F
102
{ACAD_REACTORS
330
BAF
102
}
330
1F
100
AcDbEntity
  8
実線
100
AcDbLine
 10
826.3255626383914
 20
594.7952208508271
 30
0.0
 11
819.4792473699267
 21
594.7952208508271
 31
0.0
  0
LINE
  5
990
102
{ACAD_REACTORS
330
BAF
102
}
330
1F
100
AcDbEntity
  8
実線
100
AcDbLine
 10
812.3469117617874
 20
586.2952208508271
 30
0.0
 11
812.3469117617874
 21
594.7952208508271
 31
0.0
  0
LINE
  5
991
102
{ACAD_REACTORS
330
BAF
102
}
330
1F
100
AcDbEntity
  8
実線
100
AcDbLine
 10
795.8469117617877
 20
594.7952208508271
 30
0.0
 11
795.8469117617877
 21
586.2952208508271
 31
0.0
  0
LINE
  5
992
102
{ACAD_REACTORS
330
BAF
102
}
330
1F
100
AcDbEntity
  8
実線
100
AcDbLine
 10
812.3469117617874
 20
594.7952208508271
 30
0.0
 11
795.8469117617877
 21
594.7952208508271
 31
0.0
  0
LINE
  5
993
102
{ACAD_REACTORS
330
BAF
102
}
330
1F
100
AcDbEntity
  8
実線
100
AcDbLine
 10
842.8255626383915
 20
586.2952208508271
 30
0.0
 11
842.8255626383915
 21
594.7952208508271
 31
0.0
  0
LINE
  5
994
102
{ACAD_REACTORS
330
BAF
102
}
330
1F
100
AcDbEntity
  8
実線
100
AcDbLine
 10
826.3255626383914
 20
594.7952208508271
 30
0.0
 11
826.3255626383914
 21
586.2952208508271
 31
0.0
  0
LINE
  5
995
102
{ACAD_REACTORS
330
BAF
102
}
330
1F
100
AcDbEntity
  8
実線
100
AcDbLine
 10
842.8255626383915
 20
594.7952208508271
 30
0.0
 11
826.3255626383914
 21
594.7952208508271
 31
0.0
  0
LINE
  5
996
102
{ACAD_REACTORS
330
BAF
102
}
330
1F
100
AcDbEntity
  8
実線
100
AcDbLine
 10
909.5612196790575
 20
586.2952208508271
 30
0.0
 11
909.5612196790575
 21
594.7952208508271
 31
0.0
  0
LINE
  5
997
102
{ACAD_REACTORS
330
BAF
102
}
330
1F
100
AcDbEntity
  8
実線
100
AcDbLine
 10
893.0612196790574
 20
594.7952208508271
 30
0.0
 11
893.0612196790574
 21
586.2952208508271
 31
0.0
  0
LINE
  5
998
102
{ACAD_REACTORS
330
BAF
102
}
330
1F
100
AcDbEntity
  8
実線
100
AcDbLine
 10
909.5612196790575
 20
594.7952208508271
 30
0.0
 11
893.0612196790574
 21
594.7952208508271
 31
0.0
  0
LINE
  5
999
102
{ACAD_REACTORS
330
BAF
102
}
330
1F
100
AcDbEntity
  8
実線
100
AcDbLine
 10
973.4610400832446
 20
586.2952208508271
 30
0.0
 11
973.4610400832446
 21
594.7952208508271
 31
0.0
  0
LINE
  5
99A
102
{ACAD_REACTORS
330
BAF
102
}
330
1F
100
AcDbEntity
  8
実線
100
AcDbLine
 10
956.9610400832445
 20
594.7952208508271
 30
0.0
 11
956.9610400832445
 21
586.2952208508271
 31
0.0
  0
LINE
  5
99B
102
{ACAD_REACTORS
330
BAF
102
}
330
1F
100
AcDbEntity
  8
実線
100
AcDbLine
 10
973.4610400832446
 20
594.7952208508271
 30
0.0
 11
956.9610400832445
 21
594.7952208508271
 31
0.0
  0
LINE
  5
99C
102
{ACAD_REACTORS
330
BAF
102
}
330
1F
100
AcDbEntity
  8
実線
100
AcDbLine
 10
821.4701437265857
 20
393.7511243022291
 30
0.0
 11
821.4701437265857
 21
355.7952208508273
 31
0.0
  0
LINE
  5
99D
102
{ACAD_REACTORS
330
BAF
102
}
330
1F
100
AcDbEntity
  8
実線
100
AcDbLine
 10
837.4701437265857
 20
355.7952208508273
 30
0.0
 11
837.4701437265857
 21
393.7511243022291
 31
0.0
  0
LINE
  5
99E
102
{ACAD_REACTORS
330
BAF
102
}
330
1F
100
AcDbEntity
  8
実線
100
AcDbLine
 10
761.9701437265858
 20
290.7952208508273
 30
0.0
 11
761.9701437265858
 21
288.7952208508273
 31
0.0
  0
LINE
  5
99F
102
{ACAD_REACTORS
330
BAF
102
}
330
1F
100
AcDbEntity
  8
実線
100
AcDbLine
 10
896.9701437265856
 20
288.7952208508273
 30
0.0
 11
896.9701437265856
 21
290.7952208508273
 31
0.0
  0
LINE
  5
9A0
102
{ACAD_REACTORS
330
BAF
102
}
330
1F
100
AcDbEntity
  8
実線
100
AcDbLine
 10
761.9701437265858
 20
290.7952208508273
 30
0.0
 11
896.9701437265856
 21
290.7952208508273
 31
0.0
  0
LINE
  5
9A1
102
{ACAD_REACTORS
330
BAF
102
}
330
1F
100
AcDbEntity
  8
実線
100
AcDbLine
 10
756.9701437265857
 20
288.7952208508273
 30
0.0
 11
756.9701437265857
 21
187.7952208508272
 31
0.0
  0
LINE
  5
9A2
102
{ACAD_REACTORS
330
BAF
102
}
330
1F
100
AcDbEntity
  8
実線
100
AcDbLine
 10
901.9701437265855
 20
187.7952208508274
 30
0.0
 11
901.9701437265855
 21
288.7952208508274
 31
0.0
  0
LINE
  5
9A3
102
{ACAD_REACTORS
330
BAF
102
}
330
1F
100
AcDbEntity
  8
実線
100
AcDbLine
 10
756.9701437265857
 20
187.7952208508274
 30
0.0
 11
901.9701437265855
 21
187.7952208508274
 31
0.0
  0
LINE
  5
9A4
102
{ACAD_REACTORS
330
BAF
102
}
330
1F
100
AcDbEntity
  8
実線
100
AcDbLine
 10
756.9701437265857
 20
288.7952208508273
 30
0.0
 11
901.9701437265855
 21
288.7952208508273
 31
0.0
  0
LINE
  5
9A5
102
{ACAD_REACTORS
330
BAF
102
}
330
1F
100
AcDbEntity
  8
実線
100
AcDbLine
 10
890.2498329044245
 20
393.7952208508273
 30
0.0
 11
768.6904545487468
 21
393.7952208508273
 31
0.0
  0
LINE
  5
9A6
102
{ACAD_REACTORS
330
BAF
102
}
330
1F
100
AcDbEntity
  8
実線
100
AcDbLine
 10
768.6904545487468
 20
407.2952208508272
 30
0.0
 11
768.6904545487468
 21
393.7952208508273
 31
0.0
  0
LINE
  5
9A7
102
{ACAD_REACTORS
330
BAF
102
}
330
1F
100
AcDbEntity
  8
実線
100
AcDbLine
 10
768.6904545487468
 20
407.2952208508272
 30
0.0
 11
769.4701437265857
 21
407.2952208508272
 31
0.0
  0
LINE
  5
9A8
102
{ACAD_REACTORS
330
BAF
102
}
330
1F
100
AcDbEntity
  8
実線
100
AcDbLine
 10
890.2498329044245
 20
393.7952208508273
 30
0.0
 11
890.2498329044245
 21
407.2952208508272
 31
0.0
  0
LINE
  5
9A9
102
{ACAD_REACTORS
330
BAF
102
}
330
1F
100
AcDbEntity
  8
実線
100
AcDbLine
 10
802.6601715766444
 20
407.2952208508272
 30
0.0
 11
802.6601715766444
 21
393.7952208508273
 31
0.0
  0
LINE
  5
9AA
102
{ACAD_REACTORS
330
BAF
102
}
330
1F
100
AcDbEntity
  8
実線
100
AcDbLine
 10
856.2801158765266
 20
407.2952208508272
 30
0.0
 11
856.2801158765266
 21
393.7952208508273
 31
0.0
  0
LINE
  5
9AB
102
{ACAD_REACTORS
330
BAF
102
}
330
1F
100
AcDbEntity
  8
実線
100
AcDbLine
 10
846.5755626383915
 20
573.7952208508271
 30
0.0
 11
846.5755626383915
 21
586.2952208508271
 31
0.0
  0
LINE
  5
9AC
102
{ACAD_REACTORS
330
BAF
102
}
330
1F
100
AcDbEntity
  8
実線
100
AcDbLine
 10
822.5755626383913
 20
586.2952208508271
 30
0.0
 11
822.5755626383913
 21
573.7952208508271
 31
0.0
  0
LINE
  5
9AD
102
{ACAD_REACTORS
330
BAF
102
}
330
1F
100
AcDbEntity
  8
実線
100
AcDbLine
 10
846.5755626383915
 20
586.2952208508271
 30
0.0
 11
822.5755626383913
 21
586.2952208508271
 31
0.0
  0
LINE
  5
9AE
102
{ACAD_REACTORS
330
BAF
102
}
330
1F
100
AcDbEntity
  8
実線
100
AcDbLine
 10
976.9048102540775
 20
545.2952208508272
 30
0.0
 11
973.4601908568704
 21
545.2952208508272
 31
0.0
  0
LINE
  5
9AF
102
{ACAD_REACTORS
330
BAF
102
}
330
1F
100
AcDbEntity
  8
実線
100
AcDbLine
 10
1001.470143726585
 20
545.2952208508272
 30
0.0
 11
1001.470143726585
 21
407.2952208508272
 31
0.0
  0
LINE
  5
9B0
102
{ACAD_REACTORS
330
BAF
102
}
330
1F
100
AcDbEntity
  8
実線
100
AcDbLine
 10
937.2292376223766
 20
545.2952208508272
 30
0.0
 11
769.4701437265857
 21
545.2952208508272
 31
0.0
  0
LINE
  5
9B1
102
{ACAD_REACTORS
330
BAF
102
}
330
1F
100
AcDbEntity
  8
実線
100
AcDbLine
 10
976.1758590939345
 20
545.2952208508272
 30
0.0
 11
976.1758590939345
 21
485.2952208508273
 31
0.0
  0
LINE
  5
9B2
102
{ACAD_REACTORS
330
BAF
102
}
330
1F
100
AcDbEntity
  8
実線
100
AcDbLine
 10
769.4701437265857
 20
545.2952208508272
 30
0.0
 11
769.4701437265857
 21
407.2952208508272
 31
0.0
  0
LINE
  5
9B3
102
{ACAD_REACTORS
330
BAF
102
}
330
1F
100
AcDbEntity
  8
実線
100
AcDbLine
 10
769.4701437265857
 20
407.2952208508272
 30
0.0
 11
1001.470143726585
 21
407.2952208508272
 31
0.0
  0
LINE
  5
9B4
102
{ACAD_REACTORS
330
BAF
102
}
330
1F
100
AcDbEntity
  8
実線
100
AcDbLine
 10
925.4701437265856
 20
485.2952208508273
 30
0.0
 11
1001.470143726585
 21
485.2952208508273
 31
0.0
  0
LINE
  5
9B5
102
{ACAD_REACTORS
330
BAF
102
}
330
1F
100
AcDbEntity
  8
実線
100
AcDbLine
 10
925.4701437265856
 20
545.2952208508272
 30
0.0
 11
925.4701437265856
 21
485.2952208508273
 31
0.0
  0
LINE
  5
9B6
102
{ACAD_REACTORS
330
BAF
102
}
330
1F
100
AcDbEntity
  8
実線
100
AcDbLine
 10
816.0969117617877
 20
573.7952208508271
 30
0.0
 11
816.0969117617877
 21
586.2952208508271
 31
0.0
  0
LINE
  5
9B7
102
{ACAD_REACTORS
330
BAF
102
}
330
1F
100
AcDbEntity
  8
実線
100
AcDbLine
 10
792.0969117617877
 20
586.2952208508271
 30
0.0
 11
792.0969117617877
 21
573.7952208508271
 31
0.0
  0
LINE
  5
9B8
102
{ACAD_REACTORS
330
BAF
102
}
330
1F
100
AcDbEntity
  8
実線
100
AcDbLine
 10
816.0969117617877
 20
586.2952208508271
 30
0.0
 11
792.0969117617877
 21
586.2952208508271
 31
0.0
  0
LINE
  5
9B9
102
{ACAD_REACTORS
330
BAF
102
}
330
1F
100
AcDbEntity
  8
実線
100
AcDbLine
 10
879.6290677741135
 20
586.2952208508271
 30
0.0
 11
879.6290677741135
 21
573.7952208508271
 31
0.0
  0
LINE
  5
9BA
102
{ACAD_REACTORS
330
BAF
102
}
330
1F
100
AcDbEntity
  8
実線
100
AcDbLine
 10
889.3112196790575
 20
586.2952208508271
 30
0.0
 11
879.6290677741135
 21
586.2952208508271
 31
0.0
  0
LINE
  5
9BB
102
{ACAD_REACTORS
330
BAF
102
}
330
1F
100
AcDbEntity
  8
実線
100
AcDbLine
 10
1001.470143726585
 20
545.2952208508609
 30
0.0
 11
1001.470143726585
 21
573.7952208508271
 31
0.0
  0
LINE
  5
9BC
102
{ACAD_REACTORS
330
BAF
102
}
330
1F
100
AcDbEntity
  8
実線
100
AcDbLine
 10
791.4701437265858
 20
573.7952208508271
 30
0.0
 11
791.4701437265858
 21
545.2952208508609
 31
0.0
  0
LINE
  5
9BD
102
{ACAD_REACTORS
330
BAF
102
}
330
1F
100
AcDbEntity
  8
実線
100
AcDbLine
 10
1001.470143726585
 20
573.7952208508271
 30
0.0
 11
791.4701437265858
 21
573.7952208508271
 31
0.0
  0
LINE
  5
9BE
102
{ACAD_REACTORS
330
BAF
102
}
330
1F
100
AcDbEntity
  8
実線
100
AcDbLine
 10
976.9048102540775
 20
545.2952208508609
 30
0.0
 11
1001.470143726585
 21
545.2952208508609
 31
0.0
  0
LINE
  5
9BF
102
{ACAD_REACTORS
330
BAF
102
}
330
1F
100
AcDbEntity
  8
実線
100
AcDbLine
 10
937.2292376223766
 20
545.2952208508609
 30
0.0
 11
973.4601908568704
 21
545.2952208508609
 31
0.0
  0
LINE
  5
9C0
102
{ACAD_REACTORS
330
BAF
102
}
330
1F
100
AcDbEntity
  8
実線
100
AcDbLine
 10
977.2110400832445
 20
573.7952208508271
 30
0.0
 11
977.2110400832445
 21
586.2952208508271
 31
0.0
  0
LINE
  5
9C1
102
{ACAD_REACTORS
330
BAF
102
}
330
1F
100
AcDbEntity
  8
実線
100
AcDbLine
 10
953.2110400832445
 20
586.2952208508271
 30
0.0
 11
953.2110400832445
 21
573.7952208508271
 31
0.0
  0
LINE
  5
9C2
102
{ACAD_REACTORS
330
BAF
102
}
330
1F
100
AcDbEntity
  8
実線
100
AcDbLine
 10
977.2110400832445
 20
586.2952208508271
 30
0.0
 11
953.2110400832445
 21
586.2952208508271
 31
0.0
  0
LINE
  5
9C3
102
{ACAD_REACTORS
330
BAF
102
}
330
1F
100
AcDbEntity
  8
実線
100
AcDbLine
 10
898.9701437265855
 20
182.7952208508272
 30
0.0
 11
759.9701437283758
 21
182.7952208508272
 31
0.0
  0
ARC
  5
9C4
102
{ACAD_REACTORS
330
BAF
102
}
330
1F
100
AcDbEntity
  8
実線
100
AcDbCircle
 10
759.9701437265858
 20
185.7952208508272
 30
0.0
 40
3.0
100
AcDbArc
 50
180.0
 51
270.0
  0
ARC
  5
9C5
102
{ACAD_REACTORS
330
BAF
102
}
330
1F
100
AcDbEntity
  8
実線
100
AcDbCircle
 10
898.9701437265855
 20
185.7952208508272
 30
0.0
 40
3.0
100
AcDbArc
 50
270.0
 51
0.0
  0
LINE
  5
9C6
102
{ACAD_REACTORS
330
BAF
102
}
330
1F
100
AcDbEntity
  8
実線
100
AcDbLine
 10
756.9701437265857
 20
187.7952208508272
 30
0.0
 11
756.9701437265857
 21
185.7952208508272
 31
0.0
  0
LINE
  5
9C7
102
{ACAD_REACTORS
330
BAF
102
}
330
1F
100
AcDbEntity
  8
実線
100
AcDbLine
 10
901.9701437265855
 20
185.7952208508272
 30
0.0
 11
901.9701437265855
 21
187.7952208508272
 31
0.0
  0
LINE
  5
9C8
102
{ACAD_REACTORS
330
BAF
102
}
330
1F
100
AcDbEntity
  8
実線
100
AcDbLine
 10
822.5755626383913
 20
586.2952208508271
 30
0.0
 11
816.0969117617877
 21
586.2952208508271
 31
0.0
  0
LINE
  5
9C9
102
{ACAD_REACTORS
330
BAF
102
}
330
1F
100
AcDbEntity
  8
実線
100
AcDbLine
 10
913.3112196790575
 20
573.7952208508271
 30
0.0
 11
913.3112196790575
 21
586.2952208508271
 31
0.0
  0
LINE
  5
9CA
102
{ACAD_REACTORS
330
BAF
102
}
330
1F
100
AcDbEntity
  8
実線
100
AcDbLine
 10
889.3112196790575
 20
586.2952208508271
 30
0.0
 11
889.3112196790575
 21
573.7952208508271
 31
0.0
  0
LINE
  5
9CB
102
{ACAD_REACTORS
330
BAF
102
}
330
1F
100
AcDbEntity
  8
実線
100
AcDbLine
 10
913.3112196790575
 20
586.2952208508271
 30
0.0
 11
889.3112196790575
 21
586.2952208508271
 31
0.0
  0
LINE
  5
9CC
102
{ACAD_REACTORS
330
BAF
102
}
330
1F
100
AcDbEntity
  8
実線
100
AcDbLine
 10
946.3647248147804
 20
586.2952208508271
 30
0.0
 11
946.3647248147804
 21
573.7952208508271
 31
0.0
  0
LINE
  5
9CD
102
{ACAD_REACTORS
330
BAF
102
}
330
1F
100
AcDbEntity
  8
実線
100
AcDbLine
 10
953.2110400832445
 20
586.2952208508271
 30
0.0
 11
946.3647248147804
 21
586.2952208508271
 31
0.0
  0
ARC
  5
9CE
102
{ACAD_REACTORS
330
BAF
102
}
330
1F
100
AcDbEntity
  8
実線
100
AcDbCircle
 10
824.770143726586
 20
342.2952208508273
 30
0.0
 40
66.99999999999993
100
AcDbArc
 50
0.0
 51
50.2334159308363
  0
ARC
  5
9CF
102
{ACAD_REACTORS
330
BAF
102
}
330
1F
100
AcDbEntity
  8
実線
100
AcDbCircle
 10
824.770143726586
 20
342.2952208508272
 30
0.0
 40
53.0
100
AcDbArc
 50
14.75681560632998
 51
76.33609100305445
  0
LINE
  5
9D0
102
{ACAD_REACTORS
330
BAF
102
}
330
1F
100
AcDbEntity
  8
実線
100
AcDbLine
 10
891.7701437265854
 20
290.7952208508273
 30
0.0
 11
891.7701437265854
 21
342.2952208508273
 31
0.0
  0
ARC
  5
9D1
102
{ACAD_REACTORS
330
BAF
102
}
330
1F
100
AcDbEntity
  8
実線
100
AcDbCircle
 10
834.1701437265857
 20
342.2952208508272
 30
0.0
 40
53.0
100
AcDbArc
 50
103.6639089969455
 51
165.24318439367
  0
ARC
  5
9D2
102
{ACAD_REACTORS
330
BAF
102
}
330
1F
100
AcDbEntity
  8
実線
100
AcDbCircle
 10
834.1701437265857
 20
342.2952208508273
 30
0.0
 40
66.99999999999993
100
AcDbArc
 50
129.7665840691637
 51
180.0
  0
LINE
  5
9D3
102
{ACAD_REACTORS
330
BAF
102
}
330
1F
100
AcDbEntity
  8
実線
100
AcDbLine
 10
767.1701437265856
 20
290.7952208508273
 30
0.0
 11
767.1701437265856
 21
342.2952208508273
 31
0.0
  0
LINE
  5
9D4
102
{ACAD_REACTORS
330
BAF
102
}
330
1F
100
AcDbEntity
  8
実線
100
AcDbLine
 10
877.6131598348436
 20
355.7952208508273
 30
0.0
 11
781.3271276183277
 21
355.7952208508273
 31
0.0
  0
LINE
  5
9D5
102
{ACAD_REACTORS
330
BAF
102
}
330
1F
100
AcDbEntity
  8
実線
100
AcDbLine
 10
877.6131598348436
 20
355.7952208508273
 30
0.0
 11
877.6131598348436
 21
290.7952208508273
 31
0.0
  0
LINE
  5
9D6
102
{ACAD_REACTORS
330
BAF
102
}
330
1F
100
AcDbEntity
  8
実線
100
AcDbLine
 10
781.3271276183277
 20
290.7952208508273
 30
0.0
 11
781.3271276183277
 21
355.7952208508273
 31
0.0
  0
LINE
  5
9D7
102
{ACAD_REACTORS
330
BAF
102
}
330
1F
100
AcDbEntity
  8
実線
100
AcDbLine
 10
1000.843375691383
 20
573.7952208508271
 30
0.0
 11
1000.843375691383
 21
586.2952208508271
 31
0.0
  0
LINE
  5
9D8
102
{ACAD_REACTORS
330
BAF
102
}
330
1F
100
AcDbEntity
  8
実線
100
AcDbLine
 10
1000.843375691383
 20
586.2952208508271
 30
0.0
 11
977.2110400832445
 21
586.2952208508271
 31
0.0
  0
CIRCLE
  5
9D9
102
{ACAD_REACTORS
330
BA3
102
}
330
1F
100
AcDbEntity
  8
実線
100
AcDbCircle
 10
2039.270143726586
 20
750.5952208508272
 30
0.0
 40
44.0
  0
CIRCLE
  5
9DA
102
{ACAD_REACTORS
330
BA3
102
}
330
1F
100
AcDbEntity
  8
実線
100
AcDbCircle
 10
2039.270143726586
 20
750.5952208508272
 30
0.0
 40
43.3
  0
CIRCLE
  5
9DB
102
{ACAD_REACTORS
330
BA3
102
}
330
1F
100
AcDbEntity
  8
実線
100
AcDbCircle
 10
2039.270143726586
 20
750.5952208508272
 30
0.0
 40
42.5
  0
CIRCLE
  5
9DC
102
{ACAD_REACTORS
330
BA3
102
}
330
1F
100
AcDbEntity
  8
実線
100
AcDbCircle
 10
2039.270143726586
 20
750.5952208508272
 30
0.0
 40
16.5
  0
CIRCLE
  5
9DD
102
{ACAD_REACTORS
330
BA3
102
}
330
1F
100
AcDbEntity
  8
実線
100
AcDbCircle
 10
2039.270143726586
 20
750.5952208508272
 30
0.0
 40
46.0
  0
LINE
  5
9DE
102
{ACAD_REACTORS
330
BA3
102
}
330
1F
100
AcDbEntity
  8
実線
100
AcDbLine
 10
1880.333542759698
 20
830.2380958042713
 30
0.0
 11
1901.551165152417
 21
817.9880958042712
 31
0.0
  0
LINE
  5
9DF
102
{ACAD_REACTORS
330
BA3
102
}
330
1F
100
AcDbEntity
  8
実線
100
AcDbLine
 10
1847.857590117781
 20
848.9880958042713
 30
0.0
 11
1879.034504654022
 21
830.9880958042713
 31
0.0
  0
LINE
  5
9E0
102
{ACAD_REACTORS
330
BA3
102
}
330
1F
100
AcDbEntity
  8
実線
100
AcDbLine
 10
1885.034504654022
 20
841.3804006496846
 30
0.0
 11
1853.857590117782
 21
859.3804006496847
 31
0.0
  0
LINE
  5
9E1
102
{ACAD_REACTORS
330
BA3
102
}
330
1F
100
AcDbEntity
  8
実線
100
AcDbLine
 10
1907.551165152417
 20
828.3804006496847
 30
0.0
 11
1886.333542759698
 21
840.6304006496847
 31
0.0
  0
LINE
  5
9E2
102
{ACAD_REACTORS
330
BA3
102
}
330
1F
100
AcDbEntity
  8
実線
100
AcDbLine
 10
1901.551165152417
 20
817.9880958042712
 30
0.0
 11
1907.551165152417
 21
828.3804006496847
 31
0.0
  0
LINE
  5
9E3
102
{ACAD_REACTORS
330
BA3
102
}
330
1F
100
AcDbEntity
  8
実線
100
AcDbLine
 10
1847.857590117781
 20
848.9880958042713
 30
0.0
 11
1853.857590117782
 21
859.3804006496847
 31
0.0
  0
ARC
  5
9E4
102
{ACAD_REACTORS
330
BA3
102
}
330
1F
100
AcDbEntity
  8
実線
100
AcDbCircle
 10
1972.270143726586
 20
787.6952208508274
 30
0.0
 40
72.5
100
AcDbArc
 50
29.14282243647636
 51
161.5038230302249
  0
LINE
  5
9E5
102
{ACAD_REACTORS
330
BA3
102
}
330
1F
100
AcDbEntity
  8
実線
100
AcDbLine
 10
1823.870143726544
 20
704.9452208508272
 30
0.0
 11
1867.270143726577
 21
704.9452208508272
 31
0.0
  0
LINE
  5
9E6
102
{ACAD_REACTORS
330
BA3
102
}
330
1F
100
AcDbEntity
  8
実線
100
AcDbLine
 10
1867.270143726577
 20
768.4452208508272
 30
0.0
 11
1823.870143726544
 21
768.4452208508272
 31
0.0
  0
LINE
  5
9E7
102
{ACAD_REACTORS
330
BA3
102
}
330
1F
100
AcDbEntity
  8
実線
100
AcDbLine
 10
1823.870143726544
 20
768.4452208508272
 30
0.0
 11
1820.770143726544
 21
775.4452208508272
 31
0.0
  0
LINE
  5
9E8
102
{ACAD_REACTORS
330
BA3
102
}
330
1F
100
AcDbEntity
  8
実線
100
AcDbLine
 10
1820.770143726544
 20
697.9452208508275
 30
0.0
 11
1823.870143726544
 21
704.9452208508276
 31
0.0
  0
LINE
  5
9E9
102
{ACAD_REACTORS
330
BA3
102
}
330
1F
100
AcDbEntity
  8
実線
100
AcDbLine
 10
1823.870143726544
 20
768.4452208508272
 30
0.0
 11
1823.870143726544
 21
704.9452208508272
 31
0.0
  0
LINE
  5
9EA
102
{ACAD_REACTORS
330
BA3
102
}
330
1F
100
AcDbEntity
  8
実線
100
AcDbLine
 10
1817.270143726544
 20
697.9452208508274
 30
0.0
 11
1820.770143726544
 21
697.9452208508274
 31
0.0
  0
LINE
  5
9EB
102
{ACAD_REACTORS
330
BA3
102
}
330
1F
100
AcDbEntity
  8
実線
100
AcDbLine
 10
1820.770143726544
 20
775.4452208508272
 30
0.0
 11
1817.270143726544
 21
775.4452208508272
 31
0.0
  0
LINE
  5
9EC
102
{ACAD_REACTORS
330
BA3
102
}
330
1F
100
AcDbEntity
  8
実線
100
AcDbLine
 10
1817.270143726544
 20
775.4452208508272
 30
0.0
 11
1817.270143726544
 21
697.9452208508274
 31
0.0
  0
LINE
  5
9ED
102
{ACAD_REACTORS
330
BA3
102
}
330
1F
100
AcDbEntity
  8
実線
100
AcDbLine
 10
1820.770143726544
 20
775.4452208508272
 30
0.0
 11
1820.770143726544
 21
697.9452208508274
 31
0.0
  0
LINE
  5
9EE
102
{ACAD_REACTORS
330
BA3
102
}
330
1F
100
AcDbEntity
  8
実線
100
AcDbLine
 10
2142.670143726629
 20
782.3452208508274
 30
0.0
 11
2104.448265055756
 21
782.3452208508274
 31
0.0
  0
LINE
  5
9EF
102
{ACAD_REACTORS
330
BA3
102
}
330
1F
100
AcDbEntity
  8
実線
100
AcDbLine
 10
2104.448265055756
 20
718.8452208508274
 30
0.0
 11
2142.670143726629
 21
718.8452208508274
 31
0.0
  0
LINE
  5
9F0
102
{ACAD_REACTORS
330
BA3
102
}
330
1F
100
AcDbEntity
  8
実線
100
AcDbLine
 10
2149.270143726629
 20
711.8452208508274
 30
0.0
 11
2149.270143726629
 21
789.3452208508274
 31
0.0
  0
LINE
  5
9F1
102
{ACAD_REACTORS
330
BA3
102
}
330
1F
100
AcDbEntity
  8
実線
100
AcDbLine
 10
2149.270143726629
 20
789.3452208508274
 30
0.0
 11
2145.770143726629
 21
789.3452208508274
 31
0.0
  0
LINE
  5
9F2
102
{ACAD_REACTORS
330
BA3
102
}
330
1F
100
AcDbEntity
  8
実線
100
AcDbLine
 10
2145.770143726629
 20
711.8452208508274
 30
0.0
 11
2149.270143726629
 21
711.8452208508274
 31
0.0
  0
LINE
  5
9F3
102
{ACAD_REACTORS
330
BA3
102
}
330
1F
100
AcDbEntity
  8
実線
100
AcDbLine
 10
2145.770143726629
 20
711.8452208508274
 30
0.0
 11
2145.770143726629
 21
789.3452208508274
 31
0.0
  0
LINE
  5
9F4
102
{ACAD_REACTORS
330
BA3
102
}
330
1F
100
AcDbEntity
  8
実線
100
AcDbLine
 10
2142.670143726629
 20
718.8452208508274
 30
0.0
 11
2142.670143726629
 21
782.3452208508274
 31
0.0
  0
LINE
  5
9F5
102
{ACAD_REACTORS
330
BA3
102
}
330
1F
100
AcDbEntity
  8
実線
100
AcDbLine
 10
2142.670143726629
 20
718.8452208508274
 30
0.0
 11
2145.770143726629
 21
711.8452208508274
 31
0.0
  0
LINE
  5
9F6
102
{ACAD_REACTORS
330
BA3
102
}
330
1F
100
AcDbEntity
  8
実線
100
AcDbLine
 10
2145.770143726629
 20
789.3452208508274
 30
0.0
 11
2142.670143726629
 21
782.3452208508274
 31
0.0
  0
ARC
  5
9F7
102
{ACAD_REACTORS
330
BA3
102
}
330
1F
100
AcDbEntity
  8
実線
100
AcDbCircle
 10
1988.490454548747
 20
798.7763703493819
 30
0.0
 40
10.0
100
AcDbArc
 50
136.5041419820641
 51
214.9999999999979
  0
LINE
  5
9F8
102
{ACAD_REACTORS
330
BA3
102
}
330
1F
100
AcDbEntity
  8
実線
100
AcDbLine
 10
1996.824758591543
 20
809.5664304715565
 30
0.0
 11
1996.962047026359
 21
809.4703000745889
 31
0.0
  0
LINE
  5
9F9
102
{ACAD_REACTORS
330
BA3
102
}
330
1F
100
AcDbEntity
  8
実線
100
AcDbLine
 10
2081.578240426814
 20
809.4703000745886
 30
0.0
 11
2081.715528861631
 21
809.5664304715562
 31
0.0
  0
ARC
  5
9FA
102
{ACAD_REACTORS
330
BA3
102
}
330
1F
100
AcDbEntity
  8
実線
100
AcDbCircle
 10
2039.270143726588
 20
750.5952208508376
 30
0.0
 40
79.99999999999343
100
AcDbArc
 50
133.4958580179446
 51
136.5041419820641
  0
ARC
  5
9FB
102
{ACAD_REACTORS
330
BA3
102
}
330
1F
100
AcDbEntity
  8
実線
100
AcDbCircle
 10
1991.088994228032
 20
801.3749100286661
 30
0.0
 40
10.00000000000038
100
AcDbArc
 50
55.00000000000316
 51
133.4958580179446
  0
LINE
  5
9FC
102
{ACAD_REACTORS
330
BA3
102
}
330
1F
100
AcDbEntity
  8
実線
100
AcDbLine
 10
1980.298934105858
 20
708.1498357157832
 30
0.0
 11
1980.395064502826
 21
708.2871241505994
 31
0.0
  0
LINE
  5
9FD
102
{ACAD_REACTORS
330
BA3
102
}
330
1F
100
AcDbEntity
  8
実線
100
AcDbLine
 10
1980.395064502826
 20
792.9033175510552
 30
0.0
 11
1980.298934105858
 21
793.0406059858717
 31
0.0
  0
ARC
  5
9FE
102
{ACAD_REACTORS
330
BA3
102
}
330
1F
100
AcDbEntity
  8
実線
100
AcDbCircle
 10
2039.270143726586
 20
750.595220850827
 30
0.0
 40
79.9999999999998
100
AcDbArc
 50
313.4958580179446
 51
316.5041419820641
  0
ARC
  5
9FF
102
{ACAD_REACTORS
330
BA3
102
}
330
1F
100
AcDbEntity
  8
実線
100
AcDbCircle
 10
2087.451293225141
 20
699.8155316729886
 30
0.0
 40
10.00000000000002
100
AcDbArc
 50
235.0000000000032
 51
313.4958580179446
  0
LINE
  5
A00
102
{ACAD_REACTORS
330
BA3
102
}
330
1F
100
AcDbEntity
  8
実線
100
AcDbLine
 10
2081.715528861631
 20
691.6240112300986
 30
0.0
 11
2081.578240426814
 21
691.7201416270661
 31
0.0
  0
ARC
  5
A01
102
{ACAD_REACTORS
330
BA3
102
}
330
1F
100
AcDbEntity
  8
実線
100
AcDbCircle
 10
2090.049832904426
 20
798.7763703493819
 30
0.0
 40
9.999999999999591
100
AcDbArc
 50
325.000000000002
 51
43.49585801793593
  0
ARC
  5
A02
102
{ACAD_REACTORS
330
BA3
102
}
330
1F
100
AcDbEntity
  8
実線
100
AcDbCircle
 10
2087.451293225141
 20
801.3749100286661
 30
0.0
 40
9.999999999999982
100
AcDbArc
 50
46.50414198205536
 51
124.9999999999968
  0
ARC
  5
A03
102
{ACAD_REACTORS
330
BA3
102
}
330
1F
100
AcDbEntity
  8
実線
100
AcDbCircle
 10
2039.270143726586
 20
750.5952208508376
 30
0.0
 40
79.99999999999268
100
AcDbArc
 50
43.49585801793593
 51
46.50414198205536
  0
ARC
  5
A04
102
{ACAD_REACTORS
330
BA3
102
}
330
1F
100
AcDbEntity
  8
実線
100
AcDbCircle
 10
1988.490454548747
 20
702.4140713522726
 30
0.0
 40
9.999999999999976
100
AcDbArc
 50
145.000000000002
 51
223.4958580179359
  0
ARC
  5
A05
102
{ACAD_REACTORS
330
BA3
102
}
330
1F
100
AcDbEntity
  8
実線
100
AcDbCircle
 10
2039.270143726586
 20
750.595220850827
 30
0.0
 40
79.99999999999984
100
AcDbArc
 50
223.4958580179359
 51
226.5041419820553
  0
ARC
  5
A06
102
{ACAD_REACTORS
330
BA3
102
}
330
1F
100
AcDbEntity
  8
実線
100
AcDbCircle
 10
1991.088994228032
 20
699.8155316729885
 30
0.0
 40
9.999999999999991
100
AcDbArc
 50
226.5041419820553
 51
304.9999999999968
  0
LINE
  5
A07
102
{ACAD_REACTORS
330
BA3
102
}
330
1F
100
AcDbEntity
  8
実線
100
AcDbLine
 10
1996.962047026359
 20
691.7201416270661
 30
0.0
 11
1996.824758591543
 21
691.6240112300986
 31
0.0
  0
ARC
  5
A08
102
{ACAD_REACTORS
330
BA3
102
}
330
1F
100
AcDbEntity
  8
実線
100
AcDbCircle
 10
2090.049832904426
 20
702.4140713522726
 30
0.0
 40
9.999999999999996
100
AcDbArc
 50
316.5041419820641
 51
34.99999999999796
  0
LINE
  5
A09
102
{ACAD_REACTORS
330
BA3
102
}
330
1F
100
AcDbEntity
  8
実線
100
AcDbLine
 10
2098.145222950348
 20
708.2871241505994
 30
0.0
 11
2098.241353347316
 21
708.1498357157832
 31
0.0
  0
LINE
  5
A0A
102
{ACAD_REACTORS
330
BA3
102
}
330
1F
100
AcDbEntity
  8
実線
100
AcDbLine
 10
2098.241353347316
 20
793.0406059858717
 30
0.0
 11
2098.145222950348
 21
792.9033175510556
 31
0.0
  0
LINE
  5
A0B
102
{ACAD_REACTORS
330
BA3
102
}
330
1F
100
AcDbEntity
  8
実線
100
AcDbLine
 10
2099.270143726586
 20
816.4221694497918
 30
0.0
 11
2099.270143726586
 21
802.6475288765837
 31
0.0
  0
ARC
  5
A0C
102
{ACAD_REACTORS
330
BA3
102
}
330
1F
100
AcDbEntity
  8
実線
100
AcDbCircle
 10
1972.270143726586
 20
787.6952208508274
 30
0.0
 40
105.0
100
AcDbArc
 50
48.99999999999962
 51
148.4310400378849
  0
ARC
  5
A0D
102
{ACAD_REACTORS
330
BA3
102
}
330
1F
100
AcDbEntity
  8
実線
100
AcDbCircle
 10
1972.270143726586
 20
787.6952208508274
 30
0.0
 40
105.0
100
AcDbArc
 50
154.9856143962661
 51
180.0
  0
LINE
  5
A0E
102
{ACAD_REACTORS
330
BA3
102
}
330
1F
100
AcDbEntity
  8
実線
100
AcDbLine
 10
2041.15634177059
 20
866.9397267742187
 30
0.0
 11
2099.270143726586
 21
816.4221694497918
 31
0.0
  0
LINE
  5
A0F
102
{ACAD_REACTORS
330
BA3
102
}
330
1F
100
AcDbEntity
  8
実線
100
AcDbLine
 10
2099.270143726586
 20
698.5429128250698
 30
0.0
 11
2099.270143726586
 21
682.6952208508274
 31
0.0
  0
LINE
  5
A10
102
{ACAD_REACTORS
330
BA3
102
}
330
1F
100
AcDbEntity
  8
実線
100
AcDbLine
 10
2099.270143726586
 20
709.8981693605781
 30
0.0
 11
2099.270143726586
 21
706.2852298794752
 31
0.0
  0
LINE
  5
A11
102
{ACAD_REACTORS
330
BA3
102
}
330
1F
100
AcDbEntity
  8
実線
100
AcDbLine
 10
2099.270143726586
 20
794.9052118221806
 30
0.0
 11
2099.270143726586
 21
791.2922723410765
 31
0.0
  0
LINE
  5
A12
102
{ACAD_REACTORS
330
BA3
102
}
330
1F
100
AcDbEntity
  8
実線
100
AcDbLine
 10
1867.270143726587
 20
682.6952208508274
 30
0.0
 11
1867.270143726587
 21
787.6952208508274
 31
0.0
  0
LINE
  5
A13
102
{ACAD_REACTORS
330
BA3
102
}
330
1F
100
AcDbEntity
  8
実線
100
AcDbLine
 10
2013.85676142513
 20
682.6952208508274
 30
0.0
 11
1867.270143726587
 21
682.6952208508274
 31
0.0
  0
LINE
  5
A14
102
{ACAD_REACTORS
330
BA3
102
}
330
1F
100
AcDbEntity
  8
実線
100
AcDbLine
 10
2099.270143726586
 20
682.6952208508274
 30
0.0
 11
2064.683526028044
 21
682.6952208508274
 31
0.0
  0
LINE
  5
A15
102
{ACAD_REACTORS
330
BA3
102
}
330
1F
100
AcDbEntity
  8
実線
100
AcDbLine
 10
2091.07507663179
 20
810.6952208508275
 30
0.0
 11
2099.270143726587
 21
810.6952208508275
 31
0.0
  0
LINE
  5
A16
102
{ACAD_REACTORS
330
BA3
102
}
330
1F
100
AcDbEntity
  8
実線
100
AcDbLine
 10
2079.819373065749
 20
810.6952208508275
 30
0.0
 11
2083.827509818492
 21
810.6952208508275
 31
0.0
  0
LINE
  5
A17
102
{ACAD_REACTORS
330
BA3
102
}
330
1F
100
AcDbEntity
  8
実線
100
AcDbLine
 10
1994.712777634681
 20
810.6952208508275
 30
0.0
 11
1998.720914387423
 21
810.6952208508275
 31
0.0
  0
LINE
  5
A18
102
{ACAD_REACTORS
330
BA3
102
}
330
1F
100
AcDbEntity
  8
実線
100
AcDbLine
 10
1869.820155927661
 20
810.6952208508275
 30
0.0
 11
1987.465210821382
 21
810.6952208508275
 31
0.0
  0
LINE
  5
A19
102
{ACAD_REACTORS
330
BA3
102
}
330
1F
100
AcDbEntity
  8
実線
100
AcDbLine
 10
1885.024885710789
 20
811.3637401512894
 30
0.0
 11
1872.034504654022
 21
818.8637401512893
 31
0.0
  0
LINE
  5
A1A
102
{ACAD_REACTORS
330
BA3
102
}
330
1F
100
AcDbEntity
  8
実線
100
AcDbLine
 10
1905.024885710788
 20
846.004756302667
 30
0.0
 11
1892.034504654022
 21
853.5047563026671
 31
0.0
  0
LINE
  5
A1B
102
{ACAD_REACTORS
330
BA3
102
}
330
1F
100
AcDbEntity
  8
実線
100
AcDbLine
 10
1892.024885710788
 20
823.4880958042714
 30
0.0
 11
1885.024885710789
 21
811.3637401512894
 31
0.0
  0
LINE
  5
A1C
102
{ACAD_REACTORS
330
BA3
102
}
330
1F
100
AcDbEntity
  8
実線
100
AcDbLine
 10
1905.024885710788
 20
846.004756302667
 30
0.0
 11
1898.024885710787
 21
833.8804006496847
 31
0.0
  0
LINE
  5
A1D
102
{ACAD_REACTORS
330
BA3
102
}
330
1F
100
AcDbEntity
  8
実線
100
AcDbLine
 10
1872.034504654022
 20
818.8637401512893
 30
0.0
 11
1892.034504654022
 21
853.5047563026671
 31
0.0
  0
LINE
  5
A1E
102
{ACAD_REACTORS
330
BA3
102
}
330
1F
100
AcDbEntity
  8
実線
100
AcDbLine
 10
1893.333542759698
 20
852.754756302667
 30
0.0
 11
1873.333542759698
 21
818.1137401512895
 31
0.0
  0
CIRCLE
  5
A1F
102
{ACAD_REACTORS
330
BA3
102
}
330
1F
100
AcDbEntity
  8
実線
100
AcDbCircle
 10
2039.270143726586
 20
750.5952208508272
 30
0.0
 40
72.5
  0
LINE
  5
A20
102
{ACAD_REACTORS
330
BAD
102
}
330
1F
100
AcDbEntity
  8
実線
100
AcDbLine
 10
1605.970143726585
 20
793.8952208508274
 30
0.0
 11
1605.970143726585
 21
707.2952208508273
 31
0.0
  0
LINE
  5
A21
102
{ACAD_REACTORS
330
BAD
102
}
330
1F
100
AcDbEntity
  8
実線
100
AcDbLine
 10
1605.970143726585
 20
793.8952208508274
 30
0.0
 11
1602.270143726585
 21
794.5952208508273
 31
0.0
  0
LINE
  5
A22
102
{ACAD_REACTORS
330
BAD
102
}
330
1F
100
AcDbEntity
  8
実線
100
AcDbLine
 10
1602.270143726585
 20
706.5952208508275
 30
0.0
 11
1605.970143726585
 21
707.2952208508273
 31
0.0
  0
LINE
  5
A23
102
{ACAD_REACTORS
330
BAD
102
}
330
1F
100
AcDbEntity
  8
実線
100
AcDbLine
 10
1602.270143726585
 20
794.5952208508273
 30
0.0
 11
1602.270143726585
 21
706.5952208508275
 31
0.0
  0
LINE
  5
A24
102
{ACAD_REACTORS
330
BAD
102
}
330
1F
100
AcDbEntity
  8
実線
100
AcDbLine
 10
1641.970143726586
 20
793.8952208508274
 30
0.0
 11
1641.970143726586
 21
707.2952208508273
 31
0.0
  0
LINE
  5
A25
102
{ACAD_REACTORS
330
BAD
102
}
330
1F
100
AcDbEntity
  8
実線
100
AcDbLine
 10
1605.970143726585
 20
707.2952208508273
 30
0.0
 11
1641.970143726586
 21
707.2952208508273
 31
0.0
  0
LINE
  5
A26
102
{ACAD_REACTORS
330
BAD
102
}
330
1F
100
AcDbEntity
  8
実線
100
AcDbLine
 10
1641.970143726586
 20
793.8952208508274
 30
0.0
 11
1605.970143726585
 21
793.8952208508274
 31
0.0
  0
LINE
  5
A27
102
{ACAD_REACTORS
330
BAD
102
}
330
1F
100
AcDbEntity
  8
実線
100
AcDbLine
 10
1728.170143726585
 20
767.0952208508275
 30
0.0
 11
1728.170143726585
 21
734.0952208508272
 31
0.0
  0
LINE
  5
A28
102
{ACAD_REACTORS
330
BAD
102
}
330
1F
100
AcDbEntity
  8
実線
100
AcDbLine
 10
1728.170143726585
 20
767.0952208508275
 30
0.0
 11
1718.970143726586
 21
793.0952208508275
 31
0.0
  0
LINE
  5
A29
102
{ACAD_REACTORS
330
BAD
102
}
330
1F
100
AcDbEntity
  8
実線
100
AcDbLine
 10
1718.970143726586
 20
708.0952208508273
 30
0.0
 11
1728.170143726585
 21
734.0952208508272
 31
0.0
  0
LINE
  5
A2A
102
{ACAD_REACTORS
330
BAD
102
}
330
1F
100
AcDbEntity
  8
実線
100
AcDbLine
 10
1718.970143726586
 20
793.0952208508275
 30
0.0
 11
1718.970143726586
 21
708.0952208508273
 31
0.0
  0
LINE
  5
A2B
102
{ACAD_REACTORS
330
BAD
102
}
330
1F
100
AcDbEntity
  8
実線
100
AcDbLine
 10
1641.970143726586
 20
708.0952208508275
 30
0.0
 11
1718.970143726586
 21
708.0952208508275
 31
0.0
  0
LINE
  5
A2C
102
{ACAD_REACTORS
330
BAD
102
}
330
1F
100
AcDbEntity
  8
実線
100
AcDbLine
 10
1718.970143726586
 20
793.0952208508275
 30
0.0
 11
1641.970143726586
 21
793.0952208508275
 31
0.0
  0
LINE
  5
A2D
102
{ACAD_REACTORS
330
BAD
102
}
330
1F
100
AcDbEntity
  8
実線
100
AcDbLine
 10
1595.270143726585
 20
733.5952208508273
 30
0.0
 11
1602.270143726585
 21
733.5952208508273
 31
0.0
  0
LINE
  5
A2E
102
{ACAD_REACTORS
330
BAD
102
}
330
1F
100
AcDbEntity
  8
実線
100
AcDbLine
 10
1602.270143726585
 20
767.5952208508276
 30
0.0
 11
1595.270143726585
 21
767.5952208508276
 31
0.0
  0
LINE
  5
A2F
102
{ACAD_REACTORS
330
BAD
102
}
330
1F
100
AcDbEntity
  8
実線
100
AcDbLine
 10
1595.270143726585
 20
796.5952208508276
 30
0.0
 11
1595.270143726585
 21
704.5952208508275
 31
0.0
  0
LINE
  5
A30
102
{ACAD_REACTORS
330
BAD
102
}
330
1F
100
AcDbEntity
  8
実線
100
AcDbLine
 10
1584.270143726585
 20
704.5952208508275
 30
0.0
 11
1595.270143726585
 21
704.5952208508275
 31
0.0
  0
LINE
  5
A31
102
{ACAD_REACTORS
330
BAD
102
}
330
1F
100
AcDbEntity
  8
実線
100
AcDbLine
 10
1595.270143726585
 20
796.5952208508276
 30
0.0
 11
1584.270143726586
 21
796.5952208508276
 31
0.0
  0
LINE
  5
A32
102
{ACAD_REACTORS
330
BAD
102
}
330
1F
100
AcDbEntity
  8
実線
100
AcDbLine
 10
1180.770143726585
 20
800.7862968032998
 30
0.0
 11
1172.270143726585
 21
800.7862968032998
 31
0.0
  0
LINE
  5
A33
102
{ACAD_REACTORS
330
BAD
102
}
330
1F
100
AcDbEntity
  8
実線
100
AcDbLine
 10
1172.270143726585
 20
784.2862968032997
 30
0.0
 11
1180.770143726585
 21
784.2862968032997
 31
0.0
  0
LINE
  5
A34
102
{ACAD_REACTORS
330
BAD
102
}
330
1F
100
AcDbEntity
  8
実線
100
AcDbLine
 10
1172.270143726585
 20
800.7862968032998
 30
0.0
 11
1172.270143726585
 21
784.2862968032997
 31
0.0
  0
LINE
  5
A35
102
{ACAD_REACTORS
330
BAD
102
}
330
1F
100
AcDbEntity
  8
実線
100
AcDbLine
 10
1180.770143726585
 20
864.6861172074867
 30
0.0
 11
1172.270143726585
 21
864.6861172074867
 31
0.0
  0
LINE
  5
A36
102
{ACAD_REACTORS
330
BAD
102
}
330
1F
100
AcDbEntity
  8
実線
100
AcDbLine
 10
1172.270143726585
 20
848.1861172074864
 30
0.0
 11
1180.770143726585
 21
848.1861172074864
 31
0.0
  0
LINE
  5
A37
102
{ACAD_REACTORS
330
BAD
102
}
330
1F
100
AcDbEntity
  8
実線
100
AcDbLine
 10
1172.270143726585
 20
864.6861172074867
 30
0.0
 11
1172.270143726585
 21
848.1861172074864
 31
0.0
  0
LINE
  5
A38
102
{ACAD_REACTORS
330
BAD
102
}
330
1F
100
AcDbEntity
  8
実線
100
AcDbLine
 10
1254.770143726585
 20
854.1842482269778
 30
0.0
 11
1254.770143726585
 21
836.1842482269782
 31
0.0
  0
LINE
  5
A39
102
{ACAD_REACTORS
330
BAD
102
}
330
1F
100
AcDbEntity
  8
実線
100
AcDbLine
 10
1266.770143726585
 20
836.1842482269782
 30
0.0
 11
1266.770143726585
 21
854.1842482269778
 31
0.0
  0
ELLIPSE
  5
A3A
102
{ACAD_REACTORS
330
BAD
102
}
330
1F
100
AcDbEntity
  8
実線
100
AcDbEllipse
 10
1260.770143726585
 20
823.1842482269781
 30
0.0
 11
6.0
 21
0.0
 31
0.0
210
0.0
220
0.0
230
1.0
 40
0.8660254037844401
 41
4.492033146900847
 42
4.932744813868528
  0
ELLIPSE
  5
A3B
102
{ACAD_REACTORS
330
BAD
102
}
330
1F
100
AcDbEntity
  8
実線
100
AcDbEllipse
 10
1260.770143726585
 20
854.1842482269778
 30
0.0
 11
6.0
 21
0.0
 31
0.0
210
0.0
220
0.0
230
1.0
 40
0.8660254037844401
 41
0.0
 42
3.141592653589792
  0
ELLIPSE
  5
A3C
102
{ACAD_REACTORS
330
BAD
102
}
330
1F
100
AcDbEntity
  8
実線
100
AcDbEllipse
 10
1260.770143726585
 20
854.1842482269778
 30
0.0
 11
6.0
 21
0.0
 31
0.0
210
0.0
220
0.0
230
1.0
 40
0.8660254037844401
 41
4.71238898038469
 42
6.283185307179584
  0
ELLIPSE
  5
A3D
102
{ACAD_REACTORS
330
BAD
102
}
330
1F
100
AcDbEntity
  8
実線
100
AcDbEllipse
 10
1260.770143726585
 20
854.1842482269778
 30
0.0
 11
6.0
 21
0.0
 31
0.0
210
0.0
220
0.0
230
1.0
 40
0.8660254037844401
 41
3.141592653589792
 42
4.71238898038469
  0
LINE
  5
A3E
102
{ACAD_REACTORS
330
BAD
102
}
330
1F
100
AcDbEntity
  8
実線
100
AcDbLine
 10
1291.370143726586
 20
810.6952208508275
 30
0.0
 11
1291.370143726586
 21
860.1952208508276
 31
0.0
  0
LINE
  5
A3F
102
{ACAD_REACTORS
330
BAD
102
}
330
1F
100
AcDbEntity
  8
実線
100
AcDbLine
 10
1291.370143726586
 20
860.1952208508276
 30
0.0
 11
1243.770143726586
 21
860.1952208508276
 31
0.0
  0
CIRCLE
  5
A40
102
{ACAD_REACTORS
330
BAD
102
}
330
1F
100
AcDbEntity
  8
実線
100
AcDbCircle
 10
1319.270143726585
 20
736.6952208508275
 30
0.0
 40
38.75
  0
LINE
  5
A41
102
{ACAD_REACTORS
330
BAD
102
}
330
1F
100
AcDbEntity
  8
実線
100
AcDbLine
 10
1180.770143726585
 20
888.3184528156254
 30
0.0
 11
1172.270143726585
 21
888.3184528156254
 31
0.0
  0
LINE
  5
A42
102
{ACAD_REACTORS
330
BAD
102
}
330
1F
100
AcDbEntity
  8
実線
100
AcDbLine
 10
1172.270143726585
 20
871.8184528156255
 30
0.0
 11
1180.770143726585
 21
871.8184528156255
 31
0.0
  0
LINE
  5
A43
102
{ACAD_REACTORS
330
BAD
102
}
330
1F
100
AcDbEntity
  8
実線
100
AcDbLine
 10
1172.270143726585
 20
888.3184528156254
 30
0.0
 11
1172.270143726585
 21
871.8184528156255
 31
0.0
  0
LINE
  5
A44
102
{ACAD_REACTORS
330
BAD
102
}
330
1F
100
AcDbEntity
  8
実線
100
AcDbLine
 10
1172.270143726585
 20
841.3398019390218
 30
0.0
 11
1180.770143726585
 21
841.3398019390218
 31
0.0
  0
LINE
  5
A45
102
{ACAD_REACTORS
330
BAD
102
}
330
1F
100
AcDbEntity
  8
実線
100
AcDbLine
 10
1172.270143726585
 20
848.1861172074864
 30
0.0
 11
1172.270143726585
 21
841.3398019390218
 31
0.0
  0
LINE
  5
A46
102
{ACAD_REACTORS
330
BAD
102
}
330
1F
100
AcDbEntity
  8
実線
100
AcDbLine
 10
1172.270143726585
 20
774.6041448983553
 30
0.0
 11
1180.770143726585
 21
774.6041448983553
 31
0.0
  0
LINE
  5
A47
102
{ACAD_REACTORS
330
BAD
102
}
330
1F
100
AcDbEntity
  8
実線
100
AcDbLine
 10
1172.270143726585
 20
784.2862968032997
 30
0.0
 11
1172.270143726585
 21
774.6041448983553
 31
0.0
  0
LINE
  5
A48
102
{ACAD_REACTORS
330
BAD
102
}
330
1F
100
AcDbEntity
  8
実線
100
AcDbLine
 10
1172.270143726585
 20
710.7043244941684
 30
0.0
 11
1180.770143726585
 21
710.7043244941684
 31
0.0
  0
LINE
  5
A49
102
{ACAD_REACTORS
330
BAD
102
}
330
1F
100
AcDbEntity
  8
実線
100
AcDbLine
 10
1172.270143726585
 20
717.5506397626333
 30
0.0
 11
1172.270143726585
 21
710.7043244941684
 31
0.0
  0
LINE
  5
A4A
102
{ACAD_REACTORS
330
BAD
102
}
330
1F
100
AcDbEntity
  8
実線
100
AcDbLine
 10
1180.770143726585
 20
703.5719888860294
 30
0.0
 11
1172.270143726585
 21
703.5719888860294
 31
0.0
  0
LINE
  5
A4B
102
{ACAD_REACTORS
330
BAD
102
}
330
1F
100
AcDbEntity
  8
実線
100
AcDbLine
 10
1172.270143726585
 20
687.0719888860294
 30
0.0
 11
1180.770143726585
 21
687.0719888860294
 31
0.0
  0
LINE
  5
A4C
102
{ACAD_REACTORS
330
BAD
102
}
330
1F
100
AcDbEntity
  8
実線
100
AcDbLine
 10
1172.270143726585
 20
703.5719888860294
 30
0.0
 11
1172.270143726585
 21
687.0719888860294
 31
0.0
  0
LINE
  5
A4D
102
{ACAD_REACTORS
330
BAD
102
}
330
1F
100
AcDbEntity
  8
実線
100
AcDbLine
 10
1180.770143726585
 20
734.050639762633
 30
0.0
 11
1172.270143726585
 21
734.050639762633
 31
0.0
  0
LINE
  5
A4E
102
{ACAD_REACTORS
330
BAD
102
}
330
1F
100
AcDbEntity
  8
実線
100
AcDbLine
 10
1172.270143726585
 20
717.5506397626333
 30
0.0
 11
1180.770143726585
 21
717.5506397626333
 31
0.0
  0
LINE
  5
A4F
102
{ACAD_REACTORS
330
BAD
102
}
330
1F
100
AcDbEntity
  8
実線
100
AcDbLine
 10
1172.270143726585
 20
734.050639762633
 30
0.0
 11
1172.270143726585
 21
717.5506397626333
 31
0.0
  0
LINE
  5
A50
102
{ACAD_REACTORS
330
BAD
102
}
330
1F
100
AcDbEntity
  8
実線
100
AcDbLine
 10
1476.270143726585
 20
683.0952208508275
 30
0.0
 11
1478.270143726585
 21
683.0952208508275
 31
0.0
  0
LINE
  5
A51
102
{ACAD_REACTORS
330
BAD
102
}
330
1F
100
AcDbEntity
  8
実線
100
AcDbLine
 10
1478.270143726585
 20
818.0952208508275
 30
0.0
 11
1476.270143726585
 21
818.0952208508275
 31
0.0
  0
LINE
  5
A52
102
{ACAD_REACTORS
330
BAD
102
}
330
1F
100
AcDbEntity
  8
実線
100
AcDbLine
 10
1476.270143726585
 20
818.0952208508275
 30
0.0
 11
1476.270143726585
 21
683.0952208508275
 31
0.0
  0
LINE
  5
A53
102
{ACAD_REACTORS
330
BAD
102
}
330
1F
100
AcDbEntity
  8
実線
100
AcDbLine
 10
1579.270143726585
 20
823.0952208508275
 30
0.0
 11
1579.270143726585
 21
678.0952208508275
 31
0.0
  0
LINE
  5
A54
102
{ACAD_REACTORS
330
BAD
102
}
330
1F
100
AcDbEntity
  8
実線
100
AcDbLine
 10
1478.270143726585
 20
678.0952208508275
 30
0.0
 11
1579.270143726585
 21
678.0952208508275
 31
0.0
  0
LINE
  5
A55
102
{ACAD_REACTORS
330
BAD
102
}
330
1F
100
AcDbEntity
  8
実線
100
AcDbLine
 10
1579.270143726585
 20
823.0952208508275
 30
0.0
 11
1478.270143726585
 21
823.0952208508275
 31
0.0
  0
LINE
  5
A56
102
{ACAD_REACTORS
330
BAD
102
}
330
1F
100
AcDbEntity
  8
実線
100
AcDbLine
 10
1478.270143726585
 20
823.0952208508275
 30
0.0
 11
1478.270143726585
 21
678.0952208508275
 31
0.0
  0
LINE
  5
A57
102
{ACAD_REACTORS
330
BAD
102
}
330
1F
100
AcDbEntity
  8
実線
100
AcDbLine
 10
1373.270143726585
 20
811.3749100286666
 30
0.0
 11
1373.270143726585
 21
689.8155316729886
 31
0.0
  0
LINE
  5
A58
102
{ACAD_REACTORS
330
BAD
102
}
330
1F
100
AcDbEntity
  8
実線
100
AcDbLine
 10
1359.770143726585
 20
689.8155316729886
 30
0.0
 11
1373.270143726585
 21
689.8155316729886
 31
0.0
  0
LINE
  5
A59
102
{ACAD_REACTORS
330
BAD
102
}
330
1F
100
AcDbEntity
  8
実線
100
AcDbLine
 10
1359.770143726585
 20
810.6952208508275
 30
0.0
 11
1359.770143726585
 21
811.3749100286666
 31
0.0
  0
LINE
  5
A5A
102
{ACAD_REACTORS
330
BAD
102
}
330
1F
100
AcDbEntity
  8
実線
100
AcDbLine
 10
1373.270143726585
 20
811.3749100286666
 30
0.0
 11
1359.770143726585
 21
811.3749100286666
 31
0.0
  0
LINE
  5
A5B
102
{ACAD_REACTORS
330
BAD
102
}
330
1F
100
AcDbEntity
  8
実線
100
AcDbLine
 10
1359.770143726585
 20
723.7852487008863
 30
0.0
 11
1373.270143726585
 21
723.7852487008863
 31
0.0
  0
LINE
  5
A5C
102
{ACAD_REACTORS
330
BAD
102
}
330
1F
100
AcDbEntity
  8
実線
100
AcDbLine
 10
1359.770143726585
 20
777.4051930007687
 30
0.0
 11
1373.270143726585
 21
777.4051930007687
 31
0.0
  0
LINE
  5
A5D
102
{ACAD_REACTORS
330
BAD
102
}
330
1F
100
AcDbEntity
  8
実線
100
AcDbLine
 10
1180.770143726585
 20
713.800639762633
 30
0.0
 11
1180.770143726585
 21
707.3219888860294
 31
0.0
  0
LINE
  5
A5E
102
{ACAD_REACTORS
330
BAD
102
}
330
1F
100
AcDbEntity
  8
実線
100
AcDbLine
 10
1221.770143726585
 20
682.6952208508275
 30
0.0
 11
1359.770143726585
 21
682.6952208508275
 31
0.0
  0
LINE
  5
A5F
102
{ACAD_REACTORS
330
BAD
102
}
330
1F
100
AcDbEntity
  8
実線
100
AcDbLine
 10
1221.770143726551
 20
716.2982136104925
 30
0.0
 11
1221.770143726551
 21
720.2025218337407
 31
0.0
  0
LINE
  5
A60
102
{ACAD_REACTORS
330
BAD
102
}
330
1F
100
AcDbEntity
  8
実線
100
AcDbLine
 10
1221.770143726585
 20
682.6952208508275
 30
0.0
 11
1221.770143726585
 21
690.9290270391759
 31
0.0
  0
LINE
  5
A61
102
{ACAD_REACTORS
330
BAD
102
}
330
1F
100
AcDbEntity
  8
実線
100
AcDbLine
 10
1281.770143726585
 20
746.4580329457107
 30
0.0
 11
1281.770143726585
 21
787.6952208508272
 31
0.0
  0
LINE
  5
A62
102
{ACAD_REACTORS
330
BAD
102
}
330
1F
100
AcDbEntity
  8
実線
100
AcDbLine
 10
1281.770143726585
 20
682.6952208508275
 30
0.0
 11
1281.770143726585
 21
726.9324087559441
 31
0.0
  0
LINE
  5
A63
102
{ACAD_REACTORS
330
BAD
102
}
330
1F
100
AcDbEntity
  8
実線
100
AcDbLine
 10
1359.770143726585
 20
682.6952208508275
 30
0.0
 11
1359.770143726585
 21
810.6952208508275
 31
0.0
  0
LINE
  5
A64
102
{ACAD_REACTORS
330
BAD
102
}
330
1F
100
AcDbEntity
  8
実線
100
AcDbLine
 10
1359.770143726585
 20
810.6952208508275
 30
0.0
 11
1243.770143726586
 21
810.6952208508275
 31
0.0
  0
LINE
  5
A65
102
{ACAD_REACTORS
330
BAD
102
}
330
1F
100
AcDbEntity
  8
実線
100
AcDbLine
 10
1243.770143726586
 20
810.6952208508275
 30
0.0
 11
1243.770143726586
 21
892.6952208508275
 31
0.0
  0
LINE
  5
A66
102
{ACAD_REACTORS
330
BAD
102
}
330
1F
100
AcDbEntity
  8
実線
100
AcDbLine
 10
1243.770143726586
 20
892.6952208508275
 30
0.0
 11
1221.770143726585
 21
892.6952208508275
 31
0.0
  0
LINE
  5
A67
102
{ACAD_REACTORS
330
BAD
102
}
330
1F
100
AcDbEntity
  8
実線
100
AcDbLine
 10
1221.770143726585
 20
718.1997449813612
 30
0.0
 11
1281.770143726585
 21
718.1997449813612
 31
0.0
  0
LINE
  5
A68
102
{ACAD_REACTORS
330
BAD
102
}
330
1F
100
AcDbEntity
  8
実線
100
AcDbLine
 10
1221.770143726585
 20
787.6952208508275
 30
0.0
 11
1281.770143726585
 21
787.6952208508275
 31
0.0
  0
LINE
  5
A69
102
{ACAD_REACTORS
330
BAD
102
}
330
1F
100
AcDbEntity
  8
実線
100
AcDbLine
 10
1273.770143726585
 20
853.5047563026671
 30
0.0
 11
1273.770143726585
 21
818.1137401512895
 31
0.0
  0
LINE
  5
A6A
102
{ACAD_REACTORS
330
BAD
102
}
330
1F
100
AcDbEntity
  8
実線
100
AcDbLine
 10
1266.770143726585
 20
853.5047563026671
 30
0.0
 11
1273.770143726585
 21
853.5047563026671
 31
0.0
  0
LINE
  5
A6B
102
{ACAD_REACTORS
330
BAD
102
}
330
1F
100
AcDbEntity
  8
実線
100
AcDbLine
 10
1243.770143726586
 20
853.5047563026671
 30
0.0
 11
1254.770143726585
 21
853.5047563026671
 31
0.0
  0
LINE
  5
A6C
102
{ACAD_REACTORS
330
BAD
102
}
330
1F
100
AcDbEntity
  8
実線
100
AcDbLine
 10
1245.270143726585
 20
811.3637401512896
 30
0.0
 11
1245.270143726585
 21
818.1137401512895
 31
0.0
  0
LINE
  5
A6D
102
{ACAD_REACTORS
330
BAD
102
}
330
1F
100
AcDbEntity
  8
実線
100
AcDbLine
 10
1245.270143726585
 20
818.1137401512895
 30
0.0
 11
1273.770143726585
 21
818.1137401512895
 31
0.0
  0
LINE
  5
A6E
102
{ACAD_REACTORS
330
BAD
102
}
330
1F
100
AcDbEntity
  8
実線
100
AcDbLine
 10
1243.770143726586
 20
818.8637401512895
 30
0.0
 11
1273.770143726585
 21
818.8637401512895
 31
0.0
  0
LINE
  5
A6F
102
{ACAD_REACTORS
330
BAD
102
}
330
1F
100
AcDbEntity
  8
実線
100
AcDbLine
 10
1243.770143726586
 20
811.3637401512896
 30
0.0
 11
1245.270143726585
 21
811.3637401512896
 31
0.0
  0
LINE
  5
A70
102
{ACAD_REACTORS
330
BAD
102
}
330
1F
100
AcDbEntity
  8
実線
100
AcDbLine
 10
1180.770143726585
 20
770.8541448983553
 30
0.0
 11
1193.270143726585
 21
770.8541448983553
 31
0.0
  0
LINE
  5
A71
102
{ACAD_REACTORS
330
BAD
102
}
330
1F
100
AcDbEntity
  8
実線
100
AcDbLine
 10
1180.770143726585
 20
780.5362968032998
 30
0.0
 11
1180.770143726585
 21
770.8541448983553
 31
0.0
  0
LINE
  5
A72
102
{ACAD_REACTORS
330
BAD
102
}
330
1F
100
AcDbEntity
  8
実線
100
AcDbLine
 10
1193.270143726585
 20
892.0684528156256
 30
0.0
 11
1180.770143726585
 21
892.0684528156256
 31
0.0
  0
LINE
  5
A73
102
{ACAD_REACTORS
330
BAD
102
}
330
1F
100
AcDbEntity
  8
実線
100
AcDbLine
 10
1180.770143726585
 20
892.0684528156256
 30
0.0
 11
1180.770143726585
 21
868.4361172074865
 31
0.0
  0
LINE
  5
A74
102
{ACAD_REACTORS
330
BAD
102
}
330
1F
100
AcDbEntity
  8
実線
100
AcDbLine
 10
1221.770143726551
 20
892.6952208508275
 30
0.0
 11
1221.770143726551
 21
720.2025218337407
 31
0.0
  0
LINE
  5
A75
102
{ACAD_REACTORS
330
BAD
102
}
330
1F
100
AcDbEntity
  8
実線
100
AcDbLine
 10
1221.770143726551
 20
892.6952208508275
 30
0.0
 11
1193.270143726585
 21
892.6952208508275
 31
0.0
  0
LINE
  5
A76
102
{ACAD_REACTORS
330
BAD
102
}
330
1F
100
AcDbEntity
  8
実線
100
AcDbLine
 10
1193.270143726585
 20
682.6952208508275
 30
0.0
 11
1221.770143726551
 21
682.6952208508275
 31
0.0
  0
LINE
  5
A77
102
{ACAD_REACTORS
330
BAD
102
}
330
1F
100
AcDbEntity
  8
実線
100
AcDbLine
 10
1193.270143726585
 20
892.6952208508275
 30
0.0
 11
1193.270143726585
 21
682.6952208508275
 31
0.0
  0
LINE
  5
A78
102
{ACAD_REACTORS
330
BAD
102
}
330
1F
100
AcDbEntity
  8
実線
100
AcDbLine
 10
1221.770143726551
 20
690.9290270391759
 30
0.0
 11
1221.770143726551
 21
716.2982136104925
 31
0.0
  0
LINE
  5
A79
102
{ACAD_REACTORS
330
BAD
102
}
330
1F
100
AcDbEntity
  8
実線
100
AcDbLine
 10
1193.270143726585
 20
737.8006397626331
 30
0.0
 11
1180.770143726585
 21
737.8006397626331
 31
0.0
  0
LINE
  5
A7A
102
{ACAD_REACTORS
330
BAD
102
}
330
1F
100
AcDbEntity
  8
実線
100
AcDbLine
 10
1180.770143726585
 20
713.800639762633
 30
0.0
 11
1193.270143726585
 21
713.800639762633
 31
0.0
  0
LINE
  5
A7B
102
{ACAD_REACTORS
330
BAD
102
}
330
1F
100
AcDbEntity
  8
実線
100
AcDbLine
 10
1180.770143726585
 20
737.8006397626331
 30
0.0
 11
1180.770143726585
 21
713.800639762633
 31
0.0
  0
LINE
  5
A7C
102
{ACAD_REACTORS
330
BAD
102
}
330
1F
100
AcDbEntity
  8
実線
100
AcDbLine
 10
1584.270143726585
 20
681.0952208508276
 30
0.0
 11
1584.270143726585
 21
820.0952208508276
 31
0.0
  0
ARC
  5
A7D
102
{ACAD_REACTORS
330
BAD
102
}
330
1F
100
AcDbEntity
  8
実線
100
AcDbCircle
 10
1581.270143726585
 20
681.0952208508276
 30
0.0
 40
3.0
100
AcDbArc
 50
270.0
 51
0.0
  0
ARC
  5
A7E
102
{ACAD_REACTORS
330
BAD
102
}
330
1F
100
AcDbEntity
  8
実線
100
AcDbCircle
 10
1581.270143726585
 20
820.0952208508276
 30
0.0
 40
3.0
100
AcDbArc
 50
0.0
 51
90.0
  0
LINE
  5
A7F
102
{ACAD_REACTORS
330
BAD
102
}
330
1F
100
AcDbEntity
  8
実線
100
AcDbLine
 10
1579.270143726585
 20
678.0952208508275
 30
0.0
 11
1581.270143726585
 21
678.0952208508275
 31
0.0
  0
LINE
  5
A80
102
{ACAD_REACTORS
330
BAD
102
}
330
1F
100
AcDbEntity
  8
実線
100
AcDbLine
 10
1581.270143726585
 20
823.0952208508275
 30
0.0
 11
1579.270143726585
 21
823.0952208508275
 31
0.0
  0
LINE
  5
A81
102
{ACAD_REACTORS
330
BAD
102
}
330
1F
100
AcDbEntity
  8
実線
100
AcDbLine
 10
1180.770143726585
 20
837.5898019390216
 30
0.0
 11
1193.270143726585
 21
837.5898019390216
 31
0.0
  0
LINE
  5
A82
102
{ACAD_REACTORS
330
BAD
102
}
330
1F
100
AcDbEntity
  8
実線
100
AcDbLine
 10
1180.770143726585
 20
844.4361172074865
 30
0.0
 11
1180.770143726585
 21
837.5898019390216
 31
0.0
  0
LINE
  5
A83
102
{ACAD_REACTORS
330
BAD
102
}
330
1F
100
AcDbEntity
  8
実線
100
AcDbLine
 10
1193.270143726585
 20
707.3219888860294
 30
0.0
 11
1180.770143726585
 21
707.3219888860294
 31
0.0
  0
LINE
  5
A84
102
{ACAD_REACTORS
330
BAD
102
}
330
1F
100
AcDbEntity
  8
実線
100
AcDbLine
 10
1180.770143726585
 20
683.3219888860294
 30
0.0
 11
1193.270143726585
 21
683.3219888860294
 31
0.0
  0
LINE
  5
A85
102
{ACAD_REACTORS
330
BAD
102
}
330
1F
100
AcDbEntity
  8
実線
100
AcDbLine
 10
1180.770143726585
 20
707.3219888860294
 30
0.0
 11
1180.770143726585
 21
683.3219888860294
 31
0.0
  0
LINE
  5
A86
102
{ACAD_REACTORS
330
BAD
102
}
330
1F
100
AcDbEntity
  8
実線
100
AcDbLine
 10
1193.270143726585
 20
868.4361172074865
 30
0.0
 11
1180.770143726585
 21
868.4361172074865
 31
0.0
  0
LINE
  5
A87
102
{ACAD_REACTORS
330
BAD
102
}
330
1F
100
AcDbEntity
  8
実線
100
AcDbLine
 10
1180.770143726585
 20
844.4361172074865
 30
0.0
 11
1193.270143726585
 21
844.4361172074865
 31
0.0
  0
LINE
  5
A88
102
{ACAD_REACTORS
330
BAD
102
}
330
1F
100
AcDbEntity
  8
実線
100
AcDbLine
 10
1180.770143726585
 20
868.4361172074865
 30
0.0
 11
1180.770143726585
 21
844.4361172074865
 31
0.0
  0
LINE
  5
A89
102
{ACAD_REACTORS
330
BAD
102
}
330
1F
100
AcDbEntity
  8
実線
100
AcDbLine
 10
1476.270143726585
 20
800.5952208508272
 30
0.0
 11
1411.270143726585
 21
800.5952208508272
 31
0.0
  0
LINE
  5
A8A
102
{ACAD_REACTORS
330
BAD
102
}
330
1F
100
AcDbEntity
  8
実線
100
AcDbLine
 10
1411.270143726585
 20
764.0952208508276
 30
0.0
 11
1411.270143726585
 21
800.5952208508272
 31
0.0
  0
LINE
  5
A8B
102
{ACAD_REACTORS
330
BAD
102
}
330
1F
100
AcDbEntity
  8
実線
100
AcDbLine
 10
1411.270143726585
 20
737.0952208508273
 30
0.0
 11
1411.270143726585
 21
700.5952208508276
 31
0.0
  0
LINE
  5
A8C
102
{ACAD_REACTORS
330
BAD
102
}
330
1F
100
AcDbEntity
  8
実線
100
AcDbLine
 10
1411.270143726585
 20
700.5952208508276
 30
0.0
 11
1476.270143726585
 21
700.5952208508276
 31
0.0
  0
LINE
  5
A8D
102
{ACAD_REACTORS
330
BAD
102
}
330
1F
100
AcDbEntity
  8
実線
100
AcDbLine
 10
1476.270143726585
 20
737.0952208508273
 30
0.0
 11
1373.270143726585
 21
737.0952208508273
 31
0.0
  0
LINE
  5
A8E
102
{ACAD_REACTORS
330
BAD
102
}
330
1F
100
AcDbEntity
  8
実線
100
AcDbLine
 10
1476.270143726585
 20
764.0952208508276
 30
0.0
 11
1373.270143726585
 21
764.0952208508276
 31
0.0
  0
LINE
  5
A8F
102
{ACAD_REACTORS
330
BAD
102
}
330
1F
100
AcDbEntity
  8
実線
100
AcDbLine
 10
1193.270143726585
 20
804.5362968033
 30
0.0
 11
1180.770143726585
 21
804.5362968033
 31
0.0
  0
LINE
  5
A90
102
{ACAD_REACTORS
330
BAD
102
}
330
1F
100
AcDbEntity
  8
実線
100
AcDbLine
 10
1180.770143726585
 20
780.5362968032998
 30
0.0
 11
1193.270143726585
 21
780.5362968032998
 31
0.0
  0
LINE
  5
A91
102
{ACAD_REACTORS
330
BAD
102
}
330
1F
100
AcDbEntity
  8
実線
100
AcDbLine
 10
1180.770143726585
 20
804.5362968033
 30
0.0
 11
1180.770143726585
 21
780.5362968032998
 31
0.0
  0
LINE
  5
A92
102
{ACAD_REACTORS
330
BAE
102
}
330
1F
100
AcDbEntity
  8
実線
100
AcDbLine
 10
183.6701437265858
 20
794.5952208508271
 30
0.0
 11
183.6701437265858
 21
706.5952208508273
 31
0.0
  0
LINE
  5
A93
102
{ACAD_REACTORS
330
BAE
102
}
330
1F
100
AcDbEntity
  8
実線
100
AcDbLine
 10
179.9701437265857
 20
707.2952208508271
 30
0.0
 11
183.6701437265858
 21
706.5952208508273
 31
0.0
  0
LINE
  5
A94
102
{ACAD_REACTORS
330
BAE
102
}
330
1F
100
AcDbEntity
  8
実線
100
AcDbLine
 10
183.6701437265858
 20
794.5952208508271
 30
0.0
 11
179.9701437265857
 21
793.8952208508271
 31
0.0
  0
LINE
  5
A95
102
{ACAD_REACTORS
330
BAE
102
}
330
1F
100
AcDbEntity
  8
実線
100
AcDbLine
 10
179.9701437265857
 20
793.8952208508271
 30
0.0
 11
179.9701437265857
 21
707.2952208508271
 31
0.0
  0
LINE
  5
A96
102
{ACAD_REACTORS
330
BAE
102
}
330
1F
100
AcDbEntity
  8
実線
100
AcDbLine
 10
179.9701437265857
 20
793.8952208508271
 30
0.0
 11
143.9701437265857
 21
793.8952208508271
 31
0.0
  0
LINE
  5
A97
102
{ACAD_REACTORS
330
BAE
102
}
330
1F
100
AcDbEntity
  8
実線
100
AcDbLine
 10
143.9701437265857
 20
707.2952208508271
 30
0.0
 11
179.9701437265857
 21
707.2952208508271
 31
0.0
  0
LINE
  5
A98
102
{ACAD_REACTORS
330
BAE
102
}
330
1F
100
AcDbEntity
  8
実線
100
AcDbLine
 10
143.9701437265857
 20
793.8952208508271
 30
0.0
 11
143.9701437265857
 21
707.2952208508271
 31
0.0
  0
LINE
  5
A99
102
{ACAD_REACTORS
330
BAE
102
}
330
1F
100
AcDbEntity
  8
実線
100
AcDbLine
 10
66.97014372658578
 20
793.0952208508273
 30
0.0
 11
66.97014372658578
 21
708.0952208508271
 31
0.0
  0
LINE
  5
A9A
102
{ACAD_REACTORS
330
BAE
102
}
330
1F
100
AcDbEntity
  8
実線
100
AcDbLine
 10
57.77014372658573
 20
734.0952208508269
 30
0.0
 11
66.97014372658578
 21
708.0952208508271
 31
0.0
  0
LINE
  5
A9B
102
{ACAD_REACTORS
330
BAE
102
}
330
1F
100
AcDbEntity
  8
実線
100
AcDbLine
 10
66.97014372658578
 20
793.0952208508273
 30
0.0
 11
57.77014372658573
 21
767.0952208508273
 31
0.0
  0
LINE
  5
A9C
102
{ACAD_REACTORS
330
BAE
102
}
330
1F
100
AcDbEntity
  8
実線
100
AcDbLine
 10
57.77014372658573
 20
767.0952208508273
 30
0.0
 11
57.77014372658573
 21
734.0952208508269
 31
0.0
  0
LINE
  5
A9D
102
{ACAD_REACTORS
330
BAE
102
}
330
1F
100
AcDbEntity
  8
実線
100
AcDbLine
 10
143.9701437265857
 20
793.0952208508273
 30
0.0
 11
66.97014372658578
 21
793.0952208508273
 31
0.0
  0
LINE
  5
A9E
102
{ACAD_REACTORS
330
BAE
102
}
330
1F
100
AcDbEntity
  8
実線
100
AcDbLine
 10
66.97014372658578
 20
708.0952208508273
 30
0.0
 11
143.9701437265857
 21
708.0952208508273
 31
0.0
  0
LINE
  5
A9F
102
{ACAD_REACTORS
330
BAE
102
}
330
1F
100
AcDbEntity
  8
実線
100
AcDbLine
 10
190.6701437265858
 20
767.5952208508274
 30
0.0
 11
183.6701437265858
 21
767.5952208508274
 31
0.0
  0
LINE
  5
AA0
102
{ACAD_REACTORS
330
BAE
102
}
330
1F
100
AcDbEntity
  8
実線
100
AcDbLine
 10
183.6701437265858
 20
733.595220850827
 30
0.0
 11
190.6701437265858
 21
733.595220850827
 31
0.0
  0
LINE
  5
AA1
102
{ACAD_REACTORS
330
BAE
102
}
330
1F
100
AcDbEntity
  8
実線
100
AcDbLine
 10
201.6701437265858
 20
796.5952208508273
 30
0.0
 11
190.6701437265858
 21
796.5952208508273
 31
0.0
  0
LINE
  5
AA2
102
{ACAD_REACTORS
330
BAE
102
}
330
1F
100
AcDbEntity
  8
実線
100
AcDbLine
 10
190.6701437265857
 20
704.5952208508273
 30
0.0
 11
201.6701437265857
 21
704.5952208508273
 31
0.0
  0
LINE
  5
AA3
102
{ACAD_REACTORS
330
BAE
102
}
330
1F
100
AcDbEntity
  8
実線
100
AcDbLine
 10
190.6701437265857
 20
796.5952208508273
 30
0.0
 11
190.6701437265857
 21
704.5952208508273
 31
0.0
  0
LINE
  5
AA4
102
{ACAD_REACTORS
330
BAE
102
}
330
1F
100
AcDbEntity
  8
実線
100
AcDbLine
 10
613.6701437265858
 20
800.7862968032997
 30
0.0
 11
613.6701437265858
 21
791.1041448983548
 31
0.0
  0
LINE
  5
AA5
102
{ACAD_REACTORS
330
BAE
102
}
330
1F
100
AcDbEntity
  8
実線
100
AcDbLine
 10
613.6701437265858
 20
800.7862968032997
 30
0.0
 11
605.1701437265858
 21
800.7862968032997
 31
0.0
  0
LINE
  5
AA6
102
{ACAD_REACTORS
330
BAE
102
}
330
1F
100
AcDbEntity
  8
実線
100
AcDbLine
 10
613.6701437265858
 20
857.8398019390215
 30
0.0
 11
613.6701437265858
 21
864.6861172074865
 31
0.0
  0
LINE
  5
AA7
102
{ACAD_REACTORS
330
BAE
102
}
330
1F
100
AcDbEntity
  8
実線
100
AcDbLine
 10
613.6701437265858
 20
864.6861172074865
 30
0.0
 11
605.1701437265858
 21
864.6861172074865
 31
0.0
  0
LINE
  5
AA8
102
{ACAD_REACTORS
330
BAE
102
}
330
1F
100
AcDbEntity
  8
実線
100
AcDbLine
 10
542.1701437265856
 20
860.1952208508274
 30
0.0
 11
494.5701437265859
 21
860.1952208508274
 31
0.0
  0
LINE
  5
AA9
102
{ACAD_REACTORS
330
BAE
102
}
330
1F
100
AcDbEntity
  8
実線
100
AcDbLine
 10
494.5701437265859
 20
860.1952208508274
 30
0.0
 11
494.5701437265859
 21
810.6952208508273
 31
0.0
  0
CIRCLE
  5
AAA
102
{ACAD_REACTORS
330
BAE
102
}
330
1F
100
AcDbEntity
  8
実線
100
AcDbCircle
 10
529.4701437265858
 20
750.5952208508274
 30
0.0
 40
38.75
  0
LINE
  5
AAB
102
{ACAD_REACTORS
330
BAE
102
}
330
1F
100
AcDbEntity
  8
実線
100
AcDbLine
 10
613.6701437265858
 20
888.3184528156252
 30
0.0
 11
613.6701437265858
 21
871.8184528156253
 31
0.0
  0
LINE
  5
AAC
102
{ACAD_REACTORS
330
BAE
102
}
330
1F
100
AcDbEntity
  8
実線
100
AcDbLine
 10
605.1701437265858
 20
871.8184528156253
 30
0.0
 11
613.6701437265858
 21
871.8184528156253
 31
0.0
  0
LINE
  5
AAD
102
{ACAD_REACTORS
330
BAE
102
}
330
1F
100
AcDbEntity
  8
実線
100
AcDbLine
 10
613.6701437265858
 20
888.3184528156252
 30
0.0
 11
605.1701437265858
 21
888.3184528156252
 31
0.0
  0
LINE
  5
AAE
102
{ACAD_REACTORS
330
BAE
102
}
330
1F
100
AcDbEntity
  8
実線
100
AcDbLine
 10
613.6701437265858
 20
857.8398019390215
 30
0.0
 11
613.6701437265858
 21
841.3398019390214
 31
0.0
  0
LINE
  5
AAF
102
{ACAD_REACTORS
330
BAE
102
}
330
1F
100
AcDbEntity
  8
実線
100
AcDbLine
 10
605.1701437265858
 20
841.3398019390214
 30
0.0
 11
613.6701437265858
 21
841.3398019390214
 31
0.0
  0
LINE
  5
AB0
102
{ACAD_REACTORS
330
BAE
102
}
330
1F
100
AcDbEntity
  8
実線
100
AcDbLine
 10
613.6701437265858
 20
857.8398019390215
 30
0.0
 11
605.1701437265858
 21
857.8398019390215
 31
0.0
  0
LINE
  5
AB1
102
{ACAD_REACTORS
330
BAE
102
}
330
1F
100
AcDbEntity
  8
実線
100
AcDbLine
 10
613.6701437265858
 20
791.1041448983548
 30
0.0
 11
613.6701437265858
 21
774.6041448983551
 31
0.0
  0
LINE
  5
AB2
102
{ACAD_REACTORS
330
BAE
102
}
330
1F
100
AcDbEntity
  8
実線
100
AcDbLine
 10
605.1701437265858
 20
774.6041448983551
 30
0.0
 11
613.6701437265858
 21
774.6041448983551
 31
0.0
  0
LINE
  5
AB3
102
{ACAD_REACTORS
330
BAE
102
}
330
1F
100
AcDbEntity
  8
実線
100
AcDbLine
 10
613.6701437265858
 20
791.1041448983548
 30
0.0
 11
605.1701437265858
 21
791.1041448983548
 31
0.0
  0
LINE
  5
AB4
102
{ACAD_REACTORS
330
BAE
102
}
330
1F
100
AcDbEntity
  8
実線
100
AcDbLine
 10
613.6701437265858
 20
727.2043244941682
 30
0.0
 11
613.6701437265858
 21
710.7043244941682
 31
0.0
  0
LINE
  5
AB5
102
{ACAD_REACTORS
330
BAE
102
}
330
1F
100
AcDbEntity
  8
実線
100
AcDbLine
 10
605.1701437265858
 20
710.7043244941682
 30
0.0
 11
613.6701437265858
 21
710.7043244941682
 31
0.0
  0
LINE
  5
AB6
102
{ACAD_REACTORS
330
BAE
102
}
330
1F
100
AcDbEntity
  8
実線
100
AcDbLine
 10
613.6701437265858
 20
727.2043244941682
 30
0.0
 11
605.1701437265858
 21
727.2043244941682
 31
0.0
  0
LINE
  5
AB7
102
{ACAD_REACTORS
330
BAE
102
}
330
1F
100
AcDbEntity
  8
実線
100
AcDbLine
 10
613.6701437265858
 20
703.5719888860292
 30
0.0
 11
613.6701437265858
 21
687.0719888860292
 31
0.0
  0
LINE
  5
AB8
102
{ACAD_REACTORS
330
BAE
102
}
330
1F
100
AcDbEntity
  8
実線
100
AcDbLine
 10
605.1701437265858
 20
687.0719888860292
 30
0.0
 11
613.6701437265858
 21
687.0719888860292
 31
0.0
  0
LINE
  5
AB9
102
{ACAD_REACTORS
330
BAE
102
}
330
1F
100
AcDbEntity
  8
実線
100
AcDbLine
 10
613.6701437265858
 20
703.5719888860292
 30
0.0
 11
605.1701437265858
 21
703.5719888860292
 31
0.0
  0
LINE
  5
ABA
102
{ACAD_REACTORS
330
BAE
102
}
330
1F
100
AcDbEntity
  8
実線
100
AcDbLine
 10
613.6701437265858
 20
727.2043244941682
 30
0.0
 11
613.6701437265858
 21
734.0506397626328
 31
0.0
  0
LINE
  5
ABB
102
{ACAD_REACTORS
330
BAE
102
}
330
1F
100
AcDbEntity
  8
実線
100
AcDbLine
 10
613.6701437265858
 20
734.0506397626328
 30
0.0
 11
605.1701437265858
 21
734.0506397626328
 31
0.0
  0
LINE
  5
ABC
102
{ACAD_REACTORS
330
BAE
102
}
330
1F
100
AcDbEntity
  8
実線
100
AcDbLine
 10
309.6701437265858
 20
818.0952208508273
 30
0.0
 11
309.6701437265858
 21
683.0952208508273
 31
0.0
  0
LINE
  5
ABD
102
{ACAD_REACTORS
330
BAE
102
}
330
1F
100
AcDbEntity
  8
実線
100
AcDbLine
 10
309.6701437265858
 20
818.0952208508273
 30
0.0
 11
307.6701437265858
 21
818.0952208508273
 31
0.0
  0
LINE
  5
ABE
102
{ACAD_REACTORS
330
BAE
102
}
330
1F
100
AcDbEntity
  8
実線
100
AcDbLine
 10
307.6701437265858
 20
683.0952208508273
 30
0.0
 11
309.6701437265858
 21
683.0952208508273
 31
0.0
  0
LINE
  5
ABF
102
{ACAD_REACTORS
330
BAE
102
}
330
1F
100
AcDbEntity
  8
実線
100
AcDbLine
 10
307.6701437265858
 20
823.0952208508274
 30
0.0
 11
307.6701437265858
 21
678.0952208508273
 31
0.0
  0
LINE
  5
AC0
102
{ACAD_REACTORS
330
BAE
102
}
330
1F
100
AcDbEntity
  8
実線
100
AcDbLine
 10
307.6701437265858
 20
823.0952208508274
 30
0.0
 11
206.6701437265858
 21
823.0952208508274
 31
0.0
  0
LINE
  5
AC1
102
{ACAD_REACTORS
330
BAE
102
}
330
1F
100
AcDbEntity
  8
実線
100
AcDbLine
 10
206.6701437265859
 20
678.0952208508273
 30
0.0
 11
307.6701437265859
 21
678.0952208508273
 31
0.0
  0
LINE
  5
AC2
102
{ACAD_REACTORS
330
BAE
102
}
330
1F
100
AcDbEntity
  8
実線
100
AcDbLine
 10
206.6701437265859
 20
823.0952208508274
 30
0.0
 11
206.6701437265859
 21
678.0952208508273
 31
0.0
  0
LINE
  5
AC3
102
{ACAD_REACTORS
330
BAE
102
}
330
1F
100
AcDbEntity
  8
実線
100
AcDbLine
 10
412.6701437265857
 20
689.8155316729885
 30
0.0
 11
412.6701437265857
 21
811.3749100286661
 31
0.0
  0
LINE
  5
AC4
102
{ACAD_REACTORS
330
BAE
102
}
330
1F
100
AcDbEntity
  8
実線
100
AcDbLine
 10
426.1701437265858
 20
811.3749100286661
 30
0.0
 11
412.6701437265857
 21
811.3749100286661
 31
0.0
  0
LINE
  5
AC5
102
{ACAD_REACTORS
330
BAE
102
}
330
1F
100
AcDbEntity
  8
実線
100
AcDbLine
 10
426.1701437265858
 20
811.3749100286661
 30
0.0
 11
426.1701437265858
 21
810.6952208508273
 31
0.0
  0
LINE
  5
AC6
102
{ACAD_REACTORS
330
BAE
102
}
330
1F
100
AcDbEntity
  8
実線
100
AcDbLine
 10
412.6701437265857
 20
689.8155316729884
 30
0.0
 11
426.1701437265858
 21
689.8155316729884
 31
0.0
  0
LINE
  5
AC7
102
{ACAD_REACTORS
330
BAE
102
}
330
1F
100
AcDbEntity
  8
実線
100
AcDbLine
 10
426.1701437265858
 20
777.4051930007686
 30
0.0
 11
412.6701437265857
 21
777.4051930007686
 31
0.0
  0
LINE
  5
AC8
102
{ACAD_REACTORS
330
BAE
102
}
330
1F
100
AcDbEntity
  8
実線
100
AcDbLine
 10
426.1701437265858
 20
723.785248700886
 30
0.0
 11
412.6701437265857
 21
723.785248700886
 31
0.0
  0
LINE
  5
AC9
102
{ACAD_REACTORS
330
BAE
102
}
330
1F
100
AcDbEntity
  8
実線
100
AcDbLine
 10
426.1701437265858
 20
802.6475288765837
 30
0.0
 11
426.1701437265858
 21
794.9052118221804
 31
0.0
  0
LINE
  5
ACA
102
{ACAD_REACTORS
330
BAE
102
}
330
1F
100
AcDbEntity
  8
実線
100
AcDbLine
 10
426.1701437265858
 20
706.2852298794751
 30
0.0
 11
426.1701437265858
 21
698.5429128250697
 31
0.0
  0
LINE
  5
ACB
102
{ACAD_REACTORS
330
BAE
102
}
330
1F
100
AcDbEntity
  8
実線
100
AcDbLine
 10
605.1701437265858
 20
730.9543244941681
 30
0.0
 11
605.1701437265858
 21
706.9543244941684
 31
0.0
  0
LINE
  5
ACC
102
{ACAD_REACTORS
330
BAE
102
}
330
1F
100
AcDbEntity
  8
実線
100
AcDbLine
 10
592.6701437265858
 20
706.9543244941684
 30
0.0
 11
605.1701437265858
 21
706.9543244941684
 31
0.0
  0
LINE
  5
ACD
102
{ACAD_REACTORS
330
BAE
102
}
330
1F
100
AcDbEntity
  8
実線
100
AcDbLine
 10
605.1701437265858
 20
730.9543244941681
 30
0.0
 11
592.6701437265858
 21
730.9543244941681
 31
0.0
  0
LINE
  5
ACE
102
{ACAD_REACTORS
330
BAE
102
}
330
1F
100
AcDbEntity
  8
実線
100
AcDbLine
 10
564.1701437265858
 20
892.6952208508273
 30
0.0
 11
542.1701437265856
 21
892.6952208508273
 31
0.0
  0
LINE
  5
ACF
102
{ACAD_REACTORS
330
BAE
102
}
330
1F
100
AcDbEntity
  8
実線
100
AcDbLine
 10
542.1701437265856
 20
892.6952208508273
 30
0.0
 11
542.1701437265856
 21
810.6952208508273
 31
0.0
  0
LINE
  5
AD0
102
{ACAD_REACTORS
330
BAE
102
}
330
1F
100
AcDbEntity
  8
実線
100
AcDbLine
 10
564.1701437265858
 20
892.6952208508273
 30
0.0
 11
564.1701437265858
 21
767.8426119578904
 31
0.0
  0
LINE
  5
AD1
102
{ACAD_REACTORS
330
BAE
102
}
330
1F
100
AcDbEntity
  8
実線
100
AcDbLine
 10
426.1701437265858
 20
810.6952208508273
 30
0.0
 11
542.1701437265856
 21
810.6952208508273
 31
0.0
  0
LINE
  5
AD2
102
{ACAD_REACTORS
330
BAE
102
}
330
1F
100
AcDbEntity
  8
実線
100
AcDbLine
 10
426.1701437265858
 20
698.5429128250697
 30
0.0
 11
426.1701437265858
 21
682.6952208508274
 31
0.0
  0
LINE
  5
AD3
102
{ACAD_REACTORS
330
BAE
102
}
330
1F
100
AcDbEntity
  8
実線
100
AcDbLine
 10
426.1701437265858
 20
794.9052118221804
 30
0.0
 11
426.1701437265858
 21
706.2852298794751
 31
0.0
  0
LINE
  5
AD4
102
{ACAD_REACTORS
330
BAE
102
}
330
1F
100
AcDbEntity
  8
実線
100
AcDbLine
 10
426.1701437265858
 20
810.6952208508273
 30
0.0
 11
426.1701437265858
 21
802.6475288765837
 31
0.0
  0
LINE
  5
AD5
102
{ACAD_REACTORS
330
BAE
102
}
330
1F
100
AcDbEntity
  8
実線
100
AcDbLine
 10
564.1701437265858
 20
682.6952208508274
 30
0.0
 11
426.1701437265858
 21
682.6952208508274
 31
0.0
  0
LINE
  5
AD6
102
{ACAD_REACTORS
330
BAE
102
}
330
1F
100
AcDbEntity
  8
実線
100
AcDbLine
 10
564.1701437265858
 20
733.3478297437643
 30
0.0
 11
564.1701437265858
 21
682.6952208508274
 31
0.0
  0
LINE
  5
AD7
102
{ACAD_REACTORS
330
BAE
102
}
330
1F
100
AcDbEntity
  8
実線
100
AcDbLine
 10
564.1701437265858
 20
816.4221694497916
 30
0.0
 11
542.1701437265856
 21
816.4221694497916
 31
0.0
  0
LINE
  5
AD8
102
{ACAD_REACTORS
330
BAE
102
}
330
1F
100
AcDbEntity
  8
実線
100
AcDbLine
 10
605.1701437265858
 20
794.8541448983551
 30
0.0
 11
605.1701437265858
 21
770.8541448983551
 31
0.0
  0
LINE
  5
AD9
102
{ACAD_REACTORS
330
BAE
102
}
330
1F
100
AcDbEntity
  8
実線
100
AcDbLine
 10
592.6701437265858
 20
770.8541448983551
 30
0.0
 11
605.1701437265858
 21
770.8541448983551
 31
0.0
  0
LINE
  5
ADA
102
{ACAD_REACTORS
330
BAE
102
}
330
1F
100
AcDbEntity
  8
実線
100
AcDbLine
 10
605.1701437265858
 20
794.8541448983551
 30
0.0
 11
592.6701437265858
 21
794.8541448983551
 31
0.0
  0
LINE
  5
ADB
102
{ACAD_REACTORS
330
BAE
102
}
330
1F
100
AcDbEntity
  8
実線
100
AcDbLine
 10
605.1701437265858
 20
892.0684528156252
 30
0.0
 11
605.1701437265858
 21
868.0684528156252
 31
0.0
  0
LINE
  5
ADC
102
{ACAD_REACTORS
330
BAE
102
}
330
1F
100
AcDbEntity
  8
実線
100
AcDbLine
 10
592.6701437265858
 20
868.0684528156252
 30
0.0
 11
605.1701437265858
 21
868.0684528156252
 31
0.0
  0
LINE
  5
ADD
102
{ACAD_REACTORS
330
BAE
102
}
330
1F
100
AcDbEntity
  8
実線
100
AcDbLine
 10
605.1701437265858
 20
892.0684528156252
 30
0.0
 11
592.6701437265858
 21
892.0684528156252
 31
0.0
  0
LINE
  5
ADE
102
{ACAD_REACTORS
330
BAE
102
}
330
1F
100
AcDbEntity
  8
実線
100
AcDbLine
 10
592.6701437265858
 20
892.6952208508273
 30
0.0
 11
592.6701437265858
 21
682.6952208508274
 31
0.0
  0
LINE
  5
ADF
102
{ACAD_REACTORS
330
BAE
102
}
330
1F
100
AcDbEntity
  8
実線
100
AcDbLine
 10
564.1701437266195
 20
682.6952208508274
 30
0.0
 11
592.6701437265858
 21
682.6952208508274
 31
0.0
  0
LINE
  5
AE0
102
{ACAD_REACTORS
330
BAE
102
}
330
1F
100
AcDbEntity
  8
実線
100
AcDbLine
 10
592.6701437265858
 20
892.6952208508273
 30
0.0
 11
564.1701437266195
 21
892.6952208508273
 31
0.0
  0
LINE
  5
AE1
102
{ACAD_REACTORS
330
BAE
102
}
330
1F
100
AcDbEntity
  8
実線
100
AcDbLine
 10
605.1701437265858
 20
730.9543244941681
 30
0.0
 11
605.1701437265858
 21
737.8006397626328
 31
0.0
  0
LINE
  5
AE2
102
{ACAD_REACTORS
330
BAE
102
}
330
1F
100
AcDbEntity
  8
実線
100
AcDbLine
 10
605.1701437265858
 20
737.8006397626328
 30
0.0
 11
592.6701437265858
 21
737.8006397626328
 31
0.0
  0
LINE
  5
AE3
102
{ACAD_REACTORS
330
BAE
102
}
330
1F
100
AcDbEntity
  8
実線
100
AcDbLine
 10
201.6701437265858
 20
681.0952208508274
 30
0.0
 11
201.6701437265858
 21
820.0952208508272
 31
0.0
  0
ARC
  5
AE4
102
{ACAD_REACTORS
330
BAE
102
}
330
1F
100
AcDbEntity
  8
実線
100
AcDbCircle
 10
204.6701437265858
 20
820.0952208508272
 30
0.0
 40
3.0
100
AcDbArc
 50
90.0
 51
180.0
  0
ARC
  5
AE5
102
{ACAD_REACTORS
330
BAE
102
}
330
1F
100
AcDbEntity
  8
実線
100
AcDbCircle
 10
204.6701437265858
 20
681.0952208508274
 30
0.0
 40
3.0
100
AcDbArc
 50
180.0
 51
270.0
  0
LINE
  5
AE6
102
{ACAD_REACTORS
330
BAE
102
}
330
1F
100
AcDbEntity
  8
実線
100
AcDbLine
 10
206.6701437265858
 20
823.0952208508274
 30
0.0
 11
204.6701437265858
 21
823.0952208508274
 31
0.0
  0
LINE
  5
AE7
102
{ACAD_REACTORS
330
BAE
102
}
330
1F
100
AcDbEntity
  8
実線
100
AcDbLine
 10
204.6701437265858
 20
678.0952208508273
 30
0.0
 11
206.6701437265858
 21
678.0952208508273
 31
0.0
  0
LINE
  5
AE8
102
{ACAD_REACTORS
330
BAE
102
}
330
1F
100
AcDbEntity
  8
実線
100
AcDbLine
 10
605.1701437265858
 20
861.5898019390215
 30
0.0
 11
605.1701437265858
 21
837.5898019390215
 31
0.0
  0
LINE
  5
AE9
102
{ACAD_REACTORS
330
BAE
102
}
330
1F
100
AcDbEntity
  8
実線
100
AcDbLine
 10
592.6701437265858
 20
837.5898019390215
 30
0.0
 11
605.1701437265858
 21
837.5898019390215
 31
0.0
  0
LINE
  5
AEA
102
{ACAD_REACTORS
330
BAE
102
}
330
1F
100
AcDbEntity
  8
実線
100
AcDbLine
 10
605.1701437265858
 20
861.5898019390215
 30
0.0
 11
592.6701437265858
 21
861.5898019390215
 31
0.0
  0
LINE
  5
AEB
102
{ACAD_REACTORS
330
BAE
102
}
330
1F
100
AcDbEntity
  8
実線
100
AcDbLine
 10
605.1701437265858
 20
706.9543244941684
 30
0.0
 11
605.1701437265858
 21
683.3219888860291
 31
0.0
  0
LINE
  5
AEC
102
{ACAD_REACTORS
330
BAE
102
}
330
1F
100
AcDbEntity
  8
実線
100
AcDbLine
 10
592.6701437265858
 20
683.3219888860291
 30
0.0
 11
605.1701437265858
 21
683.3219888860291
 31
0.0
  0
LINE
  5
AED
102
{ACAD_REACTORS
330
BAE
102
}
330
1F
100
AcDbEntity
  8
実線
100
AcDbLine
 10
605.1701437265858
 20
861.5898019390215
 30
0.0
 11
605.1701437265858
 21
868.0684528156252
 31
0.0
  0
LINE
  5
AEE
102
{ACAD_REACTORS
330
BAE
102
}
330
1F
100
AcDbEntity
  8
実線
100
AcDbLine
 10
309.6701437265858
 20
700.5952208508273
 30
0.0
 11
374.6701437265858
 21
700.5952208508273
 31
0.0
  0
LINE
  5
AEF
102
{ACAD_REACTORS
330
BAE
102
}
330
1F
100
AcDbEntity
  8
実線
100
AcDbLine
 10
374.6701437265858
 20
700.5952208508273
 30
0.0
 11
374.6701437265858
 21
737.0952208508271
 31
0.0
  0
LINE
  5
AF0
102
{ACAD_REACTORS
330
BAE
102
}
330
1F
100
AcDbEntity
  8
実線
100
AcDbLine
 10
374.6701437265858
 20
764.0952208508274
 30
0.0
 11
374.6701437265858
 21
800.595220850827
 31
0.0
  0
LINE
  5
AF1
102
{ACAD_REACTORS
330
BAE
102
}
330
1F
100
AcDbEntity
  8
実線
100
AcDbLine
 10
374.6701437265858
 20
800.595220850827
 30
0.0
 11
309.6701437265858
 21
800.595220850827
 31
0.0
  0
LINE
  5
AF2
102
{ACAD_REACTORS
330
BAE
102
}
330
1F
100
AcDbEntity
  8
実線
100
AcDbLine
 10
412.6701437265857
 20
737.0952208508271
 30
0.0
 11
309.6701437265857
 21
737.0952208508271
 31
0.0
  0
LINE
  5
AF3
102
{ACAD_REACTORS
330
BAE
102
}
330
1F
100
AcDbEntity
  8
実線
100
AcDbLine
 10
412.6701437265857
 20
764.0952208508274
 30
0.0
 11
309.6701437265857
 21
764.0952208508274
 31
0.0
  0
LINE
  5
AF4
102
{ACAD_REACTORS
330
BAE
102
}
330
1F
100
AcDbEntity
  8
実線
100
AcDbLine
 10
605.1701437265858
 20
794.8541448983548
 30
0.0
 11
605.1701437265858
 21
804.5362968032996
 31
0.0
  0
LINE
  5
AF5
102
{ACAD_REACTORS
330
BAE
102
}
330
1F
100
AcDbEntity
  8
実線
100
AcDbLine
 10
605.1701437265858
 20
804.5362968032996
 30
0.0
 11
592.6701437265858
 21
804.5362968032996
 31
0.0
  0
CIRCLE
  5
AF6
102
{ACAD_REACTORS
330
BA5
102
}
330
1F
100
AcDbEntity
  8
実線
100
AcDbCircle
 10
988.8433756913835
 20
792.5362968032997
 30
0.0
 40
8.25
  0
CIRCLE
  5
AF7
102
{ACAD_REACTORS
330
BA5
102
}
330
1F
100
AcDbEntity
  8
実線
100
AcDbCircle
 10
958.3647248147794
 20
856.4361172074862
 30
0.0
 40
8.25
  0
LINE
  5
AF8
102
{ACAD_REACTORS
330
BA5
102
}
330
1F
100
AcDbEntity
  8
実線
100
AcDbLine
 10
1020.88269733539
 20
848.9880958042713
 30
0.0
 11
1014.88269733539
 21
859.3804006496847
 31
0.0
  0
LINE
  5
AF9
102
{ACAD_REACTORS
330
BA5
102
}
330
1F
100
AcDbEntity
  8
実線
100
AcDbLine
 10
1014.88269733539
 20
859.3804006496847
 30
0.0
 11
985.9312650170254
 21
842.6652834072514
 31
0.0
  0
LINE
  5
AFA
102
{ACAD_REACTORS
330
BA5
102
}
330
1F
100
AcDbEntity
  8
実線
100
AcDbLine
 10
991.6213168826313
 20
832.0940299230107
 30
0.0
 11
1020.88269733539
 21
848.9880958042713
 31
0.0
  0
LINE
  5
AFB
102
{ACAD_REACTORS
330
BA5
102
}
330
1F
100
AcDbEntity
  8
実線
100
AcDbLine
 10
1044.870143726628
 20
768.4452208508272
 30
0.0
 11
1001.470143726595
 21
768.4452208508272
 31
0.0
  0
LINE
  5
AFC
102
{ACAD_REACTORS
330
BA5
102
}
330
1F
100
AcDbEntity
  8
実線
100
AcDbLine
 10
1001.470143726595
 20
704.9452208508272
 30
0.0
 11
1044.870143726628
 21
704.9452208508272
 31
0.0
  0
LINE
  5
AFD
102
{ACAD_REACTORS
330
BA5
102
}
330
1F
100
AcDbEntity
  8
実線
100
AcDbLine
 10
1044.870143726628
 20
704.9452208508272
 30
0.0
 11
1044.870143726628
 21
768.4452208508272
 31
0.0
  0
LINE
  5
AFE
102
{ACAD_REACTORS
330
BA5
102
}
330
1F
100
AcDbEntity
  8
実線
100
AcDbLine
 10
1044.870143726628
 20
704.9452208508272
 30
0.0
 11
1047.970143726628
 21
697.9452208508275
 31
0.0
  0
LINE
  5
AFF
102
{ACAD_REACTORS
330
BA5
102
}
330
1F
100
AcDbEntity
  8
実線
100
AcDbLine
 10
1047.970143726628
 20
775.4452208508272
 30
0.0
 11
1044.870143726628
 21
768.4452208508275
 31
0.0
  0
LINE
  5
B00
102
{ACAD_REACTORS
330
BA5
102
}
330
1F
100
AcDbEntity
  8
実線
100
AcDbLine
 10
1051.470143726628
 20
697.9452208508274
 30
0.0
 11
1051.470143726628
 21
775.4452208508272
 31
0.0
  0
LINE
  5
B01
102
{ACAD_REACTORS
330
BA5
102
}
330
1F
100
AcDbEntity
  8
実線
100
AcDbLine
 10
1047.970143726628
 20
697.9452208508274
 30
0.0
 11
1047.970143726628
 21
775.4452208508272
 31
0.0
  0
LINE
  5
B02
102
{ACAD_REACTORS
330
BA5
102
}
330
1F
100
AcDbEntity
  8
実線
100
AcDbLine
 10
1051.470143726628
 20
775.4452208508272
 30
0.0
 11
1047.970143726628
 21
775.4452208508272
 31
0.0
  0
LINE
  5
B03
102
{ACAD_REACTORS
330
BA5
102
}
330
1F
100
AcDbEntity
  8
実線
100
AcDbLine
 10
1047.970143726628
 20
697.9452208508274
 30
0.0
 11
1051.470143726628
 21
697.9452208508274
 31
0.0
  0
LINE
  5
B04
102
{ACAD_REACTORS
330
BA5
102
}
330
1F
100
AcDbEntity
  8
実線
100
AcDbLine
 10
726.0701437265431
 20
718.8452208508274
 30
0.0
 11
769.4701437265761
 21
718.8452208508274
 31
0.0
  0
LINE
  5
B05
102
{ACAD_REACTORS
330
BA5
102
}
330
1F
100
AcDbEntity
  8
実線
100
AcDbLine
 10
769.4701437265761
 20
782.3452208508274
 30
0.0
 11
726.0701437265431
 21
782.3452208508274
 31
0.0
  0
LINE
  5
B06
102
{ACAD_REACTORS
330
BA5
102
}
330
1F
100
AcDbEntity
  8
実線
100
AcDbLine
 10
726.0701437265431
 20
782.3452208508274
 30
0.0
 11
722.970143726543
 21
789.3452208508274
 31
0.0
  0
LINE
  5
B07
102
{ACAD_REACTORS
330
BA5
102
}
330
1F
100
AcDbEntity
  8
実線
100
AcDbLine
 10
722.970143726543
 20
711.8452208508274
 30
0.0
 11
726.0701437265431
 21
718.8452208508274
 31
0.0
  0
LINE
  5
B08
102
{ACAD_REACTORS
330
BA5
102
}
330
1F
100
AcDbEntity
  8
実線
100
AcDbLine
 10
726.0701437265431
 20
782.3452208508274
 30
0.0
 11
726.0701437265431
 21
718.8452208508274
 31
0.0
  0
LINE
  5
B09
102
{ACAD_REACTORS
330
BA5
102
}
330
1F
100
AcDbEntity
  8
実線
100
AcDbLine
 10
719.470143726543
 20
711.8452208508274
 30
0.0
 11
722.970143726543
 21
711.8452208508274
 31
0.0
  0
LINE
  5
B0A
102
{ACAD_REACTORS
330
BA5
102
}
330
1F
100
AcDbEntity
  8
実線
100
AcDbLine
 10
722.970143726543
 20
789.3452208508274
 30
0.0
 11
719.470143726543
 21
789.3452208508274
 31
0.0
  0
LINE
  5
B0B
102
{ACAD_REACTORS
330
BA5
102
}
330
1F
100
AcDbEntity
  8
実線
100
AcDbLine
 10
719.470143726543
 20
711.8452208508274
 30
0.0
 11
719.470143726543
 21
789.3452208508274
 31
0.0
  0
LINE
  5
B0C
102
{ACAD_REACTORS
330
BA5
102
}
330
1F
100
AcDbEntity
  8
実線
100
AcDbLine
 10
722.970143726543
 20
711.8452208508274
 30
0.0
 11
722.970143726543
 21
789.3452208508274
 31
0.0
  0
CIRCLE
  5
B0D
102
{ACAD_REACTORS
330
BA5
102
}
330
1F
100
AcDbEntity
  8
実線
100
AcDbCircle
 10
891.6290677741136
 20
880.0684528156256
 30
0.0
 40
8.25
  0
CIRCLE
  5
B0E
102
{ACAD_REACTORS
330
BA5
102
}
330
1F
100
AcDbEntity
  8
実線
100
AcDbCircle
 10
827.7292473699265
 20
849.5898019390216
 30
0.0
 40
8.25
  0
CIRCLE
  5
B0F
102
{ACAD_REACTORS
330
BA5
102
}
330
1F
100
AcDbEntity
  8
実線
100
AcDbCircle
 10
804.0969117617876
 20
782.8541448983552
 30
0.0
 40
8.25
  0
CIRCLE
  5
B10
102
{ACAD_REACTORS
330
BA5
102
}
330
1F
100
AcDbEntity
  8
実線
100
AcDbCircle
 10
834.5755626383914
 20
718.9543244941683
 30
0.0
 40
8.25
  0
CIRCLE
  5
B11
102
{ACAD_REACTORS
330
BA5
102
}
330
1F
100
AcDbEntity
  8
実線
100
AcDbCircle
 10
901.3112196790576
 20
695.3219888860293
 30
0.0
 40
8.25
  0
CIRCLE
  5
B12
102
{ACAD_REACTORS
330
BA5
102
}
330
1F
100
AcDbEntity
  8
実線
100
AcDbCircle
 10
965.2110400832446
 20
725.8006397626331
 30
0.0
 40
8.25
  0
ARC
  5
B13
102
{ACAD_REACTORS
330
BA5
102
}
330
1F
100
AcDbEntity
  8
実線
100
AcDbCircle
 10
829.4701437265857
 20
750.5952208508272
 30
0.0
 40
72.5
100
AcDbArc
 50
205.9719473351173
 51
214.148424344947
  0
ARC
  5
B14
102
{ACAD_REACTORS
330
BA5
102
}
330
1F
100
AcDbEntity
  8
実線
100
AcDbCircle
 10
829.4701437265857
 20
750.5952208508272
 30
0.0
 40
72.5
100
AcDbArc
 50
249.480300328409
 51
290.5196996715909
  0
ARC
  5
B15
102
{ACAD_REACTORS
330
BA5
102
}
330
1F
100
AcDbEntity
  8
実線
100
AcDbCircle
 10
829.4701437265857
 20
750.5952208508272
 30
0.0
 40
72.5
100
AcDbArc
 50
145.8515756550529
 51
154.0280526648826
  0
ARC
  5
B16
102
{ACAD_REACTORS
330
BA5
102
}
330
1F
100
AcDbEntity
  8
実線
100
AcDbCircle
 10
778.6904545487468
 20
798.7763703493819
 30
0.0
 40
9.999999999999591
100
AcDbArc
 50
157.2248420489536
 51
202.7751579510463
  0
ARC
  5
B17
102
{ACAD_REACTORS
330
BA5
102
}
330
1F
100
AcDbEntity
  8
実線
100
AcDbCircle
 10
778.6904545487468
 20
702.4140713522726
 30
0.0
 40
9.999999999999996
100
AcDbArc
 50
157.2248420489456
 51
202.7751579510543
  0
CIRCLE
  5
B18
102
{ACAD_REACTORS
330
BA5
102
}
330
1F
100
AcDbEntity
  8
実線
100
AcDbCircle
 10
834.5755626383914
 20
718.9543244941683
 30
0.0
 40
12.0
  0
LINE
  5
B19
102
{ACAD_REACTORS
330
BA5
102
}
330
1F
100
AcDbEntity
  8
実線
100
AcDbLine
 10
1001.470143726585
 20
682.6952208508274
 30
0.0
 11
769.4701437265857
 21
682.6952208508274
 31
0.0
  0
LINE
  5
B1A
102
{ACAD_REACTORS
330
BA5
102
}
330
1F
100
AcDbEntity
  8
実線
100
AcDbLine
 10
1001.470143726585
 20
682.6952208508274
 30
0.0
 11
1001.470143726585
 21
787.6952208508271
 31
0.0
  0
LINE
  5
B1B
102
{ACAD_REACTORS
330
BA5
102
}
330
1F
100
AcDbEntity
  8
実線
100
AcDbLine
 10
973.4601908568704
 20
716.2982136104924
 30
0.0
 11
976.1758590939345
 21
718.1997449813612
 31
0.0
  0
LINE
  5
B1C
102
{ACAD_REACTORS
330
BA5
102
}
330
1F
100
AcDbEntity
  8
実線
100
AcDbLine
 10
925.4701437265856
 20
682.6952208508274
 30
0.0
 11
937.2292376223766
 21
690.9290270391758
 31
0.0
  0
LINE
  5
B1D
102
{ACAD_REACTORS
330
BA5
102
}
330
1F
100
AcDbEntity
  8
実線
100
AcDbLine
 10
976.1758590939345
 20
718.1997449813612
 30
0.0
 11
976.9048102540775
 21
720.2025218337406
 31
0.0
  0
LINE
  5
B1E
102
{ACAD_REACTORS
330
BA5
102
}
330
1F
100
AcDbEntity
  8
実線
100
AcDbLine
 10
827.5839456825822
 20
866.9397267742187
 30
0.0
 11
769.4701437265857
 21
816.4221694497921
 31
0.0
  0
LINE
  5
B1F
102
{ACAD_REACTORS
330
BA5
102
}
330
1F
100
AcDbEntity
  8
実線
100
AcDbLine
 10
769.4701437265857
 20
816.4221694497918
 30
0.0
 11
769.4701437265857
 21
682.6952208508274
 31
0.0
  0
CIRCLE
  5
B20
102
{ACAD_REACTORS
330
BA5
102
}
330
1F
100
AcDbEntity
  8
実線
100
AcDbCircle
 10
804.0969117617876
 20
782.8541448983552
 30
0.0
 40
12.0
  0
CIRCLE
  5
B21
102
{ACAD_REACTORS
330
BA5
102
}
330
1F
100
AcDbEntity
  8
実線
100
AcDbCircle
 10
891.6290677741136
 20
880.0684528156256
 30
0.0
 40
12.0
  0
CIRCLE
  5
B24
102
{ACAD_REACTORS
330
BA5
102
}
330
1F
100
AcDbEntity
  8
実線
100
AcDbCircle
 10
896.4701437265855
 20
787.6952208508275
 30
0.0
 40
64.0
  0
CIRCLE
  5
B25
102
{ACAD_REACTORS
330
BA5
102
}
330
1F
100
AcDbEntity
  8
実線
100
AcDbCircle
 10
896.4701437265855
 20
787.6952208508275
 30
0.0
 40
105.0
  0
CIRCLE
  5
B26
102
{ACAD_REACTORS
330
BA5
102
}
330
1F
100
AcDbEntity
  8
実線
100
AcDbCircle
 10
965.2110400832446
 20
725.8006397626331
 30
0.0
 40
12.0
  0
CIRCLE
  5
B27
102
{ACAD_REACTORS
330
BA5
102
}
330
1F
100
AcDbEntity
  8
実線
100
AcDbCircle
 10
827.7292473699265
 20
849.5898019390216
 30
0.0
 40
12.0
  0
CIRCLE
  5
B28
102
{ACAD_REACTORS
330
BA5
102
}
330
1F
100
AcDbEntity
  8
実線
100
AcDbCircle
 10
901.3112196790576
 20
695.3219888860293
 30
0.0
 40
12.0
  0
CIRCLE
  5
B29
102
{ACAD_REACTORS
330
BA5
102
}
330
1F
100
AcDbEntity
  8
実線
100
AcDbCircle
 10
958.3647248147794
 20
856.4361172074862
 30
0.0
 40
12.0
  0
CIRCLE
  5
B2A
102
{ACAD_REACTORS
330
BA5
102
}
330
1F
100
AcDbEntity
  8
実線
100
AcDbCircle
 10
988.8433756913835
 20
792.5362968032997
 30
0.0
 40
12.0
  0
LINE
  5
B2B
102
{ACAD_REACTORS
330
BA3
102
}
330
1F
100
AcDbEntity
  8
中心線
100
AcDbLine
 10
2039.270143726586
 20
825.5952208508272
 30
0.0
 11
2039.270143726586
 21
675.5952208508272
 31
0.0
  0
LINE
  5
B2C
102
{ACAD_REACTORS
330
BA3
102
}
330
1F
100
AcDbEntity
  8
中心線
100
AcDbLine
 10
1964.270143726585
 20
750.595220850827
 30
0.0
 11
2151.270143726629
 21
750.5952208508272
 31
0.0
  0
LINE
  5
B2D
102
{ACAD_REACTORS
330
BA3
102
}
330
1F
100
AcDbEntity
  8
中心線
100
AcDbLine
 10
1815.270143726544
 20
736.6952208508275
 30
0.0
 11
2039.270143726586
 21
736.6952208508275
 31
0.0
  0
LINE
  5
B35
102
{ACAD_REACTORS
330
BA6
102
}
330
1F
100
AcDbEntity
  8
中心線
100
AcDbLine
 10
829.4701437265858
 20
1005.595220850827
 30
0.0
 11
829.4701437265857
 21
1528.577276915766
 31
0.0
  0
LINE
  5
B81
102
{ACAD_REACTORS
330
BA6
102
}
330
1F
100
AcDbEntity
  8
中心線
100
AcDbLine
 10
896.4701437265853
 20
961.3952208508274
 30
0.0
 11
896.4701437265855
 21
1113.395220850827
 31
0.0
  0
LINE
  5
B82
102
{ACAD_REACTORS
330
BAF
102
}
330
1F
100
AcDbEntity
  8
中心線
100
AcDbLine
 10
896.4701437265855
 20
599.795220850827
 30
0.0
 11
896.4701437265855
 21
447.7952208508273
 31
0.0
  0
LINE
  5
B83
102
{ACAD_REACTORS
330
BAE
102
}
330
1F
100
AcDbEntity
  8
中心線
100
AcDbLine
 10
511.6701436746701
 20
736.6952208508273
 30
0.0
 11
421.6701437785017
 21
736.6952208508273
 31
0.0
  0
LINE
  5
B84
102
{ACAD_REACTORS
330
BA3
102
}
330
1F
100
AcDbEntity
  8
中心線
100
AcDbLine
 10
1976.470143726585
 20
897.6952208508274
 30
0.0
 11
1976.470143726585
 21
677.6952208508273
 31
0.0
  0
LINE
  5
B85
102
{ACAD_REACTORS
330
BAE
102
}
330
1F
100
AcDbEntity
  8
中心線
100
AcDbLine
 10
466.6701437265859
 20
781.6930592719719
 30
0.0
 11
466.6701437265859
 21
691.6930592719719
 31
0.0
  0
LINE
  5
B86
102
{ACAD_REACTORS
330
BAD
102
}
330
1F
100
AcDbEntity
  8
中心線
100
AcDbLine
 10
1256.470143726585
 20
795.5927126435153
 30
0.0
 11
1256.470143726585
 21
705.5977290581392
 31
0.0
  0
LINE
  5
B87
102
{ACAD_REACTORS
330
BAD
102
}
330
1F
100
AcDbEntity
  8
中心線
100
AcDbLine
 10
1167.270143726585
 20
787.6952208508275
 30
0.0
 11
1319.270143726585
 21
787.6952208508277
 31
0.0
  0
LINE
  5
B8F
102
{ACAD_REACTORS
330
BA5
102
}
330
1F
100
AcDbEntity
  8
中心線
100
AcDbLine
 10
829.4701437265857
 20
825.50137807489
 30
0.0
 11
829.4701437265857
 21
675.50137807489
 31
0.0
  0
LINE
  5
B92
102
{ACAD_REACTORS
330
BA3
102
}
330
1F
100
AcDbEntity
  8
中心線
100
AcDbLine
 10
1866.470143726585
 20
787.6952208508275
 30
0.0
 11
2086.470143726586
 21
787.6952208508275
 31
0.0
  0
LINE
  5
BA8
102
{ACAD_REACTORS
330
BAE
102
}
330
1F
100
AcDbEntity
  8
中心線
100
AcDbLine
 10
618.6701437265857
 20
787.6952208508275
 30
0.0
 11
466.6701437265859
 21
787.6952208508274
 31
0.0
  0
ENDSEC
  0
SECTION
  2
OBJECTS
  0
DICTIONARY
  5
C
330
0
100
AcDbDictionary
281
     1
  3
ACAD_CIP_PREVIOUS_PRODUCT_INFO
350
329
  3
ACAD_COLOR
350
31F
  3
ACAD_DETAILVIEWSTYLE
350
322
  3
ACAD_GROUP
350
D
  3
ACAD_LAYOUT
350
1A
  3
ACAD_MATERIAL
350
43
  3
ACAD_MLEADERSTYLE
350
5B
  3
ACAD_MLINESTYLE
350
17
  3
ACAD_PLOTSETTINGS
350
19
  3
ACAD_PLOTSTYLENAME
350
E
  3
ACAD_SCALELIST
350
47
  3
ACAD_SECTIONVIEWSTYLE
350
320
  3
ACAD_TABLESTYLE
350
59
  3
ACAD_VISUALSTYLE
350
2A
  3
ACDB_RECOMPOSE_DATA
350
CBB
  3
AcDbVariableDictionary
350
2D4
  3
DWGPROPS
350
CBC
  0
DICTIONARY
  5
330
330
2
100
AcDbDictionary
280
     1
281
     1
  3
ACAD_LAYERSTATES
360
331
  0
DICTIONARY
  5
B3C
330
10
100
AcDbDictionary
280
     1
281
     1
  3
ADSK_XREC_LAYER_RECONCILED
360
B3D
  0
DICTIONARY
  5
32C
330
32B
100
AcDbDictionary
280
     1
281
     1
  3
ADSK_XREC_LAYER_RECONCILED
360
B3E
  0
DICTIONARY
  5
32E
330
32D
100
AcDbDictionary
280
     1
281
     1
  3
ADSK_XREC_LAYER_RECONCILED
360
B3F
  0
DICTIONARY
  5
95D
330
1F
100
AcDbDictionary
280
     1
281
     1
  3
ACAD_SORTENTS
360
95E
  0
XRECORD
  5
329
102
{ACAD_REACTORS
330
C
102
}
330
C
100
AcDbXrecord
280
     1
300
ACDLT
300
2016
300
ACDLT_F_S
  0
DICTIONARY
  5
31F
102
{ACAD_REACTORS
330
C
102
}
330
C
100
AcDbDictionary
281
     1
  0
DICTIONARY
  5
322
102
{ACAD_REACTORS
330
C
102
}
330
C
100
AcDbDictionary
281
     1
  3
Metric50
350
323
  0
DICTIONARY
  5
D
102
{ACAD_REACTORS
330
C
102
}
330
C
100
AcDbDictionary
281
     1
  3
*A10
350
BA6
  3
*A11
350
BAD
  3
*A12
350
BAE
  3
*A13
350
BAF
  3
*A7
350
BA3
  3
*A9
350
BA5
  0
DICTIONARY
  5
1A
102
{ACAD_REACTORS
330
C
102
}
330
C
100
AcDbDictionary
281
     1
  3
Layout1
350
1E
  3
Model
350
22
  3
レイアウト1
350
324
  0
DICTIONARY
  5
43
102
{ACAD_REACTORS
330
C
102
}
330
C
100
AcDbDictionary
281
     1
  3
ByBlock
350
45
  3
ByLayer
350
44
  3
Global
350
46
  0
DICTIONARY
  5
5B
102
{ACAD_REACTORS
330
C
102
}
330
C
100
AcDbDictionary
281
     1
  3
Standard
350
5C
  0
DICTIONARY
  5
17
102
{ACAD_REACTORS
330
C
102
}
330
C
100
AcDbDictionary
281
     1
  3
Standard
350
18
  0
DICTIONARY
  5
19
102
{ACAD_REACTORS
330
C
102
}
330
C
100
AcDbDictionary
281
     1
  0
ACDBDICTIONARYWDFLT
  5
E
102
{ACAD_REACTORS
330
C
102
}
330
C
100
AcDbDictionary
281
     1
  3
Normal
350
F
100
AcDbDictionaryWithDefault
340
F
  0
DICTIONARY
  5
47
102
{ACAD_REACTORS
330
C
102
}
330
C
100
AcDbDictionary
281
     1
  3
A0
350
48
  3
A1
350
49
  3
A2
350
4A
  3
A3
350
4B
  3
A4
350
4C
  3
A5
350
4D
  3
A6
350
4E
  3
A7
350
4F
  3
A8
350
50
  3
A9
350
51
  3
B0
350
52
  3
B1
350
53
  3
B2
350
54
  3
B3
350
55
  3
B4
350
56
  3
B5
350
57
  3
B6
350
58
  0
DICTIONARY
  5
320
102
{ACAD_REACTORS
330
C
102
}
330
C
100
AcDbDictionary
281
     1
  3
Metric50
350
321
  0
DICTIONARY
  5
59
102
{ACAD_REACTORS
330
C
102
}
330
C
100
AcDbDictionary
281
     1
  3
Standard
350
5A
  0
DICTIONARY
  5
2A
102
{ACAD_REACTORS
330
C
102
}
330
C
100
AcDbDictionary
281
     1
  3
2dWireframe
350
2F
  3
Basic
350
32
  3
Brighten
350
36
  3
ColorChange
350
3A
  3
Conceptual
350
34
  3
Dim
350
35
  3
EdgeColorOff
350
3D
  3
Facepattern
350
39
  3
Flat
350
2B
  3
FlatWithEdges
350
2C
  3
Gouraud
350
2D
  3
GouraudWithEdges
350
2E
  3
Hidden
350
31
  3
JitterOff
350
3B
  3
Linepattern
350
38
  3
OverhangOff
350
3C
  3
Realistic
350
33
  3
Shaded
350
42
  3
Shaded with edges
350
41
  3
Shades of Gray
350
3E
  3
Sketchy
350
3F
  3
Thicken
350
37
  3
Wireframe
350
30
  3
X-Ray
350
40
  0
XRECORD
  5
CBB
102
{ACAD_REACTORS
330
C
102
}
330
C
100
AcDbXrecord
280
     1
 90
        1
330
5A
  0
DICTIONARY
  5
2D4
102
{ACAD_REACTORS
330
C
102
}
330
C
100
AcDbDictionary
281
     1
  3
CANNOSCALE
350
2E2
  3
CENTEREXE
350
2DB
  3
CENTERLTYPEFILE
350
2DC
  3
CMLEADERSTYLE
350
2D6
  3
CTABLESTYLE
350
2D5
  3
CVIEWDETAILSTYLE
350
B40
  3
CVIEWSECTIONSTYLE
350
B41
  3
DIMASSOC
350
2DD
  3
HIDETEXT
350
2DE
  3
INDEXCTL
350
BB1
  3
LAYEREVAL
350
B43
  3
LAYERNOTIFY
350
B44
  3
LIGHTINGUNITS
350
B42
  3
LOFTANG1
350
BB4
  3
LOFTANG2
350
BB5
  3
LONGITUDE
350
BB6
  3
MSLTSCALE
350
2E3
  3
PSOLHEIGHT
350
BB3
  3
PSOLWIDTH
350
BB2
  3
SORTENTS
350
BB0
  3
XCLIPFRAME
350
BB7
  0
XRECORD
  5
CBC
102
{ACAD_REACTORS
330
C
102
}
330
C
100
AcDbXrecord
280
     1
  1
DWGPROPS COOKIE
  2

  3

  4

  6
File was created by TR2_DExp
  7

  8
fujino
  9

300
=
301
=
302
=
303
=
304
=
305
=
306
=
307
=
308
=
309
=
 40
0.0594236342592593
 41
2455188.75
 42
2459753.402626285
  1

 90
        0
  0
DICTIONARY
  5
331
102
{ACAD_REACTORS
330
330
102
}
330
330
100
AcDbDictionary
281
     1
  0
XRECORD
  5
B3D
102
{ACAD_REACTORS
330
B3C
102
}
330
B3C
100
AcDbXrecord
280
     1
290
     1
  0
XRECORD
  5
B3E
102
{ACAD_REACTORS
330
32C
102
}
330
32C
100
AcDbXrecord
280
     1
290
     1
  0
XRECORD
  5
B3F
102
{ACAD_REACTORS
330
32E
102
}
330
32E
100
AcDbXrecord
280
     1
290
     1
  0
SORTENTSTABLE
  5
95E
102
{ACAD_REACTORS
330
95D
102
}
330
95D
100
AcDbSortentsTable
330
1F
331
959
  5
85A
331
B1C
  5
62C
331
B18
  5
628
331
B14
  5
624
331
B10
  5
620
331
8FD
  5
7FE
331
AD7
  5
681
331
8F9
  5
7FA
331
9E7
  5
720
331
A5D
  5
6DD
331
AD3
  5
67D
331
934
  5
835
331
8F5
  5
7F6
331
975
  5
771
331
9E3
  5
71C
331
A59
  5
6D9
331
ACF
  5
679
331
B0E
  5
61E
331
930
  5
831
331
8F1
  5
7F2
331
ACB
  5
675
331
A1E
  5
759
331
A55
  5
6D5
331
A94
  5
63D
331
971
  5
76D
331
9DF
  5
718
331
B0A
  5
61A
331
A90
  5
710
331
A1A
  5
755
331
A51
  5
6D1
331
9AC
  5
7A8
331
9DB
  5
714
331
96D
  5
769
331
9A8
  5
7A4
331
969
  5
765
331
B2D
  5
B85
331
8CC
  5
B27
331
8C8
  5
B24
331
B29
  5
639
331
92C
  5
82D
331
8ED
  5
7EE
331
AC7
  5
671
331
B06
  5
616
331
928
  5
829
331
8E9
  5
7EA
331
A8C
  5
70C
331
AC3
  5
66D
331
B02
  5
612
331
9D7
  5
7D3
331
A16
  5
751
331
A4D
  5
6CD
331
924
  5
825
331
8E5
  5
7E6
331
A88
  5
708
331
ABF
  5
669
331
AFE
  5
60E
331
9D3
  5
7CF
331
A12
  5
74D
331
9A4
  5
7A0
331
965
  5
761
331
A49
  5
6C9
331
920
  5
821
331
8E1
  5
7E2
331
A84
  5
704
331
ABB
  5
665
331
9CF
  5
7CB
331
A0E
  5
749
331
A45
  5
6C5
331
961
  5
75D
331
9A0
  5
79C
331
AFA
  5
60A
331
A80
  5
700
331
9CB
  5
7C7
331
A0A
  5
745
331
A41
  5
6C1
331
955
  5
856
331
99C
  5
798
331
951
  5
852
331
998
  5
794
331
8C4
  5
B1E
331
91C
  5
81D
331
8DD
  5
7DE
331
AB7
  5
661
331
AF6
  5
606
331
918
  5
819
331
8D9
  5
7DA
331
AF2
  5
69C
331
A7C
  5
6FC
331
AB3
  5
65D
331
9C7
  5
7C3
331
A06
  5
741
331
A3D
  5
6BD
331
914
  5
815
331
8D5
  5
7D6
331
AEE
  5
698
331
A78
  5
6F8
331
AAF
  5
658
331
9C3
  5
7BF
331
A02
  5
73D
331
94D
  5
84E
331
994
  5
790
331
A39
  5
6B9
331
910
  5
811
331
AEA
  5
694
331
A74
  5
6F4
331
AAB
  5
654
331
9BF
  5
7BB
331
9FE
  5
739
331
949
  5
84A
331
990
  5
78C
331
A35
  5
6B5
331
A70
  5
6F0
331
9BB
  5
7B7
331
9FA
  5
735
331
A31
  5
6B1
331
945
  5
846
331
98C
  5
788
331
941
  5
842
331
988
  5
784
331
B84
  5
B83
331
B27
  5
637
331
90C
  5
80D
331
AE6
  5
690
331
AA7
  5
650
331
908
  5
809
331
AE2
  5
68C
331
A6C
  5
6EC
331
9B7
  5
7B3
331
9F6
  5
731
331
A2D
  5
6AD
331
AA3
  5
64C
331
904
  5
805
331
ADE
  5
688
331
A68
  5
6E8
331
9B3
  5
7AF
331
9F2
  5
72D
331
A29
  5
6A9
331
93D
  5
83E
331
984
  5
780
331
A9F
  5
648
331
900
  5
801
331
ADA
  5
684
331
A64
  5
6E4
331
A9B
  5
644
331
939
  5
83A
331
980
  5
77C
331
9EE
  5
728
331
A25
  5
6A5
331
A60
  5
6E0
331
97C
  5
778
331
9EA
  5
723
331
A21
  5
6A1
331
978
  5
774
331
95C
  5
B1B
331
958
  5
859
331
B1F
  5
62F
331
B1B
  5
62B
331
B17
  5
627
331
B13
  5
623
331
8FC
  5
7FD
331
AD6
  5
680
331
937
  5
838
331
8F8
  5
7F9
331
9E6
  5
71F
331
A5C
  5
6DC
331
AD2
  5
67C
331
933
  5
834
331
8F4
  5
7F5
331
ACE
  5
678
331
B0D
  5
61D
331
974
  5
770
331
9E2
  5
71B
331
A58
  5
6D8
331
A97
  5
640
331
8F0
  5
7F1
331
ACA
  5
674
331
A1D
  5
758
331
A54
  5
6D4
331
A93
  5
63C
331
B09
  5
619
331
9AF
  5
7AB
331
970
  5
76C
331
9DE
  5
717
331
A19
  5
754
331
A50
  5
6D0
331
9AB
  5
7A7
331
9DA
  5
713
331
96C
  5
768
331
968
  5
764
331
8CF
  5
B35
331
B2C
  5
B84
331
8CB
  5
B26
331
B28
  5
638
331
92F
  5
830
331
92B
  5
82C
331
8EC
  5
7ED
331
A8F
  5
70F
331
AC6
  5
670
331
B05
  5
615
331
927
  5
828
331
8E8
  5
7E9
331
A8B
  5
70B
331
AC2
  5
66C
331
B01
  5
611
331
9D6
  5
7D2
331
A15
  5
750
331
9A7
  5
7A3
331
A4C
  5
6CC
331
923
  5
824
331
8E4
  5
7E5
331
A87
  5
707
331
ABE
  5
668
331
AFD
  5
60D
331
9D2
  5
7CE
331
A11
  5
74C
331
9A3
  5
79F
331
964
  5
760
331
A48
  5
6C8
331
8E0
  5
7E1
331
A83
  5
703
331
ABA
  5
664
331
9CE
  5
7CA
331
A0D
  5
748
331
A44
  5
6C4
331
AF9
  5
609
331
960
  5
75C
331
99F
  5
79B
331
9CA
  5
7C6
331
A09
  5
744
331
A40
  5
6C0
331
954
  5
855
331
99B
  5
797
331
950
  5
851
331
8C7
  5
B23
331
8C3
  5
B1D
331
91F
  5
820
331
91B
  5
81C
331
8DC
  5
7DD
331
AF5
  5
69F
331
A7F
  5
6FF
331
AB6
  5
660
331
917
  5
818
331
8D8
  5
7D9
331
AF1
  5
69B
331
A7B
  5
6FB
331
AB2
  5
65C
331
9C6
  5
7C2
331
A05
  5
740
331
997
  5
793
331
A3C
  5
6BC
331
913
  5
814
331
8D4
  5
7D5
331
AED
  5
697
331
A77
  5
6F7
331
AAE
  5
657
331
9C2
  5
7BE
331
A01
  5
73C
331
94C
  5
84D
331
993
  5
78F
331
A38
  5
6B8
331
8D0
  5
B81
331
AE9
  5
693
331
A73
  5
6F3
331
9BE
  5
7BA
331
9FD
  5
738
331
A34
  5
6B4
331
AAA
  5
653
331
948
  5
849
331
98F
  5
78B
331
9BA
  5
7B6
331
9F9
  5
734
331
A30
  5
6B0
331
944
  5
845
331
98B
  5
787
331
940
  5
841
331
B8F
  5
BA8
331
B87
  5
BA2
331
B83
  5
BA1
331
B26
  5
636
331
90F
  5
810
331
90B
  5
80C
331
AE5
  5
68F
331
A6F
  5
6EF
331
AA6
  5
64F
331
907
  5
808
331
AE1
  5
68B
331
A6B
  5
6EB
331
9B6
  5
7B2
331
9F5
  5
730
331
A2C
  5
6AC
331
987
  5
783
331
AA2
  5
64B
331
903
  5
804
331
ADD
  5
687
331
A67
  5
6E7
331
A9E
  5
647
331
9B2
  5
7AE
331
9F1
  5
72C
331
93C
  5
83D
331
983
  5
77F
331
A28
  5
6A8
331
AD9
  5
683
331
A63
  5
6E3
331
A9A
  5
643
331
938
  5
839
331
97F
  5
77B
331
9ED
  5
727
331
A24
  5
6A4
331
97B
  5
777
331
9E9
  5
722
331
A20
  5
6A0
331
95F
  5
75B
331
95B
  5
B1A
331
B1E
  5
62E
331
B1A
  5
62A
331
B16
  5
626
331
B12
  5
622
331
8FF
  5
800
331
8FB
  5
7FC
331
A5F
  5
6DF
331
AD5
  5
67F
331
936
  5
837
331
8F7
  5
7F8
331
977
  5
773
331
9E5
  5
71E
331
A5B
  5
6DB
331
AD1
  5
67B
331
932
  5
833
331
8F3
  5
7F4
331
ACD
  5
677
331
B0C
  5
61C
331
973
  5
76F
331
9E1
  5
71A
331
A57
  5
6D7
331
A96
  5
63F
331
AC9
  5
673
331
A1C
  5
757
331
A53
  5
6D3
331
A92
  5
63B
331
B08
  5
618
331
9AE
  5
7AA
331
96F
  5
76B
331
9DD
  5
716
331
A18
  5
753
331
9AA
  5
7A6
331
9D9
  5
712
331
96B
  5
767
331
8CE
  5
B2D
331
B2B
  5
B82
331
92E
  5
82F
331
8EF
  5
7F0
331
92A
  5
82B
331
8EB
  5
7EC
331
A8E
  5
70E
331
AC5
  5
66F
331
B04
  5
614
331
A4F
  5
6CF
331
926
  5
827
331
8E7
  5
7E8
331
A8A
  5
70A
331
AC1
  5
66B
331
B00
  5
610
331
9D5
  5
7D1
331
A14
  5
74F
331
9A6
  5
7A2
331
967
  5
763
331
A4B
  5
6CB
331
922
  5
823
331
8E3
  5
7E4
331
A86
  5
706
331
ABD
  5
667
331
AFC
  5
60C
331
9D1
  5
7CD
331
A10
  5
74B
331
9A2
  5
79E
331
963
  5
75F
331
A47
  5
6C7
331
A82
  5
702
331
AB9
  5
663
331
9CD
  5
7C9
331
A0C
  5
747
331
A43
  5
6C3
331
AF8
  5
608
331
957
  5
858
331
99E
  5
79A
331
9C9
  5
7C5
331
A08
  5
743
331
953
  5
854
331
99A
  5
796
331
8C6
  5
B22
331
8C2
  5
B1C
331
B92
  5
BA9
331
91E
  5
81F
331
8DF
  5
7E0
331
91A
  5
81B
331
8DB
  5
7DC
331
AF4
  5
69E
331
A7E
  5
6FE
331
A3F
  5
6BF
331
AB5
  5
65F
331
916
  5
817
331
8D7
  5
7D8
331
AF0
  5
69A
331
A7A
  5
6FA
331
9C5
  5
7C1
331
A04
  5
73F
331
A3B
  5
6BB
331
94F
  5
850
331
996
  5
792
331
AB1
  5
65A
331
912
  5
813
331
AEC
  5
696
331
A76
  5
6F6
331
AAD
  5
656
331
9C1
  5
7BD
331
A00
  5
73B
331
94B
  5
84C
331
992
  5
78E
331
A37
  5
6B7
331
AE8
  5
692
331
A72
  5
6F2
331
9BD
  5
7B9
331
9FC
  5
737
331
A33
  5
6B3
331
AA9
  5
652
331
947
  5
848
331
98E
  5
78A
331
9B9
  5
7B5
331
9F8
  5
733
331
943
  5
844
331
98A
  5
786
331
B86
  5
B20
331
B82
  5
B92
331
B25
  5
635
331
B21
  5
631
331
90E
  5
80F
331
90A
  5
80B
331
AE4
  5
68E
331
A6E
  5
6EE
331
A2F
  5
6AF
331
AA5
  5
64E
331
906
  5
807
331
AE0
  5
68A
331
A6A
  5
6EA
331
9B5
  5
7B1
331
9F4
  5
72F
331
A2B
  5
6AB
331
93F
  5
840
331
986
  5
782
331
AA1
  5
64A
331
902
  5
803
331
ADC
  5
686
331
A66
  5
6E6
331
A9D
  5
646
331
9B1
  5
7AD
331
9F0
  5
72B
331
93B
  5
83C
331
982
  5
77E
331
A27
  5
6A7
331
AD8
  5
682
331
A62
  5
6E2
331
97E
  5
77A
331
9EC
  5
726
331
A23
  5
6A3
331
A99
  5
642
331
97A
  5
776
331
9E8
  5
721
331
95A
  5
B19
331
B1D
  5
62D
331
B19
  5
629
331
B15
  5
625
331
B11
  5
621
331
8FE
  5
7FF
331
8FA
  5
7FB
331
A5E
  5
6DE
331
AD4
  5
67E
331
935
  5
836
331
8F6
  5
7F7
331
976
  5
772
331
9E4
  5
71D
331
A5A
  5
6DA
331
AD0
  5
67A
331
B0F
  5
61F
331
931
  5
832
331
8F2
  5
7F3
331
ACC
  5
676
331
A1F
  5
75A
331
A56
  5
6D6
331
A95
  5
63E
331
972
  5
76E
331
9E0
  5
719
331
B0B
  5
61B
331
A91
  5
711
331
AC8
  5
672
331
A1B
  5
756
331
A52
  5
6D2
331
9AD
  5
7A9
331
96E
  5
76A
331
9DC
  5
715
331
9D8
  5
7D4
331
9A9
  5
7A5
331
96A
  5
766
331
8CD
  5
B2C
331
8C9
  5
B25
331
B2A
  5
63A
331
92D
  5
82E
331
8EE
  5
7EF
331
B07
  5
617
331
929
  5
82A
331
8EA
  5
7EB
331
A8D
  5
70D
331
AC4
  5
66E
331
B03
  5
613
331
A17
  5
752
331
A4E
  5
6CE
331
925
  5
826
331
8E6
  5
7E7
331
A89
  5
709
331
AC0
  5
66A
331
AFF
  5
60F
331
9D4
  5
7D0
331
A13
  5
74E
331
9A5
  5
7A1
331
966
  5
762
331
A4A
  5
6CA
331
921
  5
822
331
8E2
  5
7E3
331
A85
  5
705
331
ABC
  5
666
331
AFB
  5
60B
331
9D0
  5
7CC
331
A0F
  5
74A
331
9A1
  5
79D
331
962
  5
75E
331
A46
  5
6C6
331
A81
  5
701
331
AB8
  5
662
331
9CC
  5
7C8
331
A0B
  5
746
331
A42
  5
6C2
331
956
  5
857
331
99D
  5
799
331
9C8
  5
7C4
331
952
  5
853
331
999
  5
795
331
8C5
  5
B1F
331
B35
  5
B86
331
91D
  5
81E
331
8DE
  5
7DF
331
AF7
  5
607
331
919
  5
81A
331
8DA
  5
7DB
331
AF3
  5
69D
331
A7D
  5
6FD
331
AB4
  5
65E
331
A07
  5
742
331
A3E
  5
6BE
331
915
  5
816
331
8D6
  5
7D7
331
AEF
  5
699
331
A79
  5
6F9
331
9C4
  5
7C0
331
A03
  5
73E
331
A3A
  5
6BA
331
94E
  5
84F
331
995
  5
791
331
AB0
  5
659
331
911
  5
812
331
AEB
  5
695
331
A75
  5
6F5
331
AAC
  5
655
331
9C0
  5
7BC
331
9FF
  5
73A
331
94A
  5
84B
331
991
  5
78D
331
A36
  5
6B6
331
A71
  5
6F1
331
9BC
  5
7B8
331
9FB
  5
736
331
A32
  5
6B2
331
AA8
  5
651
331
946
  5
847
331
98D
  5
789
331
9B8
  5
7B4
331
942
  5
843
331
989
  5
785
331
B85
  5
B2B
331
BA8
  5
BAC
331
B81
  5
B87
331
B24
  5
634
331
B20
  5
630
331
90D
  5
80E
331
AE7
  5
691
331
909
  5
80A
331
AE3
  5
68D
331
A6D
  5
6ED
331
9F7
  5
732
331
A2E
  5
6AE
331
AA4
  5
64D
331
905
  5
806
331
ADF
  5
689
331
A69
  5
6E9
331
9B4
  5
7B0
331
9F3
  5
72E
331
A2A
  5
6AA
331
93E
  5
83F
331
985
  5
781
331
AA0
  5
649
331
901
  5
802
331
ADB
  5
685
331
A65
  5
6E5
331
A9C
  5
645
331
9B0
  5
7AC
331
9EF
  5
729
331
93A
  5
83B
331
981
  5
77D
331
A26
  5
6A6
331
A61
  5
6E1
331
97D
  5
779
331
9EB
  5
724
331
A22
  5
6A2
331
A98
  5
641
331
979
  5
775
  0
ACDBDETAILVIEWSTYLE
  5
323
102
{ACAD_XDICTIONARY
360
CF4
102
}
102
{ACAD_REACTORS
330
322
102
}
330
322
100
AcDbModelDocViewStyle
 70
     0
  3
Metric50
290
     0
100
AcDbDetailViewStyle
 70
     0
 71
     0
 90
        3
 71
     1
340
11
 40
5.0
340
0
 40
5.0
300

 40
0.0
280
     1
 71
     2
340
16
 90
       25
 71
     3
340
11
 40
5.0
 90
        0
 40
15.0
 90
        1
300
%<\AcVar ViewDetailId>% (%<\AcVar ViewScale \f "%sn">%)
 71
     4
340
16
 90
       25
340
16
 90
       25
280
     0
  0
GROUP
  5
BA6
102
{ACAD_REACTORS
330
D
102
}
330
D
100
AcDbGroup
300

 70
     1
 71
     1
340
B81
340
B35
340
8CB
340
8C9
340
95C
340
95B
340
95A
340
959
340
958
340
957
340
956
340
955
340
954
340
953
340
952
340
951
340
950
340
94F
340
94E
340
94D
340
94C
340
94B
340
94A
340
949
340
948
340
947
340
946
340
945
340
944
340
943
340
942
340
941
340
940
340
93F
340
93E
340
93D
340
93C
340
93B
340
93A
340
939
340
938
340
937
340
936
340
935
340
934
340
933
340
932
340
931
340
930
340
92F
340
92E
340
92D
340
92C
340
92B
340
92A
340
929
340
928
340
927
340
926
340
925
340
924
340
923
340
922
340
921
340
920
340
91F
340
91E
340
91D
340
91C
340
91B
340
91A
340
919
340
918
340
917
340
916
340
915
340
914
340
913
340
912
340
911
340
910
340
90F
340
90E
340
90D
340
90C
340
90B
340
90A
340
909
340
908
340
907
340
906
340
905
340
904
340
903
340
902
340
901
340
900
340
8FF
340
8FE
340
8FD
340
8FC
340
8FB
340
8FA
340
8F9
340
8F8
340
8F7
340
8F6
340
8F5
340
8F4
340
8F3
340
8F2
340
8F1
340
8F0
340
8EF
340
8EE
340
8ED
340
8EC
340
8EB
340
8EA
340
8E9
340
8E8
340
8E7
340
8E6
340
8E5
340
8E4
340
8E3
340
8E2
340
8E1
340
8E0
340
8DF
340
8DE
340
8DD
340
8DC
340
8DB
340
8DA
340
8D9
340
8D8
340
8D7
340
8D6
340
8D5
340
8D4
  0
GROUP
  5
BAD
102
{ACAD_REACTORS
330
D
102
}
330
D
100
AcDbGroup
300

 70
     1
 71
     1
340
B87
340
8CE
340
8C6
340
B86
340
8C5
340
A91
340
A90
340
A8F
340
A8E
340
A8D
340
A8C
340
A8B
340
A8A
340
A89
340
A88
340
A87
340
A86
340
A85
340
A84
340
A83
340
A82
340
A81
340
A80
340
A7F
340
A7E
340
A7D
340
A7C
340
A7B
340
A7A
340
A79
340
A78
340
A77
340
A76
340
A75
340
A74
340
A73
340
A72
340
A71
340
A70
340
A6F
340
A6E
340
A6D
340
A6C
340
A6B
340
A6A
340
A69
340
A68
340
A67
340
A66
340
A65
340
A64
340
A63
340
A62
340
A61
340
A60
340
A5F
340
A5E
340
A5D
340
A5C
340
A5B
340
A5A
340
A59
340
A58
340
A57
340
A56
340
A55
340
A54
340
A53
340
A52
340
A51
340
A50
340
A4F
340
A4E
340
A4D
340
A4C
340
A4B
340
A4A
340
A49
340
A48
340
A47
340
A46
340
A45
340
A44
340
A43
340
A42
340
A41
340
A40
340
A3F
340
A3E
340
A3D
340
A3C
340
A3B
340
A3A
340
A39
340
A38
340
A37
340
A36
340
A35
340
A34
340
A33
340
A32
340
A31
340
A30
340
A2F
340
A2E
340
A2D
340
A2C
340
A2B
340
A2A
340
A29
340
A28
340
A27
340
A26
340
A25
340
A24
340
A23
340
A22
340
A21
340
A20
  0
GROUP
  5
BAE
102
{ACAD_REACTORS
330
D
102
}
330
D
100
AcDbGroup
300

 70
     1
 71
     1
340
BA8
340
B83
340
8CD
340
B85
340
8CC
340
AF5
340
AF4
340
AF3
340
AF2
340
AF1
340
AF0
340
AEF
340
AEE
340
AED
340
AEC
340
AEB
340
AEA
340
AE9
340
AE8
340
AE7
340
AE6
340
AE5
340
AE4
340
AE3
340
AE2
340
AE1
340
AE0
340
ADF
340
ADE
340
ADD
340
ADC
340
ADB
340
ADA
340
AD9
340
AD8
340
AD7
340
AD6
340
AD5
340
AD4
340
AD3
340
AD2
340
AD1
340
AD0
340
ACF
340
ACE
340
ACD
340
ACC
340
ACB
340
ACA
340
AC9
340
AC8
340
AC7
340
AC6
340
AC5
340
AC4
340
AC3
340
AC2
340
AC1
340
AC0
340
ABF
340
ABE
340
ABD
340
ABC
340
ABB
340
ABA
340
AB9
340
AB8
340
AB7
340
AB6
340
AB5
340
AB4
340
AB3
340
AB2
340
AB1
340
AB0
340
AAF
340
AAE
340
AAD
340
AAC
340
AAB
340
AAA
340
AA9
340
AA8
340
AA7
340
AA6
340
AA5
340
AA4
340
AA3
340
AA2
340
AA1
340
AA0
340
A9F
340
A9E
340
A9D
340
A9C
340
A9B
340
A9A
340
A99
340
A98
340
A97
340
A96
340
A95
340
A94
340
A93
340
A92
  0
GROUP
  5
BAF
102
{ACAD_REACTORS
330
D
102
}
330
D
100
AcDbGroup
300

 70
     1
 71
     1
340
B82
340
8C4
340
8C3
340
8C2
340
9D8
340
9D7
340
9D6
340
9D5
340
9D4
340
9D3
340
9D2
340
9D1
340
9D0
340
9CF
340
9CE
340
9CD
340
9CC
340
9CB
340
9CA
340
9C9
340
9C8
340
9C7
340
9C6
340
9C5
340
9C4
340
9C3
340
9C2
340
9C1
340
9C0
340
9BF
340
9BE
340
9BD
340
9BC
340
9BB
340
9BA
340
9B9
340
9B8
340
9B7
340
9B6
340
9B5
340
9B4
340
9B3
340
9B2
340
9B1
340
9B0
340
9AF
340
9AE
340
9AD
340
9AC
340
9AB
340
9AA
340
9A9
340
9A8
340
9A7
340
9A6
340
9A5
340
9A4
340
9A3
340
9A2
340
9A1
340
9A0
340
99F
340
99E
340
99D
340
99C
340
99B
340
99A
340
999
340
998
340
997
340
996
340
995
340
994
340
993
340
992
340
991
340
990
340
98F
340
98E
340
98D
340
98C
340
98B
340
98A
340
989
340
988
340
987
340
986
340
985
340
984
340
983
340
982
340
981
340
980
340
97F
340
97E
340
97D
340
97C
340
97B
340
97A
340
979
340
978
340
977
340
976
340
975
340
974
340
973
340
972
340
971
340
970
340
96F
340
96E
340
96D
340
96C
340
96B
340
96A
340
969
340
968
340
967
340
966
340
965
340
964
340
963
340
962
340
961
340
960
340
95F
  0
GROUP
  5
BA3
102
{ACAD_REACTORS
330
D
102
}
330
D
100
AcDbGroup
300

 70
     1
 71
     1
340
B92
340
B2D
340
B2C
340
B84
340
B2B
340
A1F
340
A1E
340
A1D
340
A1C
340
A1B
340
A1A
340
A19
340
A18
340
A17
340
A16
340
A15
340
A14
340
A13
340
A12
340
A11
340
A10
340
A0F
340
A0E
340
A0D
340
A0C
340
A0B
340
A0A
340
A09
340
A08
340
A07
340
A06
340
A05
340
A04
340
A03
340
A02
340
A01
340
A00
340
9FF
340
9FE
340
9FD
340
9FC
340
9FB
340
9FA
340
9F9
340
9F8
340
9F7
340
9F6
340
9F5
340
9F4
340
9F3
340
9F2
340
9F1
340
9F0
340
9EF
340
9EE
340
9ED
340
9EC
340
9EB
340
9EA
340
9E9
340
9E8
340
9E7
340
9E6
340
9E5
340
9E4
340
9E3
340
9E2
340
9E1
340
9E0
340
9DF
340
9DE
340
9DD
340
9DC
340
9DB
340
9DA
340
9D9
  0
GROUP
  5
BA5
102
{ACAD_REACTORS
330
D
102
}
330
D
100
AcDbGroup
300

 70
     1
 71
     1
340
B8F
340
8D0
340
8CF
340
8C8
340
8C7
340
B2A
340
B29
340
B28
340
B27
340
B26
340
B25
340
B24
340
B21
340
B20
340
B1F
340
B1E
340
B1D
340
B1C
340
B1B
340
B1A
340
B19
340
B18
340
B17
340
B16
340
B15
340
B14
340
B13
340
B12
340
B11
340
B10
340
B0F
340
B0E
340
B0D
340
B0C
340
B0B
340
B0A
340
B09
340
B08
340
B07
340
B06
340
B05
340
B04
340
B03
340
B02
340
B01
340
B00
340
AFF
340
AFE
340
AFD
340
AFC
340
AFB
340
AFA
340
AF9
340
AF8
340
AF7
340
AF6
  0
LAYOUT
  5
1E
102
{ACAD_XDICTIONARY
360
CBD
102
}
102
{ACAD_REACTORS
330
1A
102
}
330
1A
100
AcDbPlotSettings
  1

  2
none_device
  4

  6

 40
0.0
 41
0.0
 42
0.0
 43
0.0
 44
0.0
 45
0.0
 46
0.0
 47
0.0
 48
0.0
 49
0.0
140
0.0
141
0.0
142
1.0
143
1.0
 70
   688
 72
     1
 73
     0
 74
     5
  7

 75
    16
147
1.0
148
0.0
149
0.0
100
AcDbLayout
  1
Layout1
 70
     1
 71
     1
 10
0.0
 20
0.0
 11
420.0
 21
297.0
 12
0.0
 22
0.0
 32
0.0
 14
1.000000000000000E+20
 24
1.000000000000000E+20
 34
1.000000000000000E+20
 15
-1.000000000000000E+20
 25
-1.000000000000000E+20
 35
-1.000000000000000E+20
146
0.0
 13
0.0
 23
0.0
 33
0.0
 16
1.0
 26
0.0
 36
0.0
 17
0.0
 27
1.0
 37
0.0
 76
     0
330
1B
  0
LAYOUT
  5
22
102
{ACAD_XDICTIONARY
360
CBF
102
}
102
{ACAD_REACTORS
330
1A
102
}
330
1A
100
AcDbPlotSettings
  1

  2
none_device
  4
Letter_(8.50_x_11.00_Inches)
  6

 40
6.349999999999998
 41
6.349999999999998
 42
6.350005079999998
 43
6.350005079999998
 44
215.9
 45
279.4
 46
0.0
 47
0.0
 48
0.0
 49
0.0
140
0.0
141
0.0
142
1.0
143
1.0
 70
  1712
 72
     1
 73
     0
 74
     0
  7

 75
     0
147
1.0
148
0.0
149
0.0
100
AcDbLayout
  1
Model
 70
     1
 71
     0
 10
-807.4169036865235
 20
-869.6697341918946
 11
1853.97632598877
 21
936.7003433227541
 12
0.0
 22
0.0
 32
0.0
 14
-807.4169036865235
 24
-869.6697341918946
 34
0.0
 15
1853.97632598877
 25
936.7003433227541
 35
0.0
146
0.0
 13
0.0
 23
0.0
 33
0.0
 16
1.0
 26
0.0
 36
0.0
 17
0.0
 27
1.0
 37
0.0
 76
     0
330
1F
331
29
  0
LAYOUT
  5
324
102
{ACAD_XDICTIONARY
360
CF6
102
}
102
{ACAD_REACTORS
330
1A
102
}
330
1A
100
AcDbPlotSettings
  1

  2
青梅 FX DocuCentre-V C2275 T2
  4

  6

 40
0.0
 41
0.0
 42
0.0
 43
0.0
 44
0.0
 45
0.0
 46
0.0
 47
0.0
 48
0.0
 49
0.0
140
0.0
141
0.0
142
1.0
143
1.0
 70
   688
 72
     0
 73
     0
 74
     5
  7
AutoCAD_PEN.ctb
 75
    16
147
1.0
148
0.0
149
0.0
100
AcDbLayout
  1
レイアウト1
 70
     1
 71
     2
 10
0.0
 20
0.0
 11
12.0
 21
9.0
 12
0.0
 22
0.0
 32
0.0
 14
0.0
 24
0.0
 34
0.0
 15
0.0
 25
0.0
 35
0.0
146
0.0
 13
0.0
 23
0.0
 33
0.0
 16
1.0
 26
0.0
 36
0.0
 17
0.0
 27
1.0
 37
0.0
 76
     0
330
23
  0
MATERIAL
  5
45
102
{ACAD_XDICTIONARY
360
316
102
}
102
{ACAD_REACTORS
330
43
102
}
330
43
100
AcDbMaterial
  1
ByBlock
  0
MATERIAL
  5
44
102
{ACAD_XDICTIONARY
360
314
102
}
102
{ACAD_REACTORS
330
43
102
}
330
43
100
AcDbMaterial
  1
ByLayer
  0
MATERIAL
  5
46
102
{ACAD_XDICTIONARY
360
318
102
}
102
{ACAD_REACTORS
330
43
102
}
330
43
100
AcDbMaterial
  1
Global
  0
MLEADERSTYLE
  5
5C
102
{ACAD_REACTORS
330
5B
102
}
330
5B
100
AcDbMLeaderStyle
170
     2
171
     1
172
     0
 90
        2
 40
0.0
 41
0.0
173
     1
 91
-1056964608
340
14
 92
       -2
290
     1
 42
2.0
291
     1
 43
8.0
  3
Standard
 44
4.0
300

342
11
174
     1
178
     6
175
     1
176
     0
 93
-1056964608
 45
4.0
292
     0
297
     0
 46
4.0
 94
-1056964608
 47
1.0
 49
1.0
140
1.0
293
     1
141
0.0
294
     1
177
     0
142
1.0
295
     0
296
     0
143
3.75
1001
ACAD_MLEADERVER
1070
     2
  0
MLINESTYLE
  5
18
102
{ACAD_REACTORS
330
17
102
}
330
17
100
AcDbMlineStyle
  2
STANDARD
 70
     0
  3

 62
   256
 51
90.0
 52
90.0
 71
     2
 49
0.5
 62
   256
  6
BYLAYER
 49
-0.5
 62
   256
  6
BYLAYER
  0
ACDBPLACEHOLDER
  5
F
102
{ACAD_REACTORS
330
E
102
}
330
E
  0
SCALE
  5
48
102
{ACAD_REACTORS
330
47
102
}
330
47
100
AcDbScale
 70
     0
300
1:1
140
1.0
141
1.0
290
     1
  0
SCALE
  5
49
102
{ACAD_REACTORS
330
47
102
}
330
47
100
AcDbScale
 70
     0
300
1:2
140
1.0
141
2.0
290
     0
  0
SCALE
  5
4A
102
{ACAD_REACTORS
330
47
102
}
330
47
100
AcDbScale
 70
     0
300
1:4
140
1.0
141
4.0
290
     0
  0
SCALE
  5
4B
102
{ACAD_REACTORS
330
47
102
}
330
47
100
AcDbScale
 70
     0
300
1:5
140
1.0
141
5.0
290
     0
  0
SCALE
  5
4C
102
{ACAD_REACTORS
330
47
102
}
330
47
100
AcDbScale
 70
     0
300
1:8
140
1.0
141
8.0
290
     0
  0
SCALE
  5
4D
102
{ACAD_REACTORS
330
47
102
}
330
47
100
AcDbScale
 70
     0
300
1:10
140
1.0
141
10.0
290
     0
  0
SCALE
  5
4E
102
{ACAD_REACTORS
330
47
102
}
330
47
100
AcDbScale
 70
     0
300
1:16
140
1.0
141
16.0
290
     0
  0
SCALE
  5
4F
102
{ACAD_REACTORS
330
47
102
}
330
47
100
AcDbScale
 70
     0
300
1:20
140
1.0
141
20.0
290
     0
  0
SCALE
  5
50
102
{ACAD_REACTORS
330
47
102
}
330
47
100
AcDbScale
 70
     0
300
1:30
140
1.0
141
30.0
290
     0
  0
SCALE
  5
51
102
{ACAD_REACTORS
330
47
102
}
330
47
100
AcDbScale
 70
     0
300
1:40
140
1.0
141
40.0
290
     0
  0
SCALE
  5
52
102
{ACAD_REACTORS
330
47
102
}
330
47
100
AcDbScale
 70
     0
300
1:50
140
1.0
141
50.0
290
     0
  0
SCALE
  5
53
102
{ACAD_REACTORS
330
47
102
}
330
47
100
AcDbScale
 70
     0
300
1:100
140
1.0
141
100.0
290
     0
  0
SCALE
  5
54
102
{ACAD_REACTORS
330
47
102
}
330
47
100
AcDbScale
 70
     0
300
2:1
140
2.0
141
1.0
290
     0
  0
SCALE
  5
55
102
{ACAD_REACTORS
330
47
102
}
330
47
100
AcDbScale
 70
     0
300
4:1
140
4.0
141
1.0
290
     0
  0
SCALE
  5
56
102
{ACAD_REACTORS
330
47
102
}
330
47
100
AcDbScale
 70
     0
300
8:1
140
8.0
141
1.0
290
     0
  0
SCALE
  5
57
102
{ACAD_REACTORS
330
47
102
}
330
47
100
AcDbScale
 70
     0
300
10:1
140
10.0
141
1.0
290
     0
  0
SCALE
  5
58
102
{ACAD_REACTORS
330
47
102
}
330
47
100
AcDbScale
 70
     0
300
100:1
140
100.0
141
1.0
290
     0
  0
ACDBSECTIONVIEWSTYLE
  5
321
102
{ACAD_XDICTIONARY
360
CF2
102
}
102
{ACAD_REACTORS
330
320
102
}
330
320
100
AcDbModelDocViewStyle
 70
     0
  3
Metric50
290
     0
100
AcDbSectionViewStyle
 70
     0
 71
     0
 90
      102
 71
     1
340
11
 40
5.0
340
0
340
0
 40
5.0
300
I, O, Q, S, X, Z
 40
10.0
 90
        0
 40
2.5
 90
        0
 71
     2
340
16
 90
       25
340
16
 90
       50
 40
5.0
 40
2.5
 40
5.0
 71
     3
340
11
 40
5.0
 90
        0
 40
15.0
 90
        1
300
%<\AcVar ViewSectionStartId>%-%<\AcVar ViewSectionEndId>% (%<\AcVar ViewScale \f "%sn">%)
 71
     4
300
ANSI31
 40
1.0
 90
        0
290
     0
290
     0
 90
        6
 40
0.0
 40
1.570796326794896
 40
0.2617993877991494
 40
1.308996938995747
 40
-0.2617993877991494
 40
1.832595714594045
  0
TABLESTYLE
  5
5A
102
{ACAD_XDICTIONARY
360
B45
102
}
102
{ACAD_REACTORS
330
59
102
}
330
59
100
AcDbTableStyle
  3
Standard
 70
     0
 71
     0
 40
1.5
 41
1.5
280
     0
281
     0
  7
Standard
140
4.5
170
     2
 62
     0
 63
     7
283
     0
274
    -2
284
     1
 64
     0
275
    -2
285
     1
 65
     0
276
    -2
286
     1
 66
     0
277
    -2
287
     1
 67
     0
278
    -2
288
     1
 68
     0
279
    -2
289
     1
 69
     0
  7
Standard
140
6.0
170
     5
 62
     0
 63
     7
283
     0
274
    -2
284
     1
 64
     0
275
    -2
285
     1
 65
     0
276
    -2
286
     1
 66
     0
277
    -2
287
     1
 67
     0
278
    -2
288
     1
 68
     0
279
    -2
289
     1
 69
     0
  7
Standard
140
4.5
170
     5
 62
     0
 63
     7
283
     0
274
    -2
284
     1
 64
     0
275
    -2
285
     1
 65
     0
276
    -2
286
     1
 66
     0
277
    -2
287
     1
 67
     0
278
    -2
288
     1
 68
     0
279
    -2
289
     1
 69
     0
  0
VISUALSTYLE
  5
2F
102
{ACAD_XDICTIONARY
360
CC9
102
}
102
{ACAD_REACTORS
330
2A
102
}
330
2A
100
AcDbVisualStyle
  2

 70
     4
 71
     0
 72
     2
 73
     0
 90
        0
 40
-0.6
 41
-30.0
 62
     5
 63
     7
 74
     1
 91
        4
 64
     7
 65
   257
 75
     1
175
     1
 42
1.0
 92
        0
 66
   257
 43
1.0
 76
     1
 77
     6
 78
     2
 67
     7
 79
     5
170
     0
171
     0
290
     0
174
     0
 93
        1
 44
0.0
173
     0
291
     0
 45
0.0
1001
ACAD
1000
AcDbSavedByObjectVersion
1070
     0
  0
VISUALSTYLE
  5
32
102
{ACAD_XDICTIONARY
360
CCF
102
}
102
{ACAD_REACTORS
330
2A
102
}
330
2A
100
AcDbVisualStyle
  2

 70
     7
 71
     1
 72
     0
 73
     1
 90
        0
 40
-0.6
 41
-30.0
 62
     5
 63
     7
 74
     0
 91
        4
 64
     7
 65
   257
 75
     1
175
     1
 42
1.0
 92
        8
 66
     7
 43
1.0
 76
     1
 77
     6
 78
     2
 67
     7
 79
     5
170
     0
171
     0
290
     0
174
     0
 93
        1
 44
0.0
173
     0
291
     1
 45
0.0
1001
ACAD
1000
AcDbSavedByObjectVersion
1070
     0
  0
VISUALSTYLE
  5
36
102
{ACAD_XDICTIONARY
360
CD7
102
}
102
{ACAD_REACTORS
330
2A
102
}
330
2A
100
AcDbVisualStyle
  2

 70
    12
 71
     2
 72
     2
 73
     0
 90
        0
 40
-0.6
 41
-30.0
 62
     5
 63
     7
 74
     1
 91
        4
 64
     7
 65
   257
 75
     1
175
     1
 42
1.0
 92
        8
 66
     7
 43
1.0
 76
     1
 77
     6
 78
     2
 67
     7
 79
     5
170
     0
171
     0
290
     0
174
     0
 93
        1
 44
50.0
173
     0
291
     1
 45
0.0
1001
ACAD
1000
AcDbSavedByObjectVersion
1070
     0
  0
VISUALSTYLE
  5
3A
102
{ACAD_XDICTIONARY
360
CDF
102
}
102
{ACAD_REACTORS
330
2A
102
}
330
2A
100
AcDbVisualStyle
  2

 70
    16
 71
     2
 72
     2
 73
     3
 90
        0
 40
-0.6
 41
-30.0
 62
     5
 63
     8
 74
     1
 91
        4
 64
     7
 65
   257
 75
     1
175
     1
 42
1.0
 92
        8
 66
     8
 43
1.0
 76
     1
 77
     6
 78
     2
 67
     7
 79
     5
170
     0
171
     0
290
     0
174
     0
 93
        1
 44
0.0
173
     0
291
     1
 45
0.0
1001
ACAD
1000
AcDbSavedByObjectVersion
1070
     0
  0
VISUALSTYLE
  5
34
102
{ACAD_XDICTIONARY
360
CD3
102
}
102
{ACAD_REACTORS
330
2A
102
}
330
2A
100
AcDbVisualStyle
  2

 70
     9
 71
     3
 72
     2
 73
     0
 90
        0
 40
-0.6
 41
-30.0
 62
     5
 63
     7
 74
     2
 91
        2
 64
     7
 65
   257
 75
     1
175
     1
 42
179.0
 92
        8
 66
     7
 43
1.0
 76
     1
 77
     6
 78
     2
 67
     7
 79
     3
170
     0
171
     0
290
     0
174
     0
 93
        1
 44
0.0
173
     0
291
     0
 45
0.0
1001
ACAD
1000
AcDbSavedByObjectVersion
1070
     0
  0
VISUALSTYLE
  5
35
102
{ACAD_XDICTIONARY
360
CD5
102
}
102
{ACAD_REACTORS
330
2A
102
}
330
2A
100
AcDbVisualStyle
  2

 70
    11
 71
     2
 72
     2
 73
     0
 90
        0
 40
-0.6
 41
-30.0
 62
     5
 63
     7
 74
     1
 91
        4
 64
     7
 65
   257
 75
     1
175
     1
 42
1.0
 92
        8
 66
     7
 43
1.0
 76
     1
 77
     6
 78
     2
 67
     7
 79
     5
170
     0
171
     0
290
     0
174
     0
 93
        1
 44
-50.0
173
     0
291
     1
 45
0.0
1001
ACAD
1000
AcDbSavedByObjectVersion
1070
     0
  0
VISUALSTYLE
  5
3D
102
{ACAD_XDICTIONARY
360
CE5
102
}
102
{ACAD_REACTORS
330
2A
102
}
330
2A
100
AcDbVisualStyle
  2

 70
    22
 71
     2
 72
     2
 73
     0
 90
        0
 40
-0.6
 41
-30.0
 62
     5
 63
     7
 74
     1
 91
        4
 64
     7
 65
   257
 75
     1
175
     1
 42
1.0
 92
        8
 66
     7
 43
1.0
 76
     1
 77
     6
 78
     2
 67
     7
 79
     5
170
     0
171
     0
290
     0
174
     0
 93
        1
 44
0.0
173
     0
291
     1
 45
0.0
1001
ACAD
1000
AcDbSavedByObjectVersion
1070
     0
  0
VISUALSTYLE
  5
39
102
{ACAD_XDICTIONARY
360
CDD
102
}
102
{ACAD_REACTORS
330
2A
102
}
330
2A
100
AcDbVisualStyle
  2

 70
    15
 71
     2
 72
     2
 73
     0
 90
        0
 40
-0.6
 41
-30.0
 62
     5
 63
     7
 74
     1
 91
        4
 64
     7
 65
   257
 75
     1
175
     1
 42
1.0
 92
        8
 66
     7
 43
1.0
 76
     1
 77
     6
 78
     2
 67
     7
 79
     5
170
     0
171
     0
290
     0
174
     0
 93
        1
 44
0.0
173
     0
291
     1
 45
0.0
1001
ACAD
1000
AcDbSavedByObjectVersion
1070
     0
  0
VISUALSTYLE
  5
2B
102
{ACAD_XDICTIONARY
360
CC1
102
}
102
{ACAD_REACTORS
330
2A
102
}
330
2A
100
AcDbVisualStyle
  2

 70
     0
 71
     2
 72
     1
 73
     1
 90
        2
 40
-0.6
 41
30.0
 62
     5
 63
     7
 74
     0
 91
        0
 64
     7
 65
   257
 75
     1
175
     1
 42
1.0
 92
        8
 66
     7
 43
1.0
 76
     1
 77
     6
 78
     2
 67
     7
 79
     5
170
     0
171
     0
290
     0
174
     0
 93
       13
 44
0.0
173
     0
291
     1
 45
0.0
1001
ACAD
1000
AcDbSavedByObjectVersion
1070
     0
  0
VISUALSTYLE
  5
2C
102
{ACAD_XDICTIONARY
360
CC3
102
}
102
{ACAD_REACTORS
330
2A
102
}
330
2A
100
AcDbVisualStyle
  2

 70
     1
 71
     2
 72
     1
 73
     1
 90
        2
 40
-0.6
 41
30.0
 62
     5
 63
     7
 74
     1
 91
        0
 64
     7
 65
   257
 75
     1
175
     1
 42
1.0
 92
        0
 66
   257
 43
1.0
 76
     1
 77
     6
 78
     2
 67
     7
 79
     5
170
     0
171
     0
290
     0
174
     0
 93
       13
 44
0.0
173
     0
291
     1
 45
0.0
1001
ACAD
1000
AcDbSavedByObjectVersion
1070
     0
  0
VISUALSTYLE
  5
2D
102
{ACAD_XDICTIONARY
360
CC5
102
}
102
{ACAD_REACTORS
330
2A
102
}
330
2A
100
AcDbVisualStyle
  2

 70
     2
 71
     2
 72
     2
 73
     1
 90
        2
 40
-0.6
 41
30.0
 62
     5
 63
     7
 74
     0
 91
        0
 64
     7
 65
   257
 75
     1
175
     1
 42
1.0
 92
        0
 66
     7
 43
1.0
 76
     1
 77
     6
 78
     2
 67
     7
 79
     5
170
     0
171
     0
290
     0
174
     0
 93
       13
 44
0.0
173
     0
291
     1
 45
0.0
1001
ACAD
1000
AcDbSavedByObjectVersion
1070
     0
  0
VISUALSTYLE
  5
2E
102
{ACAD_XDICTIONARY
360
CC7
102
}
102
{ACAD_REACTORS
330
2A
102
}
330
2A
100
AcDbVisualStyle
  2

 70
     3
 71
     2
 72
     2
 73
     1
 90
        2
 40
-0.6
 41
30.0
 62
     5
 63
     7
 74
     1
 91
        0
 64
     7
 65
   257
 75
     1
175
     1
 42
1.0
 92
        0
 66
   257
 43
1.0
 76
     1
 77
     6
 78
     2
 67
     7
 79
     5
170
     0
171
     0
290
     0
174
     0
 93
       13
 44
0.0
173
     0
291
     1
 45
0.0
1001
ACAD
1000
AcDbSavedByObjectVersion
1070
     0
  0
VISUALSTYLE
  5
31
102
{ACAD_XDICTIONARY
360
CCD
102
}
102
{ACAD_REACTORS
330
2A
102
}
330
2A
100
AcDbVisualStyle
  2

 70
     6
 71
     1
 72
     2
 73
     2
 90
        0
 40
-0.6
 41
-30.0
 62
     5
 63
     7
 74
     2
 91
        2
 64
     7
 65
   257
 75
     2
175
     1
 42
40.0
 92
        0
 66
   257
 43
1.0
 76
     1
 77
     6
 78
     2
 67
     7
 79
     3
170
     0
171
     0
290
     0
174
     0
 93
        1
 44
0.0
173
     0
291
     0
 45
0.0
1001
ACAD
1000
AcDbSavedByObjectVersion
1070
     0
  0
VISUALSTYLE
  5
3B
102
{ACAD_XDICTIONARY
360
CE1
102
}
102
{ACAD_REACTORS
330
2A
102
}
330
2A
100
AcDbVisualStyle
  2

 70
    20
 71
     2
 72
     2
 73
     0
 90
        0
 40
-0.6
 41
-30.0
 62
     5
 63
     7
 74
     1
 91
        4
 64
     7
 65
   257
 75
     1
175
     1
 42
1.0
 92
       10
 66
     7
 43
1.0
 76
     1
 77
     6
 78
     2
 67
     7
 79
     5
170
     0
171
     0
290
     0
174
     0
 93
        1
 44
0.0
173
     0
291
     1
 45
0.0
1001
ACAD
1000
AcDbSavedByObjectVersion
1070
     0
  0
VISUALSTYLE
  5
38
102
{ACAD_XDICTIONARY
360
CDB
102
}
102
{ACAD_REACTORS
330
2A
102
}
330
2A
100
AcDbVisualStyle
  2

 70
    14
 71
     2
 72
     2
 73
     0
 90
        0
 40
-0.6
 41
-30.0
 62
     5
 63
     7
 74
     1
 91
        4
 64
     7
 65
   257
 75
     7
175
     7
 42
1.0
 92
        8
 66
     7
 43
1.0
 76
     1
 77
     6
 78
     2
 67
     7
 79
     5
170
     0
171
     0
290
     0
174
     0
 93
        1
 44
0.0
173
     0
291
     1
 45
0.0
1001
ACAD
1000
AcDbSavedByObjectVersion
1070
     0
  0
VISUALSTYLE
  5
3C
102
{ACAD_XDICTIONARY
360
CE3
102
}
102
{ACAD_REACTORS
330
2A
102
}
330
2A
100
AcDbVisualStyle
  2

 70
    21
 71
     2
 72
     2
 73
     0
 90
        0
 40
-0.6
 41
-30.0
 62
     5
 63
     7
 74
     1
 91
        4
 64
     7
 65
   257
 75
     1
175
     1
 42
1.0
 92
        9
 66
     7
 43
1.0
 76
     1
 77
     6
 78
     2
 67
     7
 79
     5
170
     0
171
     0
290
     0
174
     0
 93
        1
 44
0.0
173
     0
291
     1
 45
0.0
1001
ACAD
1000
AcDbSavedByObjectVersion
1070
     0
  0
VISUALSTYLE
  5
33
102
{ACAD_XDICTIONARY
360
CD1
102
}
102
{ACAD_REACTORS
330
2A
102
}
330
2A
100
AcDbVisualStyle
  2

 70
     8
 71
     2
 72
     3
 73
     0
 90
        2
 40
-0.6
 41
30.0
 62
     5
 63
     7
 74
     0
 91
        0
 64
     7
 65
   257
 75
     1
175
     1
 42
1.0
 92
        8
 66
   257
 43
1.0
 76
     1
 77
     6
 78
     2
 67
     7
 79
     3
170
     0
171
     0
290
     0
174
     0
 93
       13
 44
0.0
173
     0
291
     0
 45
0.0
1001
ACAD
1000
AcDbSavedByObjectVersion
1070
     0
  0
VISUALSTYLE
  5
42
102
{ACAD_XDICTIONARY
360
CEF
102
}
102
{ACAD_REACTORS
330
2A
102
}
330
2A
100
AcDbVisualStyle
  2

 70
    27
 71
     2
 72
     2
 73
     1
 90
        2
 40
-0.6
 41
30.0
 62
     5
 63
     7
 74
     0
 91
        4
 64
     7
 65
   257
 75
     1
175
     1
 42
1.0
 92
        8
 66
   257
 43
1.0
 76
     1
 77
     6
 78
     2
 67
     8
 79
     3
170
     0
171
     0
290
     0
174
     0
 93
        5
 44
0.0
173
     0
291
     0
 45
0.0
1001
ACAD
1000
AcDbSavedByObjectVersion
1070
     0
  0
VISUALSTYLE
  5
41
102
{ACAD_XDICTIONARY
360
CED
102
}
102
{ACAD_REACTORS
330
2A
102
}
330
2A
100
AcDbVisualStyle
  2

 70
    26
 71
     2
 72
     2
 73
     1
 90
        2
 40
-0.6
 41
30.0
 62
     5
 63
     7
 74
     1
 91
       10
 64
     7
 65
   257
 75
     2
175
     1
 42
1.0
 92
        8
 66
   257
 43
1.0
 76
     1
 77
     6
 78
     2
 67
     7
 79
     3
170
     0
171
     0
290
     0
174
     0
 93
        5
 44
0.0
173
     0
291
     0
 45
0.0
1001
ACAD
1000
AcDbSavedByObjectVersion
1070
     0
  0
VISUALSTYLE
  5
3E
102
{ACAD_XDICTIONARY
360
CE7
102
}
102
{ACAD_REACTORS
330
2A
102
}
330
2A
100
AcDbVisualStyle
  2

 70
    23
 71
     2
 72
     2
 73
     3
 90
        0
 40
-0.6
 41
-30.0
 62
     5
 63
     7
 74
     2
 91
        2
 64
     7
 65
     7
 75
     1
175
     1
 42
40.0
 92
        8
 66
     7
 43
1.0
 76
     1
 77
     6
 78
     2
 67
     7
 79
     3
170
     0
171
     0
290
     0
174
     0
 93
        1
 44
0.0
173
     0
291
     0
 45
0.0
1001
ACAD
1000
AcDbSavedByObjectVersion
1070
     0
  0
VISUALSTYLE
  5
3F
102
{ACAD_XDICTIONARY
360
CE9
102
}
102
{ACAD_REACTORS
330
2A
102
}
330
2A
100
AcDbVisualStyle
  2

 70
    24
 71
     1
 72
     2
 73
     2
 90
        0
 40
-0.6
 41
-30.0
 62
     5
 63
     7
 74
     2
 91
        2
 64
     7
 65
     7
 75
     1
175
     1
 42
40.0
 92
       11
 66
     7
 43
1.0
 76
     1
 77
     6
 78
     2
 67
     7
 79
     6
170
     0
171
     0
290
     0
174
     0
 93
        1
 44
0.0
173
     0
291
     0
 45
0.0
1001
ACAD
1000
AcDbSavedByObjectVersion
1070
     0
  0
VISUALSTYLE
  5
37
102
{ACAD_XDICTIONARY
360
CD9
102
}
102
{ACAD_REACTORS
330
2A
102
}
330
2A
100
AcDbVisualStyle
  2

 70
    13
 71
     2
 72
     2
 73
     0
 90
        0
 40
-0.6
 41
-30.0
 62
     5
 63
     7
 74
     1
 91
        4
 64
     7
 65
   257
 75
     1
175
     1
 42
1.0
 92
       12
 66
     7
 43
1.0
 76
     1
 77
     6
 78
     2
 67
     7
 79
     5
170
     0
171
     0
290
     0
174
     0
 93
        1
 44
0.0
173
     0
291
     1
 45
0.0
1001
ACAD
1000
AcDbSavedByObjectVersion
1070
     0
  0
VISUALSTYLE
  5
30
102
{ACAD_XDICTIONARY
360
CCB
102
}
102
{ACAD_REACTORS
330
2A
102
}
330
2A
100
AcDbVisualStyle
  2

 70
     5
 71
     0
 72
     2
 73
     0
 90
        0
 40
-0.6
 41
-30.0
 62
     5
 63
     7
 74
     1
 91
        4
 64
     7
 65
   257
 75
     1
175
     1
 42
1.0
 92
        0
 66
   257
 43
1.0
 76
     1
 77
     6
 78
     2
 67
     7
 79
     3
170
     0
171
     0
290
     0
174
     0
 93
        1
 44
0.0
173
     0
291
     0
 45
0.0
1001
ACAD
1000
AcDbSavedByObjectVersion
1070
     0
  0
VISUALSTYLE
  5
40
102
{ACAD_XDICTIONARY
360
CEB
102
}
102
{ACAD_REACTORS
330
2A
102
}
330
2A
100
AcDbVisualStyle
  2

 70
    25
 71
     2
 72
     2
 73
     1
 90
        1
 40
0.5
 41
-30.0
 62
     5
 63
     7
 74
     1
 91
        0
 64
     7
 65
   257
 75
     1
175
     1
 42
1.0
 92
        8
 66
     7
 43
1.0
 76
     1
 77
     6
 78
     2
 67
     7
 79
     3
170
     0
171
     0
290
     0
174
     0
 93
       13
 44
0.0
173
     0
291
     0
 45
0.0
1001
ACAD
1000
AcDbSavedByObjectVersion
1070
     0
  0
DICTIONARYVAR
  5
2E2
102
{ACAD_REACTORS
330
2D4
102
}
330
2D4
100
DictionaryVariables
280
     0
  1
1:1
  0
DICTIONARYVAR
  5
2DB
102
{ACAD_REACTORS
330
2D4
102
}
330
2D4
100
DictionaryVariables
280
     0
  1
3.500000
  0
DICTIONARYVAR
  5
2DC
102
{ACAD_REACTORS
330
2D4
102
}
330
2D4
100
DictionaryVariables
280
     0
  1
acadiso.lin
  0
DICTIONARYVAR
  5
2D6
102
{ACAD_REACTORS
330
2D4
102
}
330
2D4
100
DictionaryVariables
280
     0
  1
STANDARD
  0
DICTIONARYVAR
  5
2D5
102
{ACAD_REACTORS
330
2D4
102
}
330
2D4
100
DictionaryVariables
280
     0
  1
STANDARD
  0
DICTIONARYVAR
  5
B40
102
{ACAD_REACTORS
330
2D4
102
}
330
2D4
100
DictionaryVariables
280
     0
  1
Metric50
  0
DICTIONARYVAR
  5
B41
102
{ACAD_REACTORS
330
2D4
102
}
330
2D4
100
DictionaryVariables
280
     0
  1
Metric50
  0
DICTIONARYVAR
  5
2DD
102
{ACAD_REACTORS
330
2D4
102
}
330
2D4
100
DictionaryVariables
280
     0
  1
2
  0
DICTIONARYVAR
  5
2DE
102
{ACAD_REACTORS
330
2D4
102
}
330
2D4
100
DictionaryVariables
280
     0
  1
1
  0
DICTIONARYVAR
  5
BB1
102
{ACAD_REACTORS
330
2D4
102
}
330
2D4
100
DictionaryVariables
280
     0
  1
0
  0
DICTIONARYVAR
  5
B43
102
{ACAD_REACTORS
330
2D4
102
}
330
2D4
100
DictionaryVariables
280
     0
  1
1
  0
DICTIONARYVAR
  5
B44
102
{ACAD_REACTORS
330
2D4
102
}
330
2D4
100
DictionaryVariables
280
     0
  1
15
  0
DICTIONARYVAR
  5
B42
102
{ACAD_REACTORS
330
2D4
102
}
330
2D4
100
DictionaryVariables
280
     0
  1
0
  0
DICTIONARYVAR
  5
BB4
102
{ACAD_REACTORS
330
2D4
102
}
330
2D4
100
DictionaryVariables
280
     0
  1
1.570796
  0
DICTIONARYVAR
  5
BB5
102
{ACAD_REACTORS
330
2D4
102
}
330
2D4
100
DictionaryVariables
280
     0
  1
1.570796
  0
DICTIONARYVAR
  5
BB6
102
{ACAD_REACTORS
330
2D4
102
}
330
2D4
100
DictionaryVariables
280
     0
  1
-122.394000
  0
DICTIONARYVAR
  5
2E3
102
{ACAD_REACTORS
330
2D4
102
}
330
2D4
100
DictionaryVariables
280
     0
  1
1
  0
DICTIONARYVAR
  5
BB3
102
{ACAD_REACTORS
330
2D4
102
}
330
2D4
100
DictionaryVariables
280
     0
  1
80.000000
  0
DICTIONARYVAR
  5
BB2
102
{ACAD_REACTORS
330
2D4
102
}
330
2D4
100
DictionaryVariables
280
     0
  1
5.000000
  0
DICTIONARYVAR
  5
BB0
102
{ACAD_REACTORS
330
2D4
102
}
330
2D4
100
DictionaryVariables
280
     0
  1
127
  0
DICTIONARYVAR
  5
BB7
102
{ACAD_REACTORS
330
2D4
102
}
330
2D4
100
DictionaryVariables
280
     0
  1
2
  0
DICTIONARY
  5
CF4
330
323
100
AcDbDictionary
280
     1
281
     1
  3
ACAD_XREC_ROUNDTRIP
360
CF5
  0
DICTIONARY
  5
CBD
330
1E
100
AcDbDictionary
280
     1
281
     1
  3
ACAD_XREC_ROUNDTRIP
360
CBE
  0
DICTIONARY
  5
CBF
330
22
100
AcDbDictionary
280
     1
281
     1
  3
ACAD_XREC_ROUNDTRIP
360
CC0
  0
DICTIONARY
  5
CF6
330
324
100
AcDbDictionary
280
     1
281
     1
  3
ACAD_XREC_ROUNDTRIP
360
CF7
  0
DICTIONARY
  5
316
330
45
100
AcDbDictionary
280
     1
281
     1
  3
ACAD_XREC_ROUNDTRIP
360
317
  0
DICTIONARY
  5
314
330
44
100
AcDbDictionary
280
     1
281
     1
  3
ACAD_XREC_ROUNDTRIP
360
315
  0
DICTIONARY
  5
318
330
46
100
AcDbDictionary
280
     1
281
     1
  3
ACAD_XREC_ROUNDTRIP
360
319
  0
DICTIONARY
  5
CF2
330
321
100
AcDbDictionary
280
     1
281
     1
  3
ACAD_XREC_ROUNDTRIP
360
CF3
  0
DICTIONARY
  5
B45
330
5A
100
AcDbDictionary
280
     1
281
     1
  3
ACAD_ROUNDTRIP_2008_TABLESTYLE_CELLSTYLEMAP
360
CBA
  3
ACAD_XREC_ROUNDTRIP
360
CF1
  0
DICTIONARY
  5
CC9
330
2F
100
AcDbDictionary
280
     1
281
     1
  3
ACAD_XREC_ROUNDTRIP
360
CCA
  0
DICTIONARY
  5
CCF
330
32
100
AcDbDictionary
280
     1
281
     1
  3
ACAD_XREC_ROUNDTRIP
360
CD0
  0
DICTIONARY
  5
CD7
330
36
100
AcDbDictionary
280
     1
281
     1
  3
ACAD_XREC_ROUNDTRIP
360
CD8
  0
DICTIONARY
  5
CDF
330
3A
100
AcDbDictionary
280
     1
281
     1
  3
ACAD_XREC_ROUNDTRIP
360
CE0
  0
DICTIONARY
  5
CD3
330
34
100
AcDbDictionary
280
     1
281
     1
  3
ACAD_XREC_ROUNDTRIP
360
CD4
  0
DICTIONARY
  5
CD5
330
35
100
AcDbDictionary
280
     1
281
     1
  3
ACAD_XREC_ROUNDTRIP
360
CD6
  0
DICTIONARY
  5
CE5
330
3D
100
AcDbDictionary
280
     1
281
     1
  3
ACAD_XREC_ROUNDTRIP
360
CE6
  0
DICTIONARY
  5
CDD
330
39
100
AcDbDictionary
280
     1
281
     1
  3
ACAD_XREC_ROUNDTRIP
360
CDE
  0
DICTIONARY
  5
CC1
330
2B
100
AcDbDictionary
280
     1
281
     1
  3
ACAD_XREC_ROUNDTRIP
360
CC2
  0
DICTIONARY
  5
CC3
330
2C
100
AcDbDictionary
280
     1
281
     1
  3
ACAD_XREC_ROUNDTRIP
360
CC4
  0
DICTIONARY
  5
CC5
330
2D
100
AcDbDictionary
280
     1
281
     1
  3
ACAD_XREC_ROUNDTRIP
360
CC6
  0
DICTIONARY
  5
CC7
330
2E
100
AcDbDictionary
280
     1
281
     1
  3
ACAD_XREC_ROUNDTRIP
360
CC8
  0
DICTIONARY
  5
CCD
330
31
100
AcDbDictionary
280
     1
281
     1
  3
ACAD_XREC_ROUNDTRIP
360
CCE
  0
DICTIONARY
  5
CE1
330
3B
100
AcDbDictionary
280
     1
281
     1
  3
ACAD_XREC_ROUNDTRIP
360
CE2
  0
DICTIONARY
  5
CDB
330
38
100
AcDbDictionary
280
     1
281
     1
  3
ACAD_XREC_ROUNDTRIP
360
CDC
  0
DICTIONARY
  5
CE3
330
3C
100
AcDbDictionary
280
     1
281
     1
  3
ACAD_XREC_ROUNDTRIP
360
CE4
  0
DICTIONARY
  5
CD1
330
33
100
AcDbDictionary
280
     1
281
     1
  3
ACAD_XREC_ROUNDTRIP
360
CD2
  0
DICTIONARY
  5
CEF
330
42
100
AcDbDictionary
280
     1
281
     1
  3
ACAD_XREC_ROUNDTRIP
360
CF0
  0
DICTIONARY
  5
CED
330
41
100
AcDbDictionary
280
     1
281
     1
  3
ACAD_XREC_ROUNDTRIP
360
CEE
  0
DICTIONARY
  5
CE7
330
3E
100
AcDbDictionary
280
     1
281
     1
  3
ACAD_XREC_ROUNDTRIP
360
CE8
  0
DICTIONARY
  5
CE9
330
3F
100
AcDbDictionary
280
     1
281
     1
  3
ACAD_XREC_ROUNDTRIP
360
CEA
  0
DICTIONARY
  5
CD9
330
37
100
AcDbDictionary
280
     1
281
     1
  3
ACAD_XREC_ROUNDTRIP
360
CDA
  0
DICTIONARY
  5
CCB
330
30
100
AcDbDictionary
280
     1
281
     1
  3
ACAD_XREC_ROUNDTRIP
360
CCC
  0
DICTIONARY
  5
CEB
330
40
100
AcDbDictionary
280
     1
281
     1
  3
ACAD_XREC_ROUNDTRIP
360
CEC
  0
XRECORD
  5
CF5
102
{ACAD_REACTORS
330
CF4
102
}
330
CF4
100
AcDbXrecord
280
     1
102
DISPLAYNAME
  1
Metric50
102
FLAGS
 90
        0
  0
XRECORD
  5
CBE
102
{ACAD_REACTORS
330
CBD
102
}
330
CBD
100
AcDbXrecord
280
     1
102
SHADEPLOT
 70
     0
102
SHADEPLOTRESLEVEL
 70
     2
102
SHADEPLOTCUSTOMDPI
 70
   300
  0
XRECORD
  5
CC0
102
{ACAD_REACTORS
330
CBF
102
}
330
CBF
100
AcDbXrecord
280
     1
102
SHADEPLOT
 70
     0
102
SHADEPLOTRESLEVEL
 70
     2
102
SHADEPLOTCUSTOMDPI
 70
   300
  0
XRECORD
  5
CF7
102
{ACAD_REACTORS
330
CF6
102
}
330
CF6
100
AcDbXrecord
280
     1
102
SHADEPLOT
 70
     0
102
SHADEPLOTRESLEVEL
 70
     2
102
SHADEPLOTCUSTOMDPI
 70
   300
  0
XRECORD
  5
317
102
{ACAD_REACTORS
330
316
102
}
330
316
100
AcDbXrecord
280
     1
102
MATERIAL
148
0.0
149
0.0
149
0.0
 93
        0
 94
      127
282
     0
 72
     1
 77
     1
171
     1
175
     1
179
     1
273
     0
  0
XRECORD
  5
315
102
{ACAD_REACTORS
330
314
102
}
330
314
100
AcDbXrecord
280
     1
102
MATERIAL
148
0.0
149
0.0
149
0.0
 93
        0
 94
      127
282
     0
 72
     1
 77
     1
171
     1
175
     1
179
     1
273
     0
  0
XRECORD
  5
319
102
{ACAD_REACTORS
330
318
102
}
330
318
100
AcDbXrecord
280
     1
102
MATERIAL
148
0.0
149
0.0
149
0.0
 93
        0
 94
      127
282
     0
 72
     1
 77
     1
171
     1
175
     1
179
     1
273
     0
  0
XRECORD
  5
CF3
102
{ACAD_REACTORS
330
CF2
102
}
330
CF2
100
AcDbXrecord
280
     1
102
DISPLAYNAME
  1
Metric50
102
FLAGS
 90
        0
  0
CELLSTYLEMAP
  5
CBA
102
{ACAD_REACTORS
330
B45
102
}
330
B45
100
AcDbCellStyleMap
 90
        3
300
CELLSTYLE
  1
TABLEFORMAT_BEGIN
 90
        5
170
     1
 91
        0
 92
    32768
 62
   257
 93
        1
300
CONTENTFORMAT
  1
CONTENTFORMAT_BEGIN
 90
        0
 91
        0
 92
        4
 93
        0
300

 40
0.0
140
1.0
 94
        5
 62
     0
340
11
144
6.0
309
CONTENTFORMAT_END
171
     1
301
MARGIN
  1
CELLMARGIN_BEGIN
 40
1.5
 40
1.5
 40
1.5
 40
1.5
 40
0.18
 40
0.18
309
CELLMARGIN_END
 94
        6
 95
        1
302
GRIDFORMAT
  1
GRIDFORMAT_BEGIN
 90
        0
 91
        1
 62
     0
 92
       -2
340
0
 93
        0
 40
0.045
309
GRIDFORMAT_END
 95
        2
302
GRIDFORMAT
  1
GRIDFORMAT_BEGIN
 90
        0
 91
        1
 62
     0
 92
       -2
340
0
 93
        0
 40
0.045
309
GRIDFORMAT_END
 95
        4
302
GRIDFORMAT
  1
GRIDFORMAT_BEGIN
 90
        0
 91
        1
 62
     0
 92
       -2
340
0
 93
        0
 40
0.045
309
GRIDFORMAT_END
 95
        8
302
GRIDFORMAT
  1
GRIDFORMAT_BEGIN
 90
        0
 91
        1
 62
     0
 92
       -2
340
0
 93
        0
 40
0.045
309
GRIDFORMAT_END
 95
       16
302
GRIDFORMAT
  1
GRIDFORMAT_BEGIN
 90
        0
 91
        1
 62
     0
 92
       -2
340
0
 93
        0
 40
0.045
309
GRIDFORMAT_END
 95
       32
302
GRIDFORMAT
  1
GRIDFORMAT_BEGIN
 90
        0
 91
        1
 62
     0
 92
       -2
340
0
 93
        0
 40
0.045
309
GRIDFORMAT_END
309
TABLEFORMAT_END
  1
CELLSTYLE_BEGIN
 90
        1
 91
        1
300
_TITLE
309
CELLSTYLE_END
300
CELLSTYLE
  1
TABLEFORMAT_BEGIN
 90
        5
170
     1
 91
        0
 92
        0
 62
   257
 93
        1
300
CONTENTFORMAT
  1
CONTENTFORMAT_BEGIN
 90
        0
 91
        0
 92
        4
 93
        0
300

 40
0.0
140
1.0
 94
        5
 62
     0
340
11
144
4.5
309
CONTENTFORMAT_END
171
     1
301
MARGIN
  1
CELLMARGIN_BEGIN
 40
1.5
 40
1.5
 40
1.5
 40
1.5
 40
0.18
 40
0.18
309
CELLMARGIN_END
 94
        6
 95
        1
302
GRIDFORMAT
  1
GRIDFORMAT_BEGIN
 90
        0
 91
        1
 62
     0
 92
       -2
340
0
 93
        0
 40
0.045
309
GRIDFORMAT_END
 95
        2
302
GRIDFORMAT
  1
GRIDFORMAT_BEGIN
 90
        0
 91
        1
 62
     0
 92
       -2
340
0
 93
        0
 40
0.045
309
GRIDFORMAT_END
 95
        4
302
GRIDFORMAT
  1
GRIDFORMAT_BEGIN
 90
        0
 91
        1
 62
     0
 92
       -2
340
0
 93
        0
 40
0.045
309
GRIDFORMAT_END
 95
        8
302
GRIDFORMAT
  1
GRIDFORMAT_BEGIN
 90
        0
 91
        1
 62
     0
 92
       -2
340
0
 93
        0
 40
0.045
309
GRIDFORMAT_END
 95
       16
302
GRIDFORMAT
  1
GRIDFORMAT_BEGIN
 90
        0
 91
        1
 62
     0
 92
       -2
340
0
 93
        0
 40
0.045
309
GRIDFORMAT_END
 95
       32
302
GRIDFORMAT
  1
GRIDFORMAT_BEGIN
 90
        0
 91
        1
 62
     0
 92
       -2
340
0
 93
        0
 40
0.045
309
GRIDFORMAT_END
309
TABLEFORMAT_END
  1
CELLSTYLE_BEGIN
 90
        2
 91
        1
300
_HEADER
309
CELLSTYLE_END
300
CELLSTYLE
  1
TABLEFORMAT_BEGIN
 90
        5
170
     1
 91
        0
 92
        0
 62
   257
 93
        1
300
CONTENTFORMAT
  1
CONTENTFORMAT_BEGIN
 90
        0
 91
        0
 92
        4
 93
        0
300

 40
0.0
140
1.0
 94
        2
 62
     0
340
11
144
4.5
309
CONTENTFORMAT_END
171
     1
301
MARGIN
  1
CELLMARGIN_BEGIN
 40
1.5
 40
1.5
 40
1.5
 40
1.5
 40
0.18
 40
0.18
309
CELLMARGIN_END
 94
        6
 95
        1
302
GRIDFORMAT
  1
GRIDFORMAT_BEGIN
 90
        0
 91
        1
 62
     0
 92
       -2
340
0
 93
        0
 40
0.045
309
GRIDFORMAT_END
 95
        2
302
GRIDFORMAT
  1
GRIDFORMAT_BEGIN
 90
        0
 91
        1
 62
     0
 92
       -2
340
0
 93
        0
 40
0.045
309
GRIDFORMAT_END
 95
        4
302
GRIDFORMAT
  1
GRIDFORMAT_BEGIN
 90
        0
 91
        1
 62
     0
 92
       -2
340
0
 93
        0
 40
0.045
309
GRIDFORMAT_END
 95
        8
302
GRIDFORMAT
  1
GRIDFORMAT_BEGIN
 90
        0
 91
        1
 62
     0
 92
       -2
340
0
 93
        0
 40
0.045
309
GRIDFORMAT_END
 95
       16
302
GRIDFORMAT
  1
GRIDFORMAT_BEGIN
 90
        0
 91
        1
 62
     0
 92
       -2
340
0
 93
        0
 40
0.045
309
GRIDFORMAT_END
 95
       32
302
GRIDFORMAT
  1
GRIDFORMAT_BEGIN
 90
        0
 91
        1
 62
     0
 92
       -2
340
0
 93
        0
 40
0.045
309
GRIDFORMAT_END
309
TABLEFORMAT_END
  1
CELLSTYLE_BEGIN
 90
        3
 91
        2
300
_DATA
309
CELLSTYLE_END
  0
XRECORD
  5
CF1
102
{ACAD_REACTORS
330
B45
102
}
330
B45
100
AcDbXrecord
280
     1
102
ACAD_ROUNDTRIP_PRE2007_TABLESTYLE
 90
        4
 91
        0
  1

 92
        4
 93
        0
  2

 94
        4
 95
        0
  3

  0
XRECORD
  5
CCA
102
{ACAD_REACTORS
330
CC9
102
}
330
CC9
100
AcDbXrecord
280
     1
102
RTVSPost2010Prop28
280
     1
102
RTVSPost2010PropOp28
 70
     1
102
RTVSPost2010Prop29
280
     1
102
RTVSPost2010PropOp29
 70
     1
102
RTVSPost2010Prop30
280
     0
102
RTVSPost2010PropOp30
 70
     1
102
RTVSPost2010Prop31
280
     0
102
RTVSPost2010PropOp31
 70
     1
102
RTVSPost2010Prop32
280
     0
102
RTVSPost2010PropOp32
 70
     1
102
RTVSPost2010Prop33
280
     0
102
RTVSPost2010PropOp33
 70
     1
102
RTVSPost2010Prop34
280
     0
102
RTVSPost2010PropOp34
 70
     1
102
RTVSPost2010Prop35
280
     0
102
RTVSPost2010PropOp35
 70
     1
102
RTVSPost2010Prop36
280
     0
102
RTVSPost2010PropOp36
 70
     1
102
RTVSPost2010Prop37
 90
       50
102
RTVSPost2010PropOp37
 70
     1
102
RTVSPost2010Prop38
140
0.0
102
RTVSPost2010PropOp38
 70
     1
102
RTVSPost2010Prop39
140
1.0
102
RTVSPost2010PropOp39
 70
     1
102
RTVSPost2010Prop40
 90
        0
102
RTVSPost2010PropOp40
 70
     1
102
RTVSPost2010Prop41ColorIndex
 90
       18
102
RTVSPost2010Prop41ColorRGB
 90
        0
102
RTVSPost2010PropOp41
 70
     1
102
RTVSPost2010Prop42
 90
       50
102
RTVSPost2010PropOp42
 70
     1
102
RTVSPost2010Prop43
 90
        3
102
RTVSPost2010PropOp43
 70
     1
102
RTVSPost2010Prop44ColorIndex
 90
        5
102
RTVSPost2010Prop44ColorRGB
 90
      255
102
RTVSPost2010PropOp44
 70
     1
102
RTVSPost2010Prop45
280
     0
102
RTVSPost2010PropOp45
 70
     1
102
RTVSPost2010Prop46
 90
       50
102
RTVSPost2010PropOp46
 70
     1
102
RTVSPost2010Prop47
 90
       50
102
RTVSPost2010PropOp47
 70
     1
102
RTVSPost2010Prop48
 90
       50
102
RTVSPost2010PropOp48
 70
     1
102
RTVSPost2010Prop49
280
     0
102
RTVSPost2010PropOp49
 70
     1
102
RTVSPost2010Prop50
 90
       50
102
RTVSPost2010PropOp50
 70
     1
102
RTVSPost2010Prop51ColorIndex
 90
      256
102
RTVSPost2010Prop51ColorRGB
 90
-16777216
102
RTVSPost2010PropOp51
 70
     0
102
RTVSPost2010Prop52
140
1.0
102
RTVSPost2010PropOp52
 70
     0
102
RTVSPost2010Prop53
 90
        2
102
RTVSPost2010PropOp53
 70
     1
102
RTVSPost2010Prop54
  1
strokes_ogs.tif
102
RTVSPost2010PropOp54
 70
     1
102
RTVSPost2010Prop55
280
     0
102
RTVSPost2010PropOp55
 70
     1
102
RTVSPost2010Prop56
140
1.0
102
RTVSPost2010PropOp56
 70
     1
102
RTVSPost2010Prop57
140
1.0
102
RTVSPost2010PropOp57
 70
     1
102
RTVSPropertyOp0
 70
     1
102
RTVSPropertyOp1
 70
     1
102
RTVSPropertyOp2
 70
     1
102
RTVSPropertyOp3
 70
     1
102
RTVSPropertyOp4
 70
     1
102
RTVSPropertyOp5
 70
     1
102
RTVSPropertyOp6
 70
     1
102
RTVSPropertyOp7
 70
     1
102
RTVSPropertyOp8
 70
     1
102
RTVSPropertyOp9
 70
     1
102
RTVSPropertyOp10
 70
     1
102
RTVSPropertyOp11
 70
     1
102
RTVSPropertyOp12
 70
     1
102
RTVSPropertyOp13
 70
     1
102
RTVSPropertyOp14
 70
     1
102
RTVSPropertyOp15
 70
     1
102
RTVSPropertyOp16
 70
     1
102
RTVSPropertyOp17
 70
     1
102
RTVSPropertyOp18
 70
     1
102
RTVSPropertyOp19
 70
     1
102
RTVSPropertyOp20
 70
     1
102
RTVSPropertyOp21
 70
     1
102
RTVSPropertyOp22
 70
     1
102
RTVSPropertyOp23
 70
     1
102
RTVSPropertyOp24
 70
     1
102
RTVSPropertyOp25
 70
     1
102
RTVSPropertyOp26
 70
     1
102
RTVSPropertyOp27
 70
     1
102
RTVSPropertyOp28
 70
     1
102
RTVSPropertyOp29
 70
     1
102
RTVSPropertyOp30
 70
     1
102
RTVSPropertyOp31
 70
     1
102
RTVSPropertyOp32
 70
     1
102
RTVSPropertyOp33
 70
     1
102
RTVSPropertyOp34
 70
     1
102
RTVSPropertyOp35
 70
     1
102
RTVSPropertyOp36
 70
     1
102
RTVSPropertyOp37
 70
     1
102
RTVSPropertyOp38
 70
     1
102
RTVSPropertyOp39
 70
     1
102
RTVSPropertyOp40
 70
     1
102
RTVSPropertyOp41
 70
     1
102
RTVSPropertyOp42
 70
     1
102
RTVSPropertyOp43
 70
     1
102
RTVSPropertyOp44
 70
     1
102
RTVSPropertyOp45
 70
     1
102
RTVSPropertyOp46
 70
     1
102
RTVSPropertyOp47
 70
     1
102
RTVSPropertyOp48
 70
     1
102
RTVSPropertyOp49
 70
     1
102
RTVSPropertyOp50
 70
     1
102
RTVSPropertyOp51
 70
     0
102
RTVSPropertyOp52
 70
     0
102
RTVSPropertyOp53
 70
     1
102
RTVSPropertyOp54
 70
     1
102
RTVSPropertyOp55
 70
     1
102
RTVSPropertyOp56
 70
     1
102
RTVSPropertyOp57
 70
     1
102
RTVSPropertyOp58
 70
     1
102
RTVSPropertyOp59
 70
     1
102
RTVSPropertyOp60
 70
     1
102
RTVSPropertyOp61
 70
     1
102
RTVSPropertyOp62
 70
     1
  0
XRECORD
  5
CD0
102
{ACAD_REACTORS
330
CCF
102
}
330
CCF
100
AcDbXrecord
280
     1
102
RTVSPost2010Prop28
280
     0
102
RTVSPost2010PropOp28
 70
     1
102
RTVSPost2010Prop29
280
     1
102
RTVSPost2010PropOp29
 70
     1
102
RTVSPost2010Prop30
280
     1
102
RTVSPost2010PropOp30
 70
     1
102
RTVSPost2010Prop31
280
     0
102
RTVSPost2010PropOp31
 70
     1
102
RTVSPost2010Prop32
280
     0
102
RTVSPost2010PropOp32
 70
     1
102
RTVSPost2010Prop33
280
     0
102
RTVSPost2010PropOp33
 70
     1
102
RTVSPost2010Prop34
280
     0
102
RTVSPost2010PropOp34
 70
     1
102
RTVSPost2010Prop35
280
     0
102
RTVSPost2010PropOp35
 70
     1
102
RTVSPost2010Prop36
280
     0
102
RTVSPost2010PropOp36
 70
     1
102
RTVSPost2010Prop37
 90
       50
102
RTVSPost2010PropOp37
 70
     1
102
RTVSPost2010Prop38
140
0.0
102
RTVSPost2010PropOp38
 70
     1
102
RTVSPost2010Prop39
140
1.0
102
RTVSPost2010PropOp39
 70
     1
102
RTVSPost2010Prop40
 90
        0
102
RTVSPost2010PropOp40
 70
     1
102
RTVSPost2010Prop41ColorIndex
 90
       18
102
RTVSPost2010Prop41ColorRGB
 90
        0
102
RTVSPost2010PropOp41
 70
     1
102
RTVSPost2010Prop42
 90
       50
102
RTVSPost2010PropOp42
 70
     1
102
RTVSPost2010Prop43
 90
        3
102
RTVSPost2010PropOp43
 70
     1
102
RTVSPost2010Prop44ColorIndex
 90
        5
102
RTVSPost2010Prop44ColorRGB
 90
      255
102
RTVSPost2010PropOp44
 70
     1
102
RTVSPost2010Prop45
280
     0
102
RTVSPost2010PropOp45
 70
     1
102
RTVSPost2010Prop46
 90
       50
102
RTVSPost2010PropOp46
 70
     1
102
RTVSPost2010Prop47
 90
       50
102
RTVSPost2010PropOp47
 70
     1
102
RTVSPost2010Prop48
 90
       50
102
RTVSPost2010PropOp48
 70
     1
102
RTVSPost2010Prop49
280
     0
102
RTVSPost2010PropOp49
 70
     1
102
RTVSPost2010Prop50
 90
       50
102
RTVSPost2010PropOp50
 70
     1
102
RTVSPost2010Prop51ColorIndex
 90
      256
102
RTVSPost2010Prop51ColorRGB
 90
-16777216
102
RTVSPost2010PropOp51
 70
     0
102
RTVSPost2010Prop52
140
1.0
102
RTVSPost2010PropOp52
 70
     0
102
RTVSPost2010Prop53
 90
        2
102
RTVSPost2010PropOp53
 70
     1
102
RTVSPost2010Prop54
  1
strokes_ogs.tif
102
RTVSPost2010PropOp54
 70
     1
102
RTVSPost2010Prop55
280
     0
102
RTVSPost2010PropOp55
 70
     1
102
RTVSPost2010Prop56
140
1.0
102
RTVSPost2010PropOp56
 70
     1
102
RTVSPost2010Prop57
140
1.0
102
RTVSPost2010PropOp57
 70
     1
102
RTVSPropertyOp0
 70
     1
102
RTVSPropertyOp1
 70
     1
102
RTVSPropertyOp2
 70
     1
102
RTVSPropertyOp3
 70
     1
102
RTVSPropertyOp4
 70
     1
102
RTVSPropertyOp5
 70
     1
102
RTVSPropertyOp6
 70
     1
102
RTVSPropertyOp7
 70
     1
102
RTVSPropertyOp8
 70
     1
102
RTVSPropertyOp9
 70
     1
102
RTVSPropertyOp10
 70
     1
102
RTVSPropertyOp11
 70
     1
102
RTVSPropertyOp12
 70
     1
102
RTVSPropertyOp13
 70
     1
102
RTVSPropertyOp14
 70
     1
102
RTVSPropertyOp15
 70
     1
102
RTVSPropertyOp16
 70
     1
102
RTVSPropertyOp17
 70
     1
102
RTVSPropertyOp18
 70
     1
102
RTVSPropertyOp19
 70
     1
102
RTVSPropertyOp20
 70
     1
102
RTVSPropertyOp21
 70
     1
102
RTVSPropertyOp22
 70
     1
102
RTVSPropertyOp23
 70
     1
102
RTVSPropertyOp24
 70
     1
102
RTVSPropertyOp25
 70
     1
102
RTVSPropertyOp26
 70
     1
102
RTVSPropertyOp27
 70
     1
102
RTVSPropertyOp28
 70
     1
102
RTVSPropertyOp29
 70
     1
102
RTVSPropertyOp30
 70
     1
102
RTVSPropertyOp31
 70
     1
102
RTVSPropertyOp32
 70
     1
102
RTVSPropertyOp33
 70
     1
102
RTVSPropertyOp34
 70
     1
102
RTVSPropertyOp35
 70
     1
102
RTVSPropertyOp36
 70
     1
102
RTVSPropertyOp37
 70
     1
102
RTVSPropertyOp38
 70
     1
102
RTVSPropertyOp39
 70
     1
102
RTVSPropertyOp40
 70
     1
102
RTVSPropertyOp41
 70
     1
102
RTVSPropertyOp42
 70
     1
102
RTVSPropertyOp43
 70
     1
102
RTVSPropertyOp44
 70
     1
102
RTVSPropertyOp45
 70
     1
102
RTVSPropertyOp46
 70
     1
102
RTVSPropertyOp47
 70
     1
102
RTVSPropertyOp48
 70
     1
102
RTVSPropertyOp49
 70
     1
102
RTVSPropertyOp50
 70
     1
102
RTVSPropertyOp51
 70
     0
102
RTVSPropertyOp52
 70
     0
102
RTVSPropertyOp53
 70
     1
102
RTVSPropertyOp54
 70
     1
102
RTVSPropertyOp55
 70
     1
102
RTVSPropertyOp56
 70
     1
102
RTVSPropertyOp57
 70
     1
102
RTVSPropertyOp58
 70
     1
102
RTVSPropertyOp59
 70
     1
102
RTVSPropertyOp60
 70
     1
102
RTVSPropertyOp61
 70
     1
102
RTVSPropertyOp62
 70
     1
  0
XRECORD
  5
CD8
102
{ACAD_REACTORS
330
CD7
102
}
330
CD7
100
AcDbXrecord
280
     1
102
RTVSPost2010Prop28
280
     0
102
RTVSPost2010PropOp28
 70
     1
102
RTVSPost2010Prop29
280
     1
102
RTVSPost2010PropOp29
 70
     1
102
RTVSPost2010Prop30
280
     1
102
RTVSPost2010PropOp30
 70
     1
102
RTVSPost2010Prop31
280
     0
102
RTVSPost2010PropOp31
 70
     1
102
RTVSPost2010Prop32
280
     0
102
RTVSPost2010PropOp32
 70
     1
102
RTVSPost2010Prop33
280
     0
102
RTVSPost2010PropOp33
 70
     1
102
RTVSPost2010Prop34
280
     0
102
RTVSPost2010PropOp34
 70
     1
102
RTVSPost2010Prop35
280
     0
102
RTVSPost2010PropOp35
 70
     1
102
RTVSPost2010Prop36
280
     0
102
RTVSPost2010PropOp36
 70
     1
102
RTVSPost2010Prop37
 90
       50
102
RTVSPost2010PropOp37
 70
     1
102
RTVSPost2010Prop38
140
0.0
102
RTVSPost2010PropOp38
 70
     1
102
RTVSPost2010Prop39
140
1.0
102
RTVSPost2010PropOp39
 70
     1
102
RTVSPost2010Prop40
 90
        0
102
RTVSPost2010PropOp40
 70
     1
102
RTVSPost2010Prop41ColorIndex
 90
       18
102
RTVSPost2010Prop41ColorRGB
 90
        0
102
RTVSPost2010PropOp41
 70
     1
102
RTVSPost2010Prop42
 90
       50
102
RTVSPost2010PropOp42
 70
     1
102
RTVSPost2010Prop43
 90
        3
102
RTVSPost2010PropOp43
 70
     1
102
RTVSPost2010Prop44ColorIndex
 90
        5
102
RTVSPost2010Prop44ColorRGB
 90
      255
102
RTVSPost2010PropOp44
 70
     1
102
RTVSPost2010Prop45
280
     0
102
RTVSPost2010PropOp45
 70
     1
102
RTVSPost2010Prop46
 90
       50
102
RTVSPost2010PropOp46
 70
     1
102
RTVSPost2010Prop47
 90
       50
102
RTVSPost2010PropOp47
 70
     1
102
RTVSPost2010Prop48
 90
       50
102
RTVSPost2010PropOp48
 70
     1
102
RTVSPost2010Prop49
280
     0
102
RTVSPost2010PropOp49
 70
     1
102
RTVSPost2010Prop50
 90
       50
102
RTVSPost2010PropOp50
 70
     1
102
RTVSPost2010Prop51ColorIndex
 90
      256
102
RTVSPost2010Prop51ColorRGB
 90
-16777216
102
RTVSPost2010PropOp51
 70
     0
102
RTVSPost2010Prop52
140
1.0
102
RTVSPost2010PropOp52
 70
     0
102
RTVSPost2010Prop53
 90
        2
102
RTVSPost2010PropOp53
 70
     1
102
RTVSPost2010Prop54
  1
strokes_ogs.tif
102
RTVSPost2010PropOp54
 70
     1
102
RTVSPost2010Prop55
280
     0
102
RTVSPost2010PropOp55
 70
     1
102
RTVSPost2010Prop56
140
1.0
102
RTVSPost2010PropOp56
 70
     1
102
RTVSPost2010Prop57
140
1.0
102
RTVSPost2010PropOp57
 70
     1
102
RTVSPropertyOp0
 70
     1
102
RTVSPropertyOp1
 70
     1
102
RTVSPropertyOp2
 70
     1
102
RTVSPropertyOp3
 70
     1
102
RTVSPropertyOp4
 70
     1
102
RTVSPropertyOp5
 70
     1
102
RTVSPropertyOp6
 70
     1
102
RTVSPropertyOp7
 70
     1
102
RTVSPropertyOp8
 70
     1
102
RTVSPropertyOp9
 70
     1
102
RTVSPropertyOp10
 70
     1
102
RTVSPropertyOp11
 70
     1
102
RTVSPropertyOp12
 70
     1
102
RTVSPropertyOp13
 70
     1
102
RTVSPropertyOp14
 70
     1
102
RTVSPropertyOp15
 70
     1
102
RTVSPropertyOp16
 70
     1
102
RTVSPropertyOp17
 70
     1
102
RTVSPropertyOp18
 70
     1
102
RTVSPropertyOp19
 70
     1
102
RTVSPropertyOp20
 70
     1
102
RTVSPropertyOp21
 70
     1
102
RTVSPropertyOp22
 70
     1
102
RTVSPropertyOp23
 70
     1
102
RTVSPropertyOp24
 70
     1
102
RTVSPropertyOp25
 70
     1
102
RTVSPropertyOp26
 70
     1
102
RTVSPropertyOp27
 70
     1
102
RTVSPropertyOp28
 70
     1
102
RTVSPropertyOp29
 70
     1
102
RTVSPropertyOp30
 70
     1
102
RTVSPropertyOp31
 70
     1
102
RTVSPropertyOp32
 70
     1
102
RTVSPropertyOp33
 70
     1
102
RTVSPropertyOp34
 70
     1
102
RTVSPropertyOp35
 70
     1
102
RTVSPropertyOp36
 70
     1
102
RTVSPropertyOp37
 70
     1
102
RTVSPropertyOp38
 70
     1
102
RTVSPropertyOp39
 70
     1
102
RTVSPropertyOp40
 70
     1
102
RTVSPropertyOp41
 70
     1
102
RTVSPropertyOp42
 70
     1
102
RTVSPropertyOp43
 70
     1
102
RTVSPropertyOp44
 70
     1
102
RTVSPropertyOp45
 70
     1
102
RTVSPropertyOp46
 70
     1
102
RTVSPropertyOp47
 70
     1
102
RTVSPropertyOp48
 70
     1
102
RTVSPropertyOp49
 70
     1
102
RTVSPropertyOp50
 70
     1
102
RTVSPropertyOp51
 70
     0
102
RTVSPropertyOp52
 70
     0
102
RTVSPropertyOp53
 70
     1
102
RTVSPropertyOp54
 70
     1
102
RTVSPropertyOp55
 70
     1
102
RTVSPropertyOp56
 70
     1
102
RTVSPropertyOp57
 70
     1
102
RTVSPropertyOp58
 70
     1
102
RTVSPropertyOp59
 70
     1
102
RTVSPropertyOp60
 70
     1
102
RTVSPropertyOp61
 70
     1
102
RTVSPropertyOp62
 70
     1
  0
XRECORD
  5
CE0
102
{ACAD_REACTORS
330
CDF
102
}
330
CDF
100
AcDbXrecord
280
     1
102
RTVSPost2010Prop28
280
     0
102
RTVSPost2010PropOp28
 70
     1
102
RTVSPost2010Prop29
280
     1
102
RTVSPost2010PropOp29
 70
     1
102
RTVSPost2010Prop30
280
     1
102
RTVSPost2010PropOp30
 70
     1
102
RTVSPost2010Prop31
280
     0
102
RTVSPost2010PropOp31
 70
     1
102
RTVSPost2010Prop32
280
     0
102
RTVSPost2010PropOp32
 70
     1
102
RTVSPost2010Prop33
280
     0
102
RTVSPost2010PropOp33
 70
     1
102
RTVSPost2010Prop34
280
     0
102
RTVSPost2010PropOp34
 70
     1
102
RTVSPost2010Prop35
280
     0
102
RTVSPost2010PropOp35
 70
     1
102
RTVSPost2010Prop36
280
     0
102
RTVSPost2010PropOp36
 70
     1
102
RTVSPost2010Prop37
 90
       50
102
RTVSPost2010PropOp37
 70
     1
102
RTVSPost2010Prop38
140
0.0
102
RTVSPost2010PropOp38
 70
     1
102
RTVSPost2010Prop39
140
1.0
102
RTVSPost2010PropOp39
 70
     1
102
RTVSPost2010Prop40
 90
        0
102
RTVSPost2010PropOp40
 70
     1
102
RTVSPost2010Prop41ColorIndex
 90
       18
102
RTVSPost2010Prop41ColorRGB
 90
        0
102
RTVSPost2010PropOp41
 70
     1
102
RTVSPost2010Prop42
 90
       50
102
RTVSPost2010PropOp42
 70
     1
102
RTVSPost2010Prop43
 90
        3
102
RTVSPost2010PropOp43
 70
     1
102
RTVSPost2010Prop44ColorIndex
 90
        5
102
RTVSPost2010Prop44ColorRGB
 90
      255
102
RTVSPost2010PropOp44
 70
     1
102
RTVSPost2010Prop45
280
     0
102
RTVSPost2010PropOp45
 70
     1
102
RTVSPost2010Prop46
 90
       50
102
RTVSPost2010PropOp46
 70
     1
102
RTVSPost2010Prop47
 90
       50
102
RTVSPost2010PropOp47
 70
     1
102
RTVSPost2010Prop48
 90
       50
102
RTVSPost2010PropOp48
 70
     1
102
RTVSPost2010Prop49
280
     0
102
RTVSPost2010PropOp49
 70
     1
102
RTVSPost2010Prop50
 90
       50
102
RTVSPost2010PropOp50
 70
     1
102
RTVSPost2010Prop51ColorIndex
 90
      256
102
RTVSPost2010Prop51ColorRGB
 90
-16777216
102
RTVSPost2010PropOp51
 70
     0
102
RTVSPost2010Prop52
140
1.0
102
RTVSPost2010PropOp52
 70
     0
102
RTVSPost2010Prop53
 90
        2
102
RTVSPost2010PropOp53
 70
     1
102
RTVSPost2010Prop54
  1
strokes_ogs.tif
102
RTVSPost2010PropOp54
 70
     1
102
RTVSPost2010Prop55
280
     0
102
RTVSPost2010PropOp55
 70
     1
102
RTVSPost2010Prop56
140
1.0
102
RTVSPost2010PropOp56
 70
     1
102
RTVSPost2010Prop57
140
1.0
102
RTVSPost2010PropOp57
 70
     1
102
RTVSPropertyOp0
 70
     1
102
RTVSPropertyOp1
 70
     1
102
RTVSPropertyOp2
 70
     1
102
RTVSPropertyOp3
 70
     1
102
RTVSPropertyOp4
 70
     1
102
RTVSPropertyOp5
 70
     1
102
RTVSPropertyOp6
 70
     1
102
RTVSPropertyOp7
 70
     1
102
RTVSPropertyOp8
 70
     1
102
RTVSPropertyOp9
 70
     1
102
RTVSPropertyOp10
 70
     1
102
RTVSPropertyOp11
 70
     1
102
RTVSPropertyOp12
 70
     1
102
RTVSPropertyOp13
 70
     1
102
RTVSPropertyOp14
 70
     1
102
RTVSPropertyOp15
 70
     1
102
RTVSPropertyOp16
 70
     1
102
RTVSPropertyOp17
 70
     1
102
RTVSPropertyOp18
 70
     1
102
RTVSPropertyOp19
 70
     1
102
RTVSPropertyOp20
 70
     1
102
RTVSPropertyOp21
 70
     1
102
RTVSPropertyOp22
 70
     1
102
RTVSPropertyOp23
 70
     1
102
RTVSPropertyOp24
 70
     1
102
RTVSPropertyOp25
 70
     1
102
RTVSPropertyOp26
 70
     1
102
RTVSPropertyOp27
 70
     1
102
RTVSPropertyOp28
 70
     1
102
RTVSPropertyOp29
 70
     1
102
RTVSPropertyOp30
 70
     1
102
RTVSPropertyOp31
 70
     1
102
RTVSPropertyOp32
 70
     1
102
RTVSPropertyOp33
 70
     1
102
RTVSPropertyOp34
 70
     1
102
RTVSPropertyOp35
 70
     1
102
RTVSPropertyOp36
 70
     1
102
RTVSPropertyOp37
 70
     1
102
RTVSPropertyOp38
 70
     1
102
RTVSPropertyOp39
 70
     1
102
RTVSPropertyOp40
 70
     1
102
RTVSPropertyOp41
 70
     1
102
RTVSPropertyOp42
 70
     1
102
RTVSPropertyOp43
 70
     1
102
RTVSPropertyOp44
 70
     1
102
RTVSPropertyOp45
 70
     1
102
RTVSPropertyOp46
 70
     1
102
RTVSPropertyOp47
 70
     1
102
RTVSPropertyOp48
 70
     1
102
RTVSPropertyOp49
 70
     1
102
RTVSPropertyOp50
 70
     1
102
RTVSPropertyOp51
 70
     0
102
RTVSPropertyOp52
 70
     0
102
RTVSPropertyOp53
 70
     1
102
RTVSPropertyOp54
 70
     1
102
RTVSPropertyOp55
 70
     1
102
RTVSPropertyOp56
 70
     1
102
RTVSPropertyOp57
 70
     1
102
RTVSPropertyOp58
 70
     1
102
RTVSPropertyOp59
 70
     1
102
RTVSPropertyOp60
 70
     1
102
RTVSPropertyOp61
 70
     1
102
RTVSPropertyOp62
 70
     1
  0
XRECORD
  5
CD4
102
{ACAD_REACTORS
330
CD3
102
}
330
CD3
100
AcDbXrecord
280
     1
102
RTVSPost2010Prop28
280
     0
102
RTVSPost2010PropOp28
 70
     1
102
RTVSPost2010Prop29
280
     1
102
RTVSPost2010PropOp29
 70
     1
102
RTVSPost2010Prop30
280
     1
102
RTVSPost2010PropOp30
 70
     1
102
RTVSPost2010Prop31
280
     0
102
RTVSPost2010PropOp31
 70
     1
102
RTVSPost2010Prop32
280
     0
102
RTVSPost2010PropOp32
 70
     1
102
RTVSPost2010Prop33
280
     0
102
RTVSPost2010PropOp33
 70
     1
102
RTVSPost2010Prop34
280
     0
102
RTVSPost2010PropOp34
 70
     1
102
RTVSPost2010Prop35
280
     0
102
RTVSPost2010PropOp35
 70
     1
102
RTVSPost2010Prop36
280
     0
102
RTVSPost2010PropOp36
 70
     1
102
RTVSPost2010Prop37
 90
       50
102
RTVSPost2010PropOp37
 70
     1
102
RTVSPost2010Prop38
140
0.0
102
RTVSPost2010PropOp38
 70
     1
102
RTVSPost2010Prop39
140
1.0
102
RTVSPost2010PropOp39
 70
     1
102
RTVSPost2010Prop40
 90
        0
102
RTVSPost2010PropOp40
 70
     1
102
RTVSPost2010Prop41ColorIndex
 90
       18
102
RTVSPost2010Prop41ColorRGB
 90
        0
102
RTVSPost2010PropOp41
 70
     1
102
RTVSPost2010Prop42
 90
       50
102
RTVSPost2010PropOp42
 70
     1
102
RTVSPost2010Prop43
 90
        3
102
RTVSPost2010PropOp43
 70
     1
102
RTVSPost2010Prop44ColorIndex
 90
        5
102
RTVSPost2010Prop44ColorRGB
 90
      255
102
RTVSPost2010PropOp44
 70
     1
102
RTVSPost2010Prop45
280
     0
102
RTVSPost2010PropOp45
 70
     1
102
RTVSPost2010Prop46
 90
       50
102
RTVSPost2010PropOp46
 70
     1
102
RTVSPost2010Prop47
 90
       50
102
RTVSPost2010PropOp47
 70
     1
102
RTVSPost2010Prop48
 90
       50
102
RTVSPost2010PropOp48
 70
     1
102
RTVSPost2010Prop49
280
     0
102
RTVSPost2010PropOp49
 70
     1
102
RTVSPost2010Prop50
 90
       50
102
RTVSPost2010PropOp50
 70
     1
102
RTVSPost2010Prop51ColorIndex
 90
      256
102
RTVSPost2010Prop51ColorRGB
 90
-16777216
102
RTVSPost2010PropOp51
 70
     0
102
RTVSPost2010Prop52
140
1.0
102
RTVSPost2010PropOp52
 70
     0
102
RTVSPost2010Prop53
 90
        2
102
RTVSPost2010PropOp53
 70
     1
102
RTVSPost2010Prop54
  1
strokes_ogs.tif
102
RTVSPost2010PropOp54
 70
     1
102
RTVSPost2010Prop55
280
     0
102
RTVSPost2010PropOp55
 70
     1
102
RTVSPost2010Prop56
140
1.0
102
RTVSPost2010PropOp56
 70
     1
102
RTVSPost2010Prop57
140
1.0
102
RTVSPost2010PropOp57
 70
     1
102
RTVSPropertyOp0
 70
     1
102
RTVSPropertyOp1
 70
     1
102
RTVSPropertyOp2
 70
     1
102
RTVSPropertyOp3
 70
     1
102
RTVSPropertyOp4
 70
     1
102
RTVSPropertyOp5
 70
     1
102
RTVSPropertyOp6
 70
     1
102
RTVSPropertyOp7
 70
     1
102
RTVSPropertyOp8
 70
     1
102
RTVSPropertyOp9
 70
     1
102
RTVSPropertyOp10
 70
     1
102
RTVSPropertyOp11
 70
     1
102
RTVSPropertyOp12
 70
     1
102
RTVSPropertyOp13
 70
     1
102
RTVSPropertyOp14
 70
     1
102
RTVSPropertyOp15
 70
     1
102
RTVSPropertyOp16
 70
     1
102
RTVSPropertyOp17
 70
     1
102
RTVSPropertyOp18
 70
     1
102
RTVSPropertyOp19
 70
     1
102
RTVSPropertyOp20
 70
     1
102
RTVSPropertyOp21
 70
     1
102
RTVSPropertyOp22
 70
     1
102
RTVSPropertyOp23
 70
     1
102
RTVSPropertyOp24
 70
     1
102
RTVSPropertyOp25
 70
     1
102
RTVSPropertyOp26
 70
     1
102
RTVSPropertyOp27
 70
     1
102
RTVSPropertyOp28
 70
     1
102
RTVSPropertyOp29
 70
     1
102
RTVSPropertyOp30
 70
     1
102
RTVSPropertyOp31
 70
     1
102
RTVSPropertyOp32
 70
     1
102
RTVSPropertyOp33
 70
     1
102
RTVSPropertyOp34
 70
     1
102
RTVSPropertyOp35
 70
     1
102
RTVSPropertyOp36
 70
     1
102
RTVSPropertyOp37
 70
     1
102
RTVSPropertyOp38
 70
     1
102
RTVSPropertyOp39
 70
     1
102
RTVSPropertyOp40
 70
     1
102
RTVSPropertyOp41
 70
     1
102
RTVSPropertyOp42
 70
     1
102
RTVSPropertyOp43
 70
     1
102
RTVSPropertyOp44
 70
     1
102
RTVSPropertyOp45
 70
     1
102
RTVSPropertyOp46
 70
     1
102
RTVSPropertyOp47
 70
     1
102
RTVSPropertyOp48
 70
     1
102
RTVSPropertyOp49
 70
     1
102
RTVSPropertyOp50
 70
     1
102
RTVSPropertyOp51
 70
     0
102
RTVSPropertyOp52
 70
     0
102
RTVSPropertyOp53
 70
     1
102
RTVSPropertyOp54
 70
     1
102
RTVSPropertyOp55
 70
     1
102
RTVSPropertyOp56
 70
     1
102
RTVSPropertyOp57
 70
     1
102
RTVSPropertyOp58
 70
     1
102
RTVSPropertyOp59
 70
     1
102
RTVSPropertyOp60
 70
     1
102
RTVSPropertyOp61
 70
     1
102
RTVSPropertyOp62
 70
     1
  0
XRECORD
  5
CD6
102
{ACAD_REACTORS
330
CD5
102
}
330
CD5
100
AcDbXrecord
280
     1
102
RTVSPost2010Prop28
280
     0
102
RTVSPost2010PropOp28
 70
     1
102
RTVSPost2010Prop29
280
     1
102
RTVSPost2010PropOp29
 70
     1
102
RTVSPost2010Prop30
280
     1
102
RTVSPost2010PropOp30
 70
     1
102
RTVSPost2010Prop31
280
     0
102
RTVSPost2010PropOp31
 70
     1
102
RTVSPost2010Prop32
280
     0
102
RTVSPost2010PropOp32
 70
     1
102
RTVSPost2010Prop33
280
     0
102
RTVSPost2010PropOp33
 70
     1
102
RTVSPost2010Prop34
280
     0
102
RTVSPost2010PropOp34
 70
     1
102
RTVSPost2010Prop35
280
     0
102
RTVSPost2010PropOp35
 70
     1
102
RTVSPost2010Prop36
280
     0
102
RTVSPost2010PropOp36
 70
     1
102
RTVSPost2010Prop37
 90
       50
102
RTVSPost2010PropOp37
 70
     1
102
RTVSPost2010Prop38
140
0.0
102
RTVSPost2010PropOp38
 70
     1
102
RTVSPost2010Prop39
140
1.0
102
RTVSPost2010PropOp39
 70
     1
102
RTVSPost2010Prop40
 90
        0
102
RTVSPost2010PropOp40
 70
     1
102
RTVSPost2010Prop41ColorIndex
 90
       18
102
RTVSPost2010Prop41ColorRGB
 90
        0
102
RTVSPost2010PropOp41
 70
     1
102
RTVSPost2010Prop42
 90
       50
102
RTVSPost2010PropOp42
 70
     1
102
RTVSPost2010Prop43
 90
        3
102
RTVSPost2010PropOp43
 70
     1
102
RTVSPost2010Prop44ColorIndex
 90
        5
102
RTVSPost2010Prop44ColorRGB
 90
      255
102
RTVSPost2010PropOp44
 70
     1
102
RTVSPost2010Prop45
280
     0
102
RTVSPost2010PropOp45
 70
     1
102
RTVSPost2010Prop46
 90
       50
102
RTVSPost2010PropOp46
 70
     1
102
RTVSPost2010Prop47
 90
       50
102
RTVSPost2010PropOp47
 70
     1
102
RTVSPost2010Prop48
 90
       50
102
RTVSPost2010PropOp48
 70
     1
102
RTVSPost2010Prop49
280
     0
102
RTVSPost2010PropOp49
 70
     1
102
RTVSPost2010Prop50
 90
       50
102
RTVSPost2010PropOp50
 70
     1
102
RTVSPost2010Prop51ColorIndex
 90
      256
102
RTVSPost2010Prop51ColorRGB
 90
-16777216
102
RTVSPost2010PropOp51
 70
     0
102
RTVSPost2010Prop52
140
1.0
102
RTVSPost2010PropOp52
 70
     0
102
RTVSPost2010Prop53
 90
        2
102
RTVSPost2010PropOp53
 70
     1
102
RTVSPost2010Prop54
  1
strokes_ogs.tif
102
RTVSPost2010PropOp54
 70
     1
102
RTVSPost2010Prop55
280
     0
102
RTVSPost2010PropOp55
 70
     1
102
RTVSPost2010Prop56
140
1.0
102
RTVSPost2010PropOp56
 70
     1
102
RTVSPost2010Prop57
140
1.0
102
RTVSPost2010PropOp57
 70
     1
102
RTVSPropertyOp0
 70
     1
102
RTVSPropertyOp1
 70
     1
102
RTVSPropertyOp2
 70
     1
102
RTVSPropertyOp3
 70
     1
102
RTVSPropertyOp4
 70
     1
102
RTVSPropertyOp5
 70
     1
102
RTVSPropertyOp6
 70
     1
102
RTVSPropertyOp7
 70
     1
102
RTVSPropertyOp8
 70
     1
102
RTVSPropertyOp9
 70
     1
102
RTVSPropertyOp10
 70
     1
102
RTVSPropertyOp11
 70
     1
102
RTVSPropertyOp12
 70
     1
102
RTVSPropertyOp13
 70
     1
102
RTVSPropertyOp14
 70
     1
102
RTVSPropertyOp15
 70
     1
102
RTVSPropertyOp16
 70
     1
102
RTVSPropertyOp17
 70
     1
102
RTVSPropertyOp18
 70
     1
102
RTVSPropertyOp19
 70
     1
102
RTVSPropertyOp20
 70
     1
102
RTVSPropertyOp21
 70
     1
102
RTVSPropertyOp22
 70
     1
102
RTVSPropertyOp23
 70
     1
102
RTVSPropertyOp24
 70
     1
102
RTVSPropertyOp25
 70
     1
102
RTVSPropertyOp26
 70
     1
102
RTVSPropertyOp27
 70
     1
102
RTVSPropertyOp28
 70
     1
102
RTVSPropertyOp29
 70
     1
102
RTVSPropertyOp30
 70
     1
102
RTVSPropertyOp31
 70
     1
102
RTVSPropertyOp32
 70
     1
102
RTVSPropertyOp33
 70
     1
102
RTVSPropertyOp34
 70
     1
102
RTVSPropertyOp35
 70
     1
102
RTVSPropertyOp36
 70
     1
102
RTVSPropertyOp37
 70
     1
102
RTVSPropertyOp38
 70
     1
102
RTVSPropertyOp39
 70
     1
102
RTVSPropertyOp40
 70
     1
102
RTVSPropertyOp41
 70
     1
102
RTVSPropertyOp42
 70
     1
102
RTVSPropertyOp43
 70
     1
102
RTVSPropertyOp44
 70
     1
102
RTVSPropertyOp45
 70
     1
102
RTVSPropertyOp46
 70
     1
102
RTVSPropertyOp47
 70
     1
102
RTVSPropertyOp48
 70
     1
102
RTVSPropertyOp49
 70
     1
102
RTVSPropertyOp50
 70
     1
102
RTVSPropertyOp51
 70
     0
102
RTVSPropertyOp52
 70
     0
102
RTVSPropertyOp53
 70
     1
102
RTVSPropertyOp54
 70
     1
102
RTVSPropertyOp55
 70
     1
102
RTVSPropertyOp56
 70
     1
102
RTVSPropertyOp57
 70
     1
102
RTVSPropertyOp58
 70
     1
102
RTVSPropertyOp59
 70
     1
102
RTVSPropertyOp60
 70
     1
102
RTVSPropertyOp61
 70
     1
102
RTVSPropertyOp62
 70
     1
  0
XRECORD
  5
CE6
102
{ACAD_REACTORS
330
CE5
102
}
330
CE5
100
AcDbXrecord
280
     1
102
RTVSPost2010Prop28
280
     0
102
RTVSPost2010PropOp28
 70
     0
102
RTVSPost2010Prop29
280
     1
102
RTVSPost2010PropOp29
 70
     0
102
RTVSPost2010Prop30
280
     1
102
RTVSPost2010PropOp30
 70
     0
102
RTVSPost2010Prop31
280
     0
102
RTVSPost2010PropOp31
 70
     0
102
RTVSPost2010Prop32
280
     0
102
RTVSPost2010PropOp32
 70
     0
102
RTVSPost2010Prop33
280
     0
102
RTVSPost2010PropOp33
 70
     0
102
RTVSPost2010Prop34
280
     0
102
RTVSPost2010PropOp34
 70
     0
102
RTVSPost2010Prop35
280
     0
102
RTVSPost2010PropOp35
 70
     0
102
RTVSPost2010Prop36
280
     0
102
RTVSPost2010PropOp36
 70
     0
102
RTVSPost2010Prop37
 90
       50
102
RTVSPost2010PropOp37
 70
     0
102
RTVSPost2010Prop38
140
0.0
102
RTVSPost2010PropOp38
 70
     0
102
RTVSPost2010Prop39
140
1.0
102
RTVSPost2010PropOp39
 70
     0
102
RTVSPost2010Prop40
 90
        0
102
RTVSPost2010PropOp40
 70
     0
102
RTVSPost2010Prop41ColorIndex
 90
       18
102
RTVSPost2010Prop41ColorRGB
 90
        0
102
RTVSPost2010PropOp41
 70
     0
102
RTVSPost2010Prop42
 90
       50
102
RTVSPost2010PropOp42
 70
     0
102
RTVSPost2010Prop43
 90
        3
102
RTVSPost2010PropOp43
 70
     0
102
RTVSPost2010Prop44ColorIndex
 90
        5
102
RTVSPost2010Prop44ColorRGB
 90
      255
102
RTVSPost2010PropOp44
 70
     0
102
RTVSPost2010Prop45
280
     0
102
RTVSPost2010PropOp45
 70
     0
102
RTVSPost2010Prop46
 90
       50
102
RTVSPost2010PropOp46
 70
     0
102
RTVSPost2010Prop47
 90
       50
102
RTVSPost2010PropOp47
 70
     0
102
RTVSPost2010Prop48
 90
       50
102
RTVSPost2010PropOp48
 70
     0
102
RTVSPost2010Prop49
280
     0
102
RTVSPost2010PropOp49
 70
     0
102
RTVSPost2010Prop50
 90
       50
102
RTVSPost2010PropOp50
 70
     0
102
RTVSPost2010Prop51ColorIndex
 90
      256
102
RTVSPost2010Prop51ColorRGB
 90
-16777216
102
RTVSPost2010PropOp51
 70
     0
102
RTVSPost2010Prop52
140
1.0
102
RTVSPost2010PropOp52
 70
     0
102
RTVSPost2010Prop53
 90
        2
102
RTVSPost2010PropOp53
 70
     0
102
RTVSPost2010Prop54
  1
strokes_ogs.tif
102
RTVSPost2010PropOp54
 70
     0
102
RTVSPost2010Prop55
280
     0
102
RTVSPost2010PropOp55
 70
     0
102
RTVSPost2010Prop56
140
1.0
102
RTVSPost2010PropOp56
 70
     0
102
RTVSPost2010Prop57
140
1.0
102
RTVSPost2010PropOp57
 70
     0
102
RTVSPropertyOp0
 70
     0
102
RTVSPropertyOp1
 70
     0
102
RTVSPropertyOp2
 70
     0
102
RTVSPropertyOp3
 70
     0
102
RTVSPropertyOp4
 70
     0
102
RTVSPropertyOp5
 70
     0
102
RTVSPropertyOp6
 70
     0
102
RTVSPropertyOp7
 70
     0
102
RTVSPropertyOp8
 70
     0
102
RTVSPropertyOp9
 70
     0
102
RTVSPropertyOp10
 70
     0
102
RTVSPropertyOp11
 70
     0
102
RTVSPropertyOp12
 70
     0
102
RTVSPropertyOp13
 70
     0
102
RTVSPropertyOp14
 70
     2
102
RTVSPropertyOp15
 70
     0
102
RTVSPropertyOp16
 70
     0
102
RTVSPropertyOp17
 70
     0
102
RTVSPropertyOp18
 70
     0
102
RTVSPropertyOp19
 70
     0
102
RTVSPropertyOp20
 70
     0
102
RTVSPropertyOp21
 70
     0
102
RTVSPropertyOp22
 70
     0
102
RTVSPropertyOp23
 70
     0
102
RTVSPropertyOp24
 70
     0
102
RTVSPropertyOp25
 70
     0
102
RTVSPropertyOp26
 70
     0
102
RTVSPropertyOp27
 70
     0
102
RTVSPropertyOp28
 70
     0
102
RTVSPropertyOp29
 70
     0
102
RTVSPropertyOp30
 70
     0
102
RTVSPropertyOp31
 70
     0
102
RTVSPropertyOp32
 70
     0
102
RTVSPropertyOp33
 70
     0
102
RTVSPropertyOp34
 70
     0
102
RTVSPropertyOp35
 70
     0
102
RTVSPropertyOp36
 70
     0
102
RTVSPropertyOp37
 70
     0
102
RTVSPropertyOp38
 70
     0
102
RTVSPropertyOp39
 70
     0
102
RTVSPropertyOp40
 70
     0
102
RTVSPropertyOp41
 70
     0
102
RTVSPropertyOp42
 70
     0
102
RTVSPropertyOp43
 70
     0
102
RTVSPropertyOp44
 70
     0
102
RTVSPropertyOp45
 70
     0
102
RTVSPropertyOp46
 70
     0
102
RTVSPropertyOp47
 70
     0
102
RTVSPropertyOp48
 70
     0
102
RTVSPropertyOp49
 70
     0
102
RTVSPropertyOp50
 70
     0
102
RTVSPropertyOp51
 70
     0
102
RTVSPropertyOp52
 70
     0
102
RTVSPropertyOp53
 70
     0
102
RTVSPropertyOp54
 70
     0
102
RTVSPropertyOp55
 70
     0
102
RTVSPropertyOp56
 70
     0
102
RTVSPropertyOp57
 70
     0
102
RTVSPropertyOp58
 70
     1
102
RTVSPropertyOp59
 70
     1
102
RTVSPropertyOp60
 70
     1
102
RTVSPropertyOp61
 70
     1
102
RTVSPropertyOp62
 70
     1
  0
XRECORD
  5
CDE
102
{ACAD_REACTORS
330
CDD
102
}
330
CDD
100
AcDbXrecord
280
     1
102
RTVSPost2010Prop28
280
     0
102
RTVSPost2010PropOp28
 70
     1
102
RTVSPost2010Prop29
280
     1
102
RTVSPost2010PropOp29
 70
     1
102
RTVSPost2010Prop30
280
     1
102
RTVSPost2010PropOp30
 70
     1
102
RTVSPost2010Prop31
280
     0
102
RTVSPost2010PropOp31
 70
     1
102
RTVSPost2010Prop32
280
     0
102
RTVSPost2010PropOp32
 70
     1
102
RTVSPost2010Prop33
280
     0
102
RTVSPost2010PropOp33
 70
     1
102
RTVSPost2010Prop34
280
     0
102
RTVSPost2010PropOp34
 70
     1
102
RTVSPost2010Prop35
280
     0
102
RTVSPost2010PropOp35
 70
     1
102
RTVSPost2010Prop36
280
     0
102
RTVSPost2010PropOp36
 70
     1
102
RTVSPost2010Prop37
 90
       50
102
RTVSPost2010PropOp37
 70
     1
102
RTVSPost2010Prop38
140
0.0
102
RTVSPost2010PropOp38
 70
     1
102
RTVSPost2010Prop39
140
1.0
102
RTVSPost2010PropOp39
 70
     1
102
RTVSPost2010Prop40
 90
        0
102
RTVSPost2010PropOp40
 70
     1
102
RTVSPost2010Prop41ColorIndex
 90
       18
102
RTVSPost2010Prop41ColorRGB
 90
        0
102
RTVSPost2010PropOp41
 70
     1
102
RTVSPost2010Prop42
 90
       50
102
RTVSPost2010PropOp42
 70
     1
102
RTVSPost2010Prop43
 90
        3
102
RTVSPost2010PropOp43
 70
     1
102
RTVSPost2010Prop44ColorIndex
 90
        5
102
RTVSPost2010Prop44ColorRGB
 90
      255
102
RTVSPost2010PropOp44
 70
     1
102
RTVSPost2010Prop45
280
     0
102
RTVSPost2010PropOp45
 70
     1
102
RTVSPost2010Prop46
 90
       50
102
RTVSPost2010PropOp46
 70
     1
102
RTVSPost2010Prop47
 90
       50
102
RTVSPost2010PropOp47
 70
     1
102
RTVSPost2010Prop48
 90
       50
102
RTVSPost2010PropOp48
 70
     1
102
RTVSPost2010Prop49
280
     0
102
RTVSPost2010PropOp49
 70
     1
102
RTVSPost2010Prop50
 90
       50
102
RTVSPost2010PropOp50
 70
     1
102
RTVSPost2010Prop51ColorIndex
 90
      256
102
RTVSPost2010Prop51ColorRGB
 90
-16777216
102
RTVSPost2010PropOp51
 70
     0
102
RTVSPost2010Prop52
140
1.0
102
RTVSPost2010PropOp52
 70
     0
102
RTVSPost2010Prop53
 90
        2
102
RTVSPost2010PropOp53
 70
     1
102
RTVSPost2010Prop54
  1
strokes_ogs.tif
102
RTVSPost2010PropOp54
 70
     1
102
RTVSPost2010Prop55
280
     0
102
RTVSPost2010PropOp55
 70
     1
102
RTVSPost2010Prop56
140
1.0
102
RTVSPost2010PropOp56
 70
     1
102
RTVSPost2010Prop57
140
1.0
102
RTVSPost2010PropOp57
 70
     1
102
RTVSPropertyOp0
 70
     1
102
RTVSPropertyOp1
 70
     1
102
RTVSPropertyOp2
 70
     1
102
RTVSPropertyOp3
 70
     1
102
RTVSPropertyOp4
 70
     1
102
RTVSPropertyOp5
 70
     1
102
RTVSPropertyOp6
 70
     1
102
RTVSPropertyOp7
 70
     1
102
RTVSPropertyOp8
 70
     1
102
RTVSPropertyOp9
 70
     1
102
RTVSPropertyOp10
 70
     1
102
RTVSPropertyOp11
 70
     1
102
RTVSPropertyOp12
 70
     1
102
RTVSPropertyOp13
 70
     1
102
RTVSPropertyOp14
 70
     1
102
RTVSPropertyOp15
 70
     1
102
RTVSPropertyOp16
 70
     1
102
RTVSPropertyOp17
 70
     1
102
RTVSPropertyOp18
 70
     1
102
RTVSPropertyOp19
 70
     1
102
RTVSPropertyOp20
 70
     1
102
RTVSPropertyOp21
 70
     1
102
RTVSPropertyOp22
 70
     1
102
RTVSPropertyOp23
 70
     1
102
RTVSPropertyOp24
 70
     1
102
RTVSPropertyOp25
 70
     1
102
RTVSPropertyOp26
 70
     1
102
RTVSPropertyOp27
 70
     1
102
RTVSPropertyOp28
 70
     1
102
RTVSPropertyOp29
 70
     1
102
RTVSPropertyOp30
 70
     1
102
RTVSPropertyOp31
 70
     1
102
RTVSPropertyOp32
 70
     1
102
RTVSPropertyOp33
 70
     1
102
RTVSPropertyOp34
 70
     1
102
RTVSPropertyOp35
 70
     1
102
RTVSPropertyOp36
 70
     1
102
RTVSPropertyOp37
 70
     1
102
RTVSPropertyOp38
 70
     1
102
RTVSPropertyOp39
 70
     1
102
RTVSPropertyOp40
 70
     1
102
RTVSPropertyOp41
 70
     1
102
RTVSPropertyOp42
 70
     1
102
RTVSPropertyOp43
 70
     1
102
RTVSPropertyOp44
 70
     1
102
RTVSPropertyOp45
 70
     1
102
RTVSPropertyOp46
 70
     1
102
RTVSPropertyOp47
 70
     1
102
RTVSPropertyOp48
 70
     1
102
RTVSPropertyOp49
 70
     1
102
RTVSPropertyOp50
 70
     1
102
RTVSPropertyOp51
 70
     0
102
RTVSPropertyOp52
 70
     0
102
RTVSPropertyOp53
 70
     1
102
RTVSPropertyOp54
 70
     1
102
RTVSPropertyOp55
 70
     1
102
RTVSPropertyOp56
 70
     1
102
RTVSPropertyOp57
 70
     1
102
RTVSPropertyOp58
 70
     1
102
RTVSPropertyOp59
 70
     1
102
RTVSPropertyOp60
 70
     1
102
RTVSPropertyOp61
 70
     1
102
RTVSPropertyOp62
 70
     1
  0
XRECORD
  5
CC2
102
{ACAD_REACTORS
330
CC1
102
}
330
CC1
100
AcDbXrecord
280
     1
102
RTVSPost2010Prop28
280
     0
102
RTVSPost2010PropOp28
 70
     1
102
RTVSPost2010Prop29
280
     1
102
RTVSPost2010PropOp29
 70
     1
102
RTVSPost2010Prop30
280
     1
102
RTVSPost2010PropOp30
 70
     1
102
RTVSPost2010Prop31
280
     0
102
RTVSPost2010PropOp31
 70
     1
102
RTVSPost2010Prop32
280
     0
102
RTVSPost2010PropOp32
 70
     1
102
RTVSPost2010Prop33
280
     0
102
RTVSPost2010PropOp33
 70
     1
102
RTVSPost2010Prop34
280
     0
102
RTVSPost2010PropOp34
 70
     1
102
RTVSPost2010Prop35
280
     0
102
RTVSPost2010PropOp35
 70
     1
102
RTVSPost2010Prop36
280
     0
102
RTVSPost2010PropOp36
 70
     1
102
RTVSPost2010Prop37
 90
       50
102
RTVSPost2010PropOp37
 70
     1
102
RTVSPost2010Prop38
140
0.0
102
RTVSPost2010PropOp38
 70
     1
102
RTVSPost2010Prop39
140
1.0
102
RTVSPost2010PropOp39
 70
     1
102
RTVSPost2010Prop40
 90
        0
102
RTVSPost2010PropOp40
 70
     1
102
RTVSPost2010Prop41ColorIndex
 90
       18
102
RTVSPost2010Prop41ColorRGB
 90
        0
102
RTVSPost2010PropOp41
 70
     1
102
RTVSPost2010Prop42
 90
       50
102
RTVSPost2010PropOp42
 70
     1
102
RTVSPost2010Prop43
 90
        3
102
RTVSPost2010PropOp43
 70
     1
102
RTVSPost2010Prop44ColorIndex
 90
        5
102
RTVSPost2010Prop44ColorRGB
 90
      255
102
RTVSPost2010PropOp44
 70
     1
102
RTVSPost2010Prop45
280
     0
102
RTVSPost2010PropOp45
 70
     1
102
RTVSPost2010Prop46
 90
       50
102
RTVSPost2010PropOp46
 70
     1
102
RTVSPost2010Prop47
 90
       50
102
RTVSPost2010PropOp47
 70
     1
102
RTVSPost2010Prop48
 90
       50
102
RTVSPost2010PropOp48
 70
     1
102
RTVSPost2010Prop49
280
     0
102
RTVSPost2010PropOp49
 70
     1
102
RTVSPost2010Prop50
 90
       50
102
RTVSPost2010PropOp50
 70
     1
102
RTVSPost2010Prop51ColorIndex
 90
      256
102
RTVSPost2010Prop51ColorRGB
 90
-16777216
102
RTVSPost2010PropOp51
 70
     0
102
RTVSPost2010Prop52
140
1.0
102
RTVSPost2010PropOp52
 70
     0
102
RTVSPost2010Prop53
 90
        2
102
RTVSPost2010PropOp53
 70
     1
102
RTVSPost2010Prop54
  1
strokes_ogs.tif
102
RTVSPost2010PropOp54
 70
     1
102
RTVSPost2010Prop55
280
     0
102
RTVSPost2010PropOp55
 70
     1
102
RTVSPost2010Prop56
140
1.0
102
RTVSPost2010PropOp56
 70
     1
102
RTVSPost2010Prop57
140
1.0
102
RTVSPost2010PropOp57
 70
     1
102
RTVSPropertyOp0
 70
     1
102
RTVSPropertyOp1
 70
     1
102
RTVSPropertyOp2
 70
     1
102
RTVSPropertyOp3
 70
     1
102
RTVSPropertyOp4
 70
     1
102
RTVSPropertyOp5
 70
     1
102
RTVSPropertyOp6
 70
     1
102
RTVSPropertyOp7
 70
     1
102
RTVSPropertyOp8
 70
     1
102
RTVSPropertyOp9
 70
     1
102
RTVSPropertyOp10
 70
     1
102
RTVSPropertyOp11
 70
     1
102
RTVSPropertyOp12
 70
     1
102
RTVSPropertyOp13
 70
     1
102
RTVSPropertyOp14
 70
     1
102
RTVSPropertyOp15
 70
     1
102
RTVSPropertyOp16
 70
     1
102
RTVSPropertyOp17
 70
     1
102
RTVSPropertyOp18
 70
     1
102
RTVSPropertyOp19
 70
     1
102
RTVSPropertyOp20
 70
     1
102
RTVSPropertyOp21
 70
     1
102
RTVSPropertyOp22
 70
     1
102
RTVSPropertyOp23
 70
     1
102
RTVSPropertyOp24
 70
     1
102
RTVSPropertyOp25
 70
     1
102
RTVSPropertyOp26
 70
     1
102
RTVSPropertyOp27
 70
     1
102
RTVSPropertyOp28
 70
     1
102
RTVSPropertyOp29
 70
     1
102
RTVSPropertyOp30
 70
     1
102
RTVSPropertyOp31
 70
     1
102
RTVSPropertyOp32
 70
     1
102
RTVSPropertyOp33
 70
     1
102
RTVSPropertyOp34
 70
     1
102
RTVSPropertyOp35
 70
     1
102
RTVSPropertyOp36
 70
     1
102
RTVSPropertyOp37
 70
     1
102
RTVSPropertyOp38
 70
     1
102
RTVSPropertyOp39
 70
     1
102
RTVSPropertyOp40
 70
     1
102
RTVSPropertyOp41
 70
     1
102
RTVSPropertyOp42
 70
     1
102
RTVSPropertyOp43
 70
     1
102
RTVSPropertyOp44
 70
     1
102
RTVSPropertyOp45
 70
     1
102
RTVSPropertyOp46
 70
     1
102
RTVSPropertyOp47
 70
     1
102
RTVSPropertyOp48
 70
     1
102
RTVSPropertyOp49
 70
     1
102
RTVSPropertyOp50
 70
     1
102
RTVSPropertyOp51
 70
     0
102
RTVSPropertyOp52
 70
     0
102
RTVSPropertyOp53
 70
     1
102
RTVSPropertyOp54
 70
     1
102
RTVSPropertyOp55
 70
     1
102
RTVSPropertyOp56
 70
     1
102
RTVSPropertyOp57
 70
     1
102
RTVSPropertyOp58
 70
     1
102
RTVSPropertyOp59
 70
     1
102
RTVSPropertyOp60
 70
     1
102
RTVSPropertyOp61
 70
     1
102
RTVSPropertyOp62
 70
     1
  0
XRECORD
  5
CC4
102
{ACAD_REACTORS
330
CC3
102
}
330
CC3
100
AcDbXrecord
280
     1
102
RTVSPost2010Prop28
280
     0
102
RTVSPost2010PropOp28
 70
     1
102
RTVSPost2010Prop29
280
     1
102
RTVSPost2010PropOp29
 70
     1
102
RTVSPost2010Prop30
280
     1
102
RTVSPost2010PropOp30
 70
     1
102
RTVSPost2010Prop31
280
     0
102
RTVSPost2010PropOp31
 70
     1
102
RTVSPost2010Prop32
280
     0
102
RTVSPost2010PropOp32
 70
     1
102
RTVSPost2010Prop33
280
     0
102
RTVSPost2010PropOp33
 70
     1
102
RTVSPost2010Prop34
280
     0
102
RTVSPost2010PropOp34
 70
     1
102
RTVSPost2010Prop35
280
     0
102
RTVSPost2010PropOp35
 70
     1
102
RTVSPost2010Prop36
280
     0
102
RTVSPost2010PropOp36
 70
     1
102
RTVSPost2010Prop37
 90
       50
102
RTVSPost2010PropOp37
 70
     1
102
RTVSPost2010Prop38
140
0.0
102
RTVSPost2010PropOp38
 70
     1
102
RTVSPost2010Prop39
140
1.0
102
RTVSPost2010PropOp39
 70
     1
102
RTVSPost2010Prop40
 90
        0
102
RTVSPost2010PropOp40
 70
     1
102
RTVSPost2010Prop41ColorIndex
 90
       18
102
RTVSPost2010Prop41ColorRGB
 90
        0
102
RTVSPost2010PropOp41
 70
     1
102
RTVSPost2010Prop42
 90
       50
102
RTVSPost2010PropOp42
 70
     1
102
RTVSPost2010Prop43
 90
        3
102
RTVSPost2010PropOp43
 70
     1
102
RTVSPost2010Prop44ColorIndex
 90
        5
102
RTVSPost2010Prop44ColorRGB
 90
      255
102
RTVSPost2010PropOp44
 70
     1
102
RTVSPost2010Prop45
280
     0
102
RTVSPost2010PropOp45
 70
     1
102
RTVSPost2010Prop46
 90
       50
102
RTVSPost2010PropOp46
 70
     1
102
RTVSPost2010Prop47
 90
       50
102
RTVSPost2010PropOp47
 70
     1
102
RTVSPost2010Prop48
 90
       50
102
RTVSPost2010PropOp48
 70
     1
102
RTVSPost2010Prop49
280
     0
102
RTVSPost2010PropOp49
 70
     1
102
RTVSPost2010Prop50
 90
       50
102
RTVSPost2010PropOp50
 70
     1
102
RTVSPost2010Prop51ColorIndex
 90
      256
102
RTVSPost2010Prop51ColorRGB
 90
-16777216
102
RTVSPost2010PropOp51
 70
     0
102
RTVSPost2010Prop52
140
1.0
102
RTVSPost2010PropOp52
 70
     0
102
RTVSPost2010Prop53
 90
        2
102
RTVSPost2010PropOp53
 70
     1
102
RTVSPost2010Prop54
  1
strokes_ogs.tif
102
RTVSPost2010PropOp54
 70
     1
102
RTVSPost2010Prop55
280
     0
102
RTVSPost2010PropOp55
 70
     1
102
RTVSPost2010Prop56
140
1.0
102
RTVSPost2010PropOp56
 70
     1
102
RTVSPost2010Prop57
140
1.0
102
RTVSPost2010PropOp57
 70
     1
102
RTVSPropertyOp0
 70
     1
102
RTVSPropertyOp1
 70
     1
102
RTVSPropertyOp2
 70
     1
102
RTVSPropertyOp3
 70
     1
102
RTVSPropertyOp4
 70
     1
102
RTVSPropertyOp5
 70
     1
102
RTVSPropertyOp6
 70
     1
102
RTVSPropertyOp7
 70
     1
102
RTVSPropertyOp8
 70
     1
102
RTVSPropertyOp9
 70
     1
102
RTVSPropertyOp10
 70
     1
102
RTVSPropertyOp11
 70
     1
102
RTVSPropertyOp12
 70
     1
102
RTVSPropertyOp13
 70
     1
102
RTVSPropertyOp14
 70
     1
102
RTVSPropertyOp15
 70
     1
102
RTVSPropertyOp16
 70
     1
102
RTVSPropertyOp17
 70
     1
102
RTVSPropertyOp18
 70
     1
102
RTVSPropertyOp19
 70
     1
102
RTVSPropertyOp20
 70
     1
102
RTVSPropertyOp21
 70
     1
102
RTVSPropertyOp22
 70
     1
102
RTVSPropertyOp23
 70
     1
102
RTVSPropertyOp24
 70
     1
102
RTVSPropertyOp25
 70
     1
102
RTVSPropertyOp26
 70
     1
102
RTVSPropertyOp27
 70
     1
102
RTVSPropertyOp28
 70
     1
102
RTVSPropertyOp29
 70
     1
102
RTVSPropertyOp30
 70
     1
102
RTVSPropertyOp31
 70
     1
102
RTVSPropertyOp32
 70
     1
102
RTVSPropertyOp33
 70
     1
102
RTVSPropertyOp34
 70
     1
102
RTVSPropertyOp35
 70
     1
102
RTVSPropertyOp36
 70
     1
102
RTVSPropertyOp37
 70
     1
102
RTVSPropertyOp38
 70
     1
102
RTVSPropertyOp39
 70
     1
102
RTVSPropertyOp40
 70
     1
102
RTVSPropertyOp41
 70
     1
102
RTVSPropertyOp42
 70
     1
102
RTVSPropertyOp43
 70
     1
102
RTVSPropertyOp44
 70
     1
102
RTVSPropertyOp45
 70
     1
102
RTVSPropertyOp46
 70
     1
102
RTVSPropertyOp47
 70
     1
102
RTVSPropertyOp48
 70
     1
102
RTVSPropertyOp49
 70
     1
102
RTVSPropertyOp50
 70
     1
102
RTVSPropertyOp51
 70
     0
102
RTVSPropertyOp52
 70
     0
102
RTVSPropertyOp53
 70
     1
102
RTVSPropertyOp54
 70
     1
102
RTVSPropertyOp55
 70
     1
102
RTVSPropertyOp56
 70
     1
102
RTVSPropertyOp57
 70
     1
102
RTVSPropertyOp58
 70
     1
102
RTVSPropertyOp59
 70
     1
102
RTVSPropertyOp60
 70
     1
102
RTVSPropertyOp61
 70
     1
102
RTVSPropertyOp62
 70
     1
  0
XRECORD
  5
CC6
102
{ACAD_REACTORS
330
CC5
102
}
330
CC5
100
AcDbXrecord
280
     1
102
RTVSPost2010Prop28
280
     0
102
RTVSPost2010PropOp28
 70
     1
102
RTVSPost2010Prop29
280
     1
102
RTVSPost2010PropOp29
 70
     1
102
RTVSPost2010Prop30
280
     1
102
RTVSPost2010PropOp30
 70
     1
102
RTVSPost2010Prop31
280
     0
102
RTVSPost2010PropOp31
 70
     1
102
RTVSPost2010Prop32
280
     0
102
RTVSPost2010PropOp32
 70
     1
102
RTVSPost2010Prop33
280
     0
102
RTVSPost2010PropOp33
 70
     1
102
RTVSPost2010Prop34
280
     0
102
RTVSPost2010PropOp34
 70
     1
102
RTVSPost2010Prop35
280
     0
102
RTVSPost2010PropOp35
 70
     1
102
RTVSPost2010Prop36
280
     0
102
RTVSPost2010PropOp36
 70
     1
102
RTVSPost2010Prop37
 90
       50
102
RTVSPost2010PropOp37
 70
     1
102
RTVSPost2010Prop38
140
0.0
102
RTVSPost2010PropOp38
 70
     1
102
RTVSPost2010Prop39
140
1.0
102
RTVSPost2010PropOp39
 70
     1
102
RTVSPost2010Prop40
 90
        0
102
RTVSPost2010PropOp40
 70
     1
102
RTVSPost2010Prop41ColorIndex
 90
       18
102
RTVSPost2010Prop41ColorRGB
 90
        0
102
RTVSPost2010PropOp41
 70
     1
102
RTVSPost2010Prop42
 90
       50
102
RTVSPost2010PropOp42
 70
     1
102
RTVSPost2010Prop43
 90
        3
102
RTVSPost2010PropOp43
 70
     1
102
RTVSPost2010Prop44ColorIndex
 90
        5
102
RTVSPost2010Prop44ColorRGB
 90
      255
102
RTVSPost2010PropOp44
 70
     1
102
RTVSPost2010Prop45
280
     0
102
RTVSPost2010PropOp45
 70
     1
102
RTVSPost2010Prop46
 90
       50
102
RTVSPost2010PropOp46
 70
     1
102
RTVSPost2010Prop47
 90
       50
102
RTVSPost2010PropOp47
 70
     1
102
RTVSPost2010Prop48
 90
       50
102
RTVSPost2010PropOp48
 70
     1
102
RTVSPost2010Prop49
280
     0
102
RTVSPost2010PropOp49
 70
     1
102
RTVSPost2010Prop50
 90
       50
102
RTVSPost2010PropOp50
 70
     1
102
RTVSPost2010Prop51ColorIndex
 90
      256
102
RTVSPost2010Prop51ColorRGB
 90
-16777216
102
RTVSPost2010PropOp51
 70
     0
102
RTVSPost2010Prop52
140
1.0
102
RTVSPost2010PropOp52
 70
     0
102
RTVSPost2010Prop53
 90
        2
102
RTVSPost2010PropOp53
 70
     1
102
RTVSPost2010Prop54
  1
strokes_ogs.tif
102
RTVSPost2010PropOp54
 70
     1
102
RTVSPost2010Prop55
280
     0
102
RTVSPost2010PropOp55
 70
     1
102
RTVSPost2010Prop56
140
1.0
102
RTVSPost2010PropOp56
 70
     1
102
RTVSPost2010Prop57
140
1.0
102
RTVSPost2010PropOp57
 70
     1
102
RTVSPropertyOp0
 70
     1
102
RTVSPropertyOp1
 70
     1
102
RTVSPropertyOp2
 70
     1
102
RTVSPropertyOp3
 70
     1
102
RTVSPropertyOp4
 70
     1
102
RTVSPropertyOp5
 70
     1
102
RTVSPropertyOp6
 70
     1
102
RTVSPropertyOp7
 70
     1
102
RTVSPropertyOp8
 70
     1
102
RTVSPropertyOp9
 70
     1
102
RTVSPropertyOp10
 70
     1
102
RTVSPropertyOp11
 70
     1
102
RTVSPropertyOp12
 70
     1
102
RTVSPropertyOp13
 70
     1
102
RTVSPropertyOp14
 70
     1
102
RTVSPropertyOp15
 70
     1
102
RTVSPropertyOp16
 70
     1
102
RTVSPropertyOp17
 70
     1
102
RTVSPropertyOp18
 70
     1
102
RTVSPropertyOp19
 70
     1
102
RTVSPropertyOp20
 70
     1
102
RTVSPropertyOp21
 70
     1
102
RTVSPropertyOp22
 70
     1
102
RTVSPropertyOp23
 70
     1
102
RTVSPropertyOp24
 70
     1
102
RTVSPropertyOp25
 70
     1
102
RTVSPropertyOp26
 70
     1
102
RTVSPropertyOp27
 70
     1
102
RTVSPropertyOp28
 70
     1
102
RTVSPropertyOp29
 70
     1
102
RTVSPropertyOp30
 70
     1
102
RTVSPropertyOp31
 70
     1
102
RTVSPropertyOp32
 70
     1
102
RTVSPropertyOp33
 70
     1
102
RTVSPropertyOp34
 70
     1
102
RTVSPropertyOp35
 70
     1
102
RTVSPropertyOp36
 70
     1
102
RTVSPropertyOp37
 70
     1
102
RTVSPropertyOp38
 70
     1
102
RTVSPropertyOp39
 70
     1
102
RTVSPropertyOp40
 70
     1
102
RTVSPropertyOp41
 70
     1
102
RTVSPropertyOp42
 70
     1
102
RTVSPropertyOp43
 70
     1
102
RTVSPropertyOp44
 70
     1
102
RTVSPropertyOp45
 70
     1
102
RTVSPropertyOp46
 70
     1
102
RTVSPropertyOp47
 70
     1
102
RTVSPropertyOp48
 70
     1
102
RTVSPropertyOp49
 70
     1
102
RTVSPropertyOp50
 70
     1
102
RTVSPropertyOp51
 70
     0
102
RTVSPropertyOp52
 70
     0
102
RTVSPropertyOp53
 70
     1
102
RTVSPropertyOp54
 70
     1
102
RTVSPropertyOp55
 70
     1
102
RTVSPropertyOp56
 70
     1
102
RTVSPropertyOp57
 70
     1
102
RTVSPropertyOp58
 70
     1
102
RTVSPropertyOp59
 70
     1
102
RTVSPropertyOp60
 70
     1
102
RTVSPropertyOp61
 70
     1
102
RTVSPropertyOp62
 70
     1
  0
XRECORD
  5
CC8
102
{ACAD_REACTORS
330
CC7
102
}
330
CC7
100
AcDbXrecord
280
     1
102
RTVSPost2010Prop28
280
     0
102
RTVSPost2010PropOp28
 70
     1
102
RTVSPost2010Prop29
280
     1
102
RTVSPost2010PropOp29
 70
     1
102
RTVSPost2010Prop30
280
     1
102
RTVSPost2010PropOp30
 70
     1
102
RTVSPost2010Prop31
280
     0
102
RTVSPost2010PropOp31
 70
     1
102
RTVSPost2010Prop32
280
     0
102
RTVSPost2010PropOp32
 70
     1
102
RTVSPost2010Prop33
280
     0
102
RTVSPost2010PropOp33
 70
     1
102
RTVSPost2010Prop34
280
     0
102
RTVSPost2010PropOp34
 70
     1
102
RTVSPost2010Prop35
280
     0
102
RTVSPost2010PropOp35
 70
     1
102
RTVSPost2010Prop36
280
     0
102
RTVSPost2010PropOp36
 70
     1
102
RTVSPost2010Prop37
 90
       50
102
RTVSPost2010PropOp37
 70
     1
102
RTVSPost2010Prop38
140
0.0
102
RTVSPost2010PropOp38
 70
     1
102
RTVSPost2010Prop39
140
1.0
102
RTVSPost2010PropOp39
 70
     1
102
RTVSPost2010Prop40
 90
        0
102
RTVSPost2010PropOp40
 70
     1
102
RTVSPost2010Prop41ColorIndex
 90
       18
102
RTVSPost2010Prop41ColorRGB
 90
        0
102
RTVSPost2010PropOp41
 70
     1
102
RTVSPost2010Prop42
 90
       50
102
RTVSPost2010PropOp42
 70
     1
102
RTVSPost2010Prop43
 90
        3
102
RTVSPost2010PropOp43
 70
     1
102
RTVSPost2010Prop44ColorIndex
 90
        5
102
RTVSPost2010Prop44ColorRGB
 90
      255
102
RTVSPost2010PropOp44
 70
     1
102
RTVSPost2010Prop45
280
     0
102
RTVSPost2010PropOp45
 70
     1
102
RTVSPost2010Prop46
 90
       50
102
RTVSPost2010PropOp46
 70
     1
102
RTVSPost2010Prop47
 90
       50
102
RTVSPost2010PropOp47
 70
     1
102
RTVSPost2010Prop48
 90
       50
102
RTVSPost2010PropOp48
 70
     1
102
RTVSPost2010Prop49
280
     0
102
RTVSPost2010PropOp49
 70
     1
102
RTVSPost2010Prop50
 90
       50
102
RTVSPost2010PropOp50
 70
     1
102
RTVSPost2010Prop51ColorIndex
 90
      256
102
RTVSPost2010Prop51ColorRGB
 90
-16777216
102
RTVSPost2010PropOp51
 70
     0
102
RTVSPost2010Prop52
140
1.0
102
RTVSPost2010PropOp52
 70
     0
102
RTVSPost2010Prop53
 90
        2
102
RTVSPost2010PropOp53
 70
     1
102
RTVSPost2010Prop54
  1
strokes_ogs.tif
102
RTVSPost2010PropOp54
 70
     1
102
RTVSPost2010Prop55
280
     0
102
RTVSPost2010PropOp55
 70
     1
102
RTVSPost2010Prop56
140
1.0
102
RTVSPost2010PropOp56
 70
     1
102
RTVSPost2010Prop57
140
1.0
102
RTVSPost2010PropOp57
 70
     1
102
RTVSPropertyOp0
 70
     1
102
RTVSPropertyOp1
 70
     1
102
RTVSPropertyOp2
 70
     1
102
RTVSPropertyOp3
 70
     1
102
RTVSPropertyOp4
 70
     1
102
RTVSPropertyOp5
 70
     1
102
RTVSPropertyOp6
 70
     1
102
RTVSPropertyOp7
 70
     1
102
RTVSPropertyOp8
 70
     1
102
RTVSPropertyOp9
 70
     1
102
RTVSPropertyOp10
 70
     1
102
RTVSPropertyOp11
 70
     1
102
RTVSPropertyOp12
 70
     1
102
RTVSPropertyOp13
 70
     1
102
RTVSPropertyOp14
 70
     1
102
RTVSPropertyOp15
 70
     1
102
RTVSPropertyOp16
 70
     1
102
RTVSPropertyOp17
 70
     1
102
RTVSPropertyOp18
 70
     1
102
RTVSPropertyOp19
 70
     1
102
RTVSPropertyOp20
 70
     1
102
RTVSPropertyOp21
 70
     1
102
RTVSPropertyOp22
 70
     1
102
RTVSPropertyOp23
 70
     1
102
RTVSPropertyOp24
 70
     1
102
RTVSPropertyOp25
 70
     1
102
RTVSPropertyOp26
 70
     1
102
RTVSPropertyOp27
 70
     1
102
RTVSPropertyOp28
 70
     1
102
RTVSPropertyOp29
 70
     1
102
RTVSPropertyOp30
 70
     1
102
RTVSPropertyOp31
 70
     1
102
RTVSPropertyOp32
 70
     1
102
RTVSPropertyOp33
 70
     1
102
RTVSPropertyOp34
 70
     1
102
RTVSPropertyOp35
 70
     1
102
RTVSPropertyOp36
 70
     1
102
RTVSPropertyOp37
 70
     1
102
RTVSPropertyOp38
 70
     1
102
RTVSPropertyOp39
 70
     1
102
RTVSPropertyOp40
 70
     1
102
RTVSPropertyOp41
 70
     1
102
RTVSPropertyOp42
 70
     1
102
RTVSPropertyOp43
 70
     1
102
RTVSPropertyOp44
 70
     1
102
RTVSPropertyOp45
 70
     1
102
RTVSPropertyOp46
 70
     1
102
RTVSPropertyOp47
 70
     1
102
RTVSPropertyOp48
 70
     1
102
RTVSPropertyOp49
 70
     1
102
RTVSPropertyOp50
 70
     1
102
RTVSPropertyOp51
 70
     0
102
RTVSPropertyOp52
 70
     0
102
RTVSPropertyOp53
 70
     1
102
RTVSPropertyOp54
 70
     1
102
RTVSPropertyOp55
 70
     1
102
RTVSPropertyOp56
 70
     1
102
RTVSPropertyOp57
 70
     1
102
RTVSPropertyOp58
 70
     1
102
RTVSPropertyOp59
 70
     1
102
RTVSPropertyOp60
 70
     1
102
RTVSPropertyOp61
 70
     1
102
RTVSPropertyOp62
 70
     1
  0
XRECORD
  5
CCE
102
{ACAD_REACTORS
330
CCD
102
}
330
CCD
100
AcDbXrecord
280
     1
102
RTVSPost2010Prop28
280
     0
102
RTVSPost2010PropOp28
 70
     1
102
RTVSPost2010Prop29
280
     1
102
RTVSPost2010PropOp29
 70
     1
102
RTVSPost2010Prop30
280
     1
102
RTVSPost2010PropOp30
 70
     1
102
RTVSPost2010Prop31
280
     0
102
RTVSPost2010PropOp31
 70
     1
102
RTVSPost2010Prop32
280
     0
102
RTVSPost2010PropOp32
 70
     1
102
RTVSPost2010Prop33
280
     0
102
RTVSPost2010PropOp33
 70
     1
102
RTVSPost2010Prop34
280
     0
102
RTVSPost2010PropOp34
 70
     1
102
RTVSPost2010Prop35
280
     0
102
RTVSPost2010PropOp35
 70
     1
102
RTVSPost2010Prop36
280
     0
102
RTVSPost2010PropOp36
 70
     1
102
RTVSPost2010Prop37
 90
       50
102
RTVSPost2010PropOp37
 70
     1
102
RTVSPost2010Prop38
140
0.0
102
RTVSPost2010PropOp38
 70
     1
102
RTVSPost2010Prop39
140
1.0
102
RTVSPost2010PropOp39
 70
     1
102
RTVSPost2010Prop40
 90
        0
102
RTVSPost2010PropOp40
 70
     1
102
RTVSPost2010Prop41ColorIndex
 90
       18
102
RTVSPost2010Prop41ColorRGB
 90
        0
102
RTVSPost2010PropOp41
 70
     1
102
RTVSPost2010Prop42
 90
       50
102
RTVSPost2010PropOp42
 70
     1
102
RTVSPost2010Prop43
 90
        3
102
RTVSPost2010PropOp43
 70
     1
102
RTVSPost2010Prop44ColorIndex
 90
        5
102
RTVSPost2010Prop44ColorRGB
 90
      255
102
RTVSPost2010PropOp44
 70
     1
102
RTVSPost2010Prop45
280
     0
102
RTVSPost2010PropOp45
 70
     1
102
RTVSPost2010Prop46
 90
       50
102
RTVSPost2010PropOp46
 70
     1
102
RTVSPost2010Prop47
 90
       50
102
RTVSPost2010PropOp47
 70
     1
102
RTVSPost2010Prop48
 90
       50
102
RTVSPost2010PropOp48
 70
     1
102
RTVSPost2010Prop49
280
     0
102
RTVSPost2010PropOp49
 70
     1
102
RTVSPost2010Prop50
 90
       50
102
RTVSPost2010PropOp50
 70
     1
102
RTVSPost2010Prop51ColorIndex
 90
      256
102
RTVSPost2010Prop51ColorRGB
 90
-16777216
102
RTVSPost2010PropOp51
 70
     0
102
RTVSPost2010Prop52
140
1.0
102
RTVSPost2010PropOp52
 70
     0
102
RTVSPost2010Prop53
 90
        2
102
RTVSPost2010PropOp53
 70
     1
102
RTVSPost2010Prop54
  1
strokes_ogs.tif
102
RTVSPost2010PropOp54
 70
     1
102
RTVSPost2010Prop55
280
     0
102
RTVSPost2010PropOp55
 70
     1
102
RTVSPost2010Prop56
140
1.0
102
RTVSPost2010PropOp56
 70
     1
102
RTVSPost2010Prop57
140
1.0
102
RTVSPost2010PropOp57
 70
     1
102
RTVSPropertyOp0
 70
     1
102
RTVSPropertyOp1
 70
     1
102
RTVSPropertyOp2
 70
     1
102
RTVSPropertyOp3
 70
     1
102
RTVSPropertyOp4
 70
     1
102
RTVSPropertyOp5
 70
     1
102
RTVSPropertyOp6
 70
     1
102
RTVSPropertyOp7
 70
     1
102
RTVSPropertyOp8
 70
     1
102
RTVSPropertyOp9
 70
     1
102
RTVSPropertyOp10
 70
     1
102
RTVSPropertyOp11
 70
     1
102
RTVSPropertyOp12
 70
     1
102
RTVSPropertyOp13
 70
     1
102
RTVSPropertyOp14
 70
     1
102
RTVSPropertyOp15
 70
     1
102
RTVSPropertyOp16
 70
     1
102
RTVSPropertyOp17
 70
     1
102
RTVSPropertyOp18
 70
     1
102
RTVSPropertyOp19
 70
     1
102
RTVSPropertyOp20
 70
     1
102
RTVSPropertyOp21
 70
     1
102
RTVSPropertyOp22
 70
     1
102
RTVSPropertyOp23
 70
     1
102
RTVSPropertyOp24
 70
     1
102
RTVSPropertyOp25
 70
     1
102
RTVSPropertyOp26
 70
     1
102
RTVSPropertyOp27
 70
     1
102
RTVSPropertyOp28
 70
     1
102
RTVSPropertyOp29
 70
     1
102
RTVSPropertyOp30
 70
     1
102
RTVSPropertyOp31
 70
     1
102
RTVSPropertyOp32
 70
     1
102
RTVSPropertyOp33
 70
     1
102
RTVSPropertyOp34
 70
     1
102
RTVSPropertyOp35
 70
     1
102
RTVSPropertyOp36
 70
     1
102
RTVSPropertyOp37
 70
     1
102
RTVSPropertyOp38
 70
     1
102
RTVSPropertyOp39
 70
     1
102
RTVSPropertyOp40
 70
     1
102
RTVSPropertyOp41
 70
     1
102
RTVSPropertyOp42
 70
     1
102
RTVSPropertyOp43
 70
     1
102
RTVSPropertyOp44
 70
     1
102
RTVSPropertyOp45
 70
     1
102
RTVSPropertyOp46
 70
     1
102
RTVSPropertyOp47
 70
     1
102
RTVSPropertyOp48
 70
     1
102
RTVSPropertyOp49
 70
     1
102
RTVSPropertyOp50
 70
     1
102
RTVSPropertyOp51
 70
     0
102
RTVSPropertyOp52
 70
     0
102
RTVSPropertyOp53
 70
     1
102
RTVSPropertyOp54
 70
     1
102
RTVSPropertyOp55
 70
     1
102
RTVSPropertyOp56
 70
     1
102
RTVSPropertyOp57
 70
     1
102
RTVSPropertyOp58
 70
     1
102
RTVSPropertyOp59
 70
     1
102
RTVSPropertyOp60
 70
     1
102
RTVSPropertyOp61
 70
     1
102
RTVSPropertyOp62
 70
     1
  0
XRECORD
  5
CE2
102
{ACAD_REACTORS
330
CE1
102
}
330
CE1
100
AcDbXrecord
280
     1
102
RTVSPost2010Prop28
280
     0
102
RTVSPost2010PropOp28
 70
     0
102
RTVSPost2010Prop29
280
     1
102
RTVSPost2010PropOp29
 70
     0
102
RTVSPost2010Prop30
280
     1
102
RTVSPost2010PropOp30
 70
     0
102
RTVSPost2010Prop31
280
     0
102
RTVSPost2010PropOp31
 70
     0
102
RTVSPost2010Prop32
280
     0
102
RTVSPost2010PropOp32
 70
     0
102
RTVSPost2010Prop33
280
     0
102
RTVSPost2010PropOp33
 70
     0
102
RTVSPost2010Prop34
280
     0
102
RTVSPost2010PropOp34
 70
     0
102
RTVSPost2010Prop35
280
     0
102
RTVSPost2010PropOp35
 70
     0
102
RTVSPost2010Prop36
280
     0
102
RTVSPost2010PropOp36
 70
     0
102
RTVSPost2010Prop37
 90
       50
102
RTVSPost2010PropOp37
 70
     0
102
RTVSPost2010Prop38
140
0.0
102
RTVSPost2010PropOp38
 70
     0
102
RTVSPost2010Prop39
140
1.0
102
RTVSPost2010PropOp39
 70
     0
102
RTVSPost2010Prop40
 90
        0
102
RTVSPost2010PropOp40
 70
     0
102
RTVSPost2010Prop41ColorIndex
 90
       18
102
RTVSPost2010Prop41ColorRGB
 90
        0
102
RTVSPost2010PropOp41
 70
     0
102
RTVSPost2010Prop42
 90
       50
102
RTVSPost2010PropOp42
 70
     0
102
RTVSPost2010Prop43
 90
        3
102
RTVSPost2010PropOp43
 70
     0
102
RTVSPost2010Prop44ColorIndex
 90
        5
102
RTVSPost2010Prop44ColorRGB
 90
      255
102
RTVSPost2010PropOp44
 70
     0
102
RTVSPost2010Prop45
280
     0
102
RTVSPost2010PropOp45
 70
     0
102
RTVSPost2010Prop46
 90
       50
102
RTVSPost2010PropOp46
 70
     0
102
RTVSPost2010Prop47
 90
       50
102
RTVSPost2010PropOp47
 70
     0
102
RTVSPost2010Prop48
 90
       50
102
RTVSPost2010PropOp48
 70
     0
102
RTVSPost2010Prop49
280
     0
102
RTVSPost2010PropOp49
 70
     0
102
RTVSPost2010Prop50
 90
       50
102
RTVSPost2010PropOp50
 70
     0
102
RTVSPost2010Prop51ColorIndex
 90
      256
102
RTVSPost2010Prop51ColorRGB
 90
-16777216
102
RTVSPost2010PropOp51
 70
     0
102
RTVSPost2010Prop52
140
1.0
102
RTVSPost2010PropOp52
 70
     0
102
RTVSPost2010Prop53
 90
        2
102
RTVSPost2010PropOp53
 70
     0
102
RTVSPost2010Prop54
  1
strokes_ogs.tif
102
RTVSPost2010PropOp54
 70
     0
102
RTVSPost2010Prop55
280
     0
102
RTVSPost2010PropOp55
 70
     0
102
RTVSPost2010Prop56
140
1.0
102
RTVSPost2010PropOp56
 70
     0
102
RTVSPost2010Prop57
140
1.0
102
RTVSPost2010PropOp57
 70
     0
102
RTVSPropertyOp0
 70
     0
102
RTVSPropertyOp1
 70
     0
102
RTVSPropertyOp2
 70
     0
102
RTVSPropertyOp3
 70
     0
102
RTVSPropertyOp4
 70
     0
102
RTVSPropertyOp5
 70
     0
102
RTVSPropertyOp6
 70
     0
102
RTVSPropertyOp7
 70
     0
102
RTVSPropertyOp8
 70
     0
102
RTVSPropertyOp9
 70
     0
102
RTVSPropertyOp10
 70
     0
102
RTVSPropertyOp11
 70
     0
102
RTVSPropertyOp12
 70
     0
102
RTVSPropertyOp13
 70
     0
102
RTVSPropertyOp14
 70
     2
102
RTVSPropertyOp15
 70
     0
102
RTVSPropertyOp16
 70
     0
102
RTVSPropertyOp17
 70
     0
102
RTVSPropertyOp18
 70
     0
102
RTVSPropertyOp19
 70
     0
102
RTVSPropertyOp20
 70
     0
102
RTVSPropertyOp21
 70
     0
102
RTVSPropertyOp22
 70
     0
102
RTVSPropertyOp23
 70
     0
102
RTVSPropertyOp24
 70
     0
102
RTVSPropertyOp25
 70
     0
102
RTVSPropertyOp26
 70
     0
102
RTVSPropertyOp27
 70
     0
102
RTVSPropertyOp28
 70
     0
102
RTVSPropertyOp29
 70
     0
102
RTVSPropertyOp30
 70
     0
102
RTVSPropertyOp31
 70
     0
102
RTVSPropertyOp32
 70
     0
102
RTVSPropertyOp33
 70
     0
102
RTVSPropertyOp34
 70
     0
102
RTVSPropertyOp35
 70
     0
102
RTVSPropertyOp36
 70
     0
102
RTVSPropertyOp37
 70
     0
102
RTVSPropertyOp38
 70
     0
102
RTVSPropertyOp39
 70
     0
102
RTVSPropertyOp40
 70
     0
102
RTVSPropertyOp41
 70
     0
102
RTVSPropertyOp42
 70
     0
102
RTVSPropertyOp43
 70
     0
102
RTVSPropertyOp44
 70
     0
102
RTVSPropertyOp45
 70
     0
102
RTVSPropertyOp46
 70
     0
102
RTVSPropertyOp47
 70
     0
102
RTVSPropertyOp48
 70
     0
102
RTVSPropertyOp49
 70
     0
102
RTVSPropertyOp50
 70
     0
102
RTVSPropertyOp51
 70
     0
102
RTVSPropertyOp52
 70
     0
102
RTVSPropertyOp53
 70
     0
102
RTVSPropertyOp54
 70
     0
102
RTVSPropertyOp55
 70
     0
102
RTVSPropertyOp56
 70
     0
102
RTVSPropertyOp57
 70
     0
102
RTVSPropertyOp58
 70
     1
102
RTVSPropertyOp59
 70
     1
102
RTVSPropertyOp60
 70
     1
102
RTVSPropertyOp61
 70
     1
102
RTVSPropertyOp62
 70
     1
  0
XRECORD
  5
CDC
102
{ACAD_REACTORS
330
CDB
102
}
330
CDB
100
AcDbXrecord
280
     1
102
RTVSPost2010Prop28
280
     0
102
RTVSPost2010PropOp28
 70
     1
102
RTVSPost2010Prop29
280
     1
102
RTVSPost2010PropOp29
 70
     1
102
RTVSPost2010Prop30
280
     1
102
RTVSPost2010PropOp30
 70
     1
102
RTVSPost2010Prop31
280
     0
102
RTVSPost2010PropOp31
 70
     1
102
RTVSPost2010Prop32
280
     0
102
RTVSPost2010PropOp32
 70
     1
102
RTVSPost2010Prop33
280
     0
102
RTVSPost2010PropOp33
 70
     1
102
RTVSPost2010Prop34
280
     0
102
RTVSPost2010PropOp34
 70
     1
102
RTVSPost2010Prop35
280
     0
102
RTVSPost2010PropOp35
 70
     1
102
RTVSPost2010Prop36
280
     0
102
RTVSPost2010PropOp36
 70
     1
102
RTVSPost2010Prop37
 90
       50
102
RTVSPost2010PropOp37
 70
     1
102
RTVSPost2010Prop38
140
0.0
102
RTVSPost2010PropOp38
 70
     1
102
RTVSPost2010Prop39
140
1.0
102
RTVSPost2010PropOp39
 70
     1
102
RTVSPost2010Prop40
 90
        0
102
RTVSPost2010PropOp40
 70
     1
102
RTVSPost2010Prop41ColorIndex
 90
       18
102
RTVSPost2010Prop41ColorRGB
 90
        0
102
RTVSPost2010PropOp41
 70
     1
102
RTVSPost2010Prop42
 90
       50
102
RTVSPost2010PropOp42
 70
     1
102
RTVSPost2010Prop43
 90
        3
102
RTVSPost2010PropOp43
 70
     1
102
RTVSPost2010Prop44ColorIndex
 90
        5
102
RTVSPost2010Prop44ColorRGB
 90
      255
102
RTVSPost2010PropOp44
 70
     1
102
RTVSPost2010Prop45
280
     0
102
RTVSPost2010PropOp45
 70
     1
102
RTVSPost2010Prop46
 90
       50
102
RTVSPost2010PropOp46
 70
     1
102
RTVSPost2010Prop47
 90
       50
102
RTVSPost2010PropOp47
 70
     1
102
RTVSPost2010Prop48
 90
       50
102
RTVSPost2010PropOp48
 70
     1
102
RTVSPost2010Prop49
280
     0
102
RTVSPost2010PropOp49
 70
     1
102
RTVSPost2010Prop50
 90
       50
102
RTVSPost2010PropOp50
 70
     1
102
RTVSPost2010Prop51ColorIndex
 90
      256
102
RTVSPost2010Prop51ColorRGB
 90
-16777216
102
RTVSPost2010PropOp51
 70
     0
102
RTVSPost2010Prop52
140
1.0
102
RTVSPost2010PropOp52
 70
     0
102
RTVSPost2010Prop53
 90
        2
102
RTVSPost2010PropOp53
 70
     1
102
RTVSPost2010Prop54
  1
strokes_ogs.tif
102
RTVSPost2010PropOp54
 70
     1
102
RTVSPost2010Prop55
280
     0
102
RTVSPost2010PropOp55
 70
     1
102
RTVSPost2010Prop56
140
1.0
102
RTVSPost2010PropOp56
 70
     1
102
RTVSPost2010Prop57
140
1.0
102
RTVSPost2010PropOp57
 70
     1
102
RTVSPropertyOp0
 70
     1
102
RTVSPropertyOp1
 70
     1
102
RTVSPropertyOp2
 70
     1
102
RTVSPropertyOp3
 70
     1
102
RTVSPropertyOp4
 70
     1
102
RTVSPropertyOp5
 70
     1
102
RTVSPropertyOp6
 70
     1
102
RTVSPropertyOp7
 70
     1
102
RTVSPropertyOp8
 70
     1
102
RTVSPropertyOp9
 70
     1
102
RTVSPropertyOp10
 70
     1
102
RTVSPropertyOp11
 70
     1
102
RTVSPropertyOp12
 70
     1
102
RTVSPropertyOp13
 70
     1
102
RTVSPropertyOp14
 70
     1
102
RTVSPropertyOp15
 70
     1
102
RTVSPropertyOp16
 70
     1
102
RTVSPropertyOp17
 70
     1
102
RTVSPropertyOp18
 70
     1
102
RTVSPropertyOp19
 70
     1
102
RTVSPropertyOp20
 70
     1
102
RTVSPropertyOp21
 70
     1
102
RTVSPropertyOp22
 70
     1
102
RTVSPropertyOp23
 70
     1
102
RTVSPropertyOp24
 70
     1
102
RTVSPropertyOp25
 70
     1
102
RTVSPropertyOp26
 70
     1
102
RTVSPropertyOp27
 70
     1
102
RTVSPropertyOp28
 70
     1
102
RTVSPropertyOp29
 70
     1
102
RTVSPropertyOp30
 70
     1
102
RTVSPropertyOp31
 70
     1
102
RTVSPropertyOp32
 70
     1
102
RTVSPropertyOp33
 70
     1
102
RTVSPropertyOp34
 70
     1
102
RTVSPropertyOp35
 70
     1
102
RTVSPropertyOp36
 70
     1
102
RTVSPropertyOp37
 70
     1
102
RTVSPropertyOp38
 70
     1
102
RTVSPropertyOp39
 70
     1
102
RTVSPropertyOp40
 70
     1
102
RTVSPropertyOp41
 70
     1
102
RTVSPropertyOp42
 70
     1
102
RTVSPropertyOp43
 70
     1
102
RTVSPropertyOp44
 70
     1
102
RTVSPropertyOp45
 70
     1
102
RTVSPropertyOp46
 70
     1
102
RTVSPropertyOp47
 70
     1
102
RTVSPropertyOp48
 70
     1
102
RTVSPropertyOp49
 70
     1
102
RTVSPropertyOp50
 70
     1
102
RTVSPropertyOp51
 70
     0
102
RTVSPropertyOp52
 70
     0
102
RTVSPropertyOp53
 70
     1
102
RTVSPropertyOp54
 70
     1
102
RTVSPropertyOp55
 70
     1
102
RTVSPropertyOp56
 70
     1
102
RTVSPropertyOp57
 70
     1
102
RTVSPropertyOp58
 70
     1
102
RTVSPropertyOp59
 70
     1
102
RTVSPropertyOp60
 70
     1
102
RTVSPropertyOp61
 70
     1
102
RTVSPropertyOp62
 70
     1
  0
XRECORD
  5
CE4
102
{ACAD_REACTORS
330
CE3
102
}
330
CE3
100
AcDbXrecord
280
     1
102
RTVSPost2010Prop28
280
     0
102
RTVSPost2010PropOp28
 70
     0
102
RTVSPost2010Prop29
280
     1
102
RTVSPost2010PropOp29
 70
     0
102
RTVSPost2010Prop30
280
     1
102
RTVSPost2010PropOp30
 70
     0
102
RTVSPost2010Prop31
280
     0
102
RTVSPost2010PropOp31
 70
     0
102
RTVSPost2010Prop32
280
     0
102
RTVSPost2010PropOp32
 70
     0
102
RTVSPost2010Prop33
280
     0
102
RTVSPost2010PropOp33
 70
     0
102
RTVSPost2010Prop34
280
     0
102
RTVSPost2010PropOp34
 70
     0
102
RTVSPost2010Prop35
280
     0
102
RTVSPost2010PropOp35
 70
     0
102
RTVSPost2010Prop36
280
     0
102
RTVSPost2010PropOp36
 70
     0
102
RTVSPost2010Prop37
 90
       50
102
RTVSPost2010PropOp37
 70
     0
102
RTVSPost2010Prop38
140
0.0
102
RTVSPost2010PropOp38
 70
     0
102
RTVSPost2010Prop39
140
1.0
102
RTVSPost2010PropOp39
 70
     0
102
RTVSPost2010Prop40
 90
        0
102
RTVSPost2010PropOp40
 70
     0
102
RTVSPost2010Prop41ColorIndex
 90
       18
102
RTVSPost2010Prop41ColorRGB
 90
        0
102
RTVSPost2010PropOp41
 70
     0
102
RTVSPost2010Prop42
 90
       50
102
RTVSPost2010PropOp42
 70
     0
102
RTVSPost2010Prop43
 90
        3
102
RTVSPost2010PropOp43
 70
     0
102
RTVSPost2010Prop44ColorIndex
 90
        5
102
RTVSPost2010Prop44ColorRGB
 90
      255
102
RTVSPost2010PropOp44
 70
     0
102
RTVSPost2010Prop45
280
     0
102
RTVSPost2010PropOp45
 70
     0
102
RTVSPost2010Prop46
 90
       50
102
RTVSPost2010PropOp46
 70
     0
102
RTVSPost2010Prop47
 90
       50
102
RTVSPost2010PropOp47
 70
     0
102
RTVSPost2010Prop48
 90
       50
102
RTVSPost2010PropOp48
 70
     0
102
RTVSPost2010Prop49
280
     0
102
RTVSPost2010PropOp49
 70
     0
102
RTVSPost2010Prop50
 90
       50
102
RTVSPost2010PropOp50
 70
     0
102
RTVSPost2010Prop51ColorIndex
 90
      256
102
RTVSPost2010Prop51ColorRGB
 90
-16777216
102
RTVSPost2010PropOp51
 70
     0
102
RTVSPost2010Prop52
140
1.0
102
RTVSPost2010PropOp52
 70
     0
102
RTVSPost2010Prop53
 90
        2
102
RTVSPost2010PropOp53
 70
     0
102
RTVSPost2010Prop54
  1
strokes_ogs.tif
102
RTVSPost2010PropOp54
 70
     0
102
RTVSPost2010Prop55
280
     0
102
RTVSPost2010PropOp55
 70
     0
102
RTVSPost2010Prop56
140
1.0
102
RTVSPost2010PropOp56
 70
     0
102
RTVSPost2010Prop57
140
1.0
102
RTVSPost2010PropOp57
 70
     0
102
RTVSPropertyOp0
 70
     0
102
RTVSPropertyOp1
 70
     0
102
RTVSPropertyOp2
 70
     0
102
RTVSPropertyOp3
 70
     0
102
RTVSPropertyOp4
 70
     0
102
RTVSPropertyOp5
 70
     0
102
RTVSPropertyOp6
 70
     0
102
RTVSPropertyOp7
 70
     0
102
RTVSPropertyOp8
 70
     0
102
RTVSPropertyOp9
 70
     0
102
RTVSPropertyOp10
 70
     0
102
RTVSPropertyOp11
 70
     0
102
RTVSPropertyOp12
 70
     0
102
RTVSPropertyOp13
 70
     0
102
RTVSPropertyOp14
 70
     2
102
RTVSPropertyOp15
 70
     0
102
RTVSPropertyOp16
 70
     0
102
RTVSPropertyOp17
 70
     0
102
RTVSPropertyOp18
 70
     0
102
RTVSPropertyOp19
 70
     0
102
RTVSPropertyOp20
 70
     0
102
RTVSPropertyOp21
 70
     0
102
RTVSPropertyOp22
 70
     0
102
RTVSPropertyOp23
 70
     0
102
RTVSPropertyOp24
 70
     0
102
RTVSPropertyOp25
 70
     0
102
RTVSPropertyOp26
 70
     0
102
RTVSPropertyOp27
 70
     0
102
RTVSPropertyOp28
 70
     0
102
RTVSPropertyOp29
 70
     0
102
RTVSPropertyOp30
 70
     0
102
RTVSPropertyOp31
 70
     0
102
RTVSPropertyOp32
 70
     0
102
RTVSPropertyOp33
 70
     0
102
RTVSPropertyOp34
 70
     0
102
RTVSPropertyOp35
 70
     0
102
RTVSPropertyOp36
 70
     0
102
RTVSPropertyOp37
 70
     0
102
RTVSPropertyOp38
 70
     0
102
RTVSPropertyOp39
 70
     0
102
RTVSPropertyOp40
 70
     0
102
RTVSPropertyOp41
 70
     0
102
RTVSPropertyOp42
 70
     0
102
RTVSPropertyOp43
 70
     0
102
RTVSPropertyOp44
 70
     0
102
RTVSPropertyOp45
 70
     0
102
RTVSPropertyOp46
 70
     0
102
RTVSPropertyOp47
 70
     0
102
RTVSPropertyOp48
 70
     0
102
RTVSPropertyOp49
 70
     0
102
RTVSPropertyOp50
 70
     0
102
RTVSPropertyOp51
 70
     0
102
RTVSPropertyOp52
 70
     0
102
RTVSPropertyOp53
 70
     0
102
RTVSPropertyOp54
 70
     0
102
RTVSPropertyOp55
 70
     0
102
RTVSPropertyOp56
 70
     0
102
RTVSPropertyOp57
 70
     0
102
RTVSPropertyOp58
 70
     1
102
RTVSPropertyOp59
 70
     1
102
RTVSPropertyOp60
 70
     1
102
RTVSPropertyOp61
 70
     1
102
RTVSPropertyOp62
 70
     1
  0
XRECORD
  5
CD2
102
{ACAD_REACTORS
330
CD1
102
}
330
CD1
100
AcDbXrecord
280
     1
102
RTVSPost2010Prop28
280
     0
102
RTVSPost2010PropOp28
 70
     1
102
RTVSPost2010Prop29
280
     1
102
RTVSPost2010PropOp29
 70
     1
102
RTVSPost2010Prop30
280
     1
102
RTVSPost2010PropOp30
 70
     1
102
RTVSPost2010Prop31
280
     0
102
RTVSPost2010PropOp31
 70
     1
102
RTVSPost2010Prop32
280
     0
102
RTVSPost2010PropOp32
 70
     1
102
RTVSPost2010Prop33
280
     0
102
RTVSPost2010PropOp33
 70
     1
102
RTVSPost2010Prop34
280
     0
102
RTVSPost2010PropOp34
 70
     1
102
RTVSPost2010Prop35
280
     0
102
RTVSPost2010PropOp35
 70
     1
102
RTVSPost2010Prop36
280
     0
102
RTVSPost2010PropOp36
 70
     1
102
RTVSPost2010Prop37
 90
       50
102
RTVSPost2010PropOp37
 70
     1
102
RTVSPost2010Prop38
140
0.0
102
RTVSPost2010PropOp38
 70
     1
102
RTVSPost2010Prop39
140
1.0
102
RTVSPost2010PropOp39
 70
     1
102
RTVSPost2010Prop40
 90
        0
102
RTVSPost2010PropOp40
 70
     1
102
RTVSPost2010Prop41ColorIndex
 90
       18
102
RTVSPost2010Prop41ColorRGB
 90
        0
102
RTVSPost2010PropOp41
 70
     1
102
RTVSPost2010Prop42
 90
       50
102
RTVSPost2010PropOp42
 70
     1
102
RTVSPost2010Prop43
 90
        3
102
RTVSPost2010PropOp43
 70
     1
102
RTVSPost2010Prop44ColorIndex
 90
        5
102
RTVSPost2010Prop44ColorRGB
 90
      255
102
RTVSPost2010PropOp44
 70
     1
102
RTVSPost2010Prop45
280
     0
102
RTVSPost2010PropOp45
 70
     1
102
RTVSPost2010Prop46
 90
       50
102
RTVSPost2010PropOp46
 70
     1
102
RTVSPost2010Prop47
 90
       50
102
RTVSPost2010PropOp47
 70
     1
102
RTVSPost2010Prop48
 90
       50
102
RTVSPost2010PropOp48
 70
     1
102
RTVSPost2010Prop49
280
     0
102
RTVSPost2010PropOp49
 70
     1
102
RTVSPost2010Prop50
 90
       50
102
RTVSPost2010PropOp50
 70
     1
102
RTVSPost2010Prop51ColorIndex
 90
      256
102
RTVSPost2010Prop51ColorRGB
 90
-16777216
102
RTVSPost2010PropOp51
 70
     0
102
RTVSPost2010Prop52
140
1.0
102
RTVSPost2010PropOp52
 70
     0
102
RTVSPost2010Prop53
 90
        2
102
RTVSPost2010PropOp53
 70
     1
102
RTVSPost2010Prop54
  1
strokes_ogs.tif
102
RTVSPost2010PropOp54
 70
     1
102
RTVSPost2010Prop55
280
     0
102
RTVSPost2010PropOp55
 70
     1
102
RTVSPost2010Prop56
140
1.0
102
RTVSPost2010PropOp56
 70
     1
102
RTVSPost2010Prop57
140
1.0
102
RTVSPost2010PropOp57
 70
     1
102
RTVSPropertyOp0
 70
     1
102
RTVSPropertyOp1
 70
     1
102
RTVSPropertyOp2
 70
     1
102
RTVSPropertyOp3
 70
     1
102
RTVSPropertyOp4
 70
     1
102
RTVSPropertyOp5
 70
     1
102
RTVSPropertyOp6
 70
     1
102
RTVSPropertyOp7
 70
     1
102
RTVSPropertyOp8
 70
     1
102
RTVSPropertyOp9
 70
     1
102
RTVSPropertyOp10
 70
     1
102
RTVSPropertyOp11
 70
     1
102
RTVSPropertyOp12
 70
     1
102
RTVSPropertyOp13
 70
     1
102
RTVSPropertyOp14
 70
     1
102
RTVSPropertyOp15
 70
     1
102
RTVSPropertyOp16
 70
     1
102
RTVSPropertyOp17
 70
     1
102
RTVSPropertyOp18
 70
     1
102
RTVSPropertyOp19
 70
     1
102
RTVSPropertyOp20
 70
     1
102
RTVSPropertyOp21
 70
     1
102
RTVSPropertyOp22
 70
     1
102
RTVSPropertyOp23
 70
     1
102
RTVSPropertyOp24
 70
     1
102
RTVSPropertyOp25
 70
     1
102
RTVSPropertyOp26
 70
     1
102
RTVSPropertyOp27
 70
     1
102
RTVSPropertyOp28
 70
     1
102
RTVSPropertyOp29
 70
     1
102
RTVSPropertyOp30
 70
     1
102
RTVSPropertyOp31
 70
     1
102
RTVSPropertyOp32
 70
     1
102
RTVSPropertyOp33
 70
     1
102
RTVSPropertyOp34
 70
     1
102
RTVSPropertyOp35
 70
     1
102
RTVSPropertyOp36
 70
     1
102
RTVSPropertyOp37
 70
     1
102
RTVSPropertyOp38
 70
     1
102
RTVSPropertyOp39
 70
     1
102
RTVSPropertyOp40
 70
     1
102
RTVSPropertyOp41
 70
     1
102
RTVSPropertyOp42
 70
     1
102
RTVSPropertyOp43
 70
     1
102
RTVSPropertyOp44
 70
     1
102
RTVSPropertyOp45
 70
     1
102
RTVSPropertyOp46
 70
     1
102
RTVSPropertyOp47
 70
     1
102
RTVSPropertyOp48
 70
     1
102
RTVSPropertyOp49
 70
     1
102
RTVSPropertyOp50
 70
     1
102
RTVSPropertyOp51
 70
     0
102
RTVSPropertyOp52
 70
     0
102
RTVSPropertyOp53
 70
     1
102
RTVSPropertyOp54
 70
     1
102
RTVSPropertyOp55
 70
     1
102
RTVSPropertyOp56
 70
     1
102
RTVSPropertyOp57
 70
     1
102
RTVSPropertyOp58
 70
     1
102
RTVSPropertyOp59
 70
     1
102
RTVSPropertyOp60
 70
     1
102
RTVSPropertyOp61
 70
     1
102
RTVSPropertyOp62
 70
     1
  0
XRECORD
  5
CF0
102
{ACAD_REACTORS
330
CEF
102
}
330
CEF
100
AcDbXrecord
280
     1
102
RTVSPost2010Prop28
280
     0
102
RTVSPost2010PropOp28
 70
     1
102
RTVSPost2010Prop29
280
     1
102
RTVSPost2010PropOp29
 70
     1
102
RTVSPost2010Prop30
280
     1
102
RTVSPost2010PropOp30
 70
     1
102
RTVSPost2010Prop31
280
     0
102
RTVSPost2010PropOp31
 70
     1
102
RTVSPost2010Prop32
280
     0
102
RTVSPost2010PropOp32
 70
     1
102
RTVSPost2010Prop33
280
     0
102
RTVSPost2010PropOp33
 70
     1
102
RTVSPost2010Prop34
280
     0
102
RTVSPost2010PropOp34
 70
     1
102
RTVSPost2010Prop35
280
     0
102
RTVSPost2010PropOp35
 70
     1
102
RTVSPost2010Prop36
280
     0
102
RTVSPost2010PropOp36
 70
     1
102
RTVSPost2010Prop37
 90
       50
102
RTVSPost2010PropOp37
 70
     1
102
RTVSPost2010Prop38
140
0.0
102
RTVSPost2010PropOp38
 70
     1
102
RTVSPost2010Prop39
140
1.0
102
RTVSPost2010PropOp39
 70
     1
102
RTVSPost2010Prop40
 90
        0
102
RTVSPost2010PropOp40
 70
     1
102
RTVSPost2010Prop41ColorIndex
 90
       18
102
RTVSPost2010Prop41ColorRGB
 90
        0
102
RTVSPost2010PropOp41
 70
     1
102
RTVSPost2010Prop42
 90
       50
102
RTVSPost2010PropOp42
 70
     1
102
RTVSPost2010Prop43
 90
        3
102
RTVSPost2010PropOp43
 70
     1
102
RTVSPost2010Prop44ColorIndex
 90
        5
102
RTVSPost2010Prop44ColorRGB
 90
      255
102
RTVSPost2010PropOp44
 70
     1
102
RTVSPost2010Prop45
280
     0
102
RTVSPost2010PropOp45
 70
     1
102
RTVSPost2010Prop46
 90
       50
102
RTVSPost2010PropOp46
 70
     1
102
RTVSPost2010Prop47
 90
       50
102
RTVSPost2010PropOp47
 70
     1
102
RTVSPost2010Prop48
 90
       50
102
RTVSPost2010PropOp48
 70
     1
102
RTVSPost2010Prop49
280
     0
102
RTVSPost2010PropOp49
 70
     1
102
RTVSPost2010Prop50
 90
       50
102
RTVSPost2010PropOp50
 70
     1
102
RTVSPost2010Prop51ColorIndex
 90
      256
102
RTVSPost2010Prop51ColorRGB
 90
-16777216
102
RTVSPost2010PropOp51
 70
     0
102
RTVSPost2010Prop52
140
1.0
102
RTVSPost2010PropOp52
 70
     0
102
RTVSPost2010Prop53
 90
        2
102
RTVSPost2010PropOp53
 70
     1
102
RTVSPost2010Prop54
  1
strokes_ogs.tif
102
RTVSPost2010PropOp54
 70
     1
102
RTVSPost2010Prop55
280
     0
102
RTVSPost2010PropOp55
 70
     1
102
RTVSPost2010Prop56
140
1.0
102
RTVSPost2010PropOp56
 70
     1
102
RTVSPost2010Prop57
140
1.0
102
RTVSPost2010PropOp57
 70
     1
102
RTVSPropertyOp0
 70
     1
102
RTVSPropertyOp1
 70
     1
102
RTVSPropertyOp2
 70
     1
102
RTVSPropertyOp3
 70
     1
102
RTVSPropertyOp4
 70
     1
102
RTVSPropertyOp5
 70
     1
102
RTVSPropertyOp6
 70
     1
102
RTVSPropertyOp7
 70
     1
102
RTVSPropertyOp8
 70
     1
102
RTVSPropertyOp9
 70
     1
102
RTVSPropertyOp10
 70
     1
102
RTVSPropertyOp11
 70
     1
102
RTVSPropertyOp12
 70
     1
102
RTVSPropertyOp13
 70
     1
102
RTVSPropertyOp14
 70
     1
102
RTVSPropertyOp15
 70
     1
102
RTVSPropertyOp16
 70
     1
102
RTVSPropertyOp17
 70
     1
102
RTVSPropertyOp18
 70
     1
102
RTVSPropertyOp19
 70
     1
102
RTVSPropertyOp20
 70
     1
102
RTVSPropertyOp21
 70
     1
102
RTVSPropertyOp22
 70
     1
102
RTVSPropertyOp23
 70
     1
102
RTVSPropertyOp24
 70
     1
102
RTVSPropertyOp25
 70
     1
102
RTVSPropertyOp26
 70
     1
102
RTVSPropertyOp27
 70
     1
102
RTVSPropertyOp28
 70
     1
102
RTVSPropertyOp29
 70
     1
102
RTVSPropertyOp30
 70
     1
102
RTVSPropertyOp31
 70
     1
102
RTVSPropertyOp32
 70
     1
102
RTVSPropertyOp33
 70
     1
102
RTVSPropertyOp34
 70
     1
102
RTVSPropertyOp35
 70
     1
102
RTVSPropertyOp36
 70
     1
102
RTVSPropertyOp37
 70
     1
102
RTVSPropertyOp38
 70
     1
102
RTVSPropertyOp39
 70
     1
102
RTVSPropertyOp40
 70
     1
102
RTVSPropertyOp41
 70
     1
102
RTVSPropertyOp42
 70
     1
102
RTVSPropertyOp43
 70
     1
102
RTVSPropertyOp44
 70
     1
102
RTVSPropertyOp45
 70
     1
102
RTVSPropertyOp46
 70
     1
102
RTVSPropertyOp47
 70
     1
102
RTVSPropertyOp48
 70
     1
102
RTVSPropertyOp49
 70
     1
102
RTVSPropertyOp50
 70
     1
102
RTVSPropertyOp51
 70
     0
102
RTVSPropertyOp52
 70
     0
102
RTVSPropertyOp53
 70
     1
102
RTVSPropertyOp54
 70
     1
102
RTVSPropertyOp55
 70
     1
102
RTVSPropertyOp56
 70
     1
102
RTVSPropertyOp57
 70
     1
102
RTVSPropertyOp58
 70
     1
102
RTVSPropertyOp59
 70
     1
102
RTVSPropertyOp60
 70
     1
102
RTVSPropertyOp61
 70
     1
102
RTVSPropertyOp62
 70
     1
  0
XRECORD
  5
CEE
102
{ACAD_REACTORS
330
CED
102
}
330
CED
100
AcDbXrecord
280
     1
102
RTVSPost2010Prop28
280
     0
102
RTVSPost2010PropOp28
 70
     1
102
RTVSPost2010Prop29
280
     1
102
RTVSPost2010PropOp29
 70
     1
102
RTVSPost2010Prop30
280
     1
102
RTVSPost2010PropOp30
 70
     1
102
RTVSPost2010Prop31
280
     0
102
RTVSPost2010PropOp31
 70
     1
102
RTVSPost2010Prop32
280
     0
102
RTVSPost2010PropOp32
 70
     1
102
RTVSPost2010Prop33
280
     0
102
RTVSPost2010PropOp33
 70
     1
102
RTVSPost2010Prop34
280
     0
102
RTVSPost2010PropOp34
 70
     1
102
RTVSPost2010Prop35
280
     0
102
RTVSPost2010PropOp35
 70
     1
102
RTVSPost2010Prop36
280
     0
102
RTVSPost2010PropOp36
 70
     1
102
RTVSPost2010Prop37
 90
       50
102
RTVSPost2010PropOp37
 70
     1
102
RTVSPost2010Prop38
140
0.0
102
RTVSPost2010PropOp38
 70
     1
102
RTVSPost2010Prop39
140
1.0
102
RTVSPost2010PropOp39
 70
     1
102
RTVSPost2010Prop40
 90
        0
102
RTVSPost2010PropOp40
 70
     1
102
RTVSPost2010Prop41ColorIndex
 90
       18
102
RTVSPost2010Prop41ColorRGB
 90
        0
102
RTVSPost2010PropOp41
 70
     1
102
RTVSPost2010Prop42
 90
       50
102
RTVSPost2010PropOp42
 70
     1
102
RTVSPost2010Prop43
 90
        3
102
RTVSPost2010PropOp43
 70
     1
102
RTVSPost2010Prop44ColorIndex
 90
        5
102
RTVSPost2010Prop44ColorRGB
 90
      255
102
RTVSPost2010PropOp44
 70
     1
102
RTVSPost2010Prop45
280
     0
102
RTVSPost2010PropOp45
 70
     1
102
RTVSPost2010Prop46
 90
       50
102
RTVSPost2010PropOp46
 70
     1
102
RTVSPost2010Prop47
 90
       50
102
RTVSPost2010PropOp47
 70
     1
102
RTVSPost2010Prop48
 90
       50
102
RTVSPost2010PropOp48
 70
     1
102
RTVSPost2010Prop49
280
     0
102
RTVSPost2010PropOp49
 70
     1
102
RTVSPost2010Prop50
 90
       50
102
RTVSPost2010PropOp50
 70
     1
102
RTVSPost2010Prop51ColorIndex
 90
      256
102
RTVSPost2010Prop51ColorRGB
 90
-16777216
102
RTVSPost2010PropOp51
 70
     0
102
RTVSPost2010Prop52
140
1.0
102
RTVSPost2010PropOp52
 70
     0
102
RTVSPost2010Prop53
 90
        2
102
RTVSPost2010PropOp53
 70
     1
102
RTVSPost2010Prop54
  1
strokes_ogs.tif
102
RTVSPost2010PropOp54
 70
     1
102
RTVSPost2010Prop55
280
     0
102
RTVSPost2010PropOp55
 70
     1
102
RTVSPost2010Prop56
140
1.0
102
RTVSPost2010PropOp56
 70
     1
102
RTVSPost2010Prop57
140
1.0
102
RTVSPost2010PropOp57
 70
     1
102
RTVSPropertyOp0
 70
     1
102
RTVSPropertyOp1
 70
     1
102
RTVSPropertyOp2
 70
     1
102
RTVSPropertyOp3
 70
     1
102
RTVSPropertyOp4
 70
     1
102
RTVSPropertyOp5
 70
     1
102
RTVSPropertyOp6
 70
     1
102
RTVSPropertyOp7
 70
     1
102
RTVSPropertyOp8
 70
     1
102
RTVSPropertyOp9
 70
     1
102
RTVSPropertyOp10
 70
     1
102
RTVSPropertyOp11
 70
     1
102
RTVSPropertyOp12
 70
     1
102
RTVSPropertyOp13
 70
     1
102
RTVSPropertyOp14
 70
     1
102
RTVSPropertyOp15
 70
     1
102
RTVSPropertyOp16
 70
     1
102
RTVSPropertyOp17
 70
     1
102
RTVSPropertyOp18
 70
     1
102
RTVSPropertyOp19
 70
     1
102
RTVSPropertyOp20
 70
     1
102
RTVSPropertyOp21
 70
     1
102
RTVSPropertyOp22
 70
     1
102
RTVSPropertyOp23
 70
     1
102
RTVSPropertyOp24
 70
     1
102
RTVSPropertyOp25
 70
     1
102
RTVSPropertyOp26
 70
     1
102
RTVSPropertyOp27
 70
     1
102
RTVSPropertyOp28
 70
     1
102
RTVSPropertyOp29
 70
     1
102
RTVSPropertyOp30
 70
     1
102
RTVSPropertyOp31
 70
     1
102
RTVSPropertyOp32
 70
     1
102
RTVSPropertyOp33
 70
     1
102
RTVSPropertyOp34
 70
     1
102
RTVSPropertyOp35
 70
     1
102
RTVSPropertyOp36
 70
     1
102
RTVSPropertyOp37
 70
     1
102
RTVSPropertyOp38
 70
     1
102
RTVSPropertyOp39
 70
     1
102
RTVSPropertyOp40
 70
     1
102
RTVSPropertyOp41
 70
     1
102
RTVSPropertyOp42
 70
     1
102
RTVSPropertyOp43
 70
     1
102
RTVSPropertyOp44
 70
     1
102
RTVSPropertyOp45
 70
     1
102
RTVSPropertyOp46
 70
     1
102
RTVSPropertyOp47
 70
     1
102
RTVSPropertyOp48
 70
     1
102
RTVSPropertyOp49
 70
     1
102
RTVSPropertyOp50
 70
     1
102
RTVSPropertyOp51
 70
     0
102
RTVSPropertyOp52
 70
     0
102
RTVSPropertyOp53
 70
     1
102
RTVSPropertyOp54
 70
     1
102
RTVSPropertyOp55
 70
     1
102
RTVSPropertyOp56
 70
     1
102
RTVSPropertyOp57
 70
     1
102
RTVSPropertyOp58
 70
     1
102
RTVSPropertyOp59
 70
     1
102
RTVSPropertyOp60
 70
     1
102
RTVSPropertyOp61
 70
     1
102
RTVSPropertyOp62
 70
     1
  0
XRECORD
  5
CE8
102
{ACAD_REACTORS
330
CE7
102
}
330
CE7
100
AcDbXrecord
280
     1
102
RTVSPost2010Prop28
280
     0
102
RTVSPost2010PropOp28
 70
     1
102
RTVSPost2010Prop29
280
     1
102
RTVSPost2010PropOp29
 70
     1
102
RTVSPost2010Prop30
280
     1
102
RTVSPost2010PropOp30
 70
     1
102
RTVSPost2010Prop31
280
     0
102
RTVSPost2010PropOp31
 70
     1
102
RTVSPost2010Prop32
280
     0
102
RTVSPost2010PropOp32
 70
     1
102
RTVSPost2010Prop33
280
     0
102
RTVSPost2010PropOp33
 70
     1
102
RTVSPost2010Prop34
280
     0
102
RTVSPost2010PropOp34
 70
     1
102
RTVSPost2010Prop35
280
     0
102
RTVSPost2010PropOp35
 70
     1
102
RTVSPost2010Prop36
280
     0
102
RTVSPost2010PropOp36
 70
     1
102
RTVSPost2010Prop37
 90
       50
102
RTVSPost2010PropOp37
 70
     1
102
RTVSPost2010Prop38
140
0.0
102
RTVSPost2010PropOp38
 70
     1
102
RTVSPost2010Prop39
140
1.0
102
RTVSPost2010PropOp39
 70
     1
102
RTVSPost2010Prop40
 90
        0
102
RTVSPost2010PropOp40
 70
     1
102
RTVSPost2010Prop41ColorIndex
 90
       18
102
RTVSPost2010Prop41ColorRGB
 90
        0
102
RTVSPost2010PropOp41
 70
     1
102
RTVSPost2010Prop42
 90
       50
102
RTVSPost2010PropOp42
 70
     1
102
RTVSPost2010Prop43
 90
        3
102
RTVSPost2010PropOp43
 70
     1
102
RTVSPost2010Prop44ColorIndex
 90
        5
102
RTVSPost2010Prop44ColorRGB
 90
      255
102
RTVSPost2010PropOp44
 70
     1
102
RTVSPost2010Prop45
280
     0
102
RTVSPost2010PropOp45
 70
     1
102
RTVSPost2010Prop46
 90
       50
102
RTVSPost2010PropOp46
 70
     1
102
RTVSPost2010Prop47
 90
       50
102
RTVSPost2010PropOp47
 70
     1
102
RTVSPost2010Prop48
 90
       50
102
RTVSPost2010PropOp48
 70
     1
102
RTVSPost2010Prop49
280
     0
102
RTVSPost2010PropOp49
 70
     1
102
RTVSPost2010Prop50
 90
       50
102
RTVSPost2010PropOp50
 70
     1
102
RTVSPost2010Prop51ColorIndex
 90
      256
102
RTVSPost2010Prop51ColorRGB
 90
-16777216
102
RTVSPost2010PropOp51
 70
     0
102
RTVSPost2010Prop52
140
1.0
102
RTVSPost2010PropOp52
 70
     0
102
RTVSPost2010Prop53
 90
        2
102
RTVSPost2010PropOp53
 70
     1
102
RTVSPost2010Prop54
  1
strokes_ogs.tif
102
RTVSPost2010PropOp54
 70
     1
102
RTVSPost2010Prop55
280
     0
102
RTVSPost2010PropOp55
 70
     1
102
RTVSPost2010Prop56
140
1.0
102
RTVSPost2010PropOp56
 70
     1
102
RTVSPost2010Prop57
140
1.0
102
RTVSPost2010PropOp57
 70
     1
102
RTVSPropertyOp0
 70
     1
102
RTVSPropertyOp1
 70
     1
102
RTVSPropertyOp2
 70
     1
102
RTVSPropertyOp3
 70
     1
102
RTVSPropertyOp4
 70
     1
102
RTVSPropertyOp5
 70
     1
102
RTVSPropertyOp6
 70
     1
102
RTVSPropertyOp7
 70
     1
102
RTVSPropertyOp8
 70
     1
102
RTVSPropertyOp9
 70
     1
102
RTVSPropertyOp10
 70
     1
102
RTVSPropertyOp11
 70
     1
102
RTVSPropertyOp12
 70
     1
102
RTVSPropertyOp13
 70
     1
102
RTVSPropertyOp14
 70
     1
102
RTVSPropertyOp15
 70
     1
102
RTVSPropertyOp16
 70
     1
102
RTVSPropertyOp17
 70
     1
102
RTVSPropertyOp18
 70
     1
102
RTVSPropertyOp19
 70
     1
102
RTVSPropertyOp20
 70
     1
102
RTVSPropertyOp21
 70
     1
102
RTVSPropertyOp22
 70
     1
102
RTVSPropertyOp23
 70
     1
102
RTVSPropertyOp24
 70
     1
102
RTVSPropertyOp25
 70
     1
102
RTVSPropertyOp26
 70
     1
102
RTVSPropertyOp27
 70
     1
102
RTVSPropertyOp28
 70
     1
102
RTVSPropertyOp29
 70
     1
102
RTVSPropertyOp30
 70
     1
102
RTVSPropertyOp31
 70
     1
102
RTVSPropertyOp32
 70
     1
102
RTVSPropertyOp33
 70
     1
102
RTVSPropertyOp34
 70
     1
102
RTVSPropertyOp35
 70
     1
102
RTVSPropertyOp36
 70
     1
102
RTVSPropertyOp37
 70
     1
102
RTVSPropertyOp38
 70
     1
102
RTVSPropertyOp39
 70
     1
102
RTVSPropertyOp40
 70
     1
102
RTVSPropertyOp41
 70
     1
102
RTVSPropertyOp42
 70
     1
102
RTVSPropertyOp43
 70
     1
102
RTVSPropertyOp44
 70
     1
102
RTVSPropertyOp45
 70
     1
102
RTVSPropertyOp46
 70
     1
102
RTVSPropertyOp47
 70
     1
102
RTVSPropertyOp48
 70
     1
102
RTVSPropertyOp49
 70
     1
102
RTVSPropertyOp50
 70
     1
102
RTVSPropertyOp51
 70
     0
102
RTVSPropertyOp52
 70
     0
102
RTVSPropertyOp53
 70
     1
102
RTVSPropertyOp54
 70
     1
102
RTVSPropertyOp55
 70
     1
102
RTVSPropertyOp56
 70
     1
102
RTVSPropertyOp57
 70
     1
102
RTVSPropertyOp58
 70
     1
102
RTVSPropertyOp59
 70
     1
102
RTVSPropertyOp60
 70
     1
102
RTVSPropertyOp61
 70
     1
102
RTVSPropertyOp62
 70
     1
  0
XRECORD
  5
CEA
102
{ACAD_REACTORS
330
CE9
102
}
330
CE9
100
AcDbXrecord
280
     1
102
RTVSPost2010Prop28
280
     0
102
RTVSPost2010PropOp28
 70
     1
102
RTVSPost2010Prop29
280
     1
102
RTVSPost2010PropOp29
 70
     1
102
RTVSPost2010Prop30
280
     1
102
RTVSPost2010PropOp30
 70
     1
102
RTVSPost2010Prop31
280
     0
102
RTVSPost2010PropOp31
 70
     1
102
RTVSPost2010Prop32
280
     0
102
RTVSPost2010PropOp32
 70
     1
102
RTVSPost2010Prop33
280
     0
102
RTVSPost2010PropOp33
 70
     1
102
RTVSPost2010Prop34
280
     0
102
RTVSPost2010PropOp34
 70
     1
102
RTVSPost2010Prop35
280
     0
102
RTVSPost2010PropOp35
 70
     1
102
RTVSPost2010Prop36
280
     0
102
RTVSPost2010PropOp36
 70
     1
102
RTVSPost2010Prop37
 90
       50
102
RTVSPost2010PropOp37
 70
     1
102
RTVSPost2010Prop38
140
0.0
102
RTVSPost2010PropOp38
 70
     1
102
RTVSPost2010Prop39
140
1.0
102
RTVSPost2010PropOp39
 70
     1
102
RTVSPost2010Prop40
 90
        0
102
RTVSPost2010PropOp40
 70
     1
102
RTVSPost2010Prop41ColorIndex
 90
       18
102
RTVSPost2010Prop41ColorRGB
 90
        0
102
RTVSPost2010PropOp41
 70
     1
102
RTVSPost2010Prop42
 90
       50
102
RTVSPost2010PropOp42
 70
     1
102
RTVSPost2010Prop43
 90
        3
102
RTVSPost2010PropOp43
 70
     1
102
RTVSPost2010Prop44ColorIndex
 90
        5
102
RTVSPost2010Prop44ColorRGB
 90
      255
102
RTVSPost2010PropOp44
 70
     1
102
RTVSPost2010Prop45
280
     0
102
RTVSPost2010PropOp45
 70
     1
102
RTVSPost2010Prop46
 90
       50
102
RTVSPost2010PropOp46
 70
     1
102
RTVSPost2010Prop47
 90
       50
102
RTVSPost2010PropOp47
 70
     1
102
RTVSPost2010Prop48
 90
       50
102
RTVSPost2010PropOp48
 70
     1
102
RTVSPost2010Prop49
280
     0
102
RTVSPost2010PropOp49
 70
     1
102
RTVSPost2010Prop50
 90
       50
102
RTVSPost2010PropOp50
 70
     1
102
RTVSPost2010Prop51ColorIndex
 90
      256
102
RTVSPost2010Prop51ColorRGB
 90
-16777216
102
RTVSPost2010PropOp51
 70
     0
102
RTVSPost2010Prop52
140
1.0
102
RTVSPost2010PropOp52
 70
     0
102
RTVSPost2010Prop53
 90
        2
102
RTVSPost2010PropOp53
 70
     1
102
RTVSPost2010Prop54
  1
strokes_ogs.tif
102
RTVSPost2010PropOp54
 70
     1
102
RTVSPost2010Prop55
280
     0
102
RTVSPost2010PropOp55
 70
     1
102
RTVSPost2010Prop56
140
1.0
102
RTVSPost2010PropOp56
 70
     1
102
RTVSPost2010Prop57
140
1.0
102
RTVSPost2010PropOp57
 70
     1
102
RTVSPropertyOp0
 70
     1
102
RTVSPropertyOp1
 70
     1
102
RTVSPropertyOp2
 70
     1
102
RTVSPropertyOp3
 70
     1
102
RTVSPropertyOp4
 70
     1
102
RTVSPropertyOp5
 70
     1
102
RTVSPropertyOp6
 70
     1
102
RTVSPropertyOp7
 70
     1
102
RTVSPropertyOp8
 70
     1
102
RTVSPropertyOp9
 70
     1
102
RTVSPropertyOp10
 70
     1
102
RTVSPropertyOp11
 70
     1
102
RTVSPropertyOp12
 70
     1
102
RTVSPropertyOp13
 70
     1
102
RTVSPropertyOp14
 70
     1
102
RTVSPropertyOp15
 70
     1
102
RTVSPropertyOp16
 70
     1
102
RTVSPropertyOp17
 70
     1
102
RTVSPropertyOp18
 70
     1
102
RTVSPropertyOp19
 70
     1
102
RTVSPropertyOp20
 70
     1
102
RTVSPropertyOp21
 70
     1
102
RTVSPropertyOp22
 70
     1
102
RTVSPropertyOp23
 70
     1
102
RTVSPropertyOp24
 70
     1
102
RTVSPropertyOp25
 70
     1
102
RTVSPropertyOp26
 70
     1
102
RTVSPropertyOp27
 70
     1
102
RTVSPropertyOp28
 70
     1
102
RTVSPropertyOp29
 70
     1
102
RTVSPropertyOp30
 70
     1
102
RTVSPropertyOp31
 70
     1
102
RTVSPropertyOp32
 70
     1
102
RTVSPropertyOp33
 70
     1
102
RTVSPropertyOp34
 70
     1
102
RTVSPropertyOp35
 70
     1
102
RTVSPropertyOp36
 70
     1
102
RTVSPropertyOp37
 70
     1
102
RTVSPropertyOp38
 70
     1
102
RTVSPropertyOp39
 70
     1
102
RTVSPropertyOp40
 70
     1
102
RTVSPropertyOp41
 70
     1
102
RTVSPropertyOp42
 70
     1
102
RTVSPropertyOp43
 70
     1
102
RTVSPropertyOp44
 70
     1
102
RTVSPropertyOp45
 70
     1
102
RTVSPropertyOp46
 70
     1
102
RTVSPropertyOp47
 70
     1
102
RTVSPropertyOp48
 70
     1
102
RTVSPropertyOp49
 70
     1
102
RTVSPropertyOp50
 70
     1
102
RTVSPropertyOp51
 70
     0
102
RTVSPropertyOp52
 70
     0
102
RTVSPropertyOp53
 70
     1
102
RTVSPropertyOp54
 70
     1
102
RTVSPropertyOp55
 70
     1
102
RTVSPropertyOp56
 70
     1
102
RTVSPropertyOp57
 70
     1
102
RTVSPropertyOp58
 70
     1
102
RTVSPropertyOp59
 70
     1
102
RTVSPropertyOp60
 70
     1
102
RTVSPropertyOp61
 70
     1
102
RTVSPropertyOp62
 70
     1
  0
XRECORD
  5
CDA
102
{ACAD_REACTORS
330
CD9
102
}
330
CD9
100
AcDbXrecord
280
     1
102
RTVSPost2010Prop28
280
     0
102
RTVSPost2010PropOp28
 70
     1
102
RTVSPost2010Prop29
280
     1
102
RTVSPost2010PropOp29
 70
     1
102
RTVSPost2010Prop30
280
     1
102
RTVSPost2010PropOp30
 70
     1
102
RTVSPost2010Prop31
280
     0
102
RTVSPost2010PropOp31
 70
     1
102
RTVSPost2010Prop32
280
     0
102
RTVSPost2010PropOp32
 70
     1
102
RTVSPost2010Prop33
280
     0
102
RTVSPost2010PropOp33
 70
     1
102
RTVSPost2010Prop34
280
     0
102
RTVSPost2010PropOp34
 70
     1
102
RTVSPost2010Prop35
280
     0
102
RTVSPost2010PropOp35
 70
     1
102
RTVSPost2010Prop36
280
     0
102
RTVSPost2010PropOp36
 70
     1
102
RTVSPost2010Prop37
 90
       50
102
RTVSPost2010PropOp37
 70
     1
102
RTVSPost2010Prop38
140
0.0
102
RTVSPost2010PropOp38
 70
     1
102
RTVSPost2010Prop39
140
1.0
102
RTVSPost2010PropOp39
 70
     1
102
RTVSPost2010Prop40
 90
        0
102
RTVSPost2010PropOp40
 70
     1
102
RTVSPost2010Prop41ColorIndex
 90
       18
102
RTVSPost2010Prop41ColorRGB
 90
        0
102
RTVSPost2010PropOp41
 70
     1
102
RTVSPost2010Prop42
 90
       50
102
RTVSPost2010PropOp42
 70
     1
102
RTVSPost2010Prop43
 90
        3
102
RTVSPost2010PropOp43
 70
     1
102
RTVSPost2010Prop44ColorIndex
 90
        5
102
RTVSPost2010Prop44ColorRGB
 90
      255
102
RTVSPost2010PropOp44
 70
     1
102
RTVSPost2010Prop45
280
     0
102
RTVSPost2010PropOp45
 70
     1
102
RTVSPost2010Prop46
 90
       50
102
RTVSPost2010PropOp46
 70
     1
102
RTVSPost2010Prop47
 90
       50
102
RTVSPost2010PropOp47
 70
     1
102
RTVSPost2010Prop48
 90
       50
102
RTVSPost2010PropOp48
 70
     1
102
RTVSPost2010Prop49
280
     0
102
RTVSPost2010PropOp49
 70
     1
102
RTVSPost2010Prop50
 90
       50
102
RTVSPost2010PropOp50
 70
     1
102
RTVSPost2010Prop51ColorIndex
 90
      256
102
RTVSPost2010Prop51ColorRGB
 90
-16777216
102
RTVSPost2010PropOp51
 70
     0
102
RTVSPost2010Prop52
140
1.0
102
RTVSPost2010PropOp52
 70
     0
102
RTVSPost2010Prop53
 90
        2
102
RTVSPost2010PropOp53
 70
     1
102
RTVSPost2010Prop54
  1
strokes_ogs.tif
102
RTVSPost2010PropOp54
 70
     1
102
RTVSPost2010Prop55
280
     0
102
RTVSPost2010PropOp55
 70
     1
102
RTVSPost2010Prop56
140
1.0
102
RTVSPost2010PropOp56
 70
     1
102
RTVSPost2010Prop57
140
1.0
102
RTVSPost2010PropOp57
 70
     1
102
RTVSPropertyOp0
 70
     1
102
RTVSPropertyOp1
 70
     1
102
RTVSPropertyOp2
 70
     1
102
RTVSPropertyOp3
 70
     1
102
RTVSPropertyOp4
 70
     1
102
RTVSPropertyOp5
 70
     1
102
RTVSPropertyOp6
 70
     1
102
RTVSPropertyOp7
 70
     1
102
RTVSPropertyOp8
 70
     1
102
RTVSPropertyOp9
 70
     1
102
RTVSPropertyOp10
 70
     1
102
RTVSPropertyOp11
 70
     1
102
RTVSPropertyOp12
 70
     1
102
RTVSPropertyOp13
 70
     1
102
RTVSPropertyOp14
 70
     1
102
RTVSPropertyOp15
 70
     1
102
RTVSPropertyOp16
 70
     1
102
RTVSPropertyOp17
 70
     1
102
RTVSPropertyOp18
 70
     1
102
RTVSPropertyOp19
 70
     1
102
RTVSPropertyOp20
 70
     1
102
RTVSPropertyOp21
 70
     1
102
RTVSPropertyOp22
 70
     1
102
RTVSPropertyOp23
 70
     1
102
RTVSPropertyOp24
 70
     1
102
RTVSPropertyOp25
 70
     1
102
RTVSPropertyOp26
 70
     1
102
RTVSPropertyOp27
 70
     1
102
RTVSPropertyOp28
 70
     1
102
RTVSPropertyOp29
 70
     1
102
RTVSPropertyOp30
 70
     1
102
RTVSPropertyOp31
 70
     1
102
RTVSPropertyOp32
 70
     1
102
RTVSPropertyOp33
 70
     1
102
RTVSPropertyOp34
 70
     1
102
RTVSPropertyOp35
 70
     1
102
RTVSPropertyOp36
 70
     1
102
RTVSPropertyOp37
 70
     1
102
RTVSPropertyOp38
 70
     1
102
RTVSPropertyOp39
 70
     1
102
RTVSPropertyOp40
 70
     1
102
RTVSPropertyOp41
 70
     1
102
RTVSPropertyOp42
 70
     1
102
RTVSPropertyOp43
 70
     1
102
RTVSPropertyOp44
 70
     1
102
RTVSPropertyOp45
 70
     1
102
RTVSPropertyOp46
 70
     1
102
RTVSPropertyOp47
 70
     1
102
RTVSPropertyOp48
 70
     1
102
RTVSPropertyOp49
 70
     1
102
RTVSPropertyOp50
 70
     1
102
RTVSPropertyOp51
 70
     0
102
RTVSPropertyOp52
 70
     0
102
RTVSPropertyOp53
 70
     1
102
RTVSPropertyOp54
 70
     1
102
RTVSPropertyOp55
 70
     1
102
RTVSPropertyOp56
 70
     1
102
RTVSPropertyOp57
 70
     1
102
RTVSPropertyOp58
 70
     1
102
RTVSPropertyOp59
 70
     1
102
RTVSPropertyOp60
 70
     1
102
RTVSPropertyOp61
 70
     1
102
RTVSPropertyOp62
 70
     1
  0
XRECORD
  5
CCC
102
{ACAD_REACTORS
330
CCB
102
}
330
CCB
100
AcDbXrecord
280
     1
102
RTVSPost2010Prop28
280
     0
102
RTVSPost2010PropOp28
 70
     1
102
RTVSPost2010Prop29
280
     1
102
RTVSPost2010PropOp29
 70
     1
102
RTVSPost2010Prop30
280
     1
102
RTVSPost2010PropOp30
 70
     1
102
RTVSPost2010Prop31
280
     0
102
RTVSPost2010PropOp31
 70
     1
102
RTVSPost2010Prop32
280
     0
102
RTVSPost2010PropOp32
 70
     1
102
RTVSPost2010Prop33
280
     0
102
RTVSPost2010PropOp33
 70
     1
102
RTVSPost2010Prop34
280
     0
102
RTVSPost2010PropOp34
 70
     1
102
RTVSPost2010Prop35
280
     0
102
RTVSPost2010PropOp35
 70
     1
102
RTVSPost2010Prop36
280
     0
102
RTVSPost2010PropOp36
 70
     1
102
RTVSPost2010Prop37
 90
       50
102
RTVSPost2010PropOp37
 70
     1
102
RTVSPost2010Prop38
140
0.0
102
RTVSPost2010PropOp38
 70
     1
102
RTVSPost2010Prop39
140
1.0
102
RTVSPost2010PropOp39
 70
     1
102
RTVSPost2010Prop40
 90
        0
102
RTVSPost2010PropOp40
 70
     1
102
RTVSPost2010Prop41ColorIndex
 90
       18
102
RTVSPost2010Prop41ColorRGB
 90
        0
102
RTVSPost2010PropOp41
 70
     1
102
RTVSPost2010Prop42
 90
       50
102
RTVSPost2010PropOp42
 70
     1
102
RTVSPost2010Prop43
 90
        3
102
RTVSPost2010PropOp43
 70
     1
102
RTVSPost2010Prop44ColorIndex
 90
        5
102
RTVSPost2010Prop44ColorRGB
 90
      255
102
RTVSPost2010PropOp44
 70
     1
102
RTVSPost2010Prop45
280
     0
102
RTVSPost2010PropOp45
 70
     1
102
RTVSPost2010Prop46
 90
       50
102
RTVSPost2010PropOp46
 70
     1
102
RTVSPost2010Prop47
 90
       50
102
RTVSPost2010PropOp47
 70
     1
102
RTVSPost2010Prop48
 90
       50
102
RTVSPost2010PropOp48
 70
     1
102
RTVSPost2010Prop49
280
     0
102
RTVSPost2010PropOp49
 70
     1
102
RTVSPost2010Prop50
 90
       50
102
RTVSPost2010PropOp50
 70
     1
102
RTVSPost2010Prop51ColorIndex
 90
      256
102
RTVSPost2010Prop51ColorRGB
 90
-16777216
102
RTVSPost2010PropOp51
 70
     0
102
RTVSPost2010Prop52
140
1.0
102
RTVSPost2010PropOp52
 70
     0
102
RTVSPost2010Prop53
 90
        2
102
RTVSPost2010PropOp53
 70
     1
102
RTVSPost2010Prop54
  1
strokes_ogs.tif
102
RTVSPost2010PropOp54
 70
     1
102
RTVSPost2010Prop55
280
     0
102
RTVSPost2010PropOp55
 70
     1
102
RTVSPost2010Prop56
140
1.0
102
RTVSPost2010PropOp56
 70
     1
102
RTVSPost2010Prop57
140
1.0
102
RTVSPost2010PropOp57
 70
     1
102
RTVSPropertyOp0
 70
     1
102
RTVSPropertyOp1
 70
     1
102
RTVSPropertyOp2
 70
     1
102
RTVSPropertyOp3
 70
     1
102
RTVSPropertyOp4
 70
     1
102
RTVSPropertyOp5
 70
     1
102
RTVSPropertyOp6
 70
     1
102
RTVSPropertyOp7
 70
     1
102
RTVSPropertyOp8
 70
     1
102
RTVSPropertyOp9
 70
     1
102
RTVSPropertyOp10
 70
     1
102
RTVSPropertyOp11
 70
     1
102
RTVSPropertyOp12
 70
     1
102
RTVSPropertyOp13
 70
     1
102
RTVSPropertyOp14
 70
     1
102
RTVSPropertyOp15
 70
     1
102
RTVSPropertyOp16
 70
     1
102
RTVSPropertyOp17
 70
     1
102
RTVSPropertyOp18
 70
     1
102
RTVSPropertyOp19
 70
     1
102
RTVSPropertyOp20
 70
     1
102
RTVSPropertyOp21
 70
     1
102
RTVSPropertyOp22
 70
     1
102
RTVSPropertyOp23
 70
     1
102
RTVSPropertyOp24
 70
     1
102
RTVSPropertyOp25
 70
     1
102
RTVSPropertyOp26
 70
     1
102
RTVSPropertyOp27
 70
     1
102
RTVSPropertyOp28
 70
     1
102
RTVSPropertyOp29
 70
     1
102
RTVSPropertyOp30
 70
     1
102
RTVSPropertyOp31
 70
     1
102
RTVSPropertyOp32
 70
     1
102
RTVSPropertyOp33
 70
     1
102
RTVSPropertyOp34
 70
     1
102
RTVSPropertyOp35
 70
     1
102
RTVSPropertyOp36
 70
     1
102
RTVSPropertyOp37
 70
     1
102
RTVSPropertyOp38
 70
     1
102
RTVSPropertyOp39
 70
     1
102
RTVSPropertyOp40
 70
     1
102
RTVSPropertyOp41
 70
     1
102
RTVSPropertyOp42
 70
     1
102
RTVSPropertyOp43
 70
     1
102
RTVSPropertyOp44
 70
     1
102
RTVSPropertyOp45
 70
     1
102
RTVSPropertyOp46
 70
     1
102
RTVSPropertyOp47
 70
     1
102
RTVSPropertyOp48
 70
     1
102
RTVSPropertyOp49
 70
     1
102
RTVSPropertyOp50
 70
     1
102
RTVSPropertyOp51
 70
     0
102
RTVSPropertyOp52
 70
     0
102
RTVSPropertyOp53
 70
     1
102
RTVSPropertyOp54
 70
     1
102
RTVSPropertyOp55
 70
     1
102
RTVSPropertyOp56
 70
     1
102
RTVSPropertyOp57
 70
     1
102
RTVSPropertyOp58
 70
     1
102
RTVSPropertyOp59
 70
     1
102
RTVSPropertyOp60
 70
     1
102
RTVSPropertyOp61
 70
     1
102
RTVSPropertyOp62
 70
     1
  0
XRECORD
  5
CEC
102
{ACAD_REACTORS
330
CEB
102
}
330
CEB
100
AcDbXrecord
280
     1
102
RTVSPost2010Prop28
280
     0
102
RTVSPost2010PropOp28
 70
     1
102
RTVSPost2010Prop29
280
     1
102
RTVSPost2010PropOp29
 70
     1
102
RTVSPost2010Prop30
280
     1
102
RTVSPost2010PropOp30
 70
     1
102
RTVSPost2010Prop31
280
     0
102
RTVSPost2010PropOp31
 70
     1
102
RTVSPost2010Prop32
280
     0
102
RTVSPost2010PropOp32
 70
     1
102
RTVSPost2010Prop33
280
     0
102
RTVSPost2010PropOp33
 70
     1
102
RTVSPost2010Prop34
280
     0
102
RTVSPost2010PropOp34
 70
     1
102
RTVSPost2010Prop35
280
     0
102
RTVSPost2010PropOp35
 70
     1
102
RTVSPost2010Prop36
280
     0
102
RTVSPost2010PropOp36
 70
     1
102
RTVSPost2010Prop37
 90
       50
102
RTVSPost2010PropOp37
 70
     1
102
RTVSPost2010Prop38
140
0.0
102
RTVSPost2010PropOp38
 70
     1
102
RTVSPost2010Prop39
140
1.0
102
RTVSPost2010PropOp39
 70
     1
102
RTVSPost2010Prop40
 90
        0
102
RTVSPost2010PropOp40
 70
     1
102
RTVSPost2010Prop41ColorIndex
 90
       18
102
RTVSPost2010Prop41ColorRGB
 90
        0
102
RTVSPost2010PropOp41
 70
     1
102
RTVSPost2010Prop42
 90
       50
102
RTVSPost2010PropOp42
 70
     1
102
RTVSPost2010Prop43
 90
        3
102
RTVSPost2010PropOp43
 70
     1
102
RTVSPost2010Prop44ColorIndex
 90
        5
102
RTVSPost2010Prop44ColorRGB
 90
      255
102
RTVSPost2010PropOp44
 70
     1
102
RTVSPost2010Prop45
280
     0
102
RTVSPost2010PropOp45
 70
     1
102
RTVSPost2010Prop46
 90
       50
102
RTVSPost2010PropOp46
 70
     1
102
RTVSPost2010Prop47
 90
       50
102
RTVSPost2010PropOp47
 70
     1
102
RTVSPost2010Prop48
 90
       50
102
RTVSPost2010PropOp48
 70
     1
102
RTVSPost2010Prop49
280
     0
102
RTVSPost2010PropOp49
 70
     1
102
RTVSPost2010Prop50
 90
       50
102
RTVSPost2010PropOp50
 70
     1
102
RTVSPost2010Prop51ColorIndex
 90
      256
102
RTVSPost2010Prop51ColorRGB
 90
-16777216
102
RTVSPost2010PropOp51
 70
     0
102
RTVSPost2010Prop52
140
1.0
102
RTVSPost2010PropOp52
 70
     0
102
RTVSPost2010Prop53
 90
        2
102
RTVSPost2010PropOp53
 70
     1
102
RTVSPost2010Prop54
  1
strokes_ogs.tif
102
RTVSPost2010PropOp54
 70
     1
102
RTVSPost2010Prop55
280
     0
102
RTVSPost2010PropOp55
 70
     1
102
RTVSPost2010Prop56
140
1.0
102
RTVSPost2010PropOp56
 70
     1
102
RTVSPost2010Prop57
140
1.0
102
RTVSPost2010PropOp57
 70
     1
102
RTVSPropertyOp0
 70
     1
102
RTVSPropertyOp1
 70
     1
102
RTVSPropertyOp2
 70
     1
102
RTVSPropertyOp3
 70
     1
102
RTVSPropertyOp4
 70
     1
102
RTVSPropertyOp5
 70
     1
102
RTVSPropertyOp6
 70
     1
102
RTVSPropertyOp7
 70
     1
102
RTVSPropertyOp8
 70
     1
102
RTVSPropertyOp9
 70
     1
102
RTVSPropertyOp10
 70
     1
102
RTVSPropertyOp11
 70
     1
102
RTVSPropertyOp12
 70
     1
102
RTVSPropertyOp13
 70
     1
102
RTVSPropertyOp14
 70
     1
102
RTVSPropertyOp15
 70
     1
102
RTVSPropertyOp16
 70
     1
102
RTVSPropertyOp17
 70
     1
102
RTVSPropertyOp18
 70
     1
102
RTVSPropertyOp19
 70
     1
102
RTVSPropertyOp20
 70
     1
102
RTVSPropertyOp21
 70
     1
102
RTVSPropertyOp22
 70
     1
102
RTVSPropertyOp23
 70
     1
102
RTVSPropertyOp24
 70
     1
102
RTVSPropertyOp25
 70
     1
102
RTVSPropertyOp26
 70
     1
102
RTVSPropertyOp27
 70
     1
102
RTVSPropertyOp28
 70
     1
102
RTVSPropertyOp29
 70
     1
102
RTVSPropertyOp30
 70
     1
102
RTVSPropertyOp31
 70
     1
102
RTVSPropertyOp32
 70
     1
102
RTVSPropertyOp33
 70
     1
102
RTVSPropertyOp34
 70
     1
102
RTVSPropertyOp35
 70
     1
102
RTVSPropertyOp36
 70
     1
102
RTVSPropertyOp37
 70
     1
102
RTVSPropertyOp38
 70
     1
102
RTVSPropertyOp39
 70
     1
102
RTVSPropertyOp40
 70
     1
102
RTVSPropertyOp41
 70
     1
102
RTVSPropertyOp42
 70
     1
102
RTVSPropertyOp43
 70
     1
102
RTVSPropertyOp44
 70
     1
102
RTVSPropertyOp45
 70
     1
102
RTVSPropertyOp46
 70
     1
102
RTVSPropertyOp47
 70
     1
102
RTVSPropertyOp48
 70
     1
102
RTVSPropertyOp49
 70
     1
102
RTVSPropertyOp50
 70
     1
102
RTVSPropertyOp51
 70
     0
102
RTVSPropertyOp52
 70
     0
102
RTVSPropertyOp53
 70
     1
102
RTVSPropertyOp54
 70
     1
102
RTVSPropertyOp55
 70
     1
102
RTVSPropertyOp56
 70
     1
102
RTVSPropertyOp57
 70
     1
102
RTVSPropertyOp58
 70
     1
102
RTVSPropertyOp59
 70
     1
102
RTVSPropertyOp60
 70
     1
102
RTVSPropertyOp61
 70
     1
102
RTVSPropertyOp62
 70
     1
  0
ENDSEC
  0
EOF
