  0
SECTION
  2
HEADER
  9
$ACADVER
  1
AC1015
  9
$ACADMAINTVER
 70
    20
  9
$DWGCODEPAGE
  3
ANSI_932
  9
$INSBASE
 10
0.0
 20
0.0
 30
0.0
  9
$EXTMIN
 10
21.0368015665025
 20
21.93892693017529
 30
0.0
  9
$EXTMAX
 10
2026.249721834474
 20
1521.177432168257
 30
0.0
  9
$LIMMIN
 10
-563.0947677612303
 20
-651.9088432312011
  9
$LIMMAX
 10
1309.331329345703
 20
804.4249183654786
  9
$ORTHOMODE
 70
     1
  9
$REGENMODE
 70
     1
  9
$FILLMODE
 70
     1
  9
$QTEXTMODE
 70
     0
  9
$MIRRTEXT
 70
     1
  9
$LTSCALE
 40
0.0481461187047283
  9
$ATTMODE
 70
     1
  9
$TEXTSIZE
 40
2.5
  9
$TRACEWID
 40
1.0
  9
$TEXTSTYLE
  7
Standard
  9
$CLAYER
  8
0
  9
$CELTYPE
  6
ByLayer
  9
$CECOLOR
 62
   256
  9
$CELTSCALE
 40
1.0
  9
$DISPSILH
 70
     0
  9
$DIMSCALE
 40
1.0
  9
$DIMASZ
 40
2.5
  9
$DIMEXO
 40
0.625
  9
$DIMDLI
 40
3.75
  9
$DIMRND
 40
0.0
  9
$DIMDLE
 40
0.0
  9
$DIMEXE
 40
1.25
  9
$DIMTP
 40
0.0
  9
$DIMTM
 40
0.0
  9
$DIMTXT
 40
2.5
  9
$DIMCEN
 40
2.5
  9
$DIMTSZ
 40
0.0
  9
$DIMTOL
 70
     0
  9
$DIMLIM
 70
     0
  9
$DIMTIH
 70
     0
  9
$DIMTOH
 70
     0
  9
$DIMSE1
 70
     0
  9
$DIMSE2
 70
     0
  9
$DIMTAD
 70
     1
  9
$DIMZIN
 70
     0
  9
$DIMBLK
  1

  9
$DIMASO
 70
     1
  9
$DIMSHO
 70
     1
  9
$DIMPOST
  1

  9
$DIMAPOST
  1

  9
$DIMALT
 70
     0
  9
$DIMALTD
 70
     3
  9
$DIMALTF
 40
0.03937007874016
  9
$DIMLFAC
 40
1.0
  9
$DIMTOFL
 70
     1
  9
$DIMTVP
 40
0.0
  9
$DIMTIX
 70
     0
  9
$DIMSOXD
 70
     0
  9
$DIMSAH
 70
     0
  9
$DIMBLK1
  1

  9
$DIMBLK2
  1

  9
$DIMSTYLE
  2
Standard
  9
$DIMCLRD
 70
     0
  9
$DIMCLRE
 70
     0
  9
$DIMCLRT
 70
     0
  9
$DIMTFAC
 40
0.75
  9
$DIMGAP
 40
0.625
  9
$DIMJUST
 70
     0
  9
$DIMSD1
 70
     0
  9
$DIMSD2
 70
     0
  9
$DIMTOLJ
 70
     0
  9
$DIMTZIN
 70
     8
  9
$DIMALTZ
 70
     0
  9
$DIMALTTZ
 70
     0
  9
$DIMUPT
 70
     0
  9
$DIMDEC
 70
     2
  9
$DIMTDEC
 70
     2
  9
$DIMALTU
 70
     2
  9
$DIMALTTD
 70
     3
  9
$DIMTXSTY
  7
Standard
  9
$DIMAUNIT
 70
     0
  9
$DIMADEC
 70
     0
  9
$DIMALTRND
 40
0.0
  9
$DIMAZIN
 70
     0
  9
$DIMDSEP
 70
    46
  9
$DIMATFIT
 70
     3
  9
$DIMFRAC
 70
     0
  9
$DIMLDRBLK
  1

  9
$DIMLUNIT
 70
     2
  9
$DIMLWD
 70
    -2
  9
$DIMLWE
 70
    -2
  9
$DIMTMOVE
 70
     0
  9
$LUNITS
 70
     2
  9
$LUPREC
 70
     4
  9
$SKETCHINC
 40
1.0
  9
$FILLETRAD
 40
0.0
  9
$AUNITS
 70
     0
  9
$AUPREC
 70
     0
  9
$MENU
  1
.
  9
$ELEVATION
 40
0.0
  9
$PELEVATION
 40
0.0
  9
$THICKNESS
 40
0.0
  9
$LIMCHECK
 70
     0
  9
$CHAMFERA
 40
10.0
  9
$CHAMFERB
 40
10.0
  9
$CHAMFERC
 40
20.0
  9
$CHAMFERD
 40
0.0
  9
$SKPOLY
 70
     0
  9
$TDCREATE
 40
2455188.750000000
  9
$TDUCREATE
 40
2455188.375000000
  9
$TDUPDATE
 40
2459753.344280509
  9
$TDUUPDATE
 40
2459752.969280510
  9
$TDINDWG
 40
0.0218871065
  9
$TDUSRTIMER
 40
0.0218869444
  9
$USRTIMER
 70
     1
  9
$ANGBASE
 50
0.0
  9
$ANGDIR
 70
     0
  9
$PDMODE
 70
     0
  9
$PDSIZE
 40
0.0
  9
$PLINEWID
 40
0.0
  9
$SPLFRAME
 70
     0
  9
$SPLINETYPE
 70
     6
  9
$SPLINESEGS
 70
     8
  9
$HANDSEED
  5
CB5
  9
$SURFTAB1
 70
     6
  9
$SURFTAB2
 70
     6
  9
$SURFTYPE
 70
     6
  9
$SURFU
 70
     6
  9
$SURFV
 70
     6
  9
$UCSBASE
  2

  9
$UCSNAME
  2

  9
$UCSORG
 10
0.0
 20
0.0
 30
0.0
  9
$UCSXDIR
 10
1.0
 20
0.0
 30
0.0
  9
$UCSYDIR
 10
0.0
 20
1.0
 30
0.0
  9
$UCSORTHOREF
  2

  9
$UCSORTHOVIEW
 70
     0
  9
$UCSORGTOP
 10
0.0
 20
0.0
 30
0.0
  9
$UCSORGBOTTOM
 10
0.0
 20
0.0
 30
0.0
  9
$UCSORGLEFT
 10
0.0
 20
0.0
 30
0.0
  9
$UCSORGRIGHT
 10
0.0
 20
0.0
 30
0.0
  9
$UCSORGFRONT
 10
0.0
 20
0.0
 30
0.0
  9
$UCSORGBACK
 10
0.0
 20
0.0
 30
0.0
  9
$PUCSBASE
  2

  9
$PUCSNAME
  2

  9
$PUCSORG
 10
0.0
 20
0.0
 30
0.0
  9
$PUCSXDIR
 10
1.0
 20
0.0
 30
0.0
  9
$PUCSYDIR
 10
0.0
 20
1.0
 30
0.0
  9
$PUCSORTHOREF
  2

  9
$PUCSORTHOVIEW
 70
     0
  9
$PUCSORGTOP
 10
0.0
 20
0.0
 30
0.0
  9
$PUCSORGBOTTOM
 10
0.0
 20
0.0
 30
0.0
  9
$PUCSORGLEFT
 10
0.0
 20
0.0
 30
0.0
  9
$PUCSORGRIGHT
 10
0.0
 20
0.0
 30
0.0
  9
$PUCSORGFRONT
 10
0.0
 20
0.0
 30
0.0
  9
$PUCSORGBACK
 10
0.0
 20
0.0
 30
0.0
  9
$USERI1
 70
     0
  9
$USERI2
 70
     0
  9
$USERI3
 70
     0
  9
$USERI4
 70
     0
  9
$USERI5
 70
     0
  9
$USERR1
 40
0.0
  9
$USERR2
 40
0.0
  9
$USERR3
 40
0.0
  9
$USERR4
 40
0.0
  9
$USERR5
 40
0.0
  9
$WORLDVIEW
 70
     1
  9
$SHADEDGE
 70
     3
  9
$SHADEDIF
 70
    70
  9
$TILEMODE
 70
     1
  9
$MAXACTVP
 70
    64
  9
$PINSBASE
 10
0.0
 20
0.0
 30
0.0
  9
$PLIMCHECK
 70
     0
  9
$PEXTMIN
 10
1.000000000000000E+20
 20
1.000000000000000E+20
 30
1.000000000000000E+20
  9
$PEXTMAX
 10
-1.000000000000000E+20
 20
-1.000000000000000E+20
 30
-1.000000000000000E+20
  9
$PLIMMIN
 10
0.0
 20
0.0
  9
$PLIMMAX
 10
420.0
 20
297.0
  9
$UNITMODE
 70
     0
  9
$VISRETAIN
 70
     1
  9
$PLINEGEN
 70
     0
  9
$PSLTSCALE
 70
     1
  9
$TREEDEPTH
 70
  3020
  9
$CMLSTYLE
  2
Standard
  9
$CMLJUST
 70
     0
  9
$CMLSCALE
 40
20.0
  9
$PROXYGRAPHICS
 70
     1
  9
$MEASUREMENT
 70
     1
  9
$CELWEIGHT
370
    -1
  9
$ENDCAPS
280
     0
  9
$JOINSTYLE
280
     0
  9
$LWDISPLAY
290
     0
  9
$INSUNITS
 70
     4
  9
$HYPERLINKBASE
  1

  9
$STYLESHEET
  1

  9
$XEDIT
290
     1
  9
$CEPSNTYPE
380
     0
  9
$PSTYLEMODE
290
     1
  9
$FINGERPRINTGUID
  2
{9D813A80-1B15-498C-8D7E-D737E4574487}
  9
$VERSIONGUID
  2
{ECD15DA8-F14C-4754-ADA4-36A60862F00D}
  9
$EXTNAMES
290
     1
  9
$PSVPSCALE
 40
0.0
  9
$OLESTARTUP
290
     0
  0
ENDSEC
  0
SECTION
  2
CLASSES
  0
CLASS
  1
ACDBDICTIONARYWDFLT
  2
AcDbDictionaryWithDefault
  3
ObjectDBX Classes
 90
        0
280
     0
281
     0
  0
CLASS
  1
VISUALSTYLE
  2
AcDbVisualStyle
  3
ObjectDBX Classes
 90
     4095
280
     0
281
     0
  0
CLASS
  1
MATERIAL
  2
AcDbMaterial
  3
ObjectDBX Classes
 90
     1153
280
     0
281
     0
  0
CLASS
  1
SCALE
  2
AcDbScale
  3
ObjectDBX Classes
 90
     1153
280
     0
281
     0
  0
CLASS
  1
TABLESTYLE
  2
AcDbTableStyle
  3
ObjectDBX Classes
 90
     4095
280
     0
281
     0
  0
CLASS
  1
MLEADERSTYLE
  2
AcDbMLeaderStyle
  3
ACDB_MLEADERSTYLE_CLASS
 90
     4095
280
     0
281
     0
  0
CLASS
  1
SUN
  2
AcDbSun
  3
SCENEOE
 90
    33921
280
     0
281
     0
  0
CLASS
  1
DICTIONARYVAR
  2
AcDbDictionaryVar
  3
ObjectDBX Classes
 90
        0
280
     0
281
     0
  0
CLASS
  1
ACDBSECTIONVIEWSTYLE
  2
AcDbSectionViewStyle
  3
ObjectDBX Classes
 90
     1025
280
     0
281
     0
  0
CLASS
  1
ACDBDETAILVIEWSTYLE
  2
AcDbDetailViewStyle
  3
ObjectDBX Classes
 90
     1025
280
     0
281
     0
  0
CLASS
  1
SORTENTSTABLE
  2
AcDbSortentsTable
  3
ObjectDBX Classes
 90
        0
280
     0
281
     0
  0
CLASS
  1
CELLSTYLEMAP
  2
AcDbCellStyleMap
  3
ObjectDBX Classes
 90
     1152
280
     0
281
     0
  0
CLASS
  1
ACDBPLACEHOLDER
  2
AcDbPlaceHolder
  3
ObjectDBX Classes
 90
        0
280
     0
281
     0
  0
CLASS
  1
LAYOUT
  2
AcDbLayout
  3
ObjectDBX Classes
 90
        0
280
     0
281
     0
  0
ENDSEC
  0
SECTION
  2
TABLES
  0
TABLE
  2
VPORT
  5
8
330
0
100
AcDbSymbolTable
 70
     1
  0
VPORT
  5
29
330
8
100
AcDbSymbolTableRecord
100
AcDbViewportTableRecord
  2
*Active
 70
     0
 10
0.0
 20
0.0
 11
1.0
 21
1.0
 12
1477.211452527576
 22
575.1466662257607
 13
0.0
 23
0.0
 14
10.0
 24
10.0
 15
10.0
 25
10.0
 16
0.0
 26
0.0
 36
1.0
 17
0.0
 27
0.0
 37
0.0
 40
3569.363290424143
 41
2.204301075268817
 42
50.0
 43
0.0
 44
0.0
 50
0.0
 51
0.0
 71
     0
 72
 20000
 73
     1
 74
     3
 75
     0
 76
     0
 77
     0
 78
     0
281
     0
 65
     1
110
0.0
120
0.0
130
0.0
111
1.0
121
0.0
131
0.0
112
0.0
122
1.0
132
0.0
 79
     0
146
0.0
1001
ACAD_NAV_VCDISPLAY
1070
     3
  0
ENDTAB
  0
TABLE
  2
LTYPE
  5
5
330
0
100
AcDbSymbolTable
 70
     3
  0
LTYPE
  5
14
330
5
100
AcDbSymbolTableRecord
100
AcDbLinetypeTableRecord
  2
ByBlock
 70
     0
  3

 72
    65
 73
     0
 40
0.0
  0
LTYPE
  5
15
330
5
100
AcDbSymbolTableRecord
100
AcDbLinetypeTableRecord
  2
ByLayer
 70
     0
  3

 72
    65
 73
     0
 40
0.0
  0
LTYPE
  5
16
330
5
100
AcDbSymbolTableRecord
100
AcDbLinetypeTableRecord
  2
Continuous
 70
     0
  3
Solid line
 72
    65
 73
     0
 40
0.0
  0
LTYPE
  5
653
330
5
100
AcDbSymbolTableRecord
100
AcDbLinetypeTableRecord
  2
CENTER2
 70
     0
  3
Center (.5x) ___ _ ___ _ ___ _ ___ _ ___ _ ___
 72
    65
 73
     4
 40
28.575
 49
19.05
 74
     0
 49
-3.174999999999998
 74
     0
 49
3.174999999999998
 74
     0
 49
-3.174999999999998
 74
     0
  0
ENDTAB
  0
TABLE
  2
LAYER
  5
2
102
{ACAD_XDICTIONARY
360
659
102
}
330
0
100
AcDbSymbolTable
 70
     4
  0
LAYER
  5
10
102
{ACAD_XDICTIONARY
360
B80
102
}
330
2
100
AcDbSymbolTableRecord
100
AcDbLayerTableRecord
  2
0
 70
     0
 62
     7
  6
Continuous
370
    -3
390
F
  0
LAYER
  5
66
330
2
100
AcDbSymbolTableRecord
100
AcDbLayerTableRecord
  2
Defpoints
 70
     0
 62
     7
  6
Continuous
290
     0
370
    -3
390
F
  0
LAYER
  5
654
102
{ACAD_XDICTIONARY
360
655
102
}
330
2
100
AcDbSymbolTableRecord
100
AcDbLayerTableRecord
  2
中心線
 70
     0
 62
     3
  6
CENTER2
370
    -3
390
F
  0
LAYER
  5
656
102
{ACAD_XDICTIONARY
360
657
102
}
330
2
100
AcDbSymbolTableRecord
100
AcDbLayerTableRecord
  2
実線
 70
     0
 62
     7
  6
Continuous
370
    -3
390
F
  0
ENDTAB
  0
TABLE
  2
STYLE
  5
3
330
0
100
AcDbSymbolTable
 70
     1
  0
STYLE
  5
11
330
3
100
AcDbSymbolTableRecord
100
AcDbTextStyleTableRecord
  2
Standard
 70
     0
 40
0.0
 41
1.0
 50
0.0
 71
     0
 42
2.5
  3
txt
  4
extfont2
  0
ENDTAB
  0
TABLE
  2
VIEW
  5
6
330
0
100
AcDbSymbolTable
 70
     0
  0
ENDTAB
  0
TABLE
  2
UCS
  5
7
330
0
100
AcDbSymbolTable
 70
     0
  0
ENDTAB
  0
TABLE
  2
APPID
  5
9
330
0
100
AcDbSymbolTable
 70
     4
  0
APPID
  5
12
330
9
100
AcDbSymbolTableRecord
100
AcDbRegAppTableRecord
  2
ACAD
 70
     0
  0
APPID
  5
383
330
9
100
AcDbSymbolTableRecord
100
AcDbRegAppTableRecord
  2
ACAD_MLEADERVER
 70
     0
  0
APPID
  5
658
330
9
100
AcDbSymbolTableRecord
100
AcDbRegAppTableRecord
  2
ACAD_NAV_VCDISPLAY
 70
     0
  0
APPID
  5
B73
330
9
100
AcDbSymbolTableRecord
100
AcDbRegAppTableRecord
  2
ACAD_EXEMPT_FROM_CAD_STANDARDS
 70
     0
  0
ENDTAB
  0
TABLE
  2
DIMSTYLE
  5
A
330
0
100
AcDbSymbolTable
 70
     2
100
AcDbDimStyleTable
 71
     1
340
27
  0
DIMSTYLE
105
27
330
A
100
AcDbSymbolTableRecord
100
AcDbDimStyleTableRecord
  2
Standard
 70
     0
 41
2.5
 42
0.625
 43
3.75
 44
1.25
 73
     0
 74
     0
 77
     1
140
2.5
141
2.5
143
0.03937007874016
146
0.75
147
0.625
171
     3
172
     1
271
     2
272
     2
274
     3
283
     0
284
     8
340
11
  0
ENDTAB
  0
TABLE
  2
BLOCK_RECORD
  5
1
330
0
100
AcDbSymbolTable
 70
     2
  0
BLOCK_RECORD
  5
1F
102
{ACAD_XDICTIONARY
360
429
102
}
330
1
100
AcDbSymbolTableRecord
100
AcDbBlockTableRecord
  2
*Model_Space
340
22
  0
BLOCK_RECORD
  5
1B
330
1
100
AcDbSymbolTableRecord
100
AcDbBlockTableRecord
  2
*Paper_Space
340
1E
  0
BLOCK_RECORD
  5
23
330
1
100
AcDbSymbolTableRecord
100
AcDbBlockTableRecord
  2
*Paper_Space0
340
38D
  0
ENDTAB
  0
ENDSEC
  0
SECTION
  2
BLOCKS
  0
BLOCK
  5
20
330
1F
100
AcDbEntity
  8
0
100
AcDbBlockBegin
  2
*Model_Space
 70
     0
 10
0.0
 20
0.0
 30
0.0
  3
*Model_Space
  1

  0
ENDBLK
  5
21
330
1F
100
AcDbEntity
  8
0
100
AcDbBlockEnd
  0
BLOCK
  5
1C
330
1B
100
AcDbEntity
 67
     1
  8
0
100
AcDbBlockBegin
  2
*Paper_Space
 70
     0
 10
0.0
 20
0.0
 30
0.0
  3
*Paper_Space
  1

  0
ENDBLK
  5
1D
330
1B
100
AcDbEntity
 67
     1
  8
0
100
AcDbBlockEnd
  0
BLOCK
  5
24
330
23
100
AcDbEntity
 67
     1
  8
0
100
AcDbBlockBegin
  2
*Paper_Space0
 70
     0
 10
0.0
 20
0.0
 30
0.0
  3
*Paper_Space0
  1

  0
ENDBLK
  5
25
330
23
100
AcDbEntity
 67
     1
  8
0
100
AcDbBlockEnd
  0
ENDSEC
  0
SECTION
  2
ENTITIES
  0
LINE
  5
393
102
{ACAD_REACTORS
330
C69
102
}
330
1F
100
AcDbEntity
  8
実線
100
AcDbLine
 10
684.1982785900438
 20
783.0671815431732
 30
0.0
 11
695.0672671619888
 21
783.0671815431732
 31
0.0
  0
LINE
  5
394
102
{ACAD_REACTORS
330
C69
102
}
330
1F
100
AcDbEntity
  8
実線
100
AcDbLine
 10
684.1982785900438
 20
788.9671815431744
 30
0.0
 11
684.1982785900438
 21
783.0671815431732
 31
0.0
  0
LINE
  5
395
102
{ACAD_REACTORS
330
C69
102
}
330
1F
100
AcDbEntity
  8
実線
100
AcDbLine
 10
725.4957820073189
 20
783.0671815431732
 30
0.0
 11
739.9957820073192
 21
783.0671815431732
 31
0.0
  0
LINE
  5
396
102
{ACAD_REACTORS
330
C69
102
}
330
1F
100
AcDbEntity
  8
実線
100
AcDbLine
 10
739.9957820073192
 20
783.0671815431732
 30
0.0
 11
739.9957820073192
 21
788.9671815431744
 31
0.0
  0
LINE
  5
397
102
{ACAD_REACTORS
330
C69
102
}
330
1F
100
AcDbEntity
  8
実線
100
AcDbLine
 10
725.4957820073189
 20
788.9671815431744
 30
0.0
 11
725.4957820073189
 21
783.0671815431732
 31
0.0
  0
LINE
  5
398
102
{ACAD_REACTORS
330
C69
102
}
330
1F
100
AcDbEntity
  8
実線
100
AcDbLine
 10
612.472260327438
 20
783.0671815431732
 30
0.0
 11
623.3412488993832
 21
783.0671815431732
 31
0.0
  0
LINE
  5
399
102
{ACAD_REACTORS
330
C69
102
}
330
1F
100
AcDbEntity
  8
実線
100
AcDbLine
 10
612.472260327438
 20
788.9671815431744
 30
0.0
 11
612.472260327438
 21
783.0671815431732
 31
0.0
  0
LINE
  5
39A
102
{ACAD_REACTORS
330
C69
102
}
330
1F
100
AcDbEntity
  8
実線
100
AcDbLine
 10
641.0197637447132
 20
875.8671815431743
 30
0.0
 11
601.747454758857
 21
875.8671815431743
 31
0.0
  0
LINE
  5
39B
102
{ACAD_REACTORS
330
C69
102
}
330
1F
100
AcDbEntity
  8
実線
100
AcDbLine
 10
721.1697637447133
 20
875.8671815431743
 30
0.0
 11
681.0197637447132
 21
875.8671815431743
 31
0.0
  0
LINE
  5
39C
102
{ACAD_REACTORS
330
C69
102
}
330
1F
100
AcDbEntity
  8
実線
100
AcDbLine
 10
600.8697637447133
 20
866.4622150314594
 30
0.0
 11
600.8697637447133
 21
832.5671815431743
 31
0.0
  0
LINE
  5
39D
102
{ACAD_REACTORS
330
C69
102
}
330
1F
100
AcDbEntity
  8
実線
100
AcDbLine
 10
721.1697637447133
 20
855.5671815431743
 30
0.0
 11
721.1697637447133
 21
875.8671815431743
 31
0.0
  0
LINE
  5
39E
102
{ACAD_REACTORS
330
C69
102
}
330
1F
100
AcDbEntity
  8
実線
100
AcDbLine
 10
721.1697637447133
 20
834.0671815431743
 30
0.0
 11
721.1697637447133
 21
843.5671815431742
 31
0.0
  0
LINE
  5
39F
102
{ACAD_REACTORS
330
C69
102
}
330
1F
100
AcDbEntity
  8
実線
100
AcDbLine
 10
663.5229293367691
 20
919.3671815431743
 30
0.0
 11
550.5165981526574
 21
919.3671815431743
 31
0.0
  0
LINE
  5
3A0
102
{ACAD_REACTORS
330
C69
102
}
330
1F
100
AcDbEntity
  8
実線
100
AcDbLine
 10
550.5165981526574
 20
934.3671815431743
 30
0.0
 11
550.5165981526574
 21
919.3671815431743
 31
0.0
  0
LINE
  5
3A1
102
{ACAD_REACTORS
330
C69
102
}
330
1F
100
AcDbEntity
  8
実線
100
AcDbLine
 10
663.5229293367692
 20
919.3671815431743
 30
0.0
 11
663.5229293367692
 21
934.3671815431743
 31
0.0
  0
LINE
  5
3A2
102
{ACAD_REACTORS
330
C69
102
}
330
1F
100
AcDbEntity
  8
実線
100
AcDbLine
 10
629.3980070318564
 20
919.3671815431743
 30
0.0
 11
629.3980070318564
 21
934.3671815431743
 31
0.0
  0
LINE
  5
3A3
102
{ACAD_REACTORS
330
C69
102
}
330
1F
100
AcDbEntity
  8
実線
100
AcDbLine
 10
584.6415204575703
 20
919.3671815431743
 30
0.0
 11
584.6415204575703
 21
934.3671815431743
 31
0.0
  0
LINE
  5
3A4
102
{ACAD_REACTORS
330
C69
102
}
330
1F
100
AcDbEntity
  8
実線
100
AcDbLine
 10
756.7197637447133
 20
926.2671815431744
 30
0.0
 11
663.5229293367692
 21
926.2671815431744
 31
0.0
  0
LINE
  5
3A5
102
{ACAD_REACTORS
330
C69
102
}
330
1F
100
AcDbEntity
  8
実線
100
AcDbLine
 10
721.1697637447133
 20
872.4671815431733
 30
0.0
 11
756.7197637447133
 21
872.4671815431733
 31
0.0
  0
LINE
  5
3A6
102
{ACAD_REACTORS
330
C69
102
}
330
1F
100
AcDbEntity
  8
実線
100
AcDbLine
 10
756.7197637447133
 20
926.2671815431744
 30
0.0
 11
756.7197637447133
 21
872.4671815431733
 31
0.0
  0
LINE
  5
3A7
102
{ACAD_REACTORS
330
C69
102
}
330
1F
100
AcDbEntity
  8
実線
100
AcDbLine
 10
756.7197637447133
 20
872.4671815431733
 30
0.0
 11
759.1197637447132
 21
867.3671815431744
 31
0.0
  0
LINE
  5
3A8
102
{ACAD_REACTORS
330
C69
102
}
330
1F
100
AcDbEntity
  8
実線
100
AcDbLine
 10
759.1197637447132
 20
931.3671815431742
 30
0.0
 11
756.7197637447133
 21
926.2671815431744
 31
0.0
  0
LINE
  5
3A9
102
{ACAD_REACTORS
330
C69
102
}
330
1F
100
AcDbEntity
  8
実線
100
AcDbLine
 10
762.0197637447132
 20
931.3671815431742
 30
0.0
 11
762.0197637447132
 21
867.3671815431744
 31
0.0
  0
LINE
  5
3AA
102
{ACAD_REACTORS
330
C69
102
}
330
1F
100
AcDbEntity
  8
実線
100
AcDbLine
 10
759.1197637447132
 20
931.3671815431742
 30
0.0
 11
759.1197637447132
 21
867.3671815431744
 31
0.0
  0
LINE
  5
3AB
102
{ACAD_REACTORS
330
C69
102
}
330
1F
100
AcDbEntity
  8
実線
100
AcDbLine
 10
762.0197637447132
 20
931.3671815431742
 30
0.0
 11
759.1197637447132
 21
931.3671815431742
 31
0.0
  0
LINE
  5
3AC
102
{ACAD_REACTORS
330
C69
102
}
330
1F
100
AcDbEntity
  8
実線
100
AcDbLine
 10
759.1197637447132
 20
867.3671815431744
 30
0.0
 11
762.0197637447132
 21
867.3671815431744
 31
0.0
  0
LINE
  5
3AD
102
{ACAD_REACTORS
330
C69
102
}
330
1F
100
AcDbEntity
  8
実線
100
AcDbLine
 10
525.3197637447133
 20
821.9671815431732
 30
0.0
 11
579.5197637447135
 21
821.9671815431732
 31
0.0
  0
LINE
  5
3AE
102
{ACAD_REACTORS
330
C69
102
}
330
1F
100
AcDbEntity
  8
実線
100
AcDbLine
 10
566.3744595222648
 20
875.7671815431743
 30
0.0
 11
525.3197637447133
 21
875.7671815431743
 31
0.0
  0
LINE
  5
3AF
102
{ACAD_REACTORS
330
C69
102
}
330
1F
100
AcDbEntity
  8
実線
100
AcDbLine
 10
525.3197637447133
 20
821.9671815431732
 30
0.0
 11
525.3197637447133
 21
875.7671815431743
 31
0.0
  0
LINE
  5
3B0
102
{ACAD_REACTORS
330
C69
102
}
330
1F
100
AcDbEntity
  8
実線
100
AcDbLine
 10
525.3197637447133
 20
875.7671815431743
 30
0.0
 11
522.9197637447133
 21
880.8671815431734
 31
0.0
  0
LINE
  5
3B1
102
{ACAD_REACTORS
330
C69
102
}
330
1F
100
AcDbEntity
  8
実線
100
AcDbLine
 10
522.9197637447133
 20
816.8671815431743
 30
0.0
 11
525.3197637447133
 21
821.9671815431732
 31
0.0
  0
LINE
  5
3B2
102
{ACAD_REACTORS
330
C69
102
}
330
1F
100
AcDbEntity
  8
実線
100
AcDbLine
 10
520.0197637447132
 20
816.8671815431743
 30
0.0
 11
520.0197637447132
 21
880.8671815431734
 31
0.0
  0
LINE
  5
3B3
102
{ACAD_REACTORS
330
C69
102
}
330
1F
100
AcDbEntity
  8
実線
100
AcDbLine
 10
522.9197637447133
 20
816.8671815431743
 30
0.0
 11
522.9197637447133
 21
880.8671815431734
 31
0.0
  0
LINE
  5
3B4
102
{ACAD_REACTORS
330
C69
102
}
330
1F
100
AcDbEntity
  8
実線
100
AcDbLine
 10
520.0197637447132
 20
816.8671815431743
 30
0.0
 11
522.9197637447133
 21
816.8671815431743
 31
0.0
  0
LINE
  5
3B5
102
{ACAD_REACTORS
330
C69
102
}
330
1F
100
AcDbEntity
  8
実線
100
AcDbLine
 10
522.9197637447133
 20
880.8671815431734
 30
0.0
 11
520.0197637447132
 21
880.8671815431734
 31
0.0
  0
LINE
  5
3B6
102
{ACAD_REACTORS
330
C69
102
}
330
1F
100
AcDbEntity
  8
実線
100
AcDbLine
 10
641.0197637447132
 20
857.4671815431743
 30
0.0
 11
641.0197637447132
 21
897.4671815431744
 31
0.0
  0
LINE
  5
3B7
102
{ACAD_REACTORS
330
C69
102
}
330
1F
100
AcDbEntity
  8
実線
100
AcDbLine
 10
681.0197637447132
 20
857.4671815431743
 30
0.0
 11
641.0197637447132
 21
857.4671815431743
 31
0.0
  0
LINE
  5
3B8
102
{ACAD_REACTORS
330
C69
102
}
330
1F
100
AcDbEntity
  8
実線
100
AcDbLine
 10
681.0197637447132
 20
897.4671815431744
 30
0.0
 11
681.0197637447132
 21
857.4671815431743
 31
0.0
  0
LINE
  5
3B9
102
{ACAD_REACTORS
330
C69
102
}
330
1F
100
AcDbEntity
  8
実線
100
AcDbLine
 10
641.0197637447132
 20
897.4671815431744
 30
0.0
 11
681.0197637447132
 21
897.4671815431744
 31
0.0
  0
LINE
  5
3BA
102
{ACAD_REACTORS
330
C69
102
}
330
1F
100
AcDbEntity
  8
実線
100
AcDbLine
 10
615.0197637447132
 20
947.8671815431743
 30
0.0
 11
615.0197637447132
 21
980.3671815431744
 31
0.0
  0
LINE
  5
3BB
102
{ACAD_REACTORS
330
C69
102
}
330
1F
100
AcDbEntity
  8
実線
100
AcDbLine
 10
599.0197637447132
 20
980.3671815431744
 30
0.0
 11
599.0197637447132
 21
947.8671815431743
 31
0.0
  0
LINE
  5
3BC
102
{ACAD_REACTORS
330
C69
102
}
330
1F
100
AcDbEntity
  8
実線
100
AcDbLine
 10
544.5197637447132
 20
1033.767181543174
 30
0.0
 11
669.5197637447132
 21
1033.767181543174
 31
0.0
  0
LINE
  5
3BD
102
{ACAD_REACTORS
330
C69
102
}
330
1F
100
AcDbEntity
  8
実線
100
AcDbLine
 10
669.5197637447132
 20
1033.767181543174
 30
0.0
 11
669.5197637447132
 21
1125.767181543174
 31
0.0
  0
LINE
  5
3BE
102
{ACAD_REACTORS
330
C69
102
}
330
1F
100
AcDbEntity
  8
実線
100
AcDbLine
 10
544.5197637447132
 20
1125.767181543174
 30
0.0
 11
544.5197637447132
 21
1033.767181543174
 31
0.0
  0
LINE
  5
3BF
102
{ACAD_REACTORS
330
C69
102
}
330
1F
100
AcDbEntity
  8
実線
100
AcDbLine
 10
663.5229293367692
 20
934.3671815431743
 30
0.0
 11
550.5165981526574
 21
934.3671815431743
 31
0.0
  0
LINE
  5
3C0
102
{ACAD_REACTORS
330
C69
102
}
330
1F
100
AcDbEntity
  8
実線
100
AcDbLine
 10
663.5229293367692
 20
947.8671815431743
 30
0.0
 11
550.5165981526574
 21
947.8671815431743
 31
0.0
  0
LINE
  5
3C1
102
{ACAD_REACTORS
330
C69
102
}
330
1F
100
AcDbEntity
  8
実線
100
AcDbLine
 10
550.5165981526574
 20
947.8671815431743
 30
0.0
 11
550.5165981526574
 21
934.3671815431743
 31
0.0
  0
LINE
  5
3C2
102
{ACAD_REACTORS
330
C69
102
}
330
1F
100
AcDbEntity
  8
実線
100
AcDbLine
 10
663.5229293367692
 20
934.3671815431743
 30
0.0
 11
663.5229293367692
 21
947.8671815431743
 31
0.0
  0
LINE
  5
3C3
102
{ACAD_REACTORS
330
C69
102
}
330
1F
100
AcDbEntity
  8
実線
100
AcDbLine
 10
584.6415204575703
 20
947.8671815431743
 30
0.0
 11
584.6415204575703
 21
934.3671815431743
 31
0.0
  0
LINE
  5
3C4
102
{ACAD_REACTORS
330
C69
102
}
330
1F
100
AcDbEntity
  8
実線
100
AcDbLine
 10
629.3980070318564
 20
947.8671815431743
 30
0.0
 11
629.3980070318564
 21
934.3671815431743
 31
0.0
  0
LINE
  5
3C5
102
{ACAD_REACTORS
330
C69
102
}
330
1F
100
AcDbEntity
  8
実線
100
AcDbLine
 10
614.5197637447132
 20
1188.567181543174
 30
0.0
 11
599.5197637447132
 21
1188.567181543174
 31
0.0
  0
LINE
  5
3C6
102
{ACAD_REACTORS
330
C69
102
}
330
1F
100
AcDbEntity
  8
実線
100
AcDbLine
 10
614.5197637447132
 20
1183.267181543174
 30
0.0
 11
614.5197637447132
 21
1188.567181543174
 31
0.0
  0
LINE
  5
3C7
102
{ACAD_REACTORS
330
C69
102
}
330
1F
100
AcDbEntity
  8
実線
100
AcDbLine
 10
599.5197637447132
 20
1188.567181543174
 30
0.0
 11
599.5197637447132
 21
1183.267181543174
 31
0.0
  0
LINE
  5
3C8
102
{ACAD_REACTORS
330
C69
102
}
330
1F
100
AcDbEntity
  8
実線
100
AcDbLine
 10
619.5197637447132
 20
1183.267181543174
 30
0.0
 11
594.5197637447132
 21
1183.267181543174
 31
0.0
  0
LINE
  5
3C9
102
{ACAD_REACTORS
330
C69
102
}
330
1F
100
AcDbEntity
  8
実線
100
AcDbLine
 10
594.5197637447132
 20
1178.267181543174
 30
0.0
 11
619.5197637447132
 21
1178.267181543174
 31
0.0
  0
LINE
  5
3CA
102
{ACAD_REACTORS
330
C69
102
}
330
1F
100
AcDbEntity
  8
実線
100
AcDbLine
 10
619.5197637447132
 20
1178.267181543174
 30
0.0
 11
619.5197637447132
 21
1183.267181543174
 31
0.0
  0
LINE
  5
3CB
102
{ACAD_REACTORS
330
C69
102
}
330
1F
100
AcDbEntity
  8
実線
100
AcDbLine
 10
594.5197637447132
 20
1183.267181543174
 30
0.0
 11
594.5197637447132
 21
1178.267181543174
 31
0.0
  0
LINE
  5
3CC
102
{ACAD_REACTORS
330
C69
102
}
330
1F
100
AcDbEntity
  8
実線
100
AcDbLine
 10
620.1197637447132
 20
1184.717181543173
 30
0.0
 11
628.0197637447135
 21
1184.717181543173
 31
0.0
  0
LINE
  5
3CD
102
{ACAD_REACTORS
330
C69
102
}
330
1F
100
AcDbEntity
  8
実線
100
AcDbLine
 10
620.1197637447132
 20
1176.817181543174
 30
0.0
 11
620.1197637447132
 21
1184.717181543174
 31
0.0
  0
LINE
  5
3CE
102
{ACAD_REACTORS
330
C69
102
}
330
1F
100
AcDbEntity
  8
実線
100
AcDbLine
 10
628.0197637447135
 20
1176.817181543174
 30
0.0
 11
620.1197637447132
 21
1176.817181543174
 31
0.0
  0
LINE
  5
3CF
102
{ACAD_REACTORS
330
C69
102
}
330
1F
100
AcDbEntity
  8
実線
100
AcDbLine
 10
620.1197637447132
 20
1160.817181543174
 30
0.0
 11
620.1197637447132
 21
1168.717181543173
 31
0.0
  0
LINE
  5
3D0
102
{ACAD_REACTORS
330
C69
102
}
330
1F
100
AcDbEntity
  8
実線
100
AcDbLine
 10
628.0197637447135
 20
1160.817181543174
 30
0.0
 11
620.1197637447132
 21
1160.817181543174
 31
0.0
  0
LINE
  5
3D1
102
{ACAD_REACTORS
330
C69
102
}
330
1F
100
AcDbEntity
  8
実線
100
AcDbLine
 10
620.1197637447132
 20
1168.717181543173
 30
0.0
 11
628.0197637447135
 21
1168.717181543173
 31
0.0
  0
LINE
  5
3D2
102
{ACAD_REACTORS
330
C69
102
}
330
1F
100
AcDbEntity
  8
実線
100
AcDbLine
 10
582.0197637447132
 20
1145.767181543174
 30
0.0
 11
632.0197637447132
 21
1145.767181543174
 31
0.0
  0
LINE
  5
3D3
102
{ACAD_REACTORS
330
C69
102
}
330
1F
100
AcDbEntity
  8
実線
100
AcDbLine
 10
632.0197637447132
 20
1140.767181543174
 30
0.0
 11
632.0197637447132
 21
1145.767181543174
 31
0.0
  0
LINE
  5
3D4
102
{ACAD_REACTORS
330
C69
102
}
330
1F
100
AcDbEntity
  8
実線
100
AcDbLine
 10
582.0197637447132
 20
1145.767181543174
 30
0.0
 11
582.0197637447132
 21
1140.767181543174
 31
0.0
  0
LINE
  5
3D5
102
{ACAD_REACTORS
330
C69
102
}
330
1F
100
AcDbEntity
  8
実線
100
AcDbLine
 10
615.0197637447132
 20
1147.767181543174
 30
0.0
 11
615.0197637447132
 21
1178.267181543174
 31
0.0
  0
LINE
  5
3D6
102
{ACAD_REACTORS
330
C69
102
}
330
1F
100
AcDbEntity
  8
実線
100
AcDbLine
 10
599.0197637447132
 20
1178.267181543174
 30
0.0
 11
599.0197637447132
 21
1147.767181543174
 31
0.0
  0
LINE
  5
3D7
102
{ACAD_REACTORS
330
C69
102
}
330
1F
100
AcDbEntity
  8
実線
100
AcDbLine
 10
653.0197637447135
 20
1140.767181543174
 30
0.0
 11
561.0197637447132
 21
1140.767181543174
 31
0.0
  0
LINE
  5
3D8
102
{ACAD_REACTORS
330
C69
102
}
330
1F
100
AcDbEntity
  8
実線
100
AcDbLine
 10
653.0197637447135
 20
1130.267181543174
 30
0.0
 11
653.0197637447135
 21
1140.767181543174
 31
0.0
  0
LINE
  5
3D9
102
{ACAD_REACTORS
330
C69
102
}
330
1F
100
AcDbEntity
  8
実線
100
AcDbLine
 10
561.0197637447132
 20
1140.767181543174
 30
0.0
 11
561.0197637447132
 21
1130.267181543174
 31
0.0
  0
ELLIPSE
  5
3DA
102
{ACAD_REACTORS
330
C69
102
}
330
1F
100
AcDbEntity
  8
実線
100
AcDbEllipse
 10
719.9384910679917
 20
849.5671815431743
 30
0.0
 11
0.0
 21
6.0
 31
0.0
210
0.0
220
0.0
230
1.0
 40
0.3420201433256688
 41
1.570796326794897
 42
3.141592653589792
  0
ELLIPSE
  5
3DB
102
{ACAD_REACTORS
330
C69
102
}
330
1F
100
AcDbEntity
  8
実線
100
AcDbEllipse
 10
778.1994335567179
 20
849.5671815431743
 30
0.0
 11
0.0
 21
6.0
 31
0.0
210
0.0
220
0.0
230
1.0
 40
0.3420201433256688
 41
3.141592653589792
 42
4.71238898038469
  0
LINE
  5
3DC
102
{ACAD_REACTORS
330
C69
102
}
330
1F
100
AcDbEntity
  8
実線
100
AcDbLine
 10
724.8442459613023
 20
855.5671815431743
 30
0.0
 11
719.9384910679917
 21
855.5671815431743
 31
0.0
  0
LINE
  5
3DD
102
{ACAD_REACTORS
330
C69
102
}
330
1F
100
AcDbEntity
  8
実線
100
AcDbLine
 10
778.1994335567179
 20
855.5671815431743
 30
0.0
 11
733.0941877589946
 21
855.5671815431743
 31
0.0
  0
LINE
  5
3DE
102
{ACAD_REACTORS
330
C69
102
}
330
1F
100
AcDbEntity
  8
実線
100
AcDbLine
 10
733.0941877589946
 20
843.5671815431742
 30
0.0
 11
778.1994335567179
 21
843.5671815431742
 31
0.0
  0
LINE
  5
3DF
102
{ACAD_REACTORS
330
C69
102
}
330
1F
100
AcDbEntity
  8
実線
100
AcDbLine
 10
719.9384910679917
 20
843.5671815431742
 30
0.0
 11
724.8442459613023
 21
843.5671815431742
 31
0.0
  0
ELLIPSE
  5
3E0
102
{ACAD_REACTORS
330
C69
102
}
330
1F
100
AcDbEntity
  8
実線
100
AcDbEllipse
 10
719.9384910679917
 20
849.5671815431743
 30
0.0
 11
0.0
 21
6.0
 31
0.0
210
0.0
220
0.0
230
1.0
 40
0.3420201433256688
 41
0.0
 42
1.570796326794897
  0
ELLIPSE
  5
3E1
102
{ACAD_REACTORS
330
C69
102
}
330
1F
100
AcDbEntity
  8
実線
100
AcDbEllipse
 10
778.1994335567179
 20
849.5671815431743
 30
0.0
 11
0.0
 21
6.0
 31
0.0
210
0.0
220
0.0
230
1.0
 40
0.3420201433256688
 41
0.0
 42
3.141592653589792
  0
ELLIPSE
  5
3E2
102
{ACAD_REACTORS
330
C69
102
}
330
1F
100
AcDbEntity
  8
実線
100
AcDbEllipse
 10
778.1994335567179
 20
849.5671815431743
 30
0.0
 11
0.0
 21
6.0
 31
0.0
210
0.0
220
0.0
230
1.0
 40
0.3420201433256688
 41
4.71238898038469
 42
6.283185307179584
  0
LINE
  5
3E3
102
{ACAD_REACTORS
330
C69
102
}
330
1F
100
AcDbEntity
  8
実線
100
AcDbLine
 10
621.5912488993832
 20
788.9671815431744
 30
0.0
 11
639.5912488993831
 21
788.9671815431744
 31
0.0
  0
LINE
  5
3E4
102
{ACAD_REACTORS
330
C69
102
}
330
1F
100
AcDbEntity
  8
実線
100
AcDbLine
 10
639.5912488993831
 20
788.9671815431744
 30
0.0
 11
639.5912488993831
 21
800.5671815431732
 31
0.0
  0
LINE
  5
3E5
102
{ACAD_REACTORS
330
C69
102
}
330
1F
100
AcDbEntity
  8
実線
100
AcDbLine
 10
621.5912488993832
 20
800.5671815431732
 30
0.0
 11
621.5912488993832
 21
788.9671815431744
 31
0.0
  0
LINE
  5
3E6
102
{ACAD_REACTORS
330
C69
102
}
330
1F
100
AcDbEntity
  8
実線
100
AcDbLine
 10
623.3412488993832
 20
783.0671815431732
 30
0.0
 11
637.8412488993831
 21
783.0671815431732
 31
0.0
  0
LINE
  5
3E7
102
{ACAD_REACTORS
330
C69
102
}
330
1F
100
AcDbEntity
  8
実線
100
AcDbLine
 10
637.8412488993831
 20
783.0671815431732
 30
0.0
 11
637.8412488993831
 21
788.9671815431744
 31
0.0
  0
LINE
  5
3E8
102
{ACAD_REACTORS
330
C69
102
}
330
1F
100
AcDbEntity
  8
実線
100
AcDbLine
 10
623.3412488993832
 20
788.9671815431744
 30
0.0
 11
623.3412488993832
 21
783.0671815431732
 31
0.0
  0
LINE
  5
3E9
102
{ACAD_REACTORS
330
C69
102
}
330
1F
100
AcDbEntity
  8
実線
100
AcDbLine
 10
580.2937454821078
 20
788.9671815431744
 30
0.0
 11
598.2937454821077
 21
788.9671815431744
 31
0.0
  0
LINE
  5
3EA
102
{ACAD_REACTORS
330
C69
102
}
330
1F
100
AcDbEntity
  8
実線
100
AcDbLine
 10
598.2937454821077
 20
788.9671815431744
 30
0.0
 11
598.2937454821077
 21
800.5671815431732
 31
0.0
  0
LINE
  5
3EB
102
{ACAD_REACTORS
330
C69
102
}
330
1F
100
AcDbEntity
  8
実線
100
AcDbLine
 10
580.2937454821078
 20
800.5671815431732
 30
0.0
 11
580.2937454821078
 21
788.9671815431744
 31
0.0
  0
LINE
  5
3EC
102
{ACAD_REACTORS
330
C69
102
}
330
1F
100
AcDbEntity
  8
実線
100
AcDbLine
 10
693.3172671619888
 20
788.9671815431744
 30
0.0
 11
711.3172671619886
 21
788.9671815431744
 31
0.0
  0
LINE
  5
3ED
102
{ACAD_REACTORS
330
C69
102
}
330
1F
100
AcDbEntity
  8
実線
100
AcDbLine
 10
711.3172671619886
 20
788.9671815431744
 30
0.0
 11
711.3172671619886
 21
800.5671815431732
 31
0.0
  0
LINE
  5
3EE
102
{ACAD_REACTORS
330
C69
102
}
330
1F
100
AcDbEntity
  8
実線
100
AcDbLine
 10
693.3172671619888
 20
800.5671815431732
 30
0.0
 11
693.3172671619888
 21
788.9671815431744
 31
0.0
  0
LINE
  5
3EF
102
{ACAD_REACTORS
330
C69
102
}
330
1F
100
AcDbEntity
  8
実線
100
AcDbLine
 10
723.7457820073188
 20
788.9671815431744
 30
0.0
 11
741.7457820073188
 21
788.9671815431744
 31
0.0
  0
LINE
  5
3F0
102
{ACAD_REACTORS
330
C69
102
}
330
1F
100
AcDbEntity
  8
実線
100
AcDbLine
 10
741.7457820073192
 20
788.9671815431744
 30
0.0
 11
741.7457820073192
 21
800.5671815431732
 31
0.0
  0
LINE
  5
3F1
102
{ACAD_REACTORS
330
C69
102
}
330
1F
100
AcDbEntity
  8
実線
100
AcDbLine
 10
723.7457820073188
 20
800.5671815431732
 30
0.0
 11
723.7457820073188
 21
788.9671815431744
 31
0.0
  0
LINE
  5
3F2
102
{ACAD_REACTORS
330
C69
102
}
330
1F
100
AcDbEntity
  8
実線
100
AcDbLine
 10
682.4482785900438
 20
788.9671815431744
 30
0.0
 11
693.3172671619888
 21
788.9671815431744
 31
0.0
  0
LINE
  5
3F3
102
{ACAD_REACTORS
330
C69
102
}
330
1F
100
AcDbEntity
  8
実線
100
AcDbLine
 10
682.4482785900438
 20
800.5671815431732
 30
0.0
 11
682.4482785900438
 21
788.9671815431744
 31
0.0
  0
LINE
  5
3F4
102
{ACAD_REACTORS
330
C69
102
}
330
1F
100
AcDbEntity
  8
実線
100
AcDbLine
 10
610.722260327438
 20
788.9671815431744
 30
0.0
 11
621.5912488993832
 21
788.9671815431744
 31
0.0
  0
LINE
  5
3F5
102
{ACAD_REACTORS
330
C69
102
}
330
1F
100
AcDbEntity
  8
実線
100
AcDbLine
 10
610.722260327438
 20
800.5671815431732
 30
0.0
 11
610.722260327438
 21
788.9671815431744
 31
0.0
  0
LINE
  5
3F6
102
{ACAD_REACTORS
330
C69
102
}
330
1F
100
AcDbEntity
  8
実線
100
AcDbLine
 10
582.0437454821078
 20
783.0671815431732
 30
0.0
 11
596.5437454821077
 21
783.0671815431732
 31
0.0
  0
LINE
  5
3F7
102
{ACAD_REACTORS
330
C69
102
}
330
1F
100
AcDbEntity
  8
実線
100
AcDbLine
 10
596.5437454821077
 20
783.0671815431732
 30
0.0
 11
596.5437454821077
 21
788.9671815431744
 31
0.0
  0
LINE
  5
3F8
102
{ACAD_REACTORS
330
C69
102
}
330
1F
100
AcDbEntity
  8
実線
100
AcDbLine
 10
582.0437454821078
 20
788.9671815431744
 30
0.0
 11
582.0437454821078
 21
783.0671815431732
 31
0.0
  0
LINE
  5
3F9
102
{ACAD_REACTORS
330
C69
102
}
330
1F
100
AcDbEntity
  8
実線
100
AcDbLine
 10
695.0672671619888
 20
783.0671815431732
 30
0.0
 11
709.5672671619886
 21
783.0671815431732
 31
0.0
  0
LINE
  5
3FA
102
{ACAD_REACTORS
330
C69
102
}
330
1F
100
AcDbEntity
  8
実線
100
AcDbLine
 10
709.5672671619886
 20
783.0671815431732
 30
0.0
 11
709.5672671619886
 21
788.9671815431744
 31
0.0
  0
LINE
  5
3FB
102
{ACAD_REACTORS
330
C69
102
}
330
1F
100
AcDbEntity
  8
実線
100
AcDbLine
 10
695.0672671619888
 20
788.9671815431744
 30
0.0
 11
695.0672671619888
 21
783.0671815431732
 31
0.0
  0
LINE
  5
3FC
102
{ACAD_REACTORS
330
C69
102
}
330
1F
100
AcDbEntity
  8
実線
100
AcDbLine
 10
669.5197637447132
 20
1125.767181543174
 30
0.0
 11
669.5197637447132
 21
1127.267181543174
 31
0.0
  0
LINE
  5
3FD
102
{ACAD_REACTORS
330
C69
102
}
330
1F
100
AcDbEntity
  8
実線
100
AcDbLine
 10
544.5197637447132
 20
1127.267181543174
 30
0.0
 11
544.5197637447132
 21
1125.767181543174
 31
0.0
  0
LINE
  5
3FE
102
{ACAD_REACTORS
330
C69
102
}
330
1F
100
AcDbEntity
  8
実線
100
AcDbLine
 10
669.5197637447132
 20
1125.767181543174
 30
0.0
 11
544.5197637447132
 21
1125.767181543174
 31
0.0
  0
LINE
  5
3FF
102
{ACAD_REACTORS
330
C69
102
}
330
1F
100
AcDbEntity
  8
実線
100
AcDbLine
 10
547.5197637447132
 20
1130.267181543174
 30
0.0
 11
666.5197637447132
 21
1130.267181543174
 31
0.0
  0
ARC
  5
400
102
{ACAD_REACTORS
330
C69
102
}
330
1F
100
AcDbEntity
  8
実線
100
AcDbCircle
 10
666.5197637447132
 20
1127.267181543174
 30
0.0
 40
3.0
100
AcDbArc
 50
0.0
 51
90.0
  0
ARC
  5
401
102
{ACAD_REACTORS
330
C69
102
}
330
1F
100
AcDbEntity
  8
実線
100
AcDbCircle
 10
547.5197637447132
 20
1127.267181543174
 30
0.0
 40
3.0
100
AcDbArc
 50
90.0
 51
180.0
  0
LINE
  5
402
102
{ACAD_REACTORS
330
C69
102
}
330
1F
100
AcDbEntity
  8
実線
100
AcDbLine
 10
628.0197637447135
 20
1147.767181543126
 30
0.0
 11
582.0197637447132
 21
1147.767181543126
 31
0.0
  0
LINE
  5
403
102
{ACAD_REACTORS
330
C69
102
}
330
1F
100
AcDbEntity
  8
実線
100
AcDbLine
 10
630.0197637447133
 20
1145.767181543174
 30
0.0
 11
630.0197637447133
 21
1185.767181543174
 31
0.0
  0
LINE
  5
404
102
{ACAD_REACTORS
330
C69
102
}
330
1F
100
AcDbEntity
  8
実線
100
AcDbLine
 10
630.0197637447133
 20
1185.767181543174
 30
0.0
 11
628.0197637447135
 21
1185.767181543174
 31
0.0
  0
LINE
  5
405
102
{ACAD_REACTORS
330
C69
102
}
330
1F
100
AcDbEntity
  8
実線
100
AcDbLine
 10
628.0197637447135
 20
1185.767181543174
 30
0.0
 11
628.0197637447135
 21
1147.767181543126
 31
0.0
  0
LINE
  5
406
102
{ACAD_REACTORS
330
C69
102
}
330
1F
100
AcDbEntity
  8
実線
100
AcDbLine
 10
627.0197637447134
 20
1147.767181543174
 30
0.0
 11
627.0197637447134
 21
1145.767181543174
 31
0.0
  0
LINE
  5
407
102
{ACAD_REACTORS
330
C69
102
}
330
1F
100
AcDbEntity
  8
実線
100
AcDbLine
 10
582.0197637447132
 20
1147.767181543174
 30
0.0
 11
582.0197637447132
 21
1145.767181543174
 31
0.0
  0
ARC
  5
408
102
{ACAD_REACTORS
330
C69
102
}
330
1F
100
AcDbEntity
  8
実線
100
AcDbCircle
 10
602.3197637447132
 20
993.8671815431744
 30
0.0
 40
47.99999999999999
100
AcDbArc
 50
286.5978421358643
 51
343.665177219314
  0
ARC
  5
409
102
{ACAD_REACTORS
330
C69
102
}
330
1F
100
AcDbEntity
  8
実線
100
AcDbCircle
 10
604.3197637447133
 20
993.8671815431744
 30
0.0
 40
60.00000000000005
100
AcDbArc
 50
309.9445051898157
 51
0.0
  0
LINE
  5
40A
102
{ACAD_REACTORS
330
C69
102
}
330
1F
100
AcDbEntity
  8
実線
100
AcDbLine
 10
664.3197637447133
 20
1033.767181543174
 30
0.0
 11
664.3197637447133
 21
993.8671815431744
 31
0.0
  0
ARC
  5
40B
102
{ACAD_REACTORS
330
C69
102
}
330
1F
100
AcDbEntity
  8
実線
100
AcDbCircle
 10
609.7197637447134
 20
993.8671815431744
 30
0.0
 40
60.00000000000005
100
AcDbArc
 50
180.0
 51
230.0554948101843
  0
ARC
  5
40C
102
{ACAD_REACTORS
330
C69
102
}
330
1F
100
AcDbEntity
  8
実線
100
AcDbCircle
 10
611.7197637447133
 20
993.8671815431744
 30
0.0
 40
47.99999999999999
100
AcDbArc
 50
196.3348227806859
 51
253.4021578641357
  0
LINE
  5
40D
102
{ACAD_REACTORS
330
C69
102
}
330
1F
100
AcDbEntity
  8
実線
100
AcDbLine
 10
549.7197637447133
 20
1033.767181543174
 30
0.0
 11
549.7197637447133
 21
993.8671815431744
 31
0.0
  0
LINE
  5
40E
102
{ACAD_REACTORS
330
C69
102
}
330
1F
100
AcDbEntity
  8
実線
100
AcDbLine
 10
558.8767476364552
 20
980.3671815431744
 30
0.0
 11
655.1627798529713
 21
980.3671815431744
 31
0.0
  0
LINE
  5
40F
102
{ACAD_REACTORS
330
C69
102
}
330
1F
100
AcDbEntity
  8
実線
100
AcDbLine
 10
655.1627798529713
 20
980.3671815431744
 30
0.0
 11
655.1627798529713
 21
1033.767181543174
 31
0.0
  0
LINE
  5
410
102
{ACAD_REACTORS
330
C69
102
}
330
1F
100
AcDbEntity
  8
実線
100
AcDbLine
 10
558.8767476364552
 20
980.3671815431744
 30
0.0
 11
558.8767476364552
 21
1033.767181543174
 31
0.0
  0
LINE
  5
411
102
{ACAD_REACTORS
330
C69
102
}
330
1F
100
AcDbEntity
  8
実線
100
AcDbLine
 10
739.9345906255078
 20
855.5671815431743
 30
0.0
 11
739.9345906255078
 21
862.5671815431731
 31
0.0
  0
LINE
  5
412
102
{ACAD_REACTORS
330
C69
102
}
330
1F
100
AcDbEntity
  8
実線
100
AcDbLine
 10
739.9345906255078
 20
832.5671815431743
 30
0.0
 11
739.9345906255078
 21
843.5671815431742
 31
0.0
  0
LINE
  5
413
102
{ACAD_REACTORS
330
C69
102
}
330
1F
100
AcDbEntity
  8
実線
100
AcDbLine
 10
739.9345906255078
 20
862.5671815431731
 30
0.0
 11
724.8442459613023
 21
862.5671815431731
 31
0.0
  0
LINE
  5
414
102
{ACAD_REACTORS
330
C69
102
}
330
1F
100
AcDbEntity
  8
実線
100
AcDbLine
 10
726.2537848924812
 20
832.5671815431743
 30
0.0
 11
726.2537848924812
 21
862.5671815431731
 31
0.0
  0
LINE
  5
415
102
{ACAD_REACTORS
330
C69
102
}
330
1F
100
AcDbEntity
  8
実線
100
AcDbLine
 10
724.8442459613023
 20
834.0671815431743
 30
0.0
 11
724.8442459613023
 21
862.5671815431731
 31
0.0
  0
LINE
  5
416
102
{ACAD_REACTORS
330
C69
102
}
330
1F
100
AcDbEntity
  8
実線
100
AcDbLine
 10
724.8442459613023
 20
834.0671815431743
 30
0.0
 11
712.1583955806924
 21
834.0671815431743
 31
0.0
  0
LINE
  5
417
102
{ACAD_REACTORS
330
C69
102
}
330
1F
100
AcDbEntity
  8
実線
100
AcDbLine
 10
712.1583955806924
 20
832.5671815431743
 30
0.0
 11
712.1583955806924
 21
834.0671815431743
 31
0.0
  0
LINE
  5
418
102
{ACAD_REACTORS
330
C69
102
}
330
1F
100
AcDbEntity
  8
実線
100
AcDbLine
 10
579.5197637447135
 20
800.5671815431742
 30
0.0
 11
742.5197637447135
 21
800.5671815431742
 31
0.0
  0
LINE
  5
419
102
{ACAD_REACTORS
330
C69
102
}
330
1F
100
AcDbEntity
  8
実線
100
AcDbLine
 10
579.5197637447135
 20
820.5671815431744
 30
0.0
 11
579.5197637447135
 21
800.5671815431742
 31
0.0
  0
LINE
  5
41A
102
{ACAD_REACTORS
330
C69
102
}
330
1F
100
AcDbEntity
  8
実線
100
AcDbLine
 10
742.5197637447135
 20
800.5671815431742
 30
0.0
 11
742.5197637447135
 21
820.5671815431744
 31
0.0
  0
LINE
  5
41B
102
{ACAD_REACTORS
330
C69
102
}
330
1F
100
AcDbEntity
  8
実線
100
AcDbLine
 10
742.5197637447135
 20
820.5671815431744
 30
0.0
 11
579.5197637447135
 21
820.5671815431744
 31
0.0
  0
LINE
  5
41C
102
{ACAD_REACTORS
330
C69
102
}
330
1F
100
AcDbEntity
  8
実線
100
AcDbLine
 10
579.5197637447135
 20
832.5671815431743
 30
0.0
 11
742.5197637447135
 21
832.5671815431743
 31
0.0
  0
LINE
  5
41D
102
{ACAD_REACTORS
330
C69
102
}
330
1F
100
AcDbEntity
  8
実線
100
AcDbLine
 10
579.5197637447135
 20
832.5671815431743
 30
0.0
 11
579.5197637447135
 21
820.5671815431744
 31
0.0
  0
LINE
  5
41E
102
{ACAD_REACTORS
330
C69
102
}
330
1F
100
AcDbEntity
  8
実線
100
AcDbLine
 10
742.5197637447135
 20
820.5671815431744
 30
0.0
 11
742.5197637447135
 21
832.5671815431743
 31
0.0
  0
LINE
  5
41F
102
{ACAD_REACTORS
330
C69
102
}
330
1F
100
AcDbEntity
  8
実線
100
AcDbLine
 10
693.5197637447132
 20
832.5671815431743
 30
0.0
 11
693.5197637447132
 21
820.5671815431744
 31
0.0
  0
LINE
  5
420
102
{ACAD_REACTORS
330
C69
102
}
330
1F
100
AcDbEntity
  8
実線
100
AcDbLine
 10
628.5197637447132
 20
820.5671815431744
 30
0.0
 11
628.5197637447132
 21
832.5671815431743
 31
0.0
  0
LINE
  5
421
102
{ACAD_REACTORS
330
C69
102
}
330
1F
100
AcDbEntity
  8
実線
100
AcDbLine
 10
641.0197637447132
 20
907.5671815431743
 30
0.0
 11
709.5197637447135
 21
907.5671815431743
 31
0.0
  0
LINE
  5
422
102
{ACAD_REACTORS
330
C69
102
}
330
1F
100
AcDbEntity
  8
実線
100
AcDbLine
 10
709.5197637447135
 20
907.5671815431743
 30
0.0
 11
709.5197637447135
 21
875.8671815431743
 31
0.0
  0
LINE
  5
423
102
{ACAD_REACTORS
330
C69
102
}
330
1F
100
AcDbEntity
  8
実線
100
AcDbLine
 10
641.0197637447132
 20
897.4671815431744
 30
0.0
 11
641.0197637447132
 21
907.5671815431743
 31
0.0
  0
LINE
  5
424
102
{ACAD_REACTORS
330
C69
102
}
330
1F
100
AcDbEntity
  8
実線
100
AcDbLine
 10
600.8697637447133
 20
865.8671815431743
 30
0.0
 11
590.597083773678
 21
865.8671815431743
 31
0.0
  0
ARC
  5
425
102
{ACAD_REACTORS
330
C69
102
}
330
1F
100
AcDbEntity
  8
実線
100
AcDbCircle
 10
580.4808410568752
 20
880.8671815431734
 30
0.0
 40
15.0
100
AcDbArc
 50
192.0079690596974
 51
199.8768740700807
  0
LINE
  5
426
102
{ACAD_REACTORS
330
C69
102
}
330
1F
100
AcDbEntity
  8
実線
100
AcDbLine
 10
558.0197637447132
 20
914.3671815431742
 30
0.0
 11
565.8090609528942
 21
877.7464655066793
 31
0.0
  0
LINE
  5
427
102
{ACAD_REACTORS
330
C69
102
}
330
1F
100
AcDbEntity
  8
実線
100
AcDbLine
 10
558.0197637447132
 20
914.3671815431742
 30
0.0
 11
655.8191371975173
 21
914.3671815431742
 31
0.0
  0
LINE
  5
428
102
{ACAD_REACTORS
330
C69
102
}
330
1F
100
AcDbEntity
  8
実線
100
AcDbLine
 10
558.0197637447132
 20
919.3671815431743
 30
0.0
 11
558.0197637447132
 21
914.3671815431742
 31
0.0
  0
LINE
  5
42B
102
{ACAD_REACTORS
330
C6B
102
}
330
1F
100
AcDbEntity
  8
実線
100
AcDbLine
 10
684.1982785900438
 20
434.6671815431734
 30
0.0
 11
684.1982785900438
 21
428.7671815431735
 31
0.0
  0
LINE
  5
42C
102
{ACAD_REACTORS
330
C6B
102
}
330
1F
100
AcDbEntity
  8
実線
100
AcDbLine
 10
698.6982785900438
 20
428.7671815431735
 30
0.0
 11
698.6982785900438
 21
434.6671815431734
 31
0.0
  0
LINE
  5
42D
102
{ACAD_REACTORS
330
C6B
102
}
330
1F
100
AcDbEntity
  8
実線
100
AcDbLine
 10
698.6982785900438
 20
434.6671815431734
 30
0.0
 11
684.1982785900438
 21
434.6671815431734
 31
0.0
  0
LINE
  5
42E
102
{ACAD_REACTORS
330
C6B
102
}
330
1F
100
AcDbEntity
  8
実線
100
AcDbLine
 10
725.4957820073189
 20
434.6671815431734
 30
0.0
 11
725.4957820073189
 21
428.7671815431735
 31
0.0
  0
LINE
  5
42F
102
{ACAD_REACTORS
330
C6B
102
}
330
1F
100
AcDbEntity
  8
実線
100
AcDbLine
 10
739.9957820073192
 20
428.7671815431735
 30
0.0
 11
739.9957820073192
 21
434.6671815431734
 31
0.0
  0
LINE
  5
430
102
{ACAD_REACTORS
330
C6B
102
}
330
1F
100
AcDbEntity
  8
実線
100
AcDbLine
 10
739.9957820073192
 20
434.6671815431734
 30
0.0
 11
725.4957820073189
 21
434.6671815431734
 31
0.0
  0
LINE
  5
431
102
{ACAD_REACTORS
330
C6B
102
}
330
1F
100
AcDbEntity
  8
実線
100
AcDbLine
 10
612.472260327438
 20
434.6671815431734
 30
0.0
 11
612.472260327438
 21
428.7671815431735
 31
0.0
  0
LINE
  5
432
102
{ACAD_REACTORS
330
C6B
102
}
330
1F
100
AcDbEntity
  8
実線
100
AcDbLine
 10
626.9722603274381
 20
428.7671815431735
 30
0.0
 11
626.9722603274381
 21
434.6671815431734
 31
0.0
  0
LINE
  5
433
102
{ACAD_REACTORS
330
C6B
102
}
330
1F
100
AcDbEntity
  8
実線
100
AcDbLine
 10
626.9722603274381
 20
434.6671815431734
 30
0.0
 11
612.472260327438
 21
434.6671815431734
 31
0.0
  0
LINE
  5
434
102
{ACAD_REACTORS
330
C6B
102
}
330
1F
100
AcDbEntity
  8
実線
100
AcDbLine
 10
721.1697637447133
 20
345.2671815431733
 30
0.0
 11
721.1697637447133
 21
385.1671815431733
 31
0.0
  0
LINE
  5
435
102
{ACAD_REACTORS
330
C6B
102
}
330
1F
100
AcDbEntity
  8
実線
100
AcDbLine
 10
550.5165981526574
 20
298.3671815431733
 30
0.0
 11
663.5229293367692
 21
298.3671815431733
 31
0.0
  0
LINE
  5
436
102
{ACAD_REACTORS
330
C6B
102
}
330
1F
100
AcDbEntity
  8
実線
100
AcDbLine
 10
663.5229293367692
 20
283.3671815431733
 30
0.0
 11
663.5229293367692
 21
298.3671815431733
 31
0.0
  0
LINE
  5
437
102
{ACAD_REACTORS
330
C6B
102
}
330
1F
100
AcDbEntity
  8
実線
100
AcDbLine
 10
550.5165981526574
 20
298.3671815431733
 30
0.0
 11
550.5165981526574
 21
283.3671815431733
 31
0.0
  0
LINE
  5
438
102
{ACAD_REACTORS
330
C6B
102
}
330
1F
100
AcDbEntity
  8
実線
100
AcDbLine
 10
584.6415204575703
 20
298.3671815431733
 30
0.0
 11
584.6415204575703
 21
283.3671815431733
 31
0.0
  0
LINE
  5
439
102
{ACAD_REACTORS
330
C6B
102
}
330
1F
100
AcDbEntity
  8
実線
100
AcDbLine
 10
629.3980070318564
 20
298.3671815431733
 30
0.0
 11
629.3980070318564
 21
283.3671815431733
 31
0.0
  0
LINE
  5
43A
102
{ACAD_REACTORS
330
C6B
102
}
330
1F
100
AcDbEntity
  8
実線
100
AcDbLine
 10
756.7197637447133
 20
345.2671815431733
 30
0.0
 11
709.5197637447133
 21
345.2671815431733
 31
0.0
  0
LINE
  5
43B
102
{ACAD_REACTORS
330
C6B
102
}
330
1F
100
AcDbEntity
  8
実線
100
AcDbLine
 10
663.5229293367692
 20
291.4671815431735
 30
0.0
 11
756.7197637447133
 21
291.4671815431735
 31
0.0
  0
LINE
  5
43C
102
{ACAD_REACTORS
330
C6B
102
}
330
1F
100
AcDbEntity
  8
実線
100
AcDbLine
 10
756.7197637447133
 20
291.4671815431735
 30
0.0
 11
759.1197637447132
 21
286.3671815431733
 31
0.0
  0
LINE
  5
43D
102
{ACAD_REACTORS
330
C6B
102
}
330
1F
100
AcDbEntity
  8
実線
100
AcDbLine
 10
759.1197637447132
 20
350.3671815431734
 30
0.0
 11
756.7197637447133
 21
345.2671815431733
 31
0.0
  0
LINE
  5
43E
102
{ACAD_REACTORS
330
C6B
102
}
330
1F
100
AcDbEntity
  8
実線
100
AcDbLine
 10
756.7197637447133
 20
291.4671815431735
 30
0.0
 11
756.7197637447133
 21
345.2671815431733
 31
0.0
  0
LINE
  5
43F
102
{ACAD_REACTORS
330
C6B
102
}
330
1F
100
AcDbEntity
  8
実線
100
AcDbLine
 10
762.0197637447132
 20
350.3671815431734
 30
0.0
 11
759.1197637447132
 21
350.3671815431734
 31
0.0
  0
LINE
  5
440
102
{ACAD_REACTORS
330
C6B
102
}
330
1F
100
AcDbEntity
  8
実線
100
AcDbLine
 10
759.1197637447132
 20
286.3671815431733
 30
0.0
 11
762.0197637447132
 21
286.3671815431733
 31
0.0
  0
LINE
  5
441
102
{ACAD_REACTORS
330
C6B
102
}
330
1F
100
AcDbEntity
  8
実線
100
AcDbLine
 10
762.0197637447132
 20
286.3671815431733
 30
0.0
 11
762.0197637447132
 21
350.3671815431734
 31
0.0
  0
LINE
  5
442
102
{ACAD_REACTORS
330
C6B
102
}
330
1F
100
AcDbEntity
  8
実線
100
AcDbLine
 10
759.1197637447132
 20
286.3671815431733
 30
0.0
 11
759.1197637447132
 21
350.3671815431734
 31
0.0
  0
LINE
  5
443
102
{ACAD_REACTORS
330
C6B
102
}
330
1F
100
AcDbEntity
  8
実線
100
AcDbLine
 10
525.3197637447133
 20
341.9671815431735
 30
0.0
 11
566.3744595222648
 21
341.9671815431735
 31
0.0
  0
LINE
  5
444
102
{ACAD_REACTORS
330
C6B
102
}
330
1F
100
AcDbEntity
  8
実線
100
AcDbLine
 10
585.2817944030416
 20
395.7671815431734
 30
0.0
 11
525.3197637447133
 21
395.7671815431734
 31
0.0
  0
LINE
  5
445
102
{ACAD_REACTORS
330
C6B
102
}
330
1F
100
AcDbEntity
  8
実線
100
AcDbLine
 10
525.3197637447133
 20
395.7671815431734
 30
0.0
 11
522.9197637447133
 21
400.8671815431732
 31
0.0
  0
LINE
  5
446
102
{ACAD_REACTORS
330
C6B
102
}
330
1F
100
AcDbEntity
  8
実線
100
AcDbLine
 10
522.9197637447133
 20
336.8671815431733
 30
0.0
 11
525.3197637447133
 21
341.9671815431735
 31
0.0
  0
LINE
  5
447
102
{ACAD_REACTORS
330
C6B
102
}
330
1F
100
AcDbEntity
  8
実線
100
AcDbLine
 10
525.3197637447133
 20
395.7671815431734
 30
0.0
 11
525.3197637447133
 21
341.9671815431733
 31
0.0
  0
LINE
  5
448
102
{ACAD_REACTORS
330
C6B
102
}
330
1F
100
AcDbEntity
  8
実線
100
AcDbLine
 10
520.0197637447132
 20
336.8671815431733
 30
0.0
 11
522.9197637447133
 21
336.8671815431733
 31
0.0
  0
LINE
  5
449
102
{ACAD_REACTORS
330
C6B
102
}
330
1F
100
AcDbEntity
  8
実線
100
AcDbLine
 10
522.9197637447133
 20
400.8671815431732
 30
0.0
 11
520.0197637447132
 21
400.8671815431732
 31
0.0
  0
LINE
  5
44A
102
{ACAD_REACTORS
330
C6B
102
}
330
1F
100
AcDbEntity
  8
実線
100
AcDbLine
 10
520.0197637447132
 20
400.8671815431732
 30
0.0
 11
520.0197637447132
 21
336.8671815431733
 31
0.0
  0
LINE
  5
44B
102
{ACAD_REACTORS
330
C6B
102
}
330
1F
100
AcDbEntity
  8
実線
100
AcDbLine
 10
522.9197637447133
 20
400.8671815431732
 30
0.0
 11
522.9197637447133
 21
336.8671815431733
 31
0.0
  0
LINE
  5
44C
102
{ACAD_REACTORS
330
C6B
102
}
330
1F
100
AcDbEntity
  8
実線
100
AcDbLine
 10
614.5197637447132
 20
368.8671815431734
 30
0.0
 11
639.5197637447132
 21
368.8671815431734
 31
0.0
  0
LINE
  5
44D
102
{ACAD_REACTORS
330
C6B
102
}
330
1F
100
AcDbEntity
  8
実線
100
AcDbLine
 10
614.5197637447132
 20
328.8671815431734
 30
0.0
 11
614.5197637447132
 21
368.8671815431733
 31
0.0
  0
LINE
  5
44E
102
{ACAD_REACTORS
330
C6B
102
}
330
1F
100
AcDbEntity
  8
実線
100
AcDbLine
 10
639.5197637447132
 20
368.8671815431734
 30
0.0
 11
639.5197637447132
 21
328.8671815431734
 31
0.0
  0
LINE
  5
44F
102
{ACAD_REACTORS
330
C6B
102
}
330
1F
100
AcDbEntity
  8
実線
100
AcDbLine
 10
639.5197637447132
 20
328.8671815431734
 30
0.0
 11
614.5197637447132
 21
328.8671815431734
 31
0.0
  0
LINE
  5
450
102
{ACAD_REACTORS
330
C6B
102
}
330
1F
100
AcDbEntity
  8
実線
100
AcDbLine
 10
599.0197637447132
 20
269.8671815431733
 30
0.0
 11
599.0197637447132
 21
237.3671815431733
 31
0.0
  0
LINE
  5
451
102
{ACAD_REACTORS
330
C6B
102
}
330
1F
100
AcDbEntity
  8
実線
100
AcDbLine
 10
615.0197637447132
 20
237.3671815431733
 30
0.0
 11
615.0197637447132
 21
269.8671815431733
 31
0.0
  0
LINE
  5
452
102
{ACAD_REACTORS
330
C6B
102
}
330
1F
100
AcDbEntity
  8
実線
100
AcDbLine
 10
544.5197637447132
 20
183.9671815431733
 30
0.0
 11
544.5197637447132
 21
91.96718154317336
 31
0.0
  0
LINE
  5
453
102
{ACAD_REACTORS
330
C6B
102
}
330
1F
100
AcDbEntity
  8
実線
100
AcDbLine
 10
669.5197637447132
 20
91.96718154317336
 30
0.0
 11
669.5197637447132
 21
183.9671815431733
 31
0.0
  0
LINE
  5
454
102
{ACAD_REACTORS
330
C6B
102
}
330
1F
100
AcDbEntity
  8
実線
100
AcDbLine
 10
544.5197637447132
 20
91.96718154317336
 30
0.0
 11
669.5197637447132
 21
91.96718154317336
 31
0.0
  0
LINE
  5
455
102
{ACAD_REACTORS
330
C6B
102
}
330
1F
100
AcDbEntity
  8
実線
100
AcDbLine
 10
544.5197637447132
 20
183.9671815431733
 30
0.0
 11
669.5197637447132
 21
183.9671815431733
 31
0.0
  0
LINE
  5
456
102
{ACAD_REACTORS
330
C6B
102
}
330
1F
100
AcDbEntity
  8
実線
100
AcDbLine
 10
663.5229293367692
 20
269.8671815431733
 30
0.0
 11
550.5165981526574
 21
269.8671815431733
 31
0.0
  0
LINE
  5
457
102
{ACAD_REACTORS
330
C6B
102
}
330
1F
100
AcDbEntity
  8
実線
100
AcDbLine
 10
663.5229293367692
 20
283.3671815431733
 30
0.0
 11
550.5165981526574
 21
283.3671815431733
 31
0.0
  0
LINE
  5
458
102
{ACAD_REACTORS
330
C6B
102
}
330
1F
100
AcDbEntity
  8
実線
100
AcDbLine
 10
550.5165981526574
 20
283.3671815431733
 30
0.0
 11
550.5165981526574
 21
269.8671815431733
 31
0.0
  0
LINE
  5
459
102
{ACAD_REACTORS
330
C6B
102
}
330
1F
100
AcDbEntity
  8
実線
100
AcDbLine
 10
663.5229293367692
 20
269.8671815431733
 30
0.0
 11
663.5229293367692
 21
283.3671815431733
 31
0.0
  0
LINE
  5
45A
102
{ACAD_REACTORS
330
C6B
102
}
330
1F
100
AcDbEntity
  8
実線
100
AcDbLine
 10
629.3980070318564
 20
269.8671815431733
 30
0.0
 11
629.3980070318564
 21
283.3671815431733
 31
0.0
  0
LINE
  5
45B
102
{ACAD_REACTORS
330
C6B
102
}
330
1F
100
AcDbEntity
  8
実線
100
AcDbLine
 10
584.6415204575703
 20
269.8671815431733
 30
0.0
 11
584.6415204575703
 21
283.3671815431733
 31
0.0
  0
LINE
  5
45C
102
{ACAD_REACTORS
330
C6B
102
}
330
1F
100
AcDbEntity
  8
実線
100
AcDbLine
 10
599.5197637447132
 20
34.46718154317341
 30
0.0
 11
599.5197637447132
 21
29.16718154317334
 31
0.0
  0
LINE
  5
45D
102
{ACAD_REACTORS
330
C6B
102
}
330
1F
100
AcDbEntity
  8
実線
100
AcDbLine
 10
614.5197637447132
 20
29.16718154317334
 30
0.0
 11
614.5197637447132
 21
34.46718154317341
 31
0.0
  0
LINE
  5
45E
102
{ACAD_REACTORS
330
C6B
102
}
330
1F
100
AcDbEntity
  8
実線
100
AcDbLine
 10
599.5197637447132
 20
29.16718154317334
 30
0.0
 11
614.5197637447132
 21
29.16718154317334
 31
0.0
  0
LINE
  5
45F
102
{ACAD_REACTORS
330
C6B
102
}
330
1F
100
AcDbEntity
  8
実線
100
AcDbLine
 10
594.5197637447132
 20
39.46718154317341
 30
0.0
 11
594.5197637447132
 21
34.46718154317341
 31
0.0
  0
LINE
  5
460
102
{ACAD_REACTORS
330
C6B
102
}
330
1F
100
AcDbEntity
  8
実線
100
AcDbLine
 10
619.5197637447132
 20
34.46718154317341
 30
0.0
 11
619.5197637447132
 21
39.46718154317341
 31
0.0
  0
LINE
  5
461
102
{ACAD_REACTORS
330
C6B
102
}
330
1F
100
AcDbEntity
  8
実線
100
AcDbLine
 10
594.5197637447132
 20
34.46718154317341
 30
0.0
 11
619.5197637447132
 21
34.46718154317341
 31
0.0
  0
LINE
  5
462
102
{ACAD_REACTORS
330
C6B
102
}
330
1F
100
AcDbEntity
  8
実線
100
AcDbLine
 10
594.5197637447132
 20
39.46718154317341
 30
0.0
 11
619.5197637447132
 21
39.46718154317341
 31
0.0
  0
LINE
  5
463
102
{ACAD_REACTORS
330
C6B
102
}
330
1F
100
AcDbEntity
  8
実線
100
AcDbLine
 10
628.0197637447135
 20
40.91718154317334
 30
0.0
 11
628.0197637447135
 21
33.01718154317325
 31
0.0
  0
LINE
  5
464
102
{ACAD_REACTORS
330
C6B
102
}
330
1F
100
AcDbEntity
  8
実線
100
AcDbLine
 10
620.1197637447132
 20
40.91718154317334
 30
0.0
 11
628.0197637447135
 21
40.91718154317334
 31
0.0
  0
LINE
  5
465
102
{ACAD_REACTORS
330
C6B
102
}
330
1F
100
AcDbEntity
  8
実線
100
AcDbLine
 10
620.1197637447132
 20
33.01718154317337
 30
0.0
 11
620.1197637447132
 21
40.91718154317334
 31
0.0
  0
LINE
  5
466
102
{ACAD_REACTORS
330
C6B
102
}
330
1F
100
AcDbEntity
  8
実線
100
AcDbLine
 10
628.0197637447135
 20
33.01718154317337
 30
0.0
 11
620.1197637447132
 21
33.01718154317337
 31
0.0
  0
CIRCLE
  5
467
102
{ACAD_REACTORS
330
C6B
102
}
330
1F
100
AcDbEntity
  8
実線
100
AcDbCircle
 10
624.0697637447133
 20
52.96718154317341
 30
0.0
 40
1.5
  0
LINE
  5
468
102
{ACAD_REACTORS
330
C6B
102
}
330
1F
100
AcDbEntity
  8
実線
100
AcDbLine
 10
620.1197637447132
 20
49.01718154317336
 30
0.0
 11
620.1197637447132
 21
56.91718154317334
 31
0.0
  0
LINE
  5
469
102
{ACAD_REACTORS
330
C6B
102
}
330
1F
100
AcDbEntity
  8
実線
100
AcDbLine
 10
628.0197637447135
 20
49.01718154317336
 30
0.0
 11
620.1197637447132
 21
49.01718154317336
 31
0.0
  0
LINE
  5
46A
102
{ACAD_REACTORS
330
C6B
102
}
330
1F
100
AcDbEntity
  8
実線
100
AcDbLine
 10
628.0197637447135
 20
56.91718154317334
 30
0.0
 11
628.0197637447135
 21
49.01718154317336
 31
0.0
  0
LINE
  5
46B
102
{ACAD_REACTORS
330
C6B
102
}
330
1F
100
AcDbEntity
  8
実線
100
AcDbLine
 10
620.1197637447132
 20
56.91718154317334
 30
0.0
 11
628.0197637447135
 21
56.91718154317334
 31
0.0
  0
CIRCLE
  5
46C
102
{ACAD_REACTORS
330
C6B
102
}
330
1F
100
AcDbEntity
  8
実線
100
AcDbCircle
 10
624.0697637447133
 20
36.9671815431733
 30
0.0
 40
1.5
  0
LINE
  5
46D
102
{ACAD_REACTORS
330
C6B
102
}
330
1F
100
AcDbEntity
  8
実線
100
AcDbLine
 10
582.0197637447132
 20
76.96718154317341
 30
0.0
 11
582.0197637447132
 21
71.96718154317341
 31
0.0
  0
LINE
  5
46E
102
{ACAD_REACTORS
330
C6B
102
}
330
1F
100
AcDbEntity
  8
実線
100
AcDbLine
 10
632.0197637447132
 20
71.96718154317341
 30
0.0
 11
632.0197637447132
 21
76.96718154317341
 31
0.0
  0
LINE
  5
46F
102
{ACAD_REACTORS
330
C6B
102
}
330
1F
100
AcDbEntity
  8
実線
100
AcDbLine
 10
630.0197637447133
 20
71.96718154317341
 30
0.0
 11
632.0197637447132
 21
71.96718154317341
 31
0.0
  0
LINE
  5
470
102
{ACAD_REACTORS
330
C6B
102
}
330
1F
100
AcDbEntity
  8
実線
100
AcDbLine
 10
599.0197637447132
 20
69.96718154317341
 30
0.0
 11
599.0197637447132
 21
39.46718154317341
 31
0.0
  0
LINE
  5
471
102
{ACAD_REACTORS
330
C6B
102
}
330
1F
100
AcDbEntity
  8
実線
100
AcDbLine
 10
615.0197637447132
 20
39.46718154317341
 30
0.0
 11
615.0197637447132
 21
69.9671815431733
 31
0.0
  0
LINE
  5
472
102
{ACAD_REACTORS
330
C6B
102
}
330
1F
100
AcDbEntity
  8
実線
100
AcDbLine
 10
561.0197637447132
 20
87.46718154317335
 30
0.0
 11
561.0197637447132
 21
76.96718154317341
 31
0.0
  0
LINE
  5
473
102
{ACAD_REACTORS
330
C6B
102
}
330
1F
100
AcDbEntity
  8
実線
100
AcDbLine
 10
653.0197637447135
 20
76.96718154317341
 30
0.0
 11
653.0197637447135
 21
87.46718154317335
 31
0.0
  0
LINE
  5
474
102
{ACAD_REACTORS
330
C6B
102
}
330
1F
100
AcDbEntity
  8
実線
100
AcDbLine
 10
561.0197637447132
 20
76.96718154317341
 30
0.0
 11
653.0197637447135
 21
76.96718154317341
 31
0.0
  0
ELLIPSE
  5
475
102
{ACAD_REACTORS
330
C6B
102
}
330
1F
100
AcDbEntity
  8
実線
100
AcDbEllipse
 10
778.1994335567179
 20
368.1671815431733
 30
0.0
 11
0.0
 21
6.0
 31
0.0
210
0.0
220
0.0
230
1.0
 40
0.3420201433256688
 41
4.71238898038469
 42
6.283185307179584
  0
LINE
  5
476
102
{ACAD_REACTORS
330
C6B
102
}
330
1F
100
AcDbEntity
  8
実線
100
AcDbLine
 10
731.6846488278155
 20
374.1671815431733
 30
0.0
 11
721.1697637447133
 21
374.1671815431733
 31
0.0
  0
LINE
  5
477
102
{ACAD_REACTORS
330
C6B
102
}
330
1F
100
AcDbEntity
  8
実線
100
AcDbLine
 10
778.1994335567179
 20
374.1671815431733
 30
0.0
 11
739.9345906255078
 21
374.1671815431733
 31
0.0
  0
LINE
  5
478
102
{ACAD_REACTORS
330
C6B
102
}
330
1F
100
AcDbEntity
  8
実線
100
AcDbLine
 10
739.9345906255078
 20
362.1671815431733
 30
0.0
 11
778.1994335567179
 21
362.1671815431733
 31
0.0
  0
LINE
  5
479
102
{ACAD_REACTORS
330
C6B
102
}
330
1F
100
AcDbEntity
  8
実線
100
AcDbLine
 10
721.1697637447133
 20
362.1671815431733
 30
0.0
 11
731.6846488278155
 21
362.1671815431733
 31
0.0
  0
ELLIPSE
  5
47A
102
{ACAD_REACTORS
330
C6B
102
}
330
1F
100
AcDbEntity
  8
実線
100
AcDbEllipse
 10
719.9384910679917
 20
368.1671815431733
 30
0.0
 11
0.0
 21
6.0
 31
0.0
210
0.0
220
0.0
230
1.0
 40
0.3420201433256688
 41
3.785093860299631
 42
5.639684100469746
  0
ELLIPSE
  5
47B
102
{ACAD_REACTORS
330
C6B
102
}
330
1F
100
AcDbEntity
  8
実線
100
AcDbEllipse
 10
778.1994335567179
 20
368.1671815431733
 30
0.0
 11
0.0
 21
6.0
 31
0.0
210
0.0
220
0.0
230
1.0
 40
0.3420201433256688
 41
3.141592653589792
 42
4.71238898038469
  0
LINE
  5
47C
102
{ACAD_REACTORS
330
C6B
102
}
330
1F
100
AcDbEntity
  8
実線
100
AcDbLine
 10
639.5912488993831
 20
417.1671815431734
 30
0.0
 11
639.5912488993831
 21
428.7671815431735
 31
0.0
  0
LINE
  5
47D
102
{ACAD_REACTORS
330
C6B
102
}
330
1F
100
AcDbEntity
  8
実線
100
AcDbLine
 10
639.5912488993831
 20
428.7671815431735
 30
0.0
 11
628.7222603274382
 21
428.7671815431735
 31
0.0
  0
LINE
  5
47E
102
{ACAD_REACTORS
330
C6B
102
}
330
1F
100
AcDbEntity
  8
実線
100
AcDbLine
 10
637.8412488993831
 20
428.7671815431735
 30
0.0
 11
637.8412488993831
 21
434.6671815431734
 31
0.0
  0
LINE
  5
47F
102
{ACAD_REACTORS
330
C6B
102
}
330
1F
100
AcDbEntity
  8
実線
100
AcDbLine
 10
637.8412488993831
 20
434.6671815431734
 30
0.0
 11
626.9722603274381
 21
434.6671815431734
 31
0.0
  0
LINE
  5
480
102
{ACAD_REACTORS
330
C6B
102
}
330
1F
100
AcDbEntity
  8
実線
100
AcDbLine
 10
580.2937454821078
 20
428.7671815431735
 30
0.0
 11
580.2937454821078
 21
417.1671815431734
 31
0.0
  0
LINE
  5
481
102
{ACAD_REACTORS
330
C6B
102
}
330
1F
100
AcDbEntity
  8
実線
100
AcDbLine
 10
598.2937454821077
 20
417.1671815431734
 30
0.0
 11
598.2937454821077
 21
428.7671815431735
 31
0.0
  0
LINE
  5
482
102
{ACAD_REACTORS
330
C6B
102
}
330
1F
100
AcDbEntity
  8
実線
100
AcDbLine
 10
598.2937454821077
 20
428.7671815431735
 30
0.0
 11
580.2937454821078
 21
428.7671815431735
 31
0.0
  0
LINE
  5
483
102
{ACAD_REACTORS
330
C6B
102
}
330
1F
100
AcDbEntity
  8
実線
100
AcDbLine
 10
711.3172671619886
 20
417.1671815431734
 30
0.0
 11
711.3172671619886
 21
428.7671815431735
 31
0.0
  0
LINE
  5
484
102
{ACAD_REACTORS
330
C6B
102
}
330
1F
100
AcDbEntity
  8
実線
100
AcDbLine
 10
711.3172671619886
 20
428.7671815431735
 30
0.0
 11
700.4482785900438
 21
428.7671815431735
 31
0.0
  0
LINE
  5
485
102
{ACAD_REACTORS
330
C6B
102
}
330
1F
100
AcDbEntity
  8
実線
100
AcDbLine
 10
723.7457820073188
 20
428.7671815431735
 30
0.0
 11
723.7457820073188
 21
417.1671815431734
 31
0.0
  0
LINE
  5
486
102
{ACAD_REACTORS
330
C6B
102
}
330
1F
100
AcDbEntity
  8
実線
100
AcDbLine
 10
741.7457820073192
 20
417.1671815431734
 30
0.0
 11
741.7457820073192
 21
428.7671815431735
 31
0.0
  0
LINE
  5
487
102
{ACAD_REACTORS
330
C6B
102
}
330
1F
100
AcDbEntity
  8
実線
100
AcDbLine
 10
741.7457820073188
 20
428.7671815431735
 30
0.0
 11
723.7457820073188
 21
428.7671815431735
 31
0.0
  0
LINE
  5
488
102
{ACAD_REACTORS
330
C6B
102
}
330
1F
100
AcDbEntity
  8
実線
100
AcDbLine
 10
682.4482785900438
 20
428.7671815431735
 30
0.0
 11
682.4482785900438
 21
417.1671815431734
 31
0.0
  0
LINE
  5
489
102
{ACAD_REACTORS
330
C6B
102
}
330
1F
100
AcDbEntity
  8
実線
100
AcDbLine
 10
700.4482785900438
 20
417.1671815431734
 30
0.0
 11
700.4482785900438
 21
428.7671815431735
 31
0.0
  0
LINE
  5
48A
102
{ACAD_REACTORS
330
C6B
102
}
330
1F
100
AcDbEntity
  8
実線
100
AcDbLine
 10
700.4482785900438
 20
428.7671815431735
 30
0.0
 11
682.4482785900438
 21
428.7671815431735
 31
0.0
  0
LINE
  5
48B
102
{ACAD_REACTORS
330
C6B
102
}
330
1F
100
AcDbEntity
  8
実線
100
AcDbLine
 10
610.722260327438
 20
428.7671815431735
 30
0.0
 11
610.722260327438
 21
417.1671815431734
 31
0.0
  0
LINE
  5
48C
102
{ACAD_REACTORS
330
C6B
102
}
330
1F
100
AcDbEntity
  8
実線
100
AcDbLine
 10
628.7222603274382
 20
417.1671815431734
 30
0.0
 11
628.7222603274382
 21
428.7671815431735
 31
0.0
  0
LINE
  5
48D
102
{ACAD_REACTORS
330
C6B
102
}
330
1F
100
AcDbEntity
  8
実線
100
AcDbLine
 10
628.7222603274382
 20
428.7671815431735
 30
0.0
 11
610.722260327438
 21
428.7671815431735
 31
0.0
  0
LINE
  5
48E
102
{ACAD_REACTORS
330
C6B
102
}
330
1F
100
AcDbEntity
  8
実線
100
AcDbLine
 10
582.0437454821078
 20
434.6671815431734
 30
0.0
 11
582.0437454821078
 21
428.7671815431735
 31
0.0
  0
LINE
  5
48F
102
{ACAD_REACTORS
330
C6B
102
}
330
1F
100
AcDbEntity
  8
実線
100
AcDbLine
 10
596.5437454821077
 20
428.7671815431735
 30
0.0
 11
596.5437454821077
 21
434.6671815431734
 31
0.0
  0
LINE
  5
490
102
{ACAD_REACTORS
330
C6B
102
}
330
1F
100
AcDbEntity
  8
実線
100
AcDbLine
 10
596.5437454821077
 20
434.6671815431734
 30
0.0
 11
582.0437454821078
 21
434.6671815431734
 31
0.0
  0
LINE
  5
491
102
{ACAD_REACTORS
330
C6B
102
}
330
1F
100
AcDbEntity
  8
実線
100
AcDbLine
 10
709.5672671619886
 20
428.7671815431735
 30
0.0
 11
709.5672671619886
 21
434.6671815431734
 31
0.0
  0
LINE
  5
492
102
{ACAD_REACTORS
330
C6B
102
}
330
1F
100
AcDbEntity
  8
実線
100
AcDbLine
 10
709.5672671619886
 20
434.6671815431734
 30
0.0
 11
698.6982785900438
 21
434.6671815431734
 31
0.0
  0
LINE
  5
493
102
{ACAD_REACTORS
330
C6B
102
}
330
1F
100
AcDbEntity
  8
実線
100
AcDbLine
 10
547.5197637447132
 20
87.46718154317335
 30
0.0
 11
666.5197637447132
 21
87.46718154317335
 31
0.0
  0
ARC
  5
494
102
{ACAD_REACTORS
330
C6B
102
}
330
1F
100
AcDbEntity
  8
実線
100
AcDbCircle
 10
547.5197637447132
 20
90.46718154317336
 30
0.0
 40
3.0
100
AcDbArc
 50
180.0
 51
270.0
  0
ARC
  5
495
102
{ACAD_REACTORS
330
C6B
102
}
330
1F
100
AcDbEntity
  8
実線
100
AcDbCircle
 10
666.5197637447132
 20
90.46718154317336
 30
0.0
 40
3.0
100
AcDbArc
 50
270.0
 51
0.0
  0
LINE
  5
496
102
{ACAD_REACTORS
330
C6B
102
}
330
1F
100
AcDbEntity
  8
実線
100
AcDbLine
 10
544.5197637447132
 20
91.96718154317336
 30
0.0
 11
544.5197637447132
 21
90.46718154317336
 31
0.0
  0
LINE
  5
497
102
{ACAD_REACTORS
330
C6B
102
}
330
1F
100
AcDbEntity
  8
実線
100
AcDbLine
 10
669.5197637447132
 20
90.46718154317336
 30
0.0
 11
669.5197637447132
 21
91.96718154317336
 31
0.0
  0
LINE
  5
498
102
{ACAD_REACTORS
330
C6B
102
}
330
1F
100
AcDbEntity
  8
実線
100
AcDbLine
 10
630.0197637447133
 20
71.96718154317341
 30
0.0
 11
582.0197637447132
 21
71.96718154317341
 31
0.0
  0
LINE
  5
499
102
{ACAD_REACTORS
330
C6B
102
}
330
1F
100
AcDbEntity
  8
実線
100
AcDbLine
 10
628.0197637447135
 20
69.96718154322071
 30
0.0
 11
582.0197637447132
 21
69.96718154322071
 31
0.0
  0
LINE
  5
49A
102
{ACAD_REACTORS
330
C6B
102
}
330
1F
100
AcDbEntity
  8
実線
100
AcDbLine
 10
628.0197637447135
 20
33.01718154317337
 30
0.0
 11
628.0197637447135
 21
31.96718154317341
 31
0.0
  0
LINE
  5
49B
102
{ACAD_REACTORS
330
C6B
102
}
330
1F
100
AcDbEntity
  8
実線
100
AcDbLine
 10
628.0197637447135
 20
49.01718154317336
 30
0.0
 11
628.0197637447135
 21
40.91718154317334
 31
0.0
  0
LINE
  5
49C
102
{ACAD_REACTORS
330
C6B
102
}
330
1F
100
AcDbEntity
  8
実線
100
AcDbLine
 10
628.0197637447135
 20
69.96718154322071
 30
0.0
 11
628.0197637447135
 21
56.91718154317334
 31
0.0
  0
LINE
  5
49D
102
{ACAD_REACTORS
330
C6B
102
}
330
1F
100
AcDbEntity
  8
実線
100
AcDbLine
 10
628.0197637447135
 20
31.96718154317341
 30
0.0
 11
630.0197637447133
 21
31.96718154317341
 31
0.0
  0
LINE
  5
49E
102
{ACAD_REACTORS
330
C6B
102
}
330
1F
100
AcDbEntity
  8
実線
100
AcDbLine
 10
630.0197637447133
 20
71.96718154317341
 30
0.0
 11
630.0197637447133
 21
31.96718154317341
 31
0.0
  0
LINE
  5
49F
102
{ACAD_REACTORS
330
C6B
102
}
330
1F
100
AcDbEntity
  8
実線
100
AcDbLine
 10
627.0197637446951
 20
71.96718154317341
 30
0.0
 11
627.0197637446951
 21
69.96718154322071
 31
0.0
  0
LINE
  5
4A0
102
{ACAD_REACTORS
330
C6B
102
}
330
1F
100
AcDbEntity
  8
実線
100
AcDbLine
 10
582.0197637447132
 20
71.96718154317341
 30
0.0
 11
582.0197637447132
 21
69.96718154317341
 31
0.0
  0
ARC
  5
4A1
102
{ACAD_REACTORS
330
C6B
102
}
330
1F
100
AcDbEntity
  8
実線
100
AcDbCircle
 10
609.7197637447134
 20
223.8671815431733
 30
0.0
 40
60.00000000000005
100
AcDbArc
 50
129.9445051898157
 51
180.0
  0
LINE
  5
4A2
102
{ACAD_REACTORS
330
C6B
102
}
330
1F
100
AcDbEntity
  8
実線
100
AcDbLine
 10
549.7197637447133
 20
183.9671815431733
 30
0.0
 11
549.7197637447133
 21
223.8671815431733
 31
0.0
  0
ARC
  5
4A3
102
{ACAD_REACTORS
330
C6B
102
}
330
1F
100
AcDbEntity
  8
実線
100
AcDbCircle
 10
611.7197637447133
 20
223.8671815431733
 30
0.0
 40
47.99999999999999
100
AcDbArc
 50
106.5978421358643
 51
163.6651772193141
  0
ARC
  5
4A4
102
{ACAD_REACTORS
330
C6B
102
}
330
1F
100
AcDbEntity
  8
実線
100
AcDbCircle
 10
602.3197637447132
 20
223.8671815431733
 30
0.0
 40
47.99999999999999
100
AcDbArc
 50
16.33482278068592
 51
73.40215786413567
  0
LINE
  5
4A5
102
{ACAD_REACTORS
330
C6B
102
}
330
1F
100
AcDbEntity
  8
実線
100
AcDbLine
 10
664.3197637447133
 20
183.9671815431733
 30
0.0
 11
664.3197637447133
 21
223.8671815431733
 31
0.0
  0
ARC
  5
4A6
102
{ACAD_REACTORS
330
C6B
102
}
330
1F
100
AcDbEntity
  8
実線
100
AcDbCircle
 10
604.3197637447133
 20
223.8671815431733
 30
0.0
 40
60.00000000000005
100
AcDbArc
 50
0.0
 51
50.05549481018428
  0
LINE
  5
4A7
102
{ACAD_REACTORS
330
C6B
102
}
330
1F
100
AcDbEntity
  8
実線
100
AcDbLine
 10
655.1627798529713
 20
237.3671815431733
 30
0.0
 11
558.8767476364552
 21
237.3671815431733
 31
0.0
  0
LINE
  5
4A8
102
{ACAD_REACTORS
330
C6B
102
}
330
1F
100
AcDbEntity
  8
実線
100
AcDbLine
 10
655.1627798529713
 20
237.3671815431733
 30
0.0
 11
655.1627798529713
 21
183.9671815431733
 31
0.0
  0
LINE
  5
4A9
102
{ACAD_REACTORS
330
C6B
102
}
330
1F
100
AcDbEntity
  8
実線
100
AcDbLine
 10
558.8767476364552
 20
237.3671815431733
 30
0.0
 11
558.8767476364552
 21
183.9671815431733
 31
0.0
  0
LINE
  5
4AA
102
{ACAD_REACTORS
330
C6B
102
}
330
1F
100
AcDbEntity
  8
実線
100
AcDbLine
 10
724.8442459613023
 20
362.1671815431733
 30
0.0
 11
724.8442459613023
 21
355.1671815431733
 31
0.0
  0
LINE
  5
4AB
102
{ACAD_REACTORS
330
C6B
102
}
330
1F
100
AcDbEntity
  8
実線
100
AcDbLine
 10
724.8442459613023
 20
383.6671815431732
 30
0.0
 11
724.8442459613023
 21
374.1671815431733
 31
0.0
  0
LINE
  5
4AC
102
{ACAD_REACTORS
330
C6B
102
}
330
1F
100
AcDbEntity
  8
実線
100
AcDbLine
 10
724.8442459613023
 20
355.1671815431733
 30
0.0
 11
739.9345906255078
 21
355.1671815431733
 31
0.0
  0
LINE
  5
4AD
102
{ACAD_REACTORS
330
C6B
102
}
330
1F
100
AcDbEntity
  8
実線
100
AcDbLine
 10
721.1697637447133
 20
383.6671815431732
 30
0.0
 11
738.5250516943289
 21
383.6671815431732
 31
0.0
  0
LINE
  5
4AE
102
{ACAD_REACTORS
330
C6B
102
}
330
1F
100
AcDbEntity
  8
実線
100
AcDbLine
 10
738.5250516943289
 20
383.6671815431732
 30
0.0
 11
738.5250516943289
 21
355.1671815431733
 31
0.0
  0
LINE
  5
4AF
102
{ACAD_REACTORS
330
C6B
102
}
330
1F
100
AcDbEntity
  8
実線
100
AcDbLine
 10
739.9345906255078
 20
385.1671815431732
 30
0.0
 11
739.9345906255078
 21
355.1671815431733
 31
0.0
  0
LINE
  5
4B0
102
{ACAD_REACTORS
330
C6B
102
}
330
1F
100
AcDbEntity
  8
実線
100
AcDbLine
 10
725.8392013137193
 20
385.1671815431732
 30
0.0
 11
725.8392013137193
 21
383.6671815431732
 31
0.0
  0
LINE
  5
4B1
102
{ACAD_REACTORS
330
C6B
102
}
330
1F
100
AcDbEntity
  8
実線
100
AcDbLine
 10
742.5197637447135
 20
397.1671815431735
 30
0.0
 11
742.5197637447135
 21
417.1671815431734
 31
0.0
  0
LINE
  5
4B2
102
{ACAD_REACTORS
330
C6B
102
}
330
1F
100
AcDbEntity
  8
実線
100
AcDbLine
 10
579.5197637447135
 20
417.1671815431734
 30
0.0
 11
579.5197637447135
 21
397.1671815431735
 31
0.0
  0
LINE
  5
4B3
102
{ACAD_REACTORS
330
C6B
102
}
330
1F
100
AcDbEntity
  8
実線
100
AcDbLine
 10
742.5197637447135
 20
417.1671815431734
 30
0.0
 11
579.5197637447135
 21
417.1671815431734
 31
0.0
  0
LINE
  5
4B4
102
{ACAD_REACTORS
330
C6B
102
}
330
1F
100
AcDbEntity
  8
実線
100
AcDbLine
 10
742.5197637447135
 20
385.1671815431735
 30
0.0
 11
742.5197637447135
 21
397.1671815431735
 31
0.0
  0
LINE
  5
4B5
102
{ACAD_REACTORS
330
C6B
102
}
330
1F
100
AcDbEntity
  8
実線
100
AcDbLine
 10
579.5197637447135
 20
397.1671815431735
 30
0.0
 11
579.5197637447135
 21
395.7671815431735
 31
0.0
  0
LINE
  5
4B6
102
{ACAD_REACTORS
330
C6B
102
}
330
1F
100
AcDbEntity
  8
実線
100
AcDbLine
 10
597.8525549816943
 20
385.1671815431735
 30
0.0
 11
742.5197637447135
 21
385.1671815431735
 31
0.0
  0
LINE
  5
4B7
102
{ACAD_REACTORS
330
C6B
102
}
330
1F
100
AcDbEntity
  8
実線
100
AcDbLine
 10
742.5197637447135
 20
397.1671815431735
 30
0.0
 11
579.5197637447135
 21
397.1671815431735
 31
0.0
  0
LINE
  5
4B8
102
{ACAD_REACTORS
330
C6B
102
}
330
1F
100
AcDbEntity
  8
実線
100
AcDbLine
 10
684.5197637447133
 20
328.8671815431734
 30
0.0
 11
684.5197637447133
 21
368.8671815431733
 31
0.0
  0
LINE
  5
4B9
102
{ACAD_REACTORS
330
C6B
102
}
330
1F
100
AcDbEntity
  8
実線
100
AcDbLine
 10
684.5197637447133
 20
368.8671815431734
 30
0.0
 11
709.5197637447133
 21
368.8671815431734
 31
0.0
  0
LINE
  5
4BA
102
{ACAD_REACTORS
330
C6B
102
}
330
1F
100
AcDbEntity
  8
実線
100
AcDbLine
 10
709.5197637447133
 20
328.8671815431734
 30
0.0
 11
684.5197637447133
 21
328.8671815431734
 31
0.0
  0
LINE
  5
4BB
102
{ACAD_REACTORS
330
C6B
102
}
330
1F
100
AcDbEntity
  8
実線
100
AcDbLine
 10
709.5197637447133
 20
368.8671815431734
 30
0.0
 11
709.5197637447133
 21
328.8671815431734
 31
0.0
  0
LINE
  5
4BC
102
{ACAD_REACTORS
330
C6B
102
}
330
1F
100
AcDbEntity
  8
実線
100
AcDbLine
 10
590.597083773678
 20
351.8671815431734
 30
0.0
 11
614.5197637447132
 21
351.8671815431734
 31
0.0
  0
ARC
  5
4BD
102
{ACAD_REACTORS
330
C6B
102
}
330
1F
100
AcDbEntity
  8
実線
100
AcDbCircle
 10
580.4808410568752
 20
336.8671815431733
 30
0.0
 40
15.0
100
AcDbArc
 50
160.1231259299193
 51
167.9920309403025
  0
LINE
  5
4BE
102
{ACAD_REACTORS
330
C6B
102
}
330
1F
100
AcDbEntity
  8
実線
100
AcDbLine
 10
565.8090609528942
 20
339.9878975796675
 30
0.0
 11
558.0197637447132
 21
303.3671815431733
 31
0.0
  0
LINE
  5
4BF
102
{ACAD_REACTORS
330
C6B
102
}
330
1F
100
AcDbEntity
  8
実線
100
AcDbLine
 10
558.0197637447132
 20
303.3671815431733
 30
0.0
 11
558.0197637447132
 21
298.3671815431733
 31
0.0
  0
LINE
  5
4C0
102
{ACAD_REACTORS
330
C6B
102
}
330
1F
100
AcDbEntity
  8
実線
100
AcDbLine
 10
634.9944156748765
 20
303.3671815431733
 30
0.0
 11
558.0197637447132
 21
303.3671815431733
 31
0.0
  0
ARC
  5
4C1
102
{ACAD_REACTORS
330
C6D
102
}
330
1F
100
AcDbEntity
  8
実線
100
AcDbCircle
 10
1441.019763744713
 20
638.9671815431735
 30
0.0
 40
60.15
100
AcDbArc
 50
109.4207119974919
 51
200.5356238326489
  0
ARC
  5
4C2
102
{ACAD_REACTORS
330
C6D
102
}
330
1F
100
AcDbEntity
  8
実線
100
AcDbCircle
 10
1441.019763744713
 20
638.9671815431735
 30
0.0
 40
60.15
100
AcDbArc
 50
32.49543863132767
 51
70.57928800250805
  0
LINE
  5
4C3
102
{ACAD_REACTORS
330
C6D
102
}
330
1F
100
AcDbEntity
  8
実線
100
AcDbLine
 10
1345.319763744713
 20
564.0671815431734
 30
0.0
 11
1438.55101306027
 21
564.0671815431734
 31
0.0
  0
LINE
  5
4C4
102
{ACAD_REACTORS
330
C6D
102
}
330
1F
100
AcDbEntity
  8
実線
100
AcDbLine
 10
1392.519763744713
 20
617.8671815431735
 30
0.0
 11
1345.319763744713
 21
617.8671815431735
 31
0.0
  0
LINE
  5
4C5
102
{ACAD_REACTORS
330
C6D
102
}
330
1F
100
AcDbEntity
  8
実線
100
AcDbLine
 10
1345.319763744713
 20
617.8671815431735
 30
0.0
 11
1345.319763744713
 21
564.0671815431734
 31
0.0
  0
LINE
  5
4C6
102
{ACAD_REACTORS
330
C6D
102
}
330
1F
100
AcDbEntity
  8
実線
100
AcDbLine
 10
1345.319763744713
 20
617.8671815431735
 30
0.0
 11
1342.919763744713
 21
622.9671815431735
 31
0.0
  0
LINE
  5
4C7
102
{ACAD_REACTORS
330
C6D
102
}
330
1F
100
AcDbEntity
  8
実線
100
AcDbLine
 10
1342.919763744713
 20
558.9671815431735
 30
0.0
 11
1345.319763744713
 21
564.0671815431734
 31
0.0
  0
LINE
  5
4C8
102
{ACAD_REACTORS
330
C6D
102
}
330
1F
100
AcDbEntity
  8
実線
100
AcDbLine
 10
1340.019763744713
 20
622.9671815431735
 30
0.0
 11
1340.019763744713
 21
558.9671815431735
 31
0.0
  0
LINE
  5
4C9
102
{ACAD_REACTORS
330
C6D
102
}
330
1F
100
AcDbEntity
  8
実線
100
AcDbLine
 10
1342.919763744713
 20
622.9671815431735
 30
0.0
 11
1342.919763744713
 21
558.9671815431735
 31
0.0
  0
LINE
  5
4CA
102
{ACAD_REACTORS
330
C6D
102
}
330
1F
100
AcDbEntity
  8
実線
100
AcDbLine
 10
1340.019763744713
 20
558.9671815431735
 30
0.0
 11
1342.919763744713
 21
558.9671815431735
 31
0.0
  0
LINE
  5
4CB
102
{ACAD_REACTORS
330
C6D
102
}
330
1F
100
AcDbEntity
  8
実線
100
AcDbLine
 10
1342.919763744713
 20
622.9671815431735
 30
0.0
 11
1340.019763744713
 21
622.9671815431735
 31
0.0
  0
LINE
  5
4CC
102
{ACAD_REACTORS
330
C6D
102
}
330
1F
100
AcDbEntity
  8
実線
100
AcDbLine
 10
1576.719763744714
 20
635.7671815431735
 30
0.0
 11
1551.434655395766
 21
635.7671815431735
 31
0.0
  0
LINE
  5
4CD
102
{ACAD_REACTORS
330
C6D
102
}
330
1F
100
AcDbEntity
  8
実線
100
AcDbLine
 10
1551.434655395766
 20
581.9671815431735
 30
0.0
 11
1576.719763744714
 21
581.9671815431735
 31
0.0
  0
LINE
  5
4CE
102
{ACAD_REACTORS
330
C6D
102
}
330
1F
100
AcDbEntity
  8
実線
100
AcDbLine
 10
1576.719763744714
 20
581.9671815431735
 30
0.0
 11
1579.119763744713
 21
576.8671815431734
 31
0.0
  0
LINE
  5
4CF
102
{ACAD_REACTORS
330
C6D
102
}
330
1F
100
AcDbEntity
  8
実線
100
AcDbLine
 10
1579.119763744713
 20
640.8671815431735
 30
0.0
 11
1576.719763744714
 21
635.7671815431735
 31
0.0
  0
LINE
  5
4D0
102
{ACAD_REACTORS
330
C6D
102
}
330
1F
100
AcDbEntity
  8
実線
100
AcDbLine
 10
1576.719763744714
 20
581.9671815431735
 30
0.0
 11
1576.719763744714
 21
635.7671815431735
 31
0.0
  0
LINE
  5
4D1
102
{ACAD_REACTORS
330
C6D
102
}
330
1F
100
AcDbEntity
  8
実線
100
AcDbLine
 10
1582.019763744714
 20
640.8671815431735
 30
0.0
 11
1579.119763744713
 21
640.8671815431735
 31
0.0
  0
LINE
  5
4D2
102
{ACAD_REACTORS
330
C6D
102
}
330
1F
100
AcDbEntity
  8
実線
100
AcDbLine
 10
1579.119763744713
 20
576.8671815431734
 30
0.0
 11
1582.019763744714
 21
576.8671815431734
 31
0.0
  0
LINE
  5
4D3
102
{ACAD_REACTORS
330
C6D
102
}
330
1F
100
AcDbEntity
  8
実線
100
AcDbLine
 10
1582.019763744714
 20
640.8671815431735
 30
0.0
 11
1582.019763744714
 21
576.8671815431734
 31
0.0
  0
LINE
  5
4D4
102
{ACAD_REACTORS
330
C6D
102
}
330
1F
100
AcDbEntity
  8
実線
100
AcDbLine
 10
1579.119763744713
 20
640.8671815431735
 30
0.0
 11
1579.119763744713
 21
576.8671815431734
 31
0.0
  0
LINE
  5
4D5
102
{ACAD_REACTORS
330
C6D
102
}
330
1F
100
AcDbEntity
  8
実線
100
AcDbLine
 10
1462.519763744713
 20
548.8671815431735
 30
0.0
 11
1462.519763744713
 21
555.4817902830169
 31
0.0
  0
LINE
  5
4D6
102
{ACAD_REACTORS
330
C6D
102
}
330
1F
100
AcDbEntity
  8
実線
100
AcDbLine
 10
1462.519763744713
 20
548.8671815431735
 30
0.0
 11
1477.519763744713
 21
548.8671815431735
 31
0.0
  0
LINE
  5
4D7
102
{ACAD_REACTORS
330
C6D
102
}
330
1F
100
AcDbEntity
  8
実線
100
AcDbLine
 10
1461.019763744713
 20
661.3100075539826
 30
0.0
 11
1461.019763744713
 21
701.8671815431734
 31
0.0
  0
LINE
  5
4D8
102
{ACAD_REACTORS
330
C6D
102
}
330
1F
100
AcDbEntity
  8
実線
100
AcDbLine
 10
1461.019763744713
 20
701.8671815431734
 30
0.0
 11
1421.019763744713
 21
701.8671815431734
 31
0.0
  0
LINE
  5
4D9
102
{ACAD_REACTORS
330
C6D
102
}
330
1F
100
AcDbEntity
  8
実線
100
AcDbLine
 10
1421.019763744713
 20
651.3671815431735
 30
0.0
 11
1421.019763744713
 21
701.8671815431734
 31
0.0
  0
LINE
  5
4DA
102
{ACAD_REACTORS
330
C6D
102
}
330
1F
100
AcDbEntity
  8
実線
100
AcDbLine
 10
1547.117489145026
 20
643.3936497684864
 30
0.0
 11
1549.714449779659
 21
647.1024939224247
 31
0.0
  0
ARC
  5
4DB
102
{ACAD_REACTORS
330
C6D
102
}
330
1F
100
AcDbEntity
  8
実線
100
AcDbCircle
 10
1541.522929336769
 20
652.8382582859351
 30
0.0
 40
10.00000000000001
100
AcDbArc
 50
325.000000000002
 51
43.39689020481164
  0
ARC
  5
4DC
102
{ACAD_REACTORS
330
C6D
102
}
330
1F
100
AcDbEntity
  8
実線
100
AcDbCircle
 10
1538.990840487475
 20
562.3640159511174
 30
0.0
 40
10.0
100
AcDbArc
 50
235.0000000000029
 51
313.3968902048165
  0
ARC
  5
4DD
102
{ACAD_REACTORS
330
C6D
102
}
330
1F
100
AcDbEntity
  8
実線
100
AcDbCircle
 10
1495.019763744713
 20
608.8671815431735
 30
0.0
 40
74.00000000000019
100
AcDbArc
 50
313.3968902048165
 51
316.6031097951883
  0
ARC
  5
4DE
102
{ACAD_REACTORS
330
C6D
102
}
330
1F
100
AcDbEntity
  8
実線
100
AcDbCircle
 10
1495.019763744713
 20
608.8671815431735
 30
0.0
 40
73.99999999999984
100
AcDbArc
 50
133.3968902048165
 51
136.6031097951883
  0
ARC
  5
4DF
102
{ACAD_REACTORS
330
C6D
102
}
330
1F
100
AcDbEntity
  8
実線
100
AcDbCircle
 10
1448.516598152657
 20
652.8382582859351
 30
0.0
 40
9.999999999999976
100
AcDbArc
 50
136.6031097951883
 51
214.9999999999975
  0
ARC
  5
4E0
102
{ACAD_REACTORS
330
C6D
102
}
330
1F
100
AcDbEntity
  8
実線
100
AcDbCircle
 10
1495.019763744713
 20
608.8671815431735
 30
0.0
 40
73.99999999999997
100
AcDbArc
 50
43.39689020481164
 51
46.60310979518349
  0
ARC
  5
4E1
102
{ACAD_REACTORS
330
C6D
102
}
330
1F
100
AcDbEntity
  8
実線
100
AcDbCircle
 10
1538.990840487475
 20
655.3703471352292
 30
0.0
 40
10.00000000000001
100
AcDbArc
 50
46.60310979518349
 51
124.999999999997
  0
LINE
  5
4E2
102
{ACAD_REACTORS
330
C6D
102
}
330
1F
100
AcDbEntity
  8
実線
100
AcDbLine
 10
1529.546231970026
 20
556.7694561428602
 30
0.0
 11
1533.255076123964
 21
554.1724955082277
 31
0.0
  0
LINE
  5
4E3
102
{ACAD_REACTORS
330
C6D
102
}
330
1F
100
AcDbEntity
  8
実線
100
AcDbLine
 10
1533.255076123964
 20
663.5618675781192
 30
0.0
 11
1529.546231970026
 21
660.9649069434867
 31
0.0
  0
ARC
  5
4E4
102
{ACAD_REACTORS
330
C6D
102
}
330
1F
100
AcDbEntity
  8
実線
100
AcDbCircle
 10
1541.522929336769
 20
564.8961048004118
 30
0.0
 40
10.00000000000001
100
AcDbArc
 50
316.6031097951883
 51
34.99999999999747
  0
LINE
  5
4E5
102
{ACAD_REACTORS
330
C6D
102
}
330
1F
100
AcDbEntity
  8
実線
100
AcDbLine
 10
1549.714449779659
 20
570.6318691639223
 30
0.0
 11
1547.117489145026
 21
574.3407133178605
 31
0.0
  0
ARC
  5
4E6
102
{ACAD_REACTORS
330
C6D
102
}
330
1F
100
AcDbEntity
  8
実線
100
AcDbCircle
 10
1451.048687001951
 20
655.3703471352292
 30
0.0
 40
10.00000000000003
100
AcDbArc
 50
55.00000000000295
 51
133.3968902048165
  0
ARC
  5
4E7
102
{ACAD_REACTORS
330
C6D
102
}
330
1F
100
AcDbEntity
  8
実線
100
AcDbCircle
 10
1448.516598152657
 20
564.8961048004118
 30
0.0
 40
10.00000000000002
100
AcDbArc
 50
145.0000000000021
 51
223.3968902048113
  0
ARC
  5
4E8
102
{ACAD_REACTORS
330
C6D
102
}
330
1F
100
AcDbEntity
  8
実線
100
AcDbCircle
 10
1495.019763744713
 20
608.8671815431735
 30
0.0
 40
74.00000000000003
100
AcDbArc
 50
223.3968902048113
 51
226.6031097951835
  0
LINE
  5
4E9
102
{ACAD_REACTORS
330
C6D
102
}
330
1F
100
AcDbEntity
  8
実線
100
AcDbLine
 10
1440.325077709767
 20
647.1024939224247
 30
0.0
 11
1442.9220383444
 21
643.3936497684864
 31
0.0
  0
LINE
  5
4EA
102
{ACAD_REACTORS
330
C6D
102
}
330
1F
100
AcDbEntity
  8
実線
100
AcDbLine
 10
1442.9220383444
 20
574.3407133178605
 30
0.0
 11
1440.325077709767
 21
570.6318691639223
 31
0.0
  0
ARC
  5
4EB
102
{ACAD_REACTORS
330
C6D
102
}
330
1F
100
AcDbEntity
  8
実線
100
AcDbCircle
 10
1451.048687001951
 20
562.3640159511174
 30
0.0
 40
10.00000000000001
100
AcDbArc
 50
226.6031097951835
 51
304.999999999997
  0
LINE
  5
4EC
102
{ACAD_REACTORS
330
C6D
102
}
330
1F
100
AcDbEntity
  8
実線
100
AcDbLine
 10
1456.784451365462
 20
554.1724955082277
 30
0.0
 11
1460.4932955194
 21
556.7694561428602
 31
0.0
  0
LINE
  5
4ED
102
{ACAD_REACTORS
330
C6D
102
}
330
1F
100
AcDbEntity
  8
実線
100
AcDbLine
 10
1460.4932955194
 20
660.9649069434867
 30
0.0
 11
1456.784451365462
 21
663.5618675781192
 31
0.0
  0
CIRCLE
  5
4EE
102
{ACAD_REACTORS
330
C6D
102
}
330
1F
100
AcDbEntity
  8
実線
100
AcDbCircle
 10
1495.019763744713
 20
608.8671815431735
 30
0.0
 40
7.5
  0
CIRCLE
  5
4EF
102
{ACAD_REACTORS
330
C6D
102
}
330
1F
100
AcDbEntity
  8
実線
100
AcDbCircle
 10
1495.019763744713
 20
608.8671815431735
 30
0.0
 40
12.5
  0
LINE
  5
4F0
102
{ACAD_REACTORS
330
C6D
102
}
330
1F
100
AcDbEntity
  8
実線
100
AcDbLine
 10
1481.919763744713
 20
613.8671815431735
 30
0.0
 11
1474.019763744713
 21
613.8671815431735
 31
0.0
  0
LINE
  5
4F1
102
{ACAD_REACTORS
330
C6D
102
}
330
1F
100
AcDbEntity
  8
実線
100
AcDbLine
 10
1474.019763744713
 20
593.8671815431734
 30
0.0
 11
1474.019763744713
 21
588.8671815431735
 31
0.0
  0
LINE
  5
4F2
102
{ACAD_REACTORS
330
C6D
102
}
330
1F
100
AcDbEntity
  8
実線
100
AcDbLine
 10
1474.019763744713
 20
588.8671815431735
 30
0.0
 11
1481.919763744713
 21
588.8671815431735
 31
0.0
  0
LINE
  5
4F3
102
{ACAD_REACTORS
330
C6D
102
}
330
1F
100
AcDbEntity
  8
実線
100
AcDbLine
 10
1481.919763744713
 20
613.8671815431735
 30
0.0
 11
1481.919763744713
 21
588.8671815431735
 31
0.0
  0
LINE
  5
4F4
102
{ACAD_REACTORS
330
C6D
102
}
330
1F
100
AcDbEntity
  8
実線
100
AcDbLine
 10
1476.469763744713
 20
588.8671815431735
 30
0.0
 11
1476.469763744713
 21
582.3671815431735
 31
0.0
  0
LINE
  5
4F5
102
{ACAD_REACTORS
330
C6D
102
}
330
1F
100
AcDbEntity
  8
実線
100
AcDbLine
 10
1479.469763744713
 20
582.3671815431735
 30
0.0
 11
1479.469763744713
 21
588.8671815431735
 31
0.0
  0
LINE
  5
4F6
102
{ACAD_REACTORS
330
C6D
102
}
330
1F
100
AcDbEntity
  8
実線
100
AcDbLine
 10
1476.469763744713
 20
582.3671815431735
 30
0.0
 11
1479.469763744713
 21
582.3671815431735
 31
0.0
  0
ARC
  5
4F7
102
{ACAD_REACTORS
330
C6D
102
}
330
1F
100
AcDbEntity
  8
実線
100
AcDbCircle
 10
1495.019763744713
 20
608.8671815431735
 30
0.0
 40
25.0
100
AcDbArc
 50
143.1301023541538
 51
203.0739180656288
  0
CIRCLE
  5
4F8
102
{ACAD_REACTORS
330
C6D
102
}
330
1F
100
AcDbEntity
  8
実線
100
AcDbCircle
 10
1495.019763744713
 20
608.8671815431735
 30
0.0
 40
46.0
  0
LINE
  5
4F9
102
{ACAD_REACTORS
330
C6D
102
}
330
1F
100
AcDbEntity
  8
実線
100
AcDbLine
 10
1368.302757801657
 20
659.0489405965491
 30
0.0
 11
1380.048915561481
 21
654.7736888049781
 31
0.0
  0
LINE
  5
4FA
102
{ACAD_REACTORS
330
C6D
102
}
330
1F
100
AcDbEntity
  8
実線
100
AcDbLine
 10
1321.787973072754
 20
675.9789376911696
 30
0.0
 11
1366.893218870478
 21
659.5619708115374
 31
0.0
  0
LINE
  5
4FB
102
{ACAD_REACTORS
330
C6D
102
}
330
1F
100
AcDbEntity
  8
実線
100
AcDbLine
 10
1370.997460590386
 20
670.8382822609684
 30
0.0
 11
1325.892214792662
 21
687.2552491406006
 31
0.0
  0
LINE
  5
4FC
102
{ACAD_REACTORS
330
C6D
102
}
330
1F
100
AcDbEntity
  8
実線
100
AcDbLine
 10
1384.153157281389
 20
666.0500002544089
 30
0.0
 11
1372.406999521565
 21
670.32525204598
 31
0.0
  0
LINE
  5
4FD
102
{ACAD_REACTORS
330
C6D
102
}
330
1F
100
AcDbEntity
  8
実線
100
AcDbLine
 10
1380.048915561481
 20
654.7736888049781
 30
0.0
 11
1384.153157281389
 21
666.0500002544089
 31
0.0
  0
LINE
  5
4FE
102
{ACAD_REACTORS
330
C6D
102
}
330
1F
100
AcDbEntity
  8
実線
100
AcDbLine
 10
1321.787973072754
 20
675.9789376911696
 30
0.0
 11
1325.892214792662
 21
687.2552491406006
 31
0.0
  0
CIRCLE
  5
4FF
102
{ACAD_REACTORS
330
C6D
102
}
330
1F
100
AcDbEntity
  8
実線
100
AcDbCircle
 10
1495.019763744713
 20
608.8671815431735
 30
0.0
 40
62.5
  0
ARC
  5
500
102
{ACAD_REACTORS
330
C6D
102
}
330
1F
100
AcDbEntity
  8
実線
100
AcDbCircle
 10
1495.019763744713
 20
608.8671815431735
 30
0.0
 40
25.0
100
AcDbArc
 50
233.1301023541625
 51
143.1301023541538
  0
LINE
  5
501
102
{ACAD_REACTORS
330
C6D
102
}
330
1F
100
AcDbEntity
  8
実線
100
AcDbLine
 10
1475.019763744713
 20
623.8671815431735
 30
0.0
 11
1475.019763744713
 21
613.8671815431735
 31
0.0
  0
LINE
  5
502
102
{ACAD_REACTORS
330
C6D
102
}
330
1F
100
AcDbEntity
  8
実線
100
AcDbLine
 10
1474.019763744713
 20
593.8671815431734
 30
0.0
 11
1472.019763744713
 21
593.8671815431734
 31
0.0
  0
LINE
  5
503
102
{ACAD_REACTORS
330
C6D
102
}
330
1F
100
AcDbEntity
  8
実線
100
AcDbLine
 10
1472.019763744713
 20
613.8671815431735
 30
0.0
 11
1474.019763744713
 21
613.8671815431735
 31
0.0
  0
LINE
  5
504
102
{ACAD_REACTORS
330
C6D
102
}
330
1F
100
AcDbEntity
  8
実線
100
AcDbLine
 10
1474.019763744713
 20
613.8671815431735
 30
0.0
 11
1474.019763744713
 21
593.8671815431734
 31
0.0
  0
LINE
  5
505
102
{ACAD_REACTORS
330
C6D
102
}
330
1F
100
AcDbEntity
  8
実線
100
AcDbLine
 10
1472.019763744713
 20
593.8671815431734
 30
0.0
 11
1472.019763744713
 21
613.8671815431735
 31
0.0
  0
LINE
  5
506
102
{ACAD_REACTORS
330
C6D
102
}
330
1F
100
AcDbEntity
  8
実線
100
AcDbLine
 10
1389.881131908734
 20
678.8636768020859
 30
0.0
 11
1375.785742596945
 21
683.9939789519709
 31
0.0
  0
LINE
  5
507
102
{ACAD_REACTORS
330
C6D
102
}
330
1F
100
AcDbEntity
  8
実線
100
AcDbLine
 10
1376.200326175707
 20
641.2759719706498
 30
0.0
 11
1362.104936863919
 21
646.4062741205349
 31
0.0
  0
LINE
  5
508
102
{ACAD_REACTORS
330
C6D
102
}
330
1F
100
AcDbEntity
  8
実線
100
AcDbLine
 10
1389.881131908734
 20
678.8636768020861
 30
0.0
 11
1376.200326175707
 21
641.2759719706498
 31
0.0
  0
LINE
  5
509
102
{ACAD_REACTORS
330
C6D
102
}
330
1F
100
AcDbEntity
  8
実線
100
AcDbLine
 10
1377.195281528124
 20
683.4809487369825
 30
0.0
 11
1363.514475795097
 21
645.8932439055463
 31
0.0
  0
LINE
  5
50A
102
{ACAD_REACTORS
330
C6D
102
}
330
1F
100
AcDbEntity
  8
実線
100
AcDbLine
 10
1362.104936863919
 20
646.4062741205347
 30
0.0
 11
1375.785742596945
 21
683.9939789519709
 31
0.0
  0
LINE
  5
50B
102
{ACAD_REACTORS
330
C6D
102
}
330
1F
100
AcDbEntity
  8
実線
100
AcDbLine
 10
1473.519763744713
 20
713.7067293073926
 30
0.0
 11
1473.519763744713
 21
721.4671815431735
 31
0.0
  0
ARC
  5
50C
102
{ACAD_REACTORS
330
C6D
102
}
330
1F
100
AcDbEntity
  8
実線
100
AcDbCircle
 10
1441.019763744713
 20
638.9671815431735
 30
0.0
 40
81.5
100
AcDbArc
 50
113.5014955496453
 51
155.7780862399282
  0
ARC
  5
50D
102
{ACAD_REACTORS
330
C6D
102
}
330
1F
100
AcDbEntity
  8
実線
100
AcDbCircle
 10
1441.019763744713
 20
638.9671815431735
 30
0.0
 40
81.5
100
AcDbArc
 50
164.2219137600691
 51
195.004547311035
  0
ARC
  5
50E
102
{ACAD_REACTORS
330
C6D
102
}
330
1F
100
AcDbEntity
  8
実線
100
AcDbCircle
 10
1441.019763744713
 20
638.9671815431735
 30
0.0
 40
81.5
100
AcDbArc
 50
253.2411867673036
 51
270.5349103804842
  0
ARC
  5
50F
102
{ACAD_REACTORS
330
C6D
102
}
330
1F
100
AcDbEntity
  8
実線
100
AcDbCircle
 10
1441.019763744713
 20
638.9671815431735
 30
0.0
 40
81.5
100
AcDbArc
 50
20.26345096490622
 51
66.49850445035468
  0
LINE
  5
510
102
{ACAD_REACTORS
330
C6D
102
}
330
1F
100
AcDbEntity
  8
実線
100
AcDbLine
 10
1473.519763744713
 20
721.4671815431735
 30
0.0
 11
1408.519763744713
 21
721.4671815431735
 31
0.0
  0
LINE
  5
511
102
{ACAD_REACTORS
330
C6D
102
}
330
1F
100
AcDbEntity
  8
実線
100
AcDbLine
 10
1408.519763744713
 20
713.7067293073926
 30
0.0
 11
1408.519763744713
 21
721.4671815431735
 31
0.0
  0
LINE
  5
512
102
{ACAD_REACTORS
330
C6D
102
}
330
1F
100
AcDbEntity
  8
実線
100
AcDbLine
 10
1392.519763744713
 20
548.8671815431735
 30
0.0
 11
1392.519763744713
 21
564.0671815431734
 31
0.0
  0
LINE
  5
513
102
{ACAD_REACTORS
330
C6D
102
}
330
1F
100
AcDbEntity
  8
実線
100
AcDbLine
 10
1417.519763744713
 20
548.8671815431735
 30
0.0
 11
1417.519763744713
 21
564.0671815431734
 31
0.0
  0
LINE
  5
514
102
{ACAD_REACTORS
330
C6D
102
}
330
1F
100
AcDbEntity
  8
実線
100
AcDbLine
 10
1392.519763744713
 20
548.8671815431735
 30
0.0
 11
1417.519763744713
 21
548.8671815431735
 31
0.0
  0
LINE
  5
515
102
{ACAD_REACTORS
330
C6D
102
}
330
1F
100
AcDbEntity
  8
実線
100
AcDbLine
 10
1438.625393311138
 20
651.3671815431735
 30
0.0
 11
1392.519763744713
 21
651.3671815431735
 31
0.0
  0
LINE
  5
516
102
{ACAD_REACTORS
330
C6D
102
}
330
1F
100
AcDbEntity
  8
実線
100
AcDbLine
 10
1392.519763744713
 20
616.586900511187
 30
0.0
 11
1392.519763744713
 21
651.3671815431735
 31
0.0
  0
LINE
  5
517
102
{ACAD_REACTORS
330
C6C
102
}
330
1F
100
AcDbEntity
  8
実線
100
AcDbLine
 10
835.2197637447131
 20
566.4630208765347
 30
0.0
 11
841.1197637447132
 21
566.4630208765347
 31
0.0
  0
LINE
  5
518
102
{ACAD_REACTORS
330
C6C
102
}
330
1F
100
AcDbEntity
  8
実線
100
AcDbLine
 10
841.1197637447132
 20
580.9630208765347
 30
0.0
 11
835.2197637447131
 21
580.9630208765347
 31
0.0
  0
LINE
  5
519
102
{ACAD_REACTORS
330
C6C
102
}
330
1F
100
AcDbEntity
  8
実線
100
AcDbLine
 10
835.2197637447131
 20
580.9630208765347
 30
0.0
 11
835.2197637447131
 21
566.4630208765347
 31
0.0
  0
LINE
  5
51A
102
{ACAD_REACTORS
330
C6C
102
}
330
1F
100
AcDbEntity
  8
実線
100
AcDbLine
 10
835.2197637447131
 20
625.441968065342
 30
0.0
 11
841.1197637447132
 21
625.441968065342
 31
0.0
  0
LINE
  5
51B
102
{ACAD_REACTORS
330
C6C
102
}
330
1F
100
AcDbEntity
  8
実線
100
AcDbLine
 10
841.1197637447132
 20
639.941968065342
 30
0.0
 11
835.2197637447131
 21
639.941968065342
 31
0.0
  0
LINE
  5
51C
102
{ACAD_REACTORS
330
C6C
102
}
330
1F
100
AcDbEntity
  8
実線
100
AcDbLine
 10
835.2197637447131
 20
639.941968065342
 30
0.0
 11
835.2197637447131
 21
625.441968065342
 31
0.0
  0
LINE
  5
51D
102
{ACAD_REACTORS
330
C6C
102
}
330
1F
100
AcDbEntity
  8
実線
100
AcDbLine
 10
841.1197637447132
 20
587.238234354366
 30
0.0
 11
835.2197637447131
 21
587.238234354366
 31
0.0
  0
LINE
  5
51E
102
{ACAD_REACTORS
330
C6C
102
}
330
1F
100
AcDbEntity
  8
実線
100
AcDbLine
 10
835.2197637447131
 20
587.238234354366
 30
0.0
 11
835.2197637447131
 21
580.9630208765347
 31
0.0
  0
LINE
  5
51F
102
{ACAD_REACTORS
330
C6C
102
}
330
1F
100
AcDbEntity
  8
実線
100
AcDbLine
 10
928.0197637447134
 20
695.6947982743564
 30
0.0
 11
928.0197637447134
 21
612.686988172147
 31
0.0
  0
LINE
  5
520
102
{ACAD_REACTORS
330
C6C
102
}
330
1F
100
AcDbEntity
  8
実線
100
AcDbLine
 10
909.6197637447144
 20
699.1171815431735
 30
0.0
 11
884.7197637447132
 21
699.1171815431735
 31
0.0
  0
LINE
  5
521
102
{ACAD_REACTORS
330
C6C
102
}
330
1F
100
AcDbEntity
  8
実線
100
AcDbLine
 10
884.7197637447132
 20
578.8171815431734
 30
0.0
 11
901.0197637447143
 21
578.8171815431734
 31
0.0
  0
LINE
  5
522
102
{ACAD_REACTORS
330
C6C
102
}
330
1F
100
AcDbEntity
  8
実線
100
AcDbLine
 10
986.5197637447133
 20
665.3703471352294
 30
0.0
 11
986.5197637447133
 21
552.3640159511175
 31
0.0
  0
LINE
  5
523
102
{ACAD_REACTORS
330
C6C
102
}
330
1F
100
AcDbEntity
  8
実線
100
AcDbLine
 10
971.5197637447143
 20
615.9471735367669
 30
0.0
 11
971.5197637447143
 21
665.3703471352294
 31
0.0
  0
LINE
  5
524
102
{ACAD_REACTORS
330
C6C
102
}
330
1F
100
AcDbEntity
  8
実線
100
AcDbLine
 10
971.5197637447143
 20
552.3640159511175
 30
0.0
 11
986.5197637447133
 21
552.3640159511175
 31
0.0
  0
LINE
  5
525
102
{ACAD_REACTORS
330
C6C
102
}
330
1F
100
AcDbEntity
  8
実線
100
AcDbLine
 10
971.5197637447143
 20
552.3640159511175
 30
0.0
 11
971.5197637447143
 21
565.98718954958
 31
0.0
  0
LINE
  5
526
102
{ACAD_REACTORS
330
C6C
102
}
330
1F
100
AcDbEntity
  8
実線
100
AcDbLine
 10
986.5197637447133
 20
665.3703471352294
 30
0.0
 11
971.5197637447143
 21
665.3703471352294
 31
0.0
  0
LINE
  5
527
102
{ACAD_REACTORS
330
C6C
102
}
330
1F
100
AcDbEntity
  8
実線
100
AcDbLine
 10
971.5197637447143
 20
631.2454248303164
 30
0.0
 11
986.5197637447133
 21
631.2454248303164
 31
0.0
  0
LINE
  5
528
102
{ACAD_REACTORS
330
C6C
102
}
330
1F
100
AcDbEntity
  8
実線
100
AcDbLine
 10
983.2048601949564
 20
586.4889382560303
 30
0.0
 11
986.5197637447133
 21
586.4889382560303
 31
0.0
  0
CIRCLE
  5
529
102
{ACAD_REACTORS
330
C6C
102
}
330
1F
100
AcDbEntity
  8
実線
100
AcDbCircle
 10
951.5197637447133
 20
590.9671815431734
 30
0.0
 40
32.0
  0
ARC
  5
52A
102
{ACAD_REACTORS
330
C6C
102
}
330
1F
100
AcDbEntity
  8
実線
100
AcDbCircle
 10
901.0197637447133
 20
608.8671815431735
 30
0.0
 40
32.0
100
AcDbArc
 50
249.8947068817061
 51
270.0
  0
LINE
  5
52B
102
{ACAD_REACTORS
330
C6C
102
}
330
1F
100
AcDbEntity
  8
実線
100
AcDbLine
 10
949.6197637447144
 20
651.3671815431735
 30
0.0
 11
949.6197637447144
 21
701.8671815431734
 31
0.0
  0
LINE
  5
52C
102
{ACAD_REACTORS
330
C6C
102
}
330
1F
100
AcDbEntity
  8
実線
100
AcDbLine
 10
949.6197637447144
 20
701.8671815431734
 30
0.0
 11
909.6197637447144
 21
701.8671815431734
 31
0.0
  0
LINE
  5
52D
102
{ACAD_REACTORS
330
C6C
102
}
330
1F
100
AcDbEntity
  8
実線
100
AcDbLine
 10
909.6197637447144
 20
695.6947982743564
 30
0.0
 11
909.6197637447144
 21
701.8671815431734
 31
0.0
  0
LINE
  5
52E
102
{ACAD_REACTORS
330
C6C
102
}
330
1F
100
AcDbEntity
  8
実線
100
AcDbLine
 10
1177.919763744713
 20
671.3671815431735
 30
0.0
 11
1177.919763744713
 21
546.3671815431735
 31
0.0
  0
LINE
  5
52F
102
{ACAD_REACTORS
330
C6C
102
}
330
1F
100
AcDbEntity
  8
実線
100
AcDbLine
 10
1085.919763744713
 20
546.3671815431735
 30
0.0
 11
1177.919763744713
 21
546.3671815431735
 31
0.0
  0
LINE
  5
530
102
{ACAD_REACTORS
330
C6C
102
}
330
1F
100
AcDbEntity
  8
実線
100
AcDbLine
 10
1177.919763744713
 20
671.3671815431735
 30
0.0
 11
1085.919763744713
 21
671.3671815431735
 31
0.0
  0
LINE
  5
531
102
{ACAD_REACTORS
330
C6C
102
}
330
1F
100
AcDbEntity
  8
実線
100
AcDbLine
 10
1085.919763744713
 20
671.3671815431735
 30
0.0
 11
1085.919763744713
 21
546.3671815431735
 31
0.0
  0
LINE
  5
532
102
{ACAD_REACTORS
330
C6C
102
}
330
1F
100
AcDbEntity
  8
実線
100
AcDbLine
 10
1000.019763744714
 20
552.3640159511175
 30
0.0
 11
1000.019763744714
 21
665.3703471352294
 31
0.0
  0
LINE
  5
533
102
{ACAD_REACTORS
330
C6C
102
}
330
1F
100
AcDbEntity
  8
実線
100
AcDbLine
 10
1000.019763744714
 20
665.3703471352294
 30
0.0
 11
986.5197637447133
 21
665.3703471352294
 31
0.0
  0
LINE
  5
534
102
{ACAD_REACTORS
330
C6C
102
}
330
1F
100
AcDbEntity
  8
実線
100
AcDbLine
 10
986.5197637447133
 20
552.3640159511175
 30
0.0
 11
1000.019763744714
 21
552.3640159511175
 31
0.0
  0
LINE
  5
535
102
{ACAD_REACTORS
330
C6C
102
}
330
1F
100
AcDbEntity
  8
実線
100
AcDbLine
 10
1000.019763744714
 20
586.4889382560303
 30
0.0
 11
986.5197637447133
 21
586.4889382560303
 31
0.0
  0
LINE
  5
536
102
{ACAD_REACTORS
330
C6C
102
}
330
1F
100
AcDbEntity
  8
実線
100
AcDbLine
 10
1000.019763744714
 20
631.2454248303164
 30
0.0
 11
986.5197637447133
 21
631.2454248303164
 31
0.0
  0
LINE
  5
537
102
{ACAD_REACTORS
330
C6C
102
}
330
1F
100
AcDbEntity
  8
実線
100
AcDbLine
 10
1240.719763744713
 20
616.3671815431735
 30
0.0
 11
1240.719763744713
 21
601.3671815431735
 31
0.0
  0
LINE
  5
538
102
{ACAD_REACTORS
330
C6C
102
}
330
1F
100
AcDbEntity
  8
実線
100
AcDbLine
 10
1237.919763744713
 20
601.3671815431735
 30
0.0
 11
1240.719763744713
 21
601.3671815431735
 31
0.0
  0
LINE
  5
539
102
{ACAD_REACTORS
330
C6C
102
}
330
1F
100
AcDbEntity
  8
実線
100
AcDbLine
 10
1240.719763744713
 20
616.3671815431735
 30
0.0
 11
1235.419763744713
 21
616.3671815431735
 31
0.0
  0
LINE
  5
53A
102
{ACAD_REACTORS
330
C6C
102
}
330
1F
100
AcDbEntity
  8
実線
100
AcDbLine
 10
1235.419763744713
 20
613.8671815431735
 30
0.0
 11
1235.419763744713
 21
621.3671815431735
 31
0.0
  0
LINE
  5
53B
102
{ACAD_REACTORS
330
C6C
102
}
330
1F
100
AcDbEntity
  8
実線
100
AcDbLine
 10
1235.419763744713
 20
621.3671815431735
 30
0.0
 11
1230.419763744713
 21
621.3671815431735
 31
0.0
  0
LINE
  5
53C
102
{ACAD_REACTORS
330
C6C
102
}
330
1F
100
AcDbEntity
  8
実線
100
AcDbLine
 10
1230.419763744713
 20
621.3671815431735
 30
0.0
 11
1230.419763744713
 21
613.8671815431735
 31
0.0
  0
LINE
  5
53D
102
{ACAD_REACTORS
330
C6C
102
}
330
1F
100
AcDbEntity
  8
実線
100
AcDbLine
 10
1228.969763744713
 20
593.8671815431734
 30
0.0
 11
1228.969763744713
 21
588.8671815431735
 31
0.0
  0
LINE
  5
53E
102
{ACAD_REACTORS
330
C6C
102
}
330
1F
100
AcDbEntity
  8
実線
100
AcDbLine
 10
1228.969763744713
 20
588.8671815431735
 30
0.0
 11
1236.869763744714
 21
588.8671815431735
 31
0.0
  0
LINE
  5
53F
102
{ACAD_REACTORS
330
C6C
102
}
330
1F
100
AcDbEntity
  8
実線
100
AcDbLine
 10
1236.869763744714
 20
593.8671815431734
 30
0.0
 11
1236.869763744714
 21
588.8671815431735
 31
0.0
  0
LINE
  5
540
102
{ACAD_REACTORS
330
C6C
102
}
330
1F
100
AcDbEntity
  8
実線
100
AcDbLine
 10
1215.419763744713
 20
588.8671815431735
 30
0.0
 11
1215.419763744713
 21
582.3671815431735
 31
0.0
  0
LINE
  5
541
102
{ACAD_REACTORS
330
C6C
102
}
330
1F
100
AcDbEntity
  8
実線
100
AcDbLine
 10
1218.419763744713
 20
582.3671815431735
 30
0.0
 11
1218.419763744713
 21
588.8671815431735
 31
0.0
  0
LINE
  5
542
102
{ACAD_REACTORS
330
C6C
102
}
330
1F
100
AcDbEntity
  8
実線
100
AcDbLine
 10
1215.419763744713
 20
582.3671815431735
 30
0.0
 11
1218.419763744713
 21
582.3671815431735
 31
0.0
  0
LINE
  5
543
102
{ACAD_REACTORS
330
C6C
102
}
330
1F
100
AcDbEntity
  8
実線
100
AcDbLine
 10
1212.969763744713
 20
593.8671815431734
 30
0.0
 11
1212.969763744713
 21
588.8671815431735
 31
0.0
  0
LINE
  5
544
102
{ACAD_REACTORS
330
C6C
102
}
330
1F
100
AcDbEntity
  8
実線
100
AcDbLine
 10
1212.969763744713
 20
588.8671815431735
 30
0.0
 11
1220.869763744713
 21
588.8671815431735
 31
0.0
  0
LINE
  5
545
102
{ACAD_REACTORS
330
C6C
102
}
330
1F
100
AcDbEntity
  8
実線
100
AcDbLine
 10
1220.869763744713
 20
593.8671815431734
 30
0.0
 11
1220.869763744713
 21
588.8671815431735
 31
0.0
  0
LINE
  5
546
102
{ACAD_REACTORS
330
C6C
102
}
330
1F
100
AcDbEntity
  8
実線
100
AcDbLine
 10
1231.419763744713
 20
588.8671815431735
 30
0.0
 11
1231.419763744713
 21
582.3671815431735
 31
0.0
  0
LINE
  5
547
102
{ACAD_REACTORS
330
C6C
102
}
330
1F
100
AcDbEntity
  8
実線
100
AcDbLine
 10
1234.419763744713
 20
582.3671815431735
 30
0.0
 11
1234.419763744713
 21
588.8671815431735
 31
0.0
  0
LINE
  5
548
102
{ACAD_REACTORS
330
C6C
102
}
330
1F
100
AcDbEntity
  8
実線
100
AcDbLine
 10
1231.419763744713
 20
582.3671815431735
 30
0.0
 11
1234.419763744713
 21
582.3671815431735
 31
0.0
  0
LINE
  5
549
102
{ACAD_REACTORS
330
C6C
102
}
330
1F
100
AcDbEntity
  8
実線
100
AcDbLine
 10
1197.919763744713
 20
633.8671815431735
 30
0.0
 11
1197.919763744713
 21
599.0692225720407
 31
0.0
  0
LINE
  5
54A
102
{ACAD_REACTORS
330
C6C
102
}
330
1F
100
AcDbEntity
  8
実線
100
AcDbLine
 10
1192.919763744713
 20
583.8671815431735
 30
0.0
 11
1197.919763744713
 21
583.8671815431735
 31
0.0
  0
LINE
  5
54B
102
{ACAD_REACTORS
330
C6C
102
}
330
1F
100
AcDbEntity
  8
実線
100
AcDbLine
 10
1197.919763744713
 20
633.8671815431735
 30
0.0
 11
1192.919763744713
 21
633.8671815431735
 31
0.0
  0
LINE
  5
54C
102
{ACAD_REACTORS
330
C6C
102
}
330
1F
100
AcDbEntity
  8
実線
100
AcDbLine
 10
1230.419763744713
 20
616.8671815431735
 30
0.0
 11
1199.919763744713
 21
616.8671815431735
 31
0.0
  0
LINE
  5
54D
102
{ACAD_REACTORS
330
C6C
102
}
330
1F
100
AcDbEntity
  8
実線
100
AcDbLine
 10
1192.919763744713
 20
654.8671815431735
 30
0.0
 11
1192.919763744713
 21
562.8671815431735
 31
0.0
  0
LINE
  5
54E
102
{ACAD_REACTORS
330
C6C
102
}
330
1F
100
AcDbEntity
  8
実線
100
AcDbLine
 10
1182.419763744713
 20
562.8671815431735
 30
0.0
 11
1192.919763744713
 21
562.8671815431735
 31
0.0
  0
LINE
  5
54F
102
{ACAD_REACTORS
330
C6C
102
}
330
1F
100
AcDbEntity
  8
実線
100
AcDbLine
 10
1192.919763744713
 20
654.8671815431735
 30
0.0
 11
1182.419763744713
 21
654.8671815431735
 31
0.0
  0
LINE
  5
550
102
{ACAD_REACTORS
330
C6C
102
}
330
1F
100
AcDbEntity
  8
実線
100
AcDbLine
 10
895.7197637447132
 20
681.617093415885
 30
0.0
 11
895.7197637447132
 21
665.200126536253
 31
0.0
  0
LINE
  5
551
102
{ACAD_REACTORS
330
C6C
102
}
330
1F
100
AcDbEntity
  8
実線
100
AcDbLine
 10
907.7197637447131
 20
665.200126536253
 30
0.0
 11
907.7197637447131
 21
681.617093415885
 31
0.0
  0
ELLIPSE
  5
552
102
{ACAD_REACTORS
330
C6C
102
}
330
1F
100
AcDbEntity
  8
実線
100
AcDbEllipse
 10
901.7197637447132
 20
681.617093415885
 30
0.0
 11
6.0
 21
0.0
 31
0.0
210
0.0
220
0.0
230
1.0
 40
0.9396926207859085
 41
0.0
 42
3.141592653589792
  0
ELLIPSE
  5
553
102
{ACAD_REACTORS
330
C6C
102
}
330
1F
100
AcDbEntity
  8
実線
100
AcDbEllipse
 10
901.7197637447132
 20
681.617093415885
 30
0.0
 11
6.0
 21
0.0
 31
0.0
210
0.0
220
0.0
230
1.0
 40
0.9396926207859085
 41
4.71238898038469
 42
6.283185307179584
  0
ELLIPSE
  5
554
102
{ACAD_REACTORS
330
C6C
102
}
330
1F
100
AcDbEntity
  8
実線
100
AcDbEllipse
 10
901.7197637447132
 20
681.617093415885
 30
0.0
 11
6.0
 21
0.0
 31
0.0
210
0.0
220
0.0
230
1.0
 40
0.9396926207859085
 41
3.141592653589792
 42
4.71238898038469
  0
LINE
  5
555
102
{ACAD_REACTORS
330
C6C
102
}
330
1F
100
AcDbEntity
  8
実線
100
AcDbLine
 10
852.7197637447132
 20
713.2213422098122
 30
0.0
 11
841.1197637447132
 21
713.2213422098122
 31
0.0
  0
LINE
  5
556
102
{ACAD_REACTORS
330
C6C
102
}
330
1F
100
AcDbEntity
  8
実線
100
AcDbLine
 10
841.1197637447132
 20
713.2213422098122
 30
0.0
 11
841.1197637447132
 21
706.9461287319811
 31
0.0
  0
LINE
  5
557
102
{ACAD_REACTORS
330
C6C
102
}
330
1F
100
AcDbEntity
  8
実線
100
AcDbLine
 10
841.1197637447132
 20
711.4713422098122
 30
0.0
 11
835.2197637447131
 21
711.4713422098122
 31
0.0
  0
LINE
  5
558
102
{ACAD_REACTORS
330
C6C
102
}
330
1F
100
AcDbEntity
  8
実線
100
AcDbLine
 10
835.2197637447131
 20
711.4713422098122
 30
0.0
 11
835.2197637447131
 21
705.1961287319808
 31
0.0
  0
LINE
  5
559
102
{ACAD_REACTORS
330
C6C
102
}
330
1F
100
AcDbEntity
  8
実線
100
AcDbLine
 10
852.7197637447132
 20
654.242395021005
 30
0.0
 11
841.1197637447132
 21
654.242395021005
 31
0.0
  0
LINE
  5
55A
102
{ACAD_REACTORS
330
C6C
102
}
330
1F
100
AcDbEntity
  8
実線
100
AcDbLine
 10
841.1197637447132
 20
654.242395021005
 30
0.0
 11
841.1197637447132
 21
641.691968065342
 31
0.0
  0
LINE
  5
55B
102
{ACAD_REACTORS
330
C6C
102
}
330
1F
100
AcDbEntity
  8
実線
100
AcDbLine
 10
841.1197637447132
 20
688.946128731981
 30
0.0
 11
852.7197637447132
 21
688.946128731981
 31
0.0
  0
LINE
  5
55C
102
{ACAD_REACTORS
330
C6C
102
}
330
1F
100
AcDbEntity
  8
実線
100
AcDbLine
 10
852.7197637447132
 20
706.9461287319811
 30
0.0
 11
841.1197637447132
 21
706.9461287319811
 31
0.0
  0
LINE
  5
55D
102
{ACAD_REACTORS
330
C6C
102
}
330
1F
100
AcDbEntity
  8
実線
100
AcDbLine
 10
841.1197637447132
 20
706.9461287319811
 30
0.0
 11
841.1197637447132
 21
688.946128731981
 31
0.0
  0
LINE
  5
55E
102
{ACAD_REACTORS
330
C6C
102
}
330
1F
100
AcDbEntity
  8
実線
100
AcDbLine
 10
841.1197637447132
 20
623.6919680653421
 30
0.0
 11
852.7197637447132
 21
623.6919680653421
 31
0.0
  0
LINE
  5
55F
102
{ACAD_REACTORS
330
C6C
102
}
330
1F
100
AcDbEntity
  8
実線
100
AcDbLine
 10
852.7197637447132
 20
641.691968065342
 30
0.0
 11
841.1197637447132
 21
641.691968065342
 31
0.0
  0
LINE
  5
560
102
{ACAD_REACTORS
330
C6C
102
}
330
1F
100
AcDbEntity
  8
実線
100
AcDbLine
 10
841.1197637447132
 20
641.691968065342
 30
0.0
 11
841.1197637447132
 21
623.6919680653421
 31
0.0
  0
LINE
  5
561
102
{ACAD_REACTORS
330
C6C
102
}
330
1F
100
AcDbEntity
  8
実線
100
AcDbLine
 10
841.1197637447132
 20
564.7130208765344
 30
0.0
 11
852.7197637447132
 21
564.7130208765344
 31
0.0
  0
LINE
  5
562
102
{ACAD_REACTORS
330
C6C
102
}
330
1F
100
AcDbEntity
  8
実線
100
AcDbLine
 10
852.7197637447132
 20
582.7130208765346
 30
0.0
 11
841.1197637447132
 21
582.7130208765346
 31
0.0
  0
LINE
  5
563
102
{ACAD_REACTORS
330
C6C
102
}
330
1F
100
AcDbEntity
  8
実線
100
AcDbLine
 10
841.1197637447132
 20
582.7130208765346
 30
0.0
 11
841.1197637447132
 21
564.7130208765344
 31
0.0
  0
LINE
  5
564
102
{ACAD_REACTORS
330
C6C
102
}
330
1F
100
AcDbEntity
  8
実線
100
AcDbLine
 10
852.7197637447132
 20
588.988234354366
 30
0.0
 11
841.1197637447132
 21
588.988234354366
 31
0.0
  0
LINE
  5
565
102
{ACAD_REACTORS
330
C6C
102
}
330
1F
100
AcDbEntity
  8
実線
100
AcDbLine
 10
841.1197637447132
 20
588.988234354366
 30
0.0
 11
841.1197637447132
 21
582.7130208765346
 31
0.0
  0
LINE
  5
566
102
{ACAD_REACTORS
330
C6C
102
}
330
1F
100
AcDbEntity
  8
実線
100
AcDbLine
 10
841.1197637447132
 20
652.4923950210048
 30
0.0
 11
835.2197637447131
 21
652.4923950210048
 31
0.0
  0
LINE
  5
567
102
{ACAD_REACTORS
330
C6C
102
}
330
1F
100
AcDbEntity
  8
実線
100
AcDbLine
 10
835.2197637447131
 20
652.4923950210048
 30
0.0
 11
835.2197637447131
 21
639.941968065342
 31
0.0
  0
LINE
  5
568
102
{ACAD_REACTORS
330
C6C
102
}
330
1F
100
AcDbEntity
  8
実線
100
AcDbLine
 10
835.2197637447131
 20
690.696128731981
 30
0.0
 11
841.1197637447132
 21
690.696128731981
 31
0.0
  0
LINE
  5
569
102
{ACAD_REACTORS
330
C6C
102
}
330
1F
100
AcDbEntity
  8
実線
100
AcDbLine
 10
841.1197637447132
 20
705.1961287319808
 30
0.0
 11
835.2197637447131
 21
705.1961287319808
 31
0.0
  0
LINE
  5
56A
102
{ACAD_REACTORS
330
C6C
102
}
330
1F
100
AcDbEntity
  8
実線
100
AcDbLine
 10
835.2197637447131
 20
705.1961287319808
 30
0.0
 11
835.2197637447131
 21
690.696128731981
 31
0.0
  0
LINE
  5
56B
102
{ACAD_REACTORS
330
C6C
102
}
330
1F
100
AcDbEntity
  8
実線
100
AcDbLine
 10
1182.419763744713
 20
549.3671815431735
 30
0.0
 11
1182.419763744713
 21
668.3671815431734
 31
0.0
  0
ARC
  5
56C
102
{ACAD_REACTORS
330
C6C
102
}
330
1F
100
AcDbEntity
  8
実線
100
AcDbCircle
 10
1179.419763744713
 20
549.3671815431735
 30
0.0
 40
3.0
100
AcDbArc
 50
270.0
 51
0.0
  0
ARC
  5
56D
102
{ACAD_REACTORS
330
C6C
102
}
330
1F
100
AcDbEntity
  8
実線
100
AcDbCircle
 10
1179.419763744713
 20
668.3671815431734
 30
0.0
 40
3.0
100
AcDbArc
 50
0.0
 51
90.0
  0
LINE
  5
56E
102
{ACAD_REACTORS
330
C6C
102
}
330
1F
100
AcDbEntity
  8
実線
100
AcDbLine
 10
1177.919763744713
 20
546.3671815431735
 30
0.0
 11
1179.419763744713
 21
546.3671815431735
 31
0.0
  0
LINE
  5
56F
102
{ACAD_REACTORS
330
C6C
102
}
330
1F
100
AcDbEntity
  8
実線
100
AcDbLine
 10
1179.419763744713
 20
671.3671815431735
 30
0.0
 11
1177.919763744713
 21
671.3671815431735
 31
0.0
  0
LINE
  5
570
102
{ACAD_REACTORS
330
C6C
102
}
330
1F
100
AcDbEntity
  8
実線
100
AcDbLine
 10
1199.919763744713
 20
613.8671815431735
 30
0.0
 11
1199.919763744713
 21
633.8671815431735
 31
0.0
  0
LINE
  5
571
102
{ACAD_REACTORS
330
C6C
102
}
330
1F
100
AcDbEntity
  8
実線
100
AcDbLine
 10
1197.919763744713
 20
583.8671815431735
 30
0.0
 11
1197.919763744713
 21
599.0692225720407
 31
0.0
  0
LINE
  5
572
102
{ACAD_REACTORS
330
C6C
102
}
330
1F
100
AcDbEntity
  8
実線
100
AcDbLine
 10
1199.919763744713
 20
623.8671815431735
 30
0.0
 11
1197.919763744713
 21
623.8671815431735
 31
0.0
  0
LINE
  5
573
102
{ACAD_REACTORS
330
C6C
102
}
330
1F
100
AcDbEntity
  8
実線
100
AcDbLine
 10
1197.919763744713
 20
583.8671815431735
 30
0.0
 11
1199.919763744713
 21
583.8671815431735
 31
0.0
  0
LINE
  5
574
102
{ACAD_REACTORS
330
C6C
102
}
330
1F
100
AcDbEntity
  8
実線
100
AcDbLine
 10
1199.919763744713
 20
633.8671815431735
 30
0.0
 11
1197.919763744713
 21
633.8671815431735
 31
0.0
  0
LINE
  5
575
102
{ACAD_REACTORS
330
C6C
102
}
330
1F
100
AcDbEntity
  8
実線
100
AcDbLine
 10
1199.919763744713
 20
583.8671815431735
 30
0.0
 11
1199.919763744666
 21
593.8671815431734
 31
0.0
  0
LINE
  5
576
102
{ACAD_REACTORS
330
C6C
102
}
330
1F
100
AcDbEntity
  8
実線
100
AcDbLine
 10
1197.919763744713
 20
613.8671815431735
 30
0.0
 11
1237.919763744713
 21
613.8671815431735
 31
0.0
  0
LINE
  5
577
102
{ACAD_REACTORS
330
C6C
102
}
330
1F
100
AcDbEntity
  8
実線
100
AcDbLine
 10
1237.919763744713
 20
593.8671815431734
 30
0.0
 11
1237.919763744713
 21
613.8671815431735
 31
0.0
  0
LINE
  5
578
102
{ACAD_REACTORS
330
C6C
102
}
330
1F
100
AcDbEntity
  8
実線
100
AcDbLine
 10
1197.919763744713
 20
593.8671815431734
 30
0.0
 11
1237.919763744713
 21
593.8671815431734
 31
0.0
  0
LINE
  5
579
102
{ACAD_REACTORS
330
C6C
102
}
330
1F
100
AcDbEntity
  8
実線
100
AcDbLine
 10
1032.519763744714
 20
595.3671815431735
 30
0.0
 11
1032.519763744714
 21
558.8671815431735
 31
0.0
  0
LINE
  5
57A
102
{ACAD_REACTORS
330
C6C
102
}
330
1F
100
AcDbEntity
  8
実線
100
AcDbLine
 10
1032.519763744714
 20
558.8671815431735
 30
0.0
 11
1085.919763744714
 21
558.8671815431735
 31
0.0
  0
LINE
  5
57B
102
{ACAD_REACTORS
330
C6C
102
}
330
1F
100
AcDbEntity
  8
実線
100
AcDbLine
 10
1085.919763744714
 20
658.8671815431735
 30
0.0
 11
1032.519763744714
 21
658.8671815431735
 31
0.0
  0
LINE
  5
57C
102
{ACAD_REACTORS
330
C6C
102
}
330
1F
100
AcDbEntity
  8
実線
100
AcDbLine
 10
1032.519763744714
 20
658.8671815431735
 30
0.0
 11
1032.519763744714
 21
622.3671815431734
 31
0.0
  0
LINE
  5
57D
102
{ACAD_REACTORS
330
C6C
102
}
330
1F
100
AcDbEntity
  8
実線
100
AcDbLine
 10
1000.019763744714
 20
622.3671815431734
 30
0.0
 11
1085.919763744713
 21
622.3671815431734
 31
0.0
  0
LINE
  5
57E
102
{ACAD_REACTORS
330
C6C
102
}
330
1F
100
AcDbEntity
  8
実線
100
AcDbLine
 10
1000.019763744714
 20
595.3671815431735
 30
0.0
 11
1085.919763744713
 21
595.3671815431735
 31
0.0
  0
LINE
  5
57F
102
{ACAD_REACTORS
330
C6C
102
}
330
1F
100
AcDbEntity
  8
実線
100
AcDbLine
 10
886.2197637447131
 20
641.2759719706498
 30
0.0
 11
886.2197637447131
 21
645.8932439055463
 31
0.0
  0
LINE
  5
580
102
{ACAD_REACTORS
330
C6C
102
}
330
1F
100
AcDbEntity
  8
実線
100
AcDbLine
 10
886.2197637447131
 20
645.8932439055463
 30
0.0
 11
914.7197637447131
 21
645.8932439055463
 31
0.0
  0
LINE
  5
581
102
{ACAD_REACTORS
330
C6C
102
}
330
1F
100
AcDbEntity
  8
実線
100
AcDbLine
 10
914.7197637447131
 20
645.8932439055463
 30
0.0
 11
914.7197637447131
 21
683.9939789519709
 31
0.0
  0
LINE
  5
582
102
{ACAD_REACTORS
330
C6C
102
}
330
1F
100
AcDbEntity
  8
実線
100
AcDbLine
 10
884.7197637447132
 20
641.2759719706498
 30
0.0
 11
886.2197637447131
 21
641.2759719706498
 31
0.0
  0
LINE
  5
583
102
{ACAD_REACTORS
330
C6C
102
}
330
1F
100
AcDbEntity
  8
実線
100
AcDbLine
 10
884.7197637447132
 20
646.4062741205349
 30
0.0
 11
914.7197637447131
 21
646.4062741205349
 31
0.0
  0
LINE
  5
584
102
{ACAD_REACTORS
330
C6C
102
}
330
1F
100
AcDbEntity
  8
実線
100
AcDbLine
 10
907.1605348456014
 20
683.9939789519712
 30
0.0
 11
914.7197637447131
 21
683.9939789519712
 31
0.0
  0
LINE
  5
585
102
{ACAD_REACTORS
330
C6C
102
}
330
1F
100
AcDbEntity
  8
実線
100
AcDbLine
 10
884.7197637447132
 20
683.9939789519712
 30
0.0
 11
896.2789926438263
 21
683.9939789519712
 31
0.0
  0
LINE
  5
586
102
{ACAD_REACTORS
330
C6C
102
}
330
1F
100
AcDbEntity
  8
実線
100
AcDbLine
 10
872.7197637447131
 20
720.4671815431735
 30
0.0
 11
852.7197637447132
 21
720.4671815431735
 31
0.0
  0
LINE
  5
587
102
{ACAD_REACTORS
330
C6C
102
}
330
1F
100
AcDbEntity
  8
実線
100
AcDbLine
 10
852.7197637447132
 20
557.4671815431734
 30
0.0
 11
872.7197637447131
 21
557.4671815431734
 31
0.0
  0
LINE
  5
588
102
{ACAD_REACTORS
330
C6C
102
}
330
1F
100
AcDbEntity
  8
実線
100
AcDbLine
 10
852.7197637447132
 20
720.4671815431735
 30
0.0
 11
852.7197637447132
 21
557.4671815431734
 31
0.0
  0
LINE
  5
589
102
{ACAD_REACTORS
330
C6C
102
}
330
1F
100
AcDbEntity
  8
実線
100
AcDbLine
 10
884.7197637447132
 20
721.4671815431735
 30
0.0
 11
884.7197637447132
 21
557.4671815431734
 31
0.0
  0
LINE
  5
58A
102
{ACAD_REACTORS
330
C6C
102
}
330
1F
100
AcDbEntity
  8
実線
100
AcDbLine
 10
872.7197637447131
 20
721.4671815431735
 30
0.0
 11
872.7197637447131
 21
557.4671815431734
 31
0.0
  0
LINE
  5
58B
102
{ACAD_REACTORS
330
C6C
102
}
330
1F
100
AcDbEntity
  8
実線
100
AcDbLine
 10
884.7197637447132
 20
721.4671815431735
 30
0.0
 11
872.7197637447131
 21
721.4671815431735
 31
0.0
  0
LINE
  5
58C
102
{ACAD_REACTORS
330
C6C
102
}
330
1F
100
AcDbEntity
  8
実線
100
AcDbLine
 10
872.7197637447131
 20
713.7067293073926
 30
0.0
 11
884.7197637447132
 21
713.7067293073926
 31
0.0
  0
LINE
  5
58D
102
{ACAD_REACTORS
330
C6C
102
}
330
1F
100
AcDbEntity
  8
実線
100
AcDbLine
 10
872.7197637447131
 20
557.4671815431734
 30
0.0
 11
884.7197637447132
 21
557.4671815431734
 31
0.0
  0
LINE
  5
58E
102
{ACAD_REACTORS
330
C6C
102
}
330
1F
100
AcDbEntity
  8
実線
100
AcDbLine
 10
901.0197637447143
 20
548.8671815431735
 30
0.0
 11
901.0197637447143
 21
603.3894848779871
 31
0.0
  0
LINE
  5
58F
102
{ACAD_REACTORS
330
C6C
102
}
330
1F
100
AcDbEntity
  8
実線
100
AcDbLine
 10
901.0197637447143
 20
548.8671815431735
 30
0.0
 11
941.0197637447142
 21
548.8671815431735
 31
0.0
  0
LINE
  5
590
102
{ACAD_REACTORS
330
C6C
102
}
330
1F
100
AcDbEntity
  8
実線
100
AcDbLine
 10
941.0197637447142
 20
548.8671815431735
 30
0.0
 11
941.0197637447142
 21
560.7388835427898
 31
0.0
  0
LINE
  5
591
102
{ACAD_REACTORS
330
C6C
102
}
330
1F
100
AcDbEntity
  8
実線
100
AcDbLine
 10
959.7197637447143
 20
621.8987188473554
 30
0.0
 11
959.7197637447143
 21
651.3671815431735
 31
0.0
  0
LINE
  5
592
102
{ACAD_REACTORS
330
C6C
102
}
330
1F
100
AcDbEntity
  8
実線
100
AcDbLine
 10
959.7197637447143
 20
651.3671815431735
 30
0.0
 11
928.0197637447134
 21
651.3671815431735
 31
0.0
  0
LINE
  5
593
102
{ACAD_REACTORS
330
C6C
102
}
330
1F
100
AcDbEntity
  8
実線
100
AcDbLine
 10
962.1715848340111
 20
560.7920476166838
 30
0.0
 11
966.5197637447134
 21
559.8671815431734
 31
0.0
  0
LINE
  5
594
102
{ACAD_REACTORS
330
C6C
102
}
330
1F
100
AcDbEntity
  8
実線
100
AcDbLine
 10
966.5197637447134
 20
657.8671815431735
 30
0.0
 11
949.6197637447144
 21
654.2725188203835
 31
0.0
  0
LINE
  5
595
102
{ACAD_REACTORS
330
C6C
102
}
330
1F
100
AcDbEntity
  8
実線
100
AcDbLine
 10
966.5197637447134
 20
559.8671815431734
 30
0.0
 11
971.5197637447143
 21
559.8671815431734
 31
0.0
  0
LINE
  5
596
102
{ACAD_REACTORS
330
C6C
102
}
330
1F
100
AcDbEntity
  8
実線
100
AcDbLine
 10
971.5197637447143
 20
657.8671815431735
 30
0.0
 11
966.5197637447143
 21
657.8671815431735
 31
0.0
  0
LINE
  5
597
102
{ACAD_REACTORS
330
C6C
102
}
330
1F
100
AcDbEntity
  8
実線
100
AcDbLine
 10
966.5197637447134
 20
562.7005934929684
 30
0.0
 11
966.5197637447134
 21
559.8671815431734
 31
0.0
  0
LINE
  5
598
102
{ACAD_REACTORS
330
C6C
102
}
330
1F
100
AcDbEntity
  8
実線
100
AcDbLine
 10
966.5197637447134
 20
657.8671815431735
 30
0.0
 11
966.5197637447134
 21
619.2337695933785
 31
0.0
  0
LINE
  5
599
102
{ACAD_REACTORS
330
C68
102
}
330
1F
100
AcDbEntity
  8
実線
100
AcDbLine
 10
426.9197637447132
 20
566.4630208765346
 30
0.0
 11
432.8197637447131
 21
566.4630208765346
 31
0.0
  0
LINE
  5
59A
102
{ACAD_REACTORS
330
C68
102
}
330
1F
100
AcDbEntity
  8
実線
100
AcDbLine
 10
432.8197637447131
 20
566.4630208765346
 30
0.0
 11
432.8197637447131
 21
572.7382343543659
 31
0.0
  0
LINE
  5
59B
102
{ACAD_REACTORS
330
C68
102
}
330
1F
100
AcDbEntity
  8
実線
100
AcDbLine
 10
432.8197637447131
 20
637.9923950210048
 30
0.0
 11
432.8197637447131
 21
625.4419680653419
 31
0.0
  0
LINE
  5
59C
102
{ACAD_REACTORS
330
C68
102
}
330
1F
100
AcDbEntity
  8
実線
100
AcDbLine
 10
426.9197637447132
 20
625.4419680653419
 30
0.0
 11
432.8197637447131
 21
625.4419680653419
 31
0.0
  0
LINE
  5
59D
102
{ACAD_REACTORS
330
C68
102
}
330
1F
100
AcDbEntity
  8
実線
100
AcDbLine
 10
432.8197637447131
 20
587.2382343543659
 30
0.0
 11
432.8197637447131
 21
572.7382343543659
 31
0.0
  0
LINE
  5
59E
102
{ACAD_REACTORS
330
C68
102
}
330
1F
100
AcDbEntity
  8
実線
100
AcDbLine
 10
432.8197637447131
 20
587.2382343543659
 30
0.0
 11
426.9197637447132
 21
587.2382343543659
 31
0.0
  0
LINE
  5
59F
102
{ACAD_REACTORS
330
C68
102
}
330
1F
100
AcDbEntity
  8
実線
100
AcDbLine
 10
426.9197637447132
 20
572.7382343543659
 30
0.0
 11
432.8197637447131
 21
572.7382343543659
 31
0.0
  0
LINE
  5
5A0
102
{ACAD_REACTORS
330
C68
102
}
330
1F
100
AcDbEntity
  8
実線
100
AcDbLine
 10
378.0196501077627
 20
578.8171815431732
 30
0.0
 11
383.3197637447131
 21
578.8171815431732
 31
0.0
  0
LINE
  5
5A1
102
{ACAD_REACTORS
330
C68
102
}
330
1F
100
AcDbEntity
  8
実線
100
AcDbLine
 10
383.3197637447132
 20
699.1171815431734
 30
0.0
 11
358.4197637447132
 21
699.1171815431734
 31
0.0
  0
LINE
  5
5A2
102
{ACAD_REACTORS
330
C68
102
}
330
1F
100
AcDbEntity
  8
実線
100
AcDbLine
 10
340.019763744713
 20
695.6947982743563
 30
0.0
 11
340.019763744713
 21
649.2051445966908
 31
0.0
  0
LINE
  5
5A3
102
{ACAD_REACTORS
330
C68
102
}
330
1F
100
AcDbEntity
  8
実線
100
AcDbLine
 10
296.5197637447133
 20
552.3640159511173
 30
0.0
 11
296.5197637447133
 21
665.3703471352293
 31
0.0
  0
LINE
  5
5A4
102
{ACAD_REACTORS
330
C68
102
}
330
1F
100
AcDbEntity
  8
実線
100
AcDbLine
 10
281.5197637447133
 20
552.3640159511173
 30
0.0
 11
281.5197637447133
 21
665.3703471352293
 31
0.0
  0
LINE
  5
5A5
102
{ACAD_REACTORS
330
C68
102
}
330
1F
100
AcDbEntity
  8
実線
100
AcDbLine
 10
296.5197637447133
 20
665.3703471352293
 30
0.0
 11
281.5197637447133
 21
665.3703471352293
 31
0.0
  0
LINE
  5
5A6
102
{ACAD_REACTORS
330
C68
102
}
330
1F
100
AcDbEntity
  8
実線
100
AcDbLine
 10
281.5197637447133
 20
552.3640159511173
 30
0.0
 11
296.5197637447133
 21
552.3640159511173
 31
0.0
  0
LINE
  5
5A7
102
{ACAD_REACTORS
330
C68
102
}
330
1F
100
AcDbEntity
  8
実線
100
AcDbLine
 10
296.5197637447133
 20
631.2454248303163
 30
0.0
 11
281.5197637447133
 21
631.2454248303163
 31
0.0
  0
LINE
  5
5A8
102
{ACAD_REACTORS
330
C68
102
}
330
1F
100
AcDbEntity
  8
実線
100
AcDbLine
 10
296.5197637447133
 20
586.4889382560302
 30
0.0
 11
281.5197637447133
 21
586.4889382560302
 31
0.0
  0
ARC
  5
5A9
102
{ACAD_REACTORS
330
C68
102
}
330
1F
100
AcDbEntity
  8
実線
100
AcDbCircle
 10
316.519763744713
 20
590.9671815431734
 30
0.0
 40
32.0
100
AcDbArc
 50
250.5569702208468
 51
289.1550100735638
  0
CIRCLE
  5
5AA
102
{ACAD_REACTORS
330
C68
102
}
330
1F
100
AcDbEntity
  8
実線
100
AcDbCircle
 10
367.0197637447133
 20
608.8671815431734
 30
0.0
 40
32.0
  0
LINE
  5
5AB
102
{ACAD_REACTORS
330
C68
102
}
330
1F
100
AcDbEntity
  8
実線
100
AcDbLine
 10
367.0197637447133
 20
548.8671815431733
 30
0.0
 11
367.0197637447133
 21
576.8671815431734
 31
0.0
  0
LINE
  5
5AC
102
{ACAD_REACTORS
330
C68
102
}
330
1F
100
AcDbEntity
  8
実線
100
AcDbLine
 10
327.019763744713
 20
548.8671815431733
 30
0.0
 11
367.0197637447131
 21
548.8671815431733
 31
0.0
  0
LINE
  5
5AD
102
{ACAD_REACTORS
330
C68
102
}
330
1F
100
AcDbEntity
  8
実線
100
AcDbLine
 10
327.019763744713
 20
548.8671815431733
 30
0.0
 11
327.019763744713
 21
565.2910809177971
 31
0.0
  0
LINE
  5
5AE
102
{ACAD_REACTORS
330
C68
102
}
330
1F
100
AcDbEntity
  8
実線
100
AcDbLine
 10
318.4197637447131
 20
654.2725188203834
 30
0.0
 11
318.4197637447131
 21
701.8671815431734
 31
0.0
  0
LINE
  5
5AF
102
{ACAD_REACTORS
330
C68
102
}
330
1F
100
AcDbEntity
  8
実線
100
AcDbLine
 10
358.4197637447132
 20
695.6947982743563
 30
0.0
 11
358.4197637447132
 21
701.8671815431734
 31
0.0
  0
LINE
  5
5B0
102
{ACAD_REACTORS
330
C68
102
}
330
1F
100
AcDbEntity
  8
実線
100
AcDbLine
 10
358.4197637447132
 20
701.8671815431734
 30
0.0
 11
318.4197637447131
 21
701.8671815431734
 31
0.0
  0
LINE
  5
5B1
102
{ACAD_REACTORS
330
C68
102
}
330
1F
100
AcDbEntity
  8
実線
100
AcDbLine
 10
182.1197637447132
 20
671.3671815431734
 30
0.0
 11
182.1197637447132
 21
546.3671815431734
 31
0.0
  0
LINE
  5
5B2
102
{ACAD_REACTORS
330
C68
102
}
330
1F
100
AcDbEntity
  8
実線
100
AcDbLine
 10
182.1197637447132
 20
671.3671815431734
 30
0.0
 11
90.11976374471322
 21
671.3671815431734
 31
0.0
  0
LINE
  5
5B3
102
{ACAD_REACTORS
330
C68
102
}
330
1F
100
AcDbEntity
  8
実線
100
AcDbLine
 10
90.11976374471322
 20
546.3671815431734
 30
0.0
 11
182.1197637447132
 21
546.3671815431734
 31
0.0
  0
LINE
  5
5B4
102
{ACAD_REACTORS
330
C68
102
}
330
1F
100
AcDbEntity
  8
実線
100
AcDbLine
 10
90.11976374471322
 20
671.3671815431734
 30
0.0
 11
90.11976374471322
 21
546.3671815431734
 31
0.0
  0
LINE
  5
5B5
102
{ACAD_REACTORS
330
C68
102
}
330
1F
100
AcDbEntity
  8
実線
100
AcDbLine
 10
268.0197637447131
 20
665.3703471352293
 30
0.0
 11
268.0197637447131
 21
552.3640159511173
 31
0.0
  0
LINE
  5
5B6
102
{ACAD_REACTORS
330
C68
102
}
330
1F
100
AcDbEntity
  8
実線
100
AcDbLine
 10
268.0197637447131
 20
552.3640159511173
 30
0.0
 11
281.5197637447133
 21
552.3640159511173
 31
0.0
  0
LINE
  5
5B7
102
{ACAD_REACTORS
330
C68
102
}
330
1F
100
AcDbEntity
  8
実線
100
AcDbLine
 10
281.5197637447133
 20
665.3703471352293
 30
0.0
 11
268.0197637447131
 21
665.3703471352293
 31
0.0
  0
LINE
  5
5B8
102
{ACAD_REACTORS
330
C68
102
}
330
1F
100
AcDbEntity
  8
実線
100
AcDbLine
 10
268.0197637447131
 20
586.4889382560302
 30
0.0
 11
281.5197637447133
 21
586.4889382560302
 31
0.0
  0
LINE
  5
5B9
102
{ACAD_REACTORS
330
C68
102
}
330
1F
100
AcDbEntity
  8
実線
100
AcDbLine
 10
268.0197637447131
 20
631.2454248303163
 30
0.0
 11
281.5197637447133
 21
631.2454248303163
 31
0.0
  0
LINE
  5
5BA
102
{ACAD_REACTORS
330
C68
102
}
330
1F
100
AcDbEntity
  8
実線
100
AcDbLine
 10
32.61976374471308
 20
616.3671815431733
 30
0.0
 11
27.31976374471321
 21
616.3671815431733
 31
0.0
  0
LINE
  5
5BB
102
{ACAD_REACTORS
330
C68
102
}
330
1F
100
AcDbEntity
  8
実線
100
AcDbLine
 10
27.31976374471321
 20
601.3671815431734
 30
0.0
 11
32.61976374471308
 21
601.3671815431734
 31
0.0
  0
LINE
  5
5BC
102
{ACAD_REACTORS
330
C68
102
}
330
1F
100
AcDbEntity
  8
実線
100
AcDbLine
 10
27.31976374471321
 20
616.3671815431733
 30
0.0
 11
27.31976374471321
 21
601.3671815431734
 31
0.0
  0
LINE
  5
5BD
102
{ACAD_REACTORS
330
C68
102
}
330
1F
100
AcDbEntity
  8
実線
100
AcDbLine
 10
37.61976374471331
 20
621.3671815431734
 30
0.0
 11
37.61976374471331
 21
596.3671815431734
 31
0.0
  0
LINE
  5
5BE
102
{ACAD_REACTORS
330
C68
102
}
330
1F
100
AcDbEntity
  8
実線
100
AcDbLine
 10
37.61976374471331
 20
621.3671815431734
 30
0.0
 11
32.61976374471308
 21
621.3671815431734
 31
0.0
  0
LINE
  5
5BF
102
{ACAD_REACTORS
330
C68
102
}
330
1F
100
AcDbEntity
  8
実線
100
AcDbLine
 10
32.61976374471308
 20
596.3671815431734
 30
0.0
 11
37.61976374471331
 21
596.3671815431734
 31
0.0
  0
LINE
  5
5C0
102
{ACAD_REACTORS
330
C68
102
}
330
1F
100
AcDbEntity
  8
実線
100
AcDbLine
 10
32.61976374471308
 20
621.3671815431734
 30
0.0
 11
32.61976374471308
 21
596.3671815431734
 31
0.0
  0
LINE
  5
5C1
102
{ACAD_REACTORS
330
C68
102
}
330
1F
100
AcDbEntity
  8
実線
100
AcDbLine
 10
31.1697637447131
 20
601.3671815431734
 30
0.0
 11
31.1697637447131
 21
588.8671815431734
 31
0.0
  0
LINE
  5
5C2
102
{ACAD_REACTORS
330
C68
102
}
330
1F
100
AcDbEntity
  8
実線
100
AcDbLine
 10
31.16976374471324
 20
588.8671815431734
 30
0.0
 11
39.06976374471322
 21
588.8671815431734
 31
0.0
  0
LINE
  5
5C3
102
{ACAD_REACTORS
330
C68
102
}
330
1F
100
AcDbEntity
  8
実線
100
AcDbLine
 10
39.06976374471322
 20
600.8671815431734
 30
0.0
 11
39.06976374471322
 21
588.8671815431734
 31
0.0
  0
LINE
  5
5C4
102
{ACAD_REACTORS
330
C68
102
}
330
1F
100
AcDbEntity
  8
実線
100
AcDbLine
 10
52.61976374471306
 20
582.3671815431733
 30
0.0
 11
49.61976374471305
 21
582.3671815431733
 31
0.0
  0
LINE
  5
5C5
102
{ACAD_REACTORS
330
C68
102
}
330
1F
100
AcDbEntity
  8
実線
100
AcDbLine
 10
49.61976374471305
 20
588.8671815431734
 30
0.0
 11
49.61976374471305
 21
582.3671815431733
 31
0.0
  0
LINE
  5
5C6
102
{ACAD_REACTORS
330
C68
102
}
330
1F
100
AcDbEntity
  8
実線
100
AcDbLine
 10
52.61976374471306
 20
582.3671815431733
 30
0.0
 11
52.61976374471306
 21
588.8671815431734
 31
0.0
  0
LINE
  5
5C7
102
{ACAD_REACTORS
330
C68
102
}
330
1F
100
AcDbEntity
  8
実線
100
AcDbLine
 10
47.16976374471324
 20
600.8671815431734
 30
0.0
 11
47.16976374471324
 21
588.8671815431734
 31
0.0
  0
LINE
  5
5C8
102
{ACAD_REACTORS
330
C68
102
}
330
1F
100
AcDbEntity
  8
実線
100
AcDbLine
 10
55.06976374471321
 20
600.8671815431734
 30
0.0
 11
55.06976374471321
 21
588.8671815431734
 31
0.0
  0
LINE
  5
5C9
102
{ACAD_REACTORS
330
C68
102
}
330
1F
100
AcDbEntity
  8
実線
100
AcDbLine
 10
47.16976374471324
 20
588.8671815431734
 30
0.0
 11
55.06976374471321
 21
588.8671815431734
 31
0.0
  0
LINE
  5
5CA
102
{ACAD_REACTORS
330
C68
102
}
330
1F
100
AcDbEntity
  8
実線
100
AcDbLine
 10
36.61976374471308
 20
582.3671815431733
 30
0.0
 11
33.61976374471308
 21
582.3671815431733
 31
0.0
  0
LINE
  5
5CB
102
{ACAD_REACTORS
330
C68
102
}
330
1F
100
AcDbEntity
  8
実線
100
AcDbLine
 10
33.61976374471308
 20
588.8671815431734
 30
0.0
 11
33.61976374471308
 21
582.3671815431733
 31
0.0
  0
LINE
  5
5CC
102
{ACAD_REACTORS
330
C68
102
}
330
1F
100
AcDbEntity
  8
実線
100
AcDbLine
 10
36.61976374471308
 20
582.3671815431733
 30
0.0
 11
36.61976374471308
 21
588.8671815431734
 31
0.0
  0
LINE
  5
5CD
102
{ACAD_REACTORS
330
C68
102
}
330
1F
100
AcDbEntity
  8
実線
100
AcDbLine
 10
75.11976374471328
 20
633.8671815431734
 30
0.0
 11
70.11976374471311
 21
633.8671815431734
 31
0.0
  0
LINE
  5
5CE
102
{ACAD_REACTORS
330
C68
102
}
330
1F
100
AcDbEntity
  8
実線
100
AcDbLine
 10
70.11976374471311
 20
583.8671815431734
 30
0.0
 11
75.11976374471328
 21
583.8671815431734
 31
0.0
  0
LINE
  5
5CF
102
{ACAD_REACTORS
330
C68
102
}
330
1F
100
AcDbEntity
  8
実線
100
AcDbLine
 10
68.11976374471311
 20
616.8671815431734
 30
0.0
 11
37.61976374471331
 21
616.8671815431734
 31
0.0
  0
LINE
  5
5D0
102
{ACAD_REACTORS
330
C68
102
}
330
1F
100
AcDbEntity
  8
実線
100
AcDbLine
 10
37.61976374471331
 20
600.8671815431734
 30
0.0
 11
68.11976374471311
 21
600.8671815431734
 31
0.0
  0
LINE
  5
5D1
102
{ACAD_REACTORS
330
C68
102
}
330
1F
100
AcDbEntity
  8
実線
100
AcDbLine
 10
85.61976374471322
 20
654.8671815431734
 30
0.0
 11
75.11976374471328
 21
654.8671815431734
 31
0.0
  0
LINE
  5
5D2
102
{ACAD_REACTORS
330
C68
102
}
330
1F
100
AcDbEntity
  8
実線
100
AcDbLine
 10
75.11976374471328
 20
562.8671815431734
 30
0.0
 11
85.61976374471322
 21
562.8671815431734
 31
0.0
  0
LINE
  5
5D3
102
{ACAD_REACTORS
330
C68
102
}
330
1F
100
AcDbEntity
  8
実線
100
AcDbLine
 10
75.11976374471328
 20
654.8671815431734
 30
0.0
 11
75.11976374471328
 21
562.8671815431734
 31
0.0
  0
LINE
  5
5D4
102
{ACAD_REACTORS
330
C68
102
}
330
1F
100
AcDbEntity
  8
実線
100
AcDbLine
 10
426.9197637447132
 20
713.2213422098121
 30
0.0
 11
426.9197637447132
 21
695.2213422098122
 31
0.0
  0
LINE
  5
5D5
102
{ACAD_REACTORS
330
C68
102
}
330
1F
100
AcDbEntity
  8
実線
100
AcDbLine
 10
426.9197637447132
 20
713.2213422098121
 30
0.0
 11
415.3197637447131
 21
713.2213422098121
 31
0.0
  0
LINE
  5
5D6
102
{ACAD_REACTORS
330
C68
102
}
330
1F
100
AcDbEntity
  8
実線
100
AcDbLine
 10
415.3197637447131
 20
695.2213422098122
 30
0.0
 11
426.9197637447132
 21
695.2213422098122
 31
0.0
  0
LINE
  5
5D7
102
{ACAD_REACTORS
330
C68
102
}
330
1F
100
AcDbEntity
  8
実線
100
AcDbLine
 10
432.8197637447131
 20
711.4713422098121
 30
0.0
 11
432.8197637447131
 21
696.9713422098122
 31
0.0
  0
LINE
  5
5D8
102
{ACAD_REACTORS
330
C68
102
}
330
1F
100
AcDbEntity
  8
実線
100
AcDbLine
 10
432.8197637447131
 20
711.4713422098121
 30
0.0
 11
426.9197637447132
 21
711.4713422098121
 31
0.0
  0
LINE
  5
5D9
102
{ACAD_REACTORS
330
C68
102
}
330
1F
100
AcDbEntity
  8
実線
100
AcDbLine
 10
426.9197637447132
 20
696.9713422098122
 30
0.0
 11
432.8197637447131
 21
696.9713422098122
 31
0.0
  0
LINE
  5
5DA
102
{ACAD_REACTORS
330
C68
102
}
330
1F
100
AcDbEntity
  8
実線
100
AcDbLine
 10
426.9197637447132
 20
654.2423950210048
 30
0.0
 11
426.9197637447132
 21
636.2423950210049
 31
0.0
  0
LINE
  5
5DB
102
{ACAD_REACTORS
330
C68
102
}
330
1F
100
AcDbEntity
  8
実線
100
AcDbLine
 10
426.9197637447132
 20
654.2423950210048
 30
0.0
 11
415.3197637447131
 21
654.2423950210048
 31
0.0
  0
LINE
  5
5DC
102
{ACAD_REACTORS
330
C68
102
}
330
1F
100
AcDbEntity
  8
実線
100
AcDbLine
 10
415.3197637447131
 20
636.2423950210049
 30
0.0
 11
426.9197637447132
 21
636.2423950210049
 31
0.0
  0
LINE
  5
5DD
102
{ACAD_REACTORS
330
C68
102
}
330
1F
100
AcDbEntity
  8
実線
100
AcDbLine
 10
415.3197637447131
 20
688.9461287319809
 30
0.0
 11
426.9197637447132
 21
688.9461287319809
 31
0.0
  0
LINE
  5
5DE
102
{ACAD_REACTORS
330
C68
102
}
330
1F
100
AcDbEntity
  8
実線
100
AcDbLine
 10
426.9197637447132
 20
688.9461287319809
 30
0.0
 11
426.9197637447132
 21
695.2213422098122
 31
0.0
  0
LINE
  5
5DF
102
{ACAD_REACTORS
330
C68
102
}
330
1F
100
AcDbEntity
  8
実線
100
AcDbLine
 10
426.9197637447132
 20
636.2423950210049
 30
0.0
 11
426.9197637447132
 21
623.6919680653419
 31
0.0
  0
LINE
  5
5E0
102
{ACAD_REACTORS
330
C68
102
}
330
1F
100
AcDbEntity
  8
実線
100
AcDbLine
 10
415.3197637447131
 20
623.6919680653419
 30
0.0
 11
426.9197637447132
 21
623.6919680653419
 31
0.0
  0
LINE
  5
5E1
102
{ACAD_REACTORS
330
C68
102
}
330
1F
100
AcDbEntity
  8
実線
100
AcDbLine
 10
415.3197637447131
 20
564.7130208765343
 30
0.0
 11
426.9197637447132
 21
564.7130208765343
 31
0.0
  0
LINE
  5
5E2
102
{ACAD_REACTORS
330
C68
102
}
330
1F
100
AcDbEntity
  8
実線
100
AcDbLine
 10
426.9197637447132
 20
564.7130208765343
 30
0.0
 11
426.9197637447132
 21
570.988234354366
 31
0.0
  0
LINE
  5
5E3
102
{ACAD_REACTORS
330
C68
102
}
330
1F
100
AcDbEntity
  8
実線
100
AcDbLine
 10
426.9197637447132
 20
588.9882343543659
 30
0.0
 11
426.9197637447132
 21
570.988234354366
 31
0.0
  0
LINE
  5
5E4
102
{ACAD_REACTORS
330
C68
102
}
330
1F
100
AcDbEntity
  8
実線
100
AcDbLine
 10
426.9197637447132
 20
588.9882343543659
 30
0.0
 11
415.3197637447131
 21
588.9882343543659
 31
0.0
  0
LINE
  5
5E5
102
{ACAD_REACTORS
330
C68
102
}
330
1F
100
AcDbEntity
  8
実線
100
AcDbLine
 10
415.3197637447131
 20
570.988234354366
 30
0.0
 11
426.9197637447132
 21
570.988234354366
 31
0.0
  0
LINE
  5
5E6
102
{ACAD_REACTORS
330
C68
102
}
330
1F
100
AcDbEntity
  8
実線
100
AcDbLine
 10
432.8197637447131
 20
652.4923950210047
 30
0.0
 11
432.8197637447131
 21
637.9923950210048
 31
0.0
  0
LINE
  5
5E7
102
{ACAD_REACTORS
330
C68
102
}
330
1F
100
AcDbEntity
  8
実線
100
AcDbLine
 10
432.8197637447131
 20
652.4923950210047
 30
0.0
 11
426.9197637447132
 21
652.4923950210047
 31
0.0
  0
LINE
  5
5E8
102
{ACAD_REACTORS
330
C68
102
}
330
1F
100
AcDbEntity
  8
実線
100
AcDbLine
 10
426.9197637447132
 20
637.9923950210048
 30
0.0
 11
432.8197637447131
 21
637.9923950210048
 31
0.0
  0
LINE
  5
5E9
102
{ACAD_REACTORS
330
C68
102
}
330
1F
100
AcDbEntity
  8
実線
100
AcDbLine
 10
426.9197637447132
 20
690.6961287319809
 30
0.0
 11
432.8197637447131
 21
690.6961287319809
 31
0.0
  0
LINE
  5
5EA
102
{ACAD_REACTORS
330
C68
102
}
330
1F
100
AcDbEntity
  8
実線
100
AcDbLine
 10
432.8197637447131
 20
690.6961287319809
 30
0.0
 11
432.8197637447131
 21
696.9713422098122
 31
0.0
  0
LINE
  5
5EB
102
{ACAD_REACTORS
330
C68
102
}
330
1F
100
AcDbEntity
  8
実線
100
AcDbLine
 10
85.61976374471322
 20
549.3671815431733
 30
0.0
 11
85.61976374471322
 21
668.3671815425417
 31
0.0
  0
ARC
  5
5EC
102
{ACAD_REACTORS
330
C68
102
}
330
1F
100
AcDbEntity
  8
実線
100
AcDbCircle
 10
88.61976374471323
 20
668.3671815431734
 30
0.0
 40
3.0
100
AcDbArc
 50
90.0
 51
180.0
  0
ARC
  5
5ED
102
{ACAD_REACTORS
330
C68
102
}
330
1F
100
AcDbEntity
  8
実線
100
AcDbCircle
 10
88.61976374471323
 20
549.3671815431733
 30
0.0
 40
3.0
100
AcDbArc
 50
180.0
 51
270.0
  0
LINE
  5
5EE
102
{ACAD_REACTORS
330
C68
102
}
330
1F
100
AcDbEntity
  8
実線
100
AcDbLine
 10
90.11976374471322
 20
671.3671815431734
 30
0.0
 11
88.61976374471323
 21
671.3671815431734
 31
0.0
  0
LINE
  5
5EF
102
{ACAD_REACTORS
330
C68
102
}
330
1F
100
AcDbEntity
  8
実線
100
AcDbLine
 10
88.61976374471323
 20
546.3671815431734
 30
0.0
 11
90.11976374471322
 21
546.3671815431734
 31
0.0
  0
LINE
  5
5F0
102
{ACAD_REACTORS
330
C68
102
}
330
1F
100
AcDbEntity
  8
実線
100
AcDbLine
 10
31.16976374471324
 20
593.8671815431733
 30
0.0
 11
30.11976374471308
 21
593.8671815431733
 31
0.0
  0
LINE
  5
5F1
102
{ACAD_REACTORS
330
C68
102
}
330
1F
100
AcDbEntity
  8
実線
100
AcDbLine
 10
47.16976374471324
 20
593.8671815431733
 30
0.0
 11
39.06976374471322
 21
593.8671815431733
 31
0.0
  0
LINE
  5
5F2
102
{ACAD_REACTORS
330
C68
102
}
330
1F
100
AcDbEntity
  8
実線
100
AcDbLine
 10
68.1197637447604
 20
593.8671815431733
 30
0.0
 11
55.06976374471321
 21
593.8671815431733
 31
0.0
  0
LINE
  5
5F3
102
{ACAD_REACTORS
330
C68
102
}
330
1F
100
AcDbEntity
  8
実線
100
AcDbLine
 10
30.11976374471308
 20
601.3671815431734
 30
0.0
 11
30.11976374471308
 21
593.8671815431733
 31
0.0
  0
LINE
  5
5F4
102
{ACAD_REACTORS
330
C68
102
}
330
1F
100
AcDbEntity
  8
実線
100
AcDbLine
 10
70.11976374471311
 20
633.8671815431734
 30
0.0
 11
68.11976374471311
 21
633.8671815431734
 31
0.0
  0
LINE
  5
5F5
102
{ACAD_REACTORS
330
C68
102
}
330
1F
100
AcDbEntity
  8
実線
100
AcDbLine
 10
68.11976374471311
 20
583.8671815431734
 30
0.0
 11
70.11976374471311
 21
583.8671815431734
 31
0.0
  0
LINE
  5
5F6
102
{ACAD_REACTORS
330
C68
102
}
330
1F
100
AcDbEntity
  8
実線
100
AcDbLine
 10
68.11976374471311
 20
633.8671815431734
 30
0.0
 11
68.11976374471311
 21
583.8671815431734
 31
0.0
  0
LINE
  5
5F7
102
{ACAD_REACTORS
330
C68
102
}
330
1F
100
AcDbEntity
  8
実線
100
AcDbLine
 10
70.11976374471311
 20
633.8671815431734
 30
0.0
 11
70.11976374471311
 21
583.8671815431734
 31
0.0
  0
LINE
  5
5F8
102
{ACAD_REACTORS
330
C68
102
}
330
1F
100
AcDbEntity
  8
実線
100
AcDbLine
 10
235.5197637447133
 20
622.3671815431734
 30
0.0
 11
235.5197637447133
 21
658.8671815431734
 31
0.0
  0
LINE
  5
5F9
102
{ACAD_REACTORS
330
C68
102
}
330
1F
100
AcDbEntity
  8
実線
100
AcDbLine
 10
235.5197637447133
 20
658.8671815431734
 30
0.0
 11
182.1197637447132
 21
658.8671815431734
 31
0.0
  0
LINE
  5
5FA
102
{ACAD_REACTORS
330
C68
102
}
330
1F
100
AcDbEntity
  8
実線
100
AcDbLine
 10
182.1197637447132
 20
558.8671815431734
 30
0.0
 11
235.5197637447133
 21
558.8671815431734
 31
0.0
  0
LINE
  5
5FB
102
{ACAD_REACTORS
330
C68
102
}
330
1F
100
AcDbEntity
  8
実線
100
AcDbLine
 10
235.5197637447133
 20
558.8671815431734
 30
0.0
 11
235.5197637447133
 21
595.3671815431733
 31
0.0
  0
LINE
  5
5FC
102
{ACAD_REACTORS
330
C68
102
}
330
1F
100
AcDbEntity
  8
実線
100
AcDbLine
 10
268.0197637447131
 20
595.3671815431733
 30
0.0
 11
182.1197637447132
 21
595.3671815431733
 31
0.0
  0
LINE
  5
5FD
102
{ACAD_REACTORS
330
C68
102
}
330
1F
100
AcDbEntity
  8
実線
100
AcDbLine
 10
268.0197637447131
 20
622.3671815431734
 30
0.0
 11
182.1197637447132
 21
622.3671815431734
 31
0.0
  0
LINE
  5
5FE
102
{ACAD_REACTORS
330
C68
102
}
330
1F
100
AcDbEntity
  8
実線
100
AcDbLine
 10
415.3197637447131
 20
720.4671815431733
 30
0.0
 11
415.3197637447131
 21
557.4671815431734
 31
0.0
  0
LINE
  5
5FF
102
{ACAD_REACTORS
330
C68
102
}
330
1F
100
AcDbEntity
  8
実線
100
AcDbLine
 10
395.3197637447132
 20
557.4671815431734
 30
0.0
 11
415.3197637447131
 21
557.4671815431734
 31
0.0
  0
LINE
  5
600
102
{ACAD_REACTORS
330
C68
102
}
330
1F
100
AcDbEntity
  8
実線
100
AcDbLine
 10
415.3197637447131
 20
720.4671815431733
 30
0.0
 11
395.3197637447132
 21
720.4671815431733
 31
0.0
  0
LINE
  5
601
102
{ACAD_REACTORS
330
C68
102
}
330
1F
100
AcDbEntity
  8
実線
100
AcDbLine
 10
383.3197637447132
 20
721.4671815431734
 30
0.0
 11
383.3197637447132
 21
636.4046106170719
 31
0.0
  0
LINE
  5
602
102
{ACAD_REACTORS
330
C68
102
}
330
1F
100
AcDbEntity
  8
実線
100
AcDbLine
 10
395.3197637447132
 20
721.4671815431734
 30
0.0
 11
395.3197637447132
 21
623.8040486845788
 31
0.0
  0
LINE
  5
603
102
{ACAD_REACTORS
330
C68
102
}
330
1F
100
AcDbEntity
  8
実線
100
AcDbLine
 10
395.3197637447131
 20
721.4671815431734
 30
0.0
 11
383.3197637447131
 21
721.4671815431734
 31
0.0
  0
LINE
  5
604
102
{ACAD_REACTORS
330
C68
102
}
330
1F
100
AcDbEntity
  8
実線
100
AcDbLine
 10
383.3197637447132
 20
713.7067293073926
 30
0.0
 11
395.3197637447132
 21
713.7067293073926
 31
0.0
  0
LINE
  5
605
102
{ACAD_REACTORS
330
C68
102
}
330
1F
100
AcDbEntity
  8
実線
100
AcDbLine
 10
383.3197637447132
 20
581.3297524692747
 30
0.0
 11
383.3197637447132
 21
557.4671815431734
 31
0.0
  0
LINE
  5
606
102
{ACAD_REACTORS
330
C68
102
}
330
1F
100
AcDbEntity
  8
実線
100
AcDbLine
 10
383.3197637447132
 20
557.4671815431734
 30
0.0
 11
395.3197637447132
 21
557.4671815431734
 31
0.0
  0
LINE
  5
607
102
{ACAD_REACTORS
330
C68
102
}
330
1F
100
AcDbEntity
  8
実線
100
AcDbLine
 10
395.3197637447132
 20
557.4671815431734
 30
0.0
 11
395.3197637447132
 21
593.9303144017678
 31
0.0
  0
LINE
  5
608
102
{ACAD_REACTORS
330
C68
102
}
330
1F
100
AcDbEntity
  8
実線
100
AcDbLine
 10
340.019763744713
 20
651.3671815431734
 30
0.0
 11
332.0789589937021
 21
651.3671815431734
 31
0.0
  0
ARC
  5
609
102
{ACAD_REACTORS
330
C68
102
}
330
1F
100
AcDbEntity
  8
実線
100
AcDbCircle
 10
335.0197637447132
 20
582.3282588553353
 30
0.0
 40
15.0
100
AcDbArc
 50
282.0079690596974
 51
357.8402913078948
  0
ARC
  5
60A
102
{ACAD_REACTORS
330
C68
102
}
330
1F
100
AcDbEntity
  8
実線
100
AcDbCircle
 10
335.0197637447132
 20
635.4061042310113
 30
0.0
 40
15.0
100
AcDbArc
 50
70.52877936550692
 51
77.99203094030261
  0
LINE
  5
60B
102
{ACAD_REACTORS
330
C68
102
}
330
1F
100
AcDbEntity
  8
実線
100
AcDbLine
 10
338.1404797812073
 20
650.0778843349924
 30
0.0
 11
301.5197637447132
 21
657.8671815431733
 31
0.0
  0
LINE
  5
60C
102
{ACAD_REACTORS
330
C68
102
}
330
1F
100
AcDbEntity
  8
実線
100
AcDbLine
 10
301.5197637447132
 20
559.8671815431734
 30
0.0
 11
338.1404797812075
 21
567.6564787513544
 31
0.0
  0
LINE
  5
60D
102
{ACAD_REACTORS
330
C68
102
}
330
1F
100
AcDbEntity
  8
実線
100
AcDbLine
 10
301.5197637447132
 20
657.8671815431733
 30
0.0
 11
301.5197637447132
 21
559.8671815431734
 31
0.0
  0
LINE
  5
60E
102
{ACAD_REACTORS
330
C68
102
}
330
1F
100
AcDbEntity
  8
実線
100
AcDbLine
 10
301.5197637447132
 20
657.8671815431733
 30
0.0
 11
296.5197637447133
 21
657.8671815431733
 31
0.0
  0
LINE
  5
60F
102
{ACAD_REACTORS
330
C68
102
}
330
1F
100
AcDbEntity
  8
実線
100
AcDbLine
 10
296.5197637447133
 20
559.8671815431734
 30
0.0
 11
301.5197637447132
 21
559.8671815431734
 31
0.0
  0
CIRCLE
  5
610
102
{ACAD_REACTORS
330
C6A
102
}
330
1F
100
AcDbEntity
  8
実線
100
AcDbCircle
 10
691.4482785900438
 20
573.7130208765347
 30
0.0
 40
7.25
  0
CIRCLE
  5
611
102
{ACAD_REACTORS
330
C6A
102
}
330
1F
100
AcDbEntity
  8
実線
100
AcDbCircle
 10
732.7457820073188
 20
632.691968065342
 30
0.0
 40
7.25
  0
CIRCLE
  5
612
102
{ACAD_REACTORS
330
C6A
102
}
330
1F
100
AcDbEntity
  8
実線
100
AcDbCircle
 10
619.7222603274382
 20
579.9882343543661
 30
0.0
 40
7.25
  0
ARC
  5
613
102
{ACAD_REACTORS
330
C6A
102
}
330
1F
100
AcDbEntity
  8
実線
100
AcDbCircle
 10
607.0197637447135
 20
608.8671815431735
 30
0.0
 40
73.99999999999997
100
AcDbArc
 50
223.3968902048163
 51
226.6031097951835
  0
ARC
  5
614
102
{ACAD_REACTORS
330
C6A
102
}
330
1F
100
AcDbEntity
  8
実線
100
AcDbCircle
 10
563.0486870019516
 20
562.3640159511177
 30
0.0
 40
10.00000000000001
100
AcDbArc
 50
226.6031097951835
 51
304.9999999999972
  0
LINE
  5
615
102
{ACAD_REACTORS
330
C6A
102
}
330
1F
100
AcDbEntity
  8
実線
100
AcDbLine
 10
581.0999963623798
 20
654.9384301341167
 30
0.0
 11
568.7844513654622
 21
663.5618675781192
 31
0.0
  0
ARC
  5
616
102
{ACAD_REACTORS
330
C6A
102
}
330
1F
100
AcDbEntity
  8
実線
100
AcDbCircle
 10
563.0486870019516
 20
655.3703471352292
 30
0.0
 40
10.0
100
AcDbArc
 50
55.00000000000277
 51
133.3968902048164
  0
ARC
  5
617
102
{ACAD_REACTORS
330
C6A
102
}
330
1F
100
AcDbEntity
  8
実線
100
AcDbCircle
 10
607.0197637447135
 20
608.8671815431735
 30
0.0
 40
74.00000000000019
100
AcDbArc
 50
133.3968902048164
 51
136.6031097951837
  0
ARC
  5
618
102
{ACAD_REACTORS
330
C6A
102
}
330
1F
100
AcDbEntity
  8
実線
100
AcDbCircle
 10
560.5165981526575
 20
652.8382582859351
 30
0.0
 40
10.00000000000001
100
AcDbArc
 50
136.6031097951837
 51
214.9999999999974
  0
LINE
  5
619
102
{ACAD_REACTORS
330
C6A
102
}
330
1F
100
AcDbEntity
  8
実線
100
AcDbLine
 10
552.3250777097675
 20
647.1024939224247
 30
0.0
 11
560.262148885681
 21
635.7671815431735
 31
0.0
  0
ARC
  5
61A
102
{ACAD_REACTORS
330
C6A
102
}
330
1F
100
AcDbEntity
  8
実線
100
AcDbCircle
 10
560.5165981526575
 20
564.8961048004118
 30
0.0
 40
10.00000000000001
100
AcDbArc
 50
145.0000000000025
 51
223.3968902048163
  0
LINE
  5
61B
102
{ACAD_REACTORS
330
C6A
102
}
330
1F
100
AcDbEntity
  8
実線
100
AcDbLine
 10
639.5197637447132
 20
558.1884044701666
 30
0.0
 11
645.2550761239642
 21
554.1724955082277
 31
0.0
  0
ARC
  5
61C
102
{ACAD_REACTORS
330
C6A
102
}
330
1F
100
AcDbEntity
  8
実線
100
AcDbCircle
 10
650.9908404874749
 20
562.3640159511174
 30
0.0
 40
10.00000000000003
100
AcDbArc
 50
235.0000000000027
 51
313.3968902048164
  0
ARC
  5
61D
102
{ACAD_REACTORS
330
C6A
102
}
330
1F
100
AcDbEntity
  8
実線
100
AcDbCircle
 10
607.0197637447132
 20
608.8671815431735
 30
0.0
 40
73.99999999999984
100
AcDbArc
 50
313.3968902048164
 51
316.0089020572765
  0
LINE
  5
61E
102
{ACAD_REACTORS
330
C6A
102
}
330
1F
100
AcDbEntity
  8
実線
100
AcDbLine
 10
560.262148885681
 20
581.9671815431735
 30
0.0
 11
552.3250777097675
 21
570.6318691639223
 31
0.0
  0
LINE
  5
61F
102
{ACAD_REACTORS
330
C6A
102
}
330
1F
100
AcDbEntity
  8
実線
100
AcDbLine
 10
568.7844513654622
 20
554.1724955082277
 30
0.0
 11
584.6415204575703
 21
565.2757348204339
 31
0.0
  0
LINE
  5
620
102
{ACAD_REACTORS
330
C6A
102
}
330
1F
100
AcDbEntity
  8
実線
100
AcDbLine
 10
756.7197637447133
 20
617.8671815431735
 30
0.0
 11
739.7410442221041
 21
617.8671815431735
 31
0.0
  0
LINE
  5
621
102
{ACAD_REACTORS
330
C6A
102
}
330
1F
100
AcDbEntity
  8
実線
100
AcDbLine
 10
709.5197637447133
 20
564.0671815431734
 30
0.0
 11
756.7197637447133
 21
564.0671815431734
 31
0.0
  0
LINE
  5
622
102
{ACAD_REACTORS
330
C6A
102
}
330
1F
100
AcDbEntity
  8
実線
100
AcDbLine
 10
756.7197637447133
 20
564.0671815431734
 30
0.0
 11
759.1197637447132
 21
558.9671815431735
 31
0.0
  0
LINE
  5
623
102
{ACAD_REACTORS
330
C6A
102
}
330
1F
100
AcDbEntity
  8
実線
100
AcDbLine
 10
759.1197637447132
 20
622.9671815431735
 30
0.0
 11
756.7197637447133
 21
617.8671815431735
 31
0.0
  0
LINE
  5
624
102
{ACAD_REACTORS
330
C6A
102
}
330
1F
100
AcDbEntity
  8
実線
100
AcDbLine
 10
756.7197637447133
 20
564.0671815431734
 30
0.0
 11
756.7197637447133
 21
617.8671815431735
 31
0.0
  0
LINE
  5
625
102
{ACAD_REACTORS
330
C6A
102
}
330
1F
100
AcDbEntity
  8
実線
100
AcDbLine
 10
762.0197637447132
 20
622.9671815431735
 30
0.0
 11
759.1197637447132
 21
622.9671815431735
 31
0.0
  0
LINE
  5
626
102
{ACAD_REACTORS
330
C6A
102
}
330
1F
100
AcDbEntity
  8
実線
100
AcDbLine
 10
759.1197637447132
 20
558.9671815431735
 30
0.0
 11
762.0197637447132
 21
558.9671815431735
 31
0.0
  0
LINE
  5
627
102
{ACAD_REACTORS
330
C6A
102
}
330
1F
100
AcDbEntity
  8
実線
100
AcDbLine
 10
762.0197637447132
 20
622.9671815431735
 30
0.0
 11
762.0197637447132
 21
558.9671815431735
 31
0.0
  0
LINE
  5
628
102
{ACAD_REACTORS
330
C6A
102
}
330
1F
100
AcDbEntity
  8
実線
100
AcDbLine
 10
759.1197637447132
 20
622.9671815431735
 30
0.0
 11
759.1197637447132
 21
558.9671815431735
 31
0.0
  0
LINE
  5
629
102
{ACAD_REACTORS
330
C6A
102
}
330
1F
100
AcDbEntity
  8
実線
100
AcDbLine
 10
525.3197637447133
 20
581.9671815431735
 30
0.0
 11
602.7681543248871
 21
581.9671815431735
 31
0.0
  0
LINE
  5
62A
102
{ACAD_REACTORS
330
C6A
102
}
330
1F
100
AcDbEntity
  8
実線
100
AcDbLine
 10
579.5826100616432
 20
635.7671815431735
 30
0.0
 11
525.3197637447133
 21
635.7671815431735
 31
0.0
  0
LINE
  5
62B
102
{ACAD_REACTORS
330
C6A
102
}
330
1F
100
AcDbEntity
  8
実線
100
AcDbLine
 10
520.0197637447132
 20
640.8671815431735
 30
0.0
 11
520.0197637447132
 21
576.8671815431734
 31
0.0
  0
LINE
  5
62C
102
{ACAD_REACTORS
330
C6A
102
}
330
1F
100
AcDbEntity
  8
実線
100
AcDbLine
 10
520.0197637447132
 20
576.8671815431734
 30
0.0
 11
522.9197637447133
 21
576.8671815431734
 31
0.0
  0
LINE
  5
62D
102
{ACAD_REACTORS
330
C6A
102
}
330
1F
100
AcDbEntity
  8
実線
100
AcDbLine
 10
522.9197637447133
 20
640.8671815431735
 30
0.0
 11
520.0197637447132
 21
640.8671815431735
 31
0.0
  0
LINE
  5
62E
102
{ACAD_REACTORS
330
C6A
102
}
330
1F
100
AcDbEntity
  8
実線
100
AcDbLine
 10
522.9197637447133
 20
640.8671815431735
 30
0.0
 11
522.9197637447133
 21
576.8671815431734
 31
0.0
  0
LINE
  5
62F
102
{ACAD_REACTORS
330
C6A
102
}
330
1F
100
AcDbEntity
  8
実線
100
AcDbLine
 10
525.3197637447133
 20
635.7671815431735
 30
0.0
 11
525.3197637447133
 21
581.9671815431735
 31
0.0
  0
LINE
  5
630
102
{ACAD_REACTORS
330
C6A
102
}
330
1F
100
AcDbEntity
  8
実線
100
AcDbLine
 10
525.3197637447133
 20
635.7671815431735
 30
0.0
 11
522.9197637447133
 21
640.8671815431735
 31
0.0
  0
LINE
  5
631
102
{ACAD_REACTORS
330
C6A
102
}
330
1F
100
AcDbEntity
  8
実線
100
AcDbLine
 10
522.9197637447133
 20
576.8671815431734
 30
0.0
 11
525.3197637447133
 21
581.9671815431735
 31
0.0
  0
LINE
  5
632
102
{ACAD_REACTORS
330
C6A
102
}
330
1F
100
AcDbEntity
  8
実線
100
AcDbLine
 10
614.5197637447132
 20
548.8671815431735
 30
0.0
 11
614.5197637447132
 21
572.0343794204475
 31
0.0
  0
LINE
  5
633
102
{ACAD_REACTORS
330
C6A
102
}
330
1F
100
AcDbEntity
  8
実線
100
AcDbLine
 10
614.5197637447132
 20
548.8671815431735
 30
0.0
 11
639.5197637447132
 21
548.8671815431735
 31
0.0
  0
LINE
  5
634
102
{ACAD_REACTORS
330
C6A
102
}
330
1F
100
AcDbEntity
  8
実線
100
AcDbLine
 10
639.5197637447132
 20
548.8671815431735
 30
0.0
 11
639.5197637447132
 21
560.3542055150394
 31
0.0
  0
ARC
  5
635
102
{ACAD_REACTORS
330
C6A
102
}
330
1F
100
AcDbEntity
  8
実線
100
AcDbCircle
 10
607.0197637447132
 20
608.8671815431735
 30
0.0
 40
62.5
100
AcDbArc
 50
205.492947822752
 51
213.5334340052859
  0
ARC
  5
636
102
{ACAD_REACTORS
330
C6A
102
}
330
1F
100
AcDbEntity
  8
実線
100
AcDbCircle
 10
607.0197637447132
 20
608.8671815431735
 30
0.0
 40
62.5
100
AcDbArc
 50
236.4665659947143
 51
286.2602047083103
  0
ARC
  5
637
102
{ACAD_REACTORS
330
C6A
102
}
330
1F
100
AcDbEntity
  8
実線
100
AcDbCircle
 10
607.0197637447132
 20
608.8671815431735
 30
0.0
 40
62.5
100
AcDbArc
 50
301.3322514975931
 51
303.5334340052856
  0
ARC
  5
638
102
{ACAD_REACTORS
330
C6A
102
}
330
1F
100
AcDbEntity
  8
実線
100
AcDbCircle
 10
607.0197637447132
 20
608.8671815431735
 30
0.0
 40
62.5
100
AcDbArc
 50
111.0569372458457
 51
123.5334340052856
  0
ARC
  5
639
102
{ACAD_REACTORS
330
C6A
102
}
330
1F
100
AcDbEntity
  8
実線
100
AcDbCircle
 10
607.0197637447132
 20
608.8671815431735
 30
0.0
 40
62.5
100
AcDbArc
 50
146.466565994714
 51
154.507052177248
  0
LINE
  5
63A
102
{ACAD_REACTORS
330
C6A
102
}
330
1F
100
AcDbEntity
  8
実線
100
AcDbLine
 10
780.2515544166718
 20
675.9789376911696
 30
0.0
 11
776.1473126967643
 21
687.2552491406006
 31
0.0
  0
LINE
  5
63B
102
{ACAD_REACTORS
330
C6A
102
}
330
1F
100
AcDbEntity
  8
実線
100
AcDbLine
 10
776.1473126967643
 20
687.2552491406006
 30
0.0
 11
735.3447700314213
 21
672.404338128039
 31
0.0
  0
LINE
  5
63C
102
{ACAD_REACTORS
330
C6A
102
}
330
1F
100
AcDbEntity
  8
実線
100
AcDbLine
 10
739.4490117513294
 20
661.1280266786081
 30
0.0
 11
780.2515544166718
 21
675.9789376911696
 31
0.0
  0
CIRCLE
  5
63D
102
{ACAD_REACTORS
330
C6A
102
}
330
1F
100
AcDbEntity
  8
実線
100
AcDbCircle
 10
630.5912488993831
 20
704.2213422098122
 30
0.0
 40
9.0
  0
CIRCLE
  5
63E
102
{ACAD_REACTORS
330
C6A
102
}
330
1F
100
AcDbEntity
  8
実線
100
AcDbCircle
 10
630.5912488993831
 20
704.2213422098122
 30
0.0
 40
7.25
  0
CIRCLE
  5
63F
102
{ACAD_REACTORS
330
C6A
102
}
330
1F
100
AcDbEntity
  8
実線
100
AcDbCircle
 10
589.2937454821078
 20
645.2423950210049
 30
0.0
 40
9.0
  0
CIRCLE
  5
640
102
{ACAD_REACTORS
330
C6A
102
}
330
1F
100
AcDbEntity
  8
実線
100
AcDbCircle
 10
702.3172671619889
 20
697.946128731981
 30
0.0
 40
9.0
  0
CIRCLE
  5
641
102
{ACAD_REACTORS
330
C6A
102
}
330
1F
100
AcDbEntity
  8
実線
100
AcDbCircle
 10
732.7457820073188
 20
632.691968065342
 30
0.0
 40
9.0
  0
CIRCLE
  5
642
102
{ACAD_REACTORS
330
C6A
102
}
330
1F
100
AcDbEntity
  8
実線
100
AcDbCircle
 10
691.4482785900438
 20
573.7130208765346
 30
0.0
 40
9.0
  0
CIRCLE
  5
643
102
{ACAD_REACTORS
330
C6A
102
}
330
1F
100
AcDbEntity
  8
実線
100
AcDbCircle
 10
619.7222603274382
 20
579.9882343543661
 30
0.0
 40
9.0
  0
CIRCLE
  5
644
102
{ACAD_REACTORS
330
C6A
102
}
330
1F
100
AcDbEntity
  8
実線
100
AcDbCircle
 10
589.2937454821078
 20
645.2423950210048
 30
0.0
 40
7.25
  0
CIRCLE
  5
645
102
{ACAD_REACTORS
330
C6A
102
}
330
1F
100
AcDbEntity
  8
実線
100
AcDbCircle
 10
702.3172671619889
 20
697.946128731981
 30
0.0
 40
7.25
  0
ARC
  5
646
102
{ACAD_REACTORS
330
C6A
102
}
330
1F
100
AcDbEntity
  8
実線
100
AcDbCircle
 10
607.0197637447132
 20
608.8671815431735
 30
0.0
 40
50.0
100
AcDbArc
 50
242.2225404895804
 51
278.6269265586773
  0
CIRCLE
  5
649
102
{ACAD_REACTORS
330
C6A
102
}
330
1F
100
AcDbEntity
  8
実線
100
AcDbCircle
 10
661.0197637447135
 20
638.9671815431735
 30
0.0
 40
52.5
  0
CIRCLE
  5
64A
102
{ACAD_REACTORS
330
C6A
102
}
330
1F
100
AcDbEntity
  8
実線
100
AcDbCircle
 10
661.0197637447135
 20
638.9671815431735
 30
0.0
 40
81.5
  0
LINE
  5
64B
102
{ACAD_REACTORS
330
C6A
102
}
330
1F
100
AcDbEntity
  8
実線
100
AcDbLine
 10
693.5197637447132
 20
713.7067293073926
 30
0.0
 11
693.5197637447132
 21
721.4671815431735
 31
0.0
  0
LINE
  5
64C
102
{ACAD_REACTORS
330
C6A
102
}
330
1F
100
AcDbEntity
  8
実線
100
AcDbLine
 10
628.5197637447132
 20
713.7067293073926
 30
0.0
 11
628.5197637447132
 21
721.4671815431735
 31
0.0
  0
LINE
  5
64D
102
{ACAD_REACTORS
330
C6A
102
}
330
1F
100
AcDbEntity
  8
実線
100
AcDbLine
 10
693.5197637447132
 20
721.4671815431735
 30
0.0
 11
628.5197637447132
 21
721.4671815431735
 31
0.0
  0
LINE
  5
64E
102
{ACAD_REACTORS
330
C6A
102
}
330
1F
100
AcDbEntity
  8
実線
100
AcDbLine
 10
709.5197637447133
 20
548.8671815431735
 30
0.0
 11
709.5197637447133
 21
573.469089967922
 31
0.0
  0
LINE
  5
64F
102
{ACAD_REACTORS
330
C6A
102
}
330
1F
100
AcDbEntity
  8
実線
100
AcDbLine
 10
684.5197637447133
 20
548.8671815431735
 30
0.0
 11
684.5197637447133
 21
560.9287294826668
 31
0.0
  0
LINE
  5
650
102
{ACAD_REACTORS
330
C6A
102
}
330
1F
100
AcDbEntity
  8
実線
100
AcDbLine
 10
684.5197637447133
 20
548.8671815431735
 30
0.0
 11
709.5197637447133
 21
548.8671815431735
 31
0.0
  0
ARC
  5
651
102
{ACAD_REACTORS
330
C6A
102
}
330
1F
100
AcDbEntity
  8
実線
100
AcDbCircle
 10
607.0197637447132
 20
608.8671815431735
 30
0.0
 40
48.99999999999996
100
AcDbArc
 50
213.2970368356885
 51
278.8043709041394
  0
ARC
  5
652
102
{ACAD_REACTORS
330
C6A
102
}
330
1F
100
AcDbEntity
  8
実線
100
AcDbCircle
 10
607.0197637447132
 20
608.8671815431735
 30
0.0
 40
48.99999999999996
100
AcDbArc
 50
123.1035178253905
 51
146.7029631643115
  0
LINE
  5
B61
102
{ACAD_REACTORS
330
C6B
102
}
330
1F
100
AcDbEntity
  8
中心線
100
AcDbLine
 10
518.0197637447133
 20
368.8671815431734
 30
0.0
 11
672.0197637447133
 21
368.8671815431735
 31
0.0
  0
LINE
  5
B62
102
{ACAD_REACTORS
330
C6B
102
}
330
1F
100
AcDbEntity
  8
中心線
100
AcDbLine
 10
607.0197637447132
 20
21.93892693017529
 30
0.0
 11
607.0197637447132
 21
403.8671815431733
 31
0.0
  0
LINE
  5
B63
102
{ACAD_REACTORS
330
C6B
102
}
330
1F
100
AcDbEntity
  8
中心線
100
AcDbLine
 10
607.0197637447132
 20
318.3671815431733
 30
0.0
 11
764.0197637447132
 21
318.3671815431733
 31
0.0
  0
LINE
  5
B64
102
{ACAD_REACTORS
330
C6C
102
}
330
1F
100
AcDbEntity
  8
中心線
100
AcDbLine
 10
951.5197637447133
 20
625.9671815431734
 30
0.0
 11
951.5197637447133
 21
555.9671815431734
 31
0.0
  0
LINE
  5
B65
102
{ACAD_REACTORS
330
C6C
102
}
330
1F
100
AcDbEntity
  8
中心線
100
AcDbLine
 10
916.5197637447134
 20
590.9671815431736
 30
0.0
 11
986.5197637447133
 21
590.9671815431736
 31
0.0
  0
LINE
  5
B66
102
{ACAD_REACTORS
330
C6A
102
}
330
1F
100
AcDbEntity
  8
中心線
100
AcDbLine
 10
661.0197637447133
 20
723.9671815431734
 30
0.0
 11
661.0197637447133
 21
553.9671815431735
 31
0.0
  0
LINE
  5
B67
102
{ACAD_REACTORS
330
C6A
102
}
330
1F
100
AcDbEntity
  8
中心線
100
AcDbLine
 10
576.0197637447133
 20
638.9671815431735
 30
0.0
 11
746.0197637447134
 21
638.9671815431735
 31
0.0
  0
LINE
  5
B68
102
{ACAD_REACTORS
330
C69
102
}
330
1F
100
AcDbEntity
  8
中心線
100
AcDbLine
 10
518.0197637447133
 20
848.8671815431734
 30
0.0
 11
672.0197637447131
 21
848.8671815431732
 31
0.0
  0
LINE
  5
B69
102
{ACAD_REACTORS
330
C69
102
}
330
1F
100
AcDbEntity
  8
中心線
100
AcDbLine
 10
607.0197637447132
 20
813.8671815431733
 30
0.0
 11
607.0197637447132
 21
1195.44097365053
 31
0.0
  0
LINE
  5
B6A
102
{ACAD_REACTORS
330
C69
102
}
330
1F
100
AcDbEntity
  8
中心線
100
AcDbLine
 10
607.0197637447133
 20
899.3671815431742
 30
0.0
 11
764.0197637447132
 21
899.3671815431742
 31
0.0
  0
LINE
  5
B6B
102
{ACAD_REACTORS
330
C68
102
}
330
1F
100
AcDbEntity
  8
中心線
100
AcDbLine
 10
367.0197637447133
 20
643.8671815431733
 30
0.0
 11
367.0197637447133
 21
573.8671815431733
 31
0.0
  0
LINE
  5
B6C
102
{ACAD_REACTORS
330
C68
102
}
330
1F
100
AcDbEntity
  8
中心線
100
AcDbLine
 10
21.0368015665025
 20
608.8671815431734
 30
0.0
 11
402.0197637447132
 21
608.8671815431732
 31
0.0
  0
LINE
  5
B6D
102
{ACAD_REACTORS
330
C6C
102
}
330
1F
100
AcDbEntity
  8
中心線
100
AcDbLine
 10
866.0197637447133
 20
608.8671815431735
 30
0.0
 11
1246.591862609363
 21
608.8671815431735
 31
0.0
  0
LINE
  5
B6E
102
{ACAD_REACTORS
330
C6A
102
}
330
1F
100
AcDbEntity
  8
中心線
100
AcDbLine
 10
607.0197637447131
 20
590.9671815431734
 30
0.0
 11
764.0197637447132
 21
590.9671815431734
 31
0.0
  0
LINE
  5
B6F
102
{ACAD_REACTORS
330
C6A
102
}
330
1F
100
AcDbEntity
  8
中心線
100
AcDbLine
 10
518.0197637447133
 20
608.8671815431735
 30
0.0
 11
672.0197637447133
 21
608.8671815431735
 31
0.0
  0
LINE
  5
B70
102
{ACAD_REACTORS
330
C6D
102
}
330
1F
100
AcDbEntity
  8
中心線
100
AcDbLine
 10
1495.019763744713
 20
673.8671815431735
 30
0.0
 11
1495.019763744713
 21
543.8671815431734
 31
0.0
  0
LINE
  5
B71
102
{ACAD_REACTORS
330
C6D
102
}
330
1F
100
AcDbEntity
  8
中心線
100
AcDbLine
 10
1430.019763744713
 20
608.8671815431735
 30
0.0
 11
1584.019763744714
 21
608.8671815431735
 31
0.0
  0
LINE
  5
B72
102
{ACAD_REACTORS
330
C6D
102
}
330
1F
100
AcDbEntity
  8
中心線
100
AcDbLine
 10
1338.019763744713
 20
590.9671815431734
 30
0.0
 11
1495.019763744713
 21
590.9671815431736
 31
0.0
  0
LINE
  5
BC5
102
{ACAD_REACTORS
330
C6D
102
}
330
1F
100
AcDbEntity
  8
中心線
100
AcDbLine
 10
1356.019763744713
 20
638.9671815431735
 30
0.0
 11
1526.019763744713
 21
638.9671815431735
 31
0.0
  0
LINE
  5
BCC
102
{ACAD_REACTORS
330
C6C
102
}
330
1F
100
AcDbEntity
  8
中心線
100
AcDbLine
 10
830.2197637447132
 20
638.9671815431735
 30
0.0
 11
951.5197637447133
 21
638.9671815431735
 31
0.0
  0
LINE
  5
BCD
102
{ACAD_REACTORS
330
C6C
102
}
330
1F
100
AcDbEntity
  8
中心線
100
AcDbLine
 10
901.0197637447133
 20
643.8671815431734
 30
0.0
 11
901.0197637447133
 21
573.8671815431735
 31
0.0
  0
LINE
  5
BCE
102
{ACAD_REACTORS
330
C68
102
}
330
1F
100
AcDbEntity
  8
中心線
100
AcDbLine
 10
316.5197637447132
 20
625.9671815431734
 30
0.0
 11
316.5197637447132
 21
555.9671815431734
 31
0.0
  0
LINE
  5
BCF
102
{ACAD_REACTORS
330
C68
102
}
330
1F
100
AcDbEntity
  8
中心線
100
AcDbLine
 10
437.819763744713
 20
638.9671815431734
 30
0.0
 11
316.5197637447132
 21
638.9671815431732
 31
0.0
  0
LINE
  5
BD0
102
{ACAD_REACTORS
330
C68
102
}
330
1F
100
AcDbEntity
  8
中心線
100
AcDbLine
 10
351.5197637447132
 20
590.9671815431734
 30
0.0
 11
281.5197637447133
 21
590.9671815431734
 31
0.0
  0
LINE
  5
BD1
102
{ACAD_REACTORS
330
C69
102
}
330
1F
100
AcDbEntity
  8
中心線
100
AcDbLine
 10
661.0197637447135
 20
778.067181543173
 30
0.0
 11
661.0197637447135
 21
899.3671815431742
 31
0.0
  0
LINE
  5
BD2
102
{ACAD_REACTORS
330
C6A
102
}
330
1F
100
AcDbEntity
  8
中心線
100
AcDbLine
 10
607.0197637447132
 20
673.8671815431735
 30
0.0
 11
607.0197637447132
 21
543.8671815431734
 31
0.0
  0
LINE
  5
BD3
102
{ACAD_REACTORS
330
C6B
102
}
330
1F
100
AcDbEntity
  8
中心線
100
AcDbLine
 10
661.0197637447136
 20
439.6671815431735
 30
0.0
 11
661.0197637447133
 21
318.3671815431733
 31
0.0
  0
LINE
  5
BD4
102
{ACAD_REACTORS
330
C6D
102
}
330
1F
100
AcDbEntity
  8
中心線
100
AcDbLine
 10
1441.019763744713
 20
723.9671815431734
 30
0.0
 11
1441.019763744713
 21
553.9671815431735
 31
0.0
  0
ENDSEC
  0
SECTION
  2
OBJECTS
  0
DICTIONARY
  5
C
330
0
100
AcDbDictionary
281
     1
  3
ACAD_CIP_PREVIOUS_PRODUCT_INFO
350
392
  3
ACAD_COLOR
350
388
  3
ACAD_DETAILVIEWSTYLE
350
38B
  3
ACAD_GROUP
350
D
  3
ACAD_LAYOUT
350
1A
  3
ACAD_MATERIAL
350
43
  3
ACAD_MLEADERSTYLE
350
5B
  3
ACAD_MLINESTYLE
350
17
  3
ACAD_PLOTSETTINGS
350
19
  3
ACAD_PLOTSTYLENAME
350
E
  3
ACAD_SCALELIST
350
47
  3
ACAD_SECTIONVIEWSTYLE
350
389
  3
ACAD_TABLESTYLE
350
59
  3
ACAD_VISUALSTYLE
350
2A
  3
ACDB_RECOMPOSE_DATA
350
C78
  3
AcDbVariableDictionary
350
33D
  3
DWGPROPS
350
C79
  0
DICTIONARY
  5
659
330
2
100
AcDbDictionary
280
     1
281
     1
  3
ACAD_LAYERSTATES
360
65A
  0
DICTIONARY
  5
B80
330
10
100
AcDbDictionary
280
     1
281
     1
  3
ADSK_XREC_LAYER_RECONCILED
360
B81
  0
DICTIONARY
  5
655
330
654
100
AcDbDictionary
280
     1
281
     1
  3
ADSK_XREC_LAYER_RECONCILED
360
B82
  0
DICTIONARY
  5
657
330
656
100
AcDbDictionary
280
     1
281
     1
  3
ADSK_XREC_LAYER_RECONCILED
360
B83
  0
DICTIONARY
  5
429
330
1F
100
AcDbDictionary
280
     1
281
     1
  3
ACAD_SORTENTS
360
42A
  0
XRECORD
  5
392
102
{ACAD_REACTORS
330
C
102
}
330
C
100
AcDbXrecord
280
     1
300
ACDLT
300
2016
300
ACDLT_F_S
  0
DICTIONARY
  5
388
102
{ACAD_REACTORS
330
C
102
}
330
C
100
AcDbDictionary
281
     1
  0
DICTIONARY
  5
38B
102
{ACAD_REACTORS
330
C
102
}
330
C
100
AcDbDictionary
281
     1
  3
Metric50
350
38C
  0
DICTIONARY
  5
D
102
{ACAD_REACTORS
330
C
102
}
330
C
100
AcDbDictionary
281
     1
  3
*A10
350
C6B
  3
*A11
350
C6C
  3
*A12
350
C6D
  3
*A7
350
C68
  3
*A8
350
C69
  3
*A9
350
C6A
  0
DICTIONARY
  5
1A
102
{ACAD_REACTORS
330
C
102
}
330
C
100
AcDbDictionary
281
     1
  3
Layout1
350
1E
  3
Model
350
22
  3
レイアウト1
350
38D
  0
DICTIONARY
  5
43
102
{ACAD_REACTORS
330
C
102
}
330
C
100
AcDbDictionary
281
     1
  3
ByBlock
350
45
  3
ByLayer
350
44
  3
Global
350
46
  0
DICTIONARY
  5
5B
102
{ACAD_REACTORS
330
C
102
}
330
C
100
AcDbDictionary
281
     1
  3
Standard
350
5C
  0
DICTIONARY
  5
17
102
{ACAD_REACTORS
330
C
102
}
330
C
100
AcDbDictionary
281
     1
  3
Standard
350
18
  0
DICTIONARY
  5
19
102
{ACAD_REACTORS
330
C
102
}
330
C
100
AcDbDictionary
281
     1
  0
ACDBDICTIONARYWDFLT
  5
E
102
{ACAD_REACTORS
330
C
102
}
330
C
100
AcDbDictionary
281
     1
  3
Normal
350
F
100
AcDbDictionaryWithDefault
340
F
  0
DICTIONARY
  5
47
102
{ACAD_REACTORS
330
C
102
}
330
C
100
AcDbDictionary
281
     1
  3
A0
350
48
  3
A1
350
49
  3
A2
350
4A
  3
A3
350
4B
  3
A4
350
4C
  3
A5
350
4D
  3
A6
350
4E
  3
A7
350
4F
  3
A8
350
50
  3
A9
350
51
  3
B0
350
52
  3
B1
350
53
  3
B2
350
54
  3
B3
350
55
  3
B4
350
56
  3
B5
350
57
  3
B6
350
58
  0
DICTIONARY
  5
389
102
{ACAD_REACTORS
330
C
102
}
330
C
100
AcDbDictionary
281
     1
  3
Metric50
350
38A
  0
DICTIONARY
  5
59
102
{ACAD_REACTORS
330
C
102
}
330
C
100
AcDbDictionary
281
     1
  3
Standard
350
5A
  0
DICTIONARY
  5
2A
102
{ACAD_REACTORS
330
C
102
}
330
C
100
AcDbDictionary
281
     1
  3
2dWireframe
350
2F
  3
Basic
350
32
  3
Brighten
350
36
  3
ColorChange
350
3A
  3
Conceptual
350
34
  3
Dim
350
35
  3
EdgeColorOff
350
3D
  3
Facepattern
350
39
  3
Flat
350
2B
  3
FlatWithEdges
350
2C
  3
Gouraud
350
2D
  3
GouraudWithEdges
350
2E
  3
Hidden
350
31
  3
JitterOff
350
3B
  3
Linepattern
350
38
  3
OverhangOff
350
3C
  3
Realistic
350
33
  3
Shaded
350
42
  3
Shaded with edges
350
41
  3
Shades of Gray
350
3E
  3
Sketchy
350
3F
  3
Thicken
350
37
  3
Wireframe
350
30
  3
X-Ray
350
40
  0
XRECORD
  5
C78
102
{ACAD_REACTORS
330
C
102
}
330
C
100
AcDbXrecord
280
     1
 90
        1
330
5A
  0
DICTIONARY
  5
33D
102
{ACAD_REACTORS
330
C
102
}
330
C
100
AcDbDictionary
281
     1
  3
CANNOSCALE
350
34B
  3
CENTEREXE
350
344
  3
CENTERLTYPEFILE
350
345
  3
CMLEADERSTYLE
350
33F
  3
CTABLESTYLE
350
33E
  3
CVIEWDETAILSTYLE
350
B84
  3
CVIEWSECTIONSTYLE
350
B85
  3
DIMASSOC
350
346
  3
HIDETEXT
350
347
  3
INDEXCTL
350
BE2
  3
LAYEREVAL
350
B87
  3
LAYERNOTIFY
350
B88
  3
LIGHTINGUNITS
350
B86
  3
LOFTANG1
350
BE5
  3
LOFTANG2
350
BE6
  3
LONGITUDE
350
BE7
  3
MSLTSCALE
350
34C
  3
PSOLHEIGHT
350
BE4
  3
PSOLWIDTH
350
BE3
  3
SORTENTS
350
BE1
  3
XCLIPFRAME
350
BE8
  0
XRECORD
  5
C79
102
{ACAD_REACTORS
330
C
102
}
330
C
100
AcDbXrecord
280
     1
  1
DWGPROPS COOKIE
  2

  3

  4

  6
File was created by TR2_DExp
  7

  8
fujino
  9

300
=
301
=
302
=
303
=
304
=
305
=
306
=
307
=
308
=
309
=
 40
0.0218863310185185
 41
2455188.75
 42
2459753.344280509
  1

 90
        0
  0
DICTIONARY
  5
65A
102
{ACAD_REACTORS
330
659
102
}
330
659
100
AcDbDictionary
281
     1
  0
XRECORD
  5
B81
102
{ACAD_REACTORS
330
B80
102
}
330
B80
100
AcDbXrecord
280
     1
290
     1
  0
XRECORD
  5
B82
102
{ACAD_REACTORS
330
655
102
}
330
655
100
AcDbXrecord
280
     1
290
     1
  0
XRECORD
  5
B83
102
{ACAD_REACTORS
330
657
102
}
330
657
100
AcDbXrecord
280
     1
290
     1
  0
SORTENTSTABLE
  5
42A
102
{ACAD_REACTORS
330
429
102
}
330
429
100
AcDbSortentsTable
330
1F
331
5EF
  5
42E
331
62E
  5
3B1
331
B6D
  5
B71
331
62A
  5
3AD
331
575
  5
4AD
331
5B4
  5
3F1
331
5EB
  5
428
331
B69
  5
B6C
331
5E7
  5
424
331
626
  5
3A9
331
571
  5
4A9
331
5B0
  5
3ED
331
4FF
  5
511
331
53E
  5
476
331
5E3
  5
420
331
622
  5
3A5
331
3DE
  5
60A
331
42C
  5
52A
331
4FB
  5
50D
331
53A
  5
472
331
56D
  5
4A5
331
5AC
  5
3E9
331
5A8
  5
3E5
331
428
  5
B62
331
4F7
  5
509
331
3DA
  5
606
331
536
  5
46E
331
40D
  5
639
331
487
  5
585
331
4C6
  5
4D6
331
454
  5
552
331
569
  5
4A1
331
3D6
  5
602
331
4F3
  5
505
331
409
  5
635
331
450
  5
54E
331
532
  5
46A
331
483
  5
581
331
4C2
  5
4D2
331
3D2
  5
5FE
331
4BE
  5
5BC
331
44C
  5
54A
331
BC5
  5
BD0
331
4BA
  5
5B8
331
448
  5
546
331
61E
  5
3A1
331
61A
  5
39D
331
5A4
  5
3E1
331
B65
  5
B68
331
616
  5
399
331
5A0
  5
3DD
331
52E
  5
466
331
5DF
  5
41C
331
B61
  5
B63
331
5DB
  5
418
331
612
  5
395
331
3CE
  5
5FA
331
52A
  5
462
331
59C
  5
3D9
331
598
  5
4D0
331
3CA
  5
5F6
331
39F
  5
5CB
331
4B6
  5
5B4
331
444
  5
542
331
526
  5
45E
331
565
  5
49D
331
405
  5
631
331
39B
  5
5C7
331
3C6
  5
5F2
331
522
  5
45A
331
4B2
  5
5B0
331
440
  5
53E
331
47F
  5
57D
331
561
  5
499
331
B70
  5
BCC
331
401
  5
62D
331
3C2
  5
5EE
331
43C
  5
53A
331
4AE
  5
5AC
331
4ED
  5
4FF
331
47B
  5
579
331
438
  5
536
331
4AA
  5
5A8
331
4E9
  5
4FB
331
64D
  5
3D0
331
5D7
  5
414
331
60E
  5
44D
331
649
  5
3CC
331
594
  5
4CC
331
5D3
  5
410
331
60A
  5
449
331
606
  5
445
331
645
  5
3C8
331
55D
  5
495
331
590
  5
4C8
331
397
  5
5C3
331
51E
  5
456
331
5CF
  5
40C
331
5CB
  5
408
331
602
  5
441
331
641
  5
3C4
331
3FD
  5
629
331
393
  5
5BF
331
3BE
  5
5EA
331
51A
  5
452
331
559
  5
491
331
477
  5
575
331
58C
  5
4C4
331
588
  5
4C0
331
3F9
  5
625
331
516
  5
528
331
3BA
  5
5E6
331
434
  5
532
331
473
  5
571
331
555
  5
48D
331
4A6
  5
5A4
331
4E5
  5
4F7
331
3F5
  5
621
331
512
  5
524
331
3B6
  5
5E2
331
430
  5
52E
331
4A2
  5
5A0
331
4E1
  5
4F3
331
46F
  5
56D
331
551
  5
489
331
3F1
  5
61D
331
3B2
  5
5DE
331
424
  5
650
331
46B
  5
569
331
49E
  5
59C
331
4DD
  5
4EF
331
420
  5
64C
331
49A
  5
598
331
4D9
  5
4EB
331
BD1
  5
BD4
331
BCD
  5
B67
331
5C7
  5
404
331
5FE
  5
43D
331
63D
  5
3C0
331
639
  5
3BC
331
584
  5
4BC
331
5C3
  5
400
331
5FA
  5
439
331
5F6
  5
435
331
635
  5
3B8
331
50E
  5
520
331
54D
  5
485
331
580
  5
4B8
331
5BF
  5
3FC
331
5BB
  5
3F8
331
5F2
  5
431
331
631
  5
3B4
331
3ED
  5
619
331
50A
  5
51C
331
3AE
  5
5DA
331
467
  5
565
331
549
  5
481
331
57C
  5
4B4
331
578
  5
4B0
331
506
  5
518
331
545
  5
47D
331
3E9
  5
615
331
3AA
  5
5D6
331
41C
  5
648
331
463
  5
561
331
496
  5
594
331
4D5
  5
4E7
331
650
  5
3D3
331
3E5
  5
611
331
502
  5
514
331
3A6
  5
5D2
331
418
  5
644
331
45F
  5
55D
331
492
  5
590
331
4D1
  5
4E2
331
541
  5
479
331
3E1
  5
60D
331
3A2
  5
5CE
331
414
  5
640
331
45B
  5
559
331
48E
  5
58C
331
4CD
  5
4DE
331
410
  5
63C
331
48A
  5
588
331
4C9
  5
4DA
331
5B7
  5
3F4
331
5EE
  5
42D
331
62D
  5
3B0
331
B6C
  5
B70
331
629
  5
3AC
331
574
  5
4AC
331
5B3
  5
3F0
331
5EA
  5
427
331
B68
  5
B6B
331
5E6
  5
423
331
625
  5
3A8
331
42F
  5
52D
331
4FE
  5
510
331
53D
  5
475
331
570
  5
4A8
331
5AF
  5
3EC
331
5AB
  5
3E8
331
5E2
  5
41F
331
621
  5
3A4
331
3DD
  5
609
331
42B
  5
529
331
4FA
  5
50C
331
457
  5
555
331
539
  5
471
331
56C
  5
4A4
331
3D9
  5
605
331
4F6
  5
508
331
40C
  5
638
331
453
  5
551
331
535
  5
46D
331
486
  5
584
331
4C5
  5
4D5
331
568
  5
4A0
331
3D5
  5
601
331
4F2
  5
504
331
408
  5
634
331
44F
  5
54D
331
531
  5
469
331
482
  5
580
331
4C1
  5
4D1
331
3D1
  5
5FD
331
4BD
  5
5BB
331
44B
  5
549
331
4B9
  5
5B7
331
5A7
  5
3E4
331
61D
  5
3A0
331
619
  5
39C
331
5A3
  5
3E0
331
B64
  5
B66
331
5DE
  5
41B
331
615
  5
398
331
59F
  5
3DC
331
52D
  5
465
331
5DA
  5
417
331
611
  5
394
331
3CD
  5
5F9
331
447
  5
545
331
529
  5
461
331
59B
  5
3D8
331
3C9
  5
5F5
331
39E
  5
5CA
331
4B5
  5
5B3
331
443
  5
541
331
525
  5
45D
331
564
  5
49C
331
404
  5
630
331
39A
  5
5C6
331
3C5
  5
5F1
331
521
  5
459
331
4B1
  5
5AF
331
43F
  5
53D
331
47E
  5
57C
331
560
  5
498
331
400
  5
62C
331
3C1
  5
5ED
331
47A
  5
578
331
4AD
  5
5AB
331
4EC
  5
4FE
331
43B
  5
539
331
4A9
  5
5A7
331
4E8
  5
4FA
331
64C
  5
3CF
331
597
  5
4CF
331
5D6
  5
413
331
60D
  5
44C
331
609
  5
448
331
593
  5
4CB
331
5D2
  5
40F
331
605
  5
444
331
644
  5
3C7
331
55C
  5
494
331
58F
  5
4C7
331
396
  5
5C2
331
51D
  5
455
331
5CE
  5
40B
331
5CA
  5
407
331
601
  5
440
331
640
  5
3C3
331
3FC
  5
628
331
3BD
  5
5E9
331
519
  5
451
331
476
  5
574
331
558
  5
490
331
58B
  5
4C3
331
437
  5
535
331
3F8
  5
624
331
515
  5
527
331
3B9
  5
5E5
331
433
  5
531
331
472
  5
570
331
554
  5
48C
331
4A5
  5
5A3
331
4E4
  5
4F6
331
3F4
  5
620
331
511
  5
523
331
3B5
  5
5E1
331
427
  5
B61
331
4A1
  5
59F
331
4E0
  5
4F2
331
46E
  5
56C
331
550
  5
488
331
3F0
  5
61C
331
3B1
  5
5DD
331
423
  5
64F
331
46A
  5
568
331
49D
  5
59B
331
4DC
  5
4EE
331
499
  5
597
331
4D8
  5
4EA
331
BD4
  5
BCD
331
BD0
  5
BD3
331
BCC
  5
BD1
331
63C
  5
3BF
331
587
  5
4BF
331
5C6
  5
403
331
5FD
  5
43C
331
638
  5
3BB
331
583
  5
4BB
331
5C2
  5
3FF
331
5F9
  5
438
331
5F5
  5
434
331
634
  5
3B7
331
50D
  5
51F
331
54C
  5
484
331
57F
  5
4B7
331
5BE
  5
3FB
331
5BA
  5
3F7
331
5F1
  5
430
331
630
  5
3B3
331
3EC
  5
618
331
509
  5
51B
331
3AD
  5
5D9
331
41F
  5
64B
331
466
  5
564
331
548
  5
480
331
57B
  5
4B3
331
3E8
  5
614
331
505
  5
517
331
3A9
  5
5D5
331
41B
  5
647
331
495
  5
593
331
4D4
  5
4E6
331
462
  5
560
331
544
  5
47C
331
3E4
  5
610
331
501
  5
513
331
3A5
  5
5D1
331
417
  5
643
331
45E
  5
55C
331
491
  5
58F
331
4D0
  5
4E1
331
540
  5
478
331
3E0
  5
60C
331
3A1
  5
5CD
331
413
  5
63F
331
45A
  5
558
331
48D
  5
58B
331
4CC
  5
4DD
331
489
  5
587
331
4C8
  5
4D8
331
B6F
  5
BC5
331
577
  5
4AF
331
5B6
  5
3F3
331
5ED
  5
42C
331
62C
  5
3AF
331
B6B
  5
B6E
331
628
  5
3AB
331
573
  5
4AB
331
5B2
  5
3EF
331
5E9
  5
426
331
5E5
  5
422
331
624
  5
3A7
331
42E
  5
52C
331
4FD
  5
50F
331
53C
  5
474
331
56F
  5
4A7
331
5AE
  5
3EB
331
5AA
  5
3E7
331
5E1
  5
41E
331
620
  5
3A3
331
3DC
  5
608
331
4F9
  5
50B
331
40F
  5
63B
331
456
  5
554
331
538
  5
470
331
56B
  5
4A3
331
3D8
  5
604
331
4F5
  5
507
331
40B
  5
637
331
452
  5
550
331
534
  5
46C
331
485
  5
583
331
4C4
  5
4D4
331
3D4
  5
600
331
4F1
  5
503
331
4C0
  5
5BE
331
44E
  5
54C
331
481
  5
57F
331
530
  5
468
331
3D0
  5
5FC
331
4BC
  5
5BA
331
44A
  5
548
331
4B8
  5
5B6
331
5A6
  5
3E3
331
61C
  5
39F
331
B67
  5
B6A
331
618
  5
39B
331
5A2
  5
3DF
331
B63
  5
B65
331
5DD
  5
41A
331
614
  5
397
331
52C
  5
464
331
59E
  5
3DB
331
59A
  5
3D7
331
5D9
  5
416
331
3CC
  5
5F8
331
446
  5
544
331
528
  5
460
331
567
  5
49F
331
610
  5
393
331
407
  5
633
331
39D
  5
5C9
331
3C8
  5
5F4
331
524
  5
45C
331
4B4
  5
5B2
331
442
  5
540
331
563
  5
49B
331
B72
  5
BCF
331
399
  5
5C5
331
403
  5
62F
331
3C4
  5
5F0
331
520
  5
458
331
43E
  5
53C
331
4B0
  5
5AE
331
4EF
  5
501
331
47D
  5
57B
331
3C0
  5
5EC
331
479
  5
577
331
43A
  5
538
331
4AC
  5
5AA
331
4EB
  5
4FD
331
4A8
  5
5A6
331
64F
  5
3D2
331
64B
  5
3CE
331
596
  5
4CE
331
5D5
  5
412
331
60C
  5
44B
331
608
  5
447
331
55F
  5
497
331
592
  5
4CA
331
5D1
  5
40E
331
5CD
  5
40A
331
604
  5
443
331
643
  5
3C6
331
55B
  5
493
331
58E
  5
4C6
331
3FF
  5
62B
331
395
  5
5C1
331
51C
  5
454
331
5C9
  5
406
331
600
  5
43F
331
3FB
  5
627
331
3BC
  5
5E8
331
518
  5
450
331
436
  5
534
331
475
  5
573
331
557
  5
48F
331
4E7
  5
4F9
331
58A
  5
4C2
331
3F7
  5
623
331
514
  5
526
331
3B8
  5
5E4
331
432
  5
530
331
471
  5
56F
331
553
  5
48B
331
4A4
  5
5A2
331
4E3
  5
4F5
331
3F3
  5
61F
331
510
  5
522
331
3B4
  5
5E0
331
426
  5
652
331
4A0
  5
59E
331
4DF
  5
4F1
331
46D
  5
56B
331
3B0
  5
5DC
331
422
  5
64E
331
469
  5
567
331
49C
  5
59A
331
4DB
  5
4ED
331
498
  5
596
331
BD3
  5
BD7
331
BCF
  5
BD2
331
63F
  5
3C2
331
63B
  5
3BE
331
586
  5
4BE
331
5C5
  5
402
331
5FC
  5
43B
331
5F8
  5
437
331
637
  5
3BA
331
582
  5
4BA
331
5C1
  5
3FE
331
54F
  5
487
331
5F4
  5
433
331
633
  5
3B6
331
3EF
  5
61B
331
50C
  5
51E
331
54B
  5
483
331
57E
  5
4B6
331
5BD
  5
3FA
331
5B9
  5
3F6
331
5F0
  5
42F
331
508
  5
51A
331
547
  5
47F
331
3EB
  5
617
331
3AC
  5
5D8
331
41E
  5
64A
331
465
  5
563
331
652
  5
3D5
331
57A
  5
4B2
331
4D7
  5
4E9
331
3E7
  5
613
331
504
  5
516
331
3A8
  5
5D4
331
41A
  5
646
331
461
  5
55F
331
543
  5
47B
331
494
  5
592
331
4D3
  5
4E4
331
3E3
  5
60F
331
500
  5
512
331
3A4
  5
5D0
331
416
  5
642
331
45D
  5
55B
331
490
  5
58E
331
4CF
  5
4E0
331
3A0
  5
5CC
331
412
  5
63E
331
459
  5
557
331
48C
  5
58A
331
4CB
  5
4DC
331
488
  5
586
331
62F
  5
3B2
331
B6E
  5
B72
331
62B
  5
3AE
331
576
  5
4AE
331
5B5
  5
3F2
331
5EC
  5
42B
331
B6A
  5
B6D
331
627
  5
3AA
331
572
  5
4AA
331
5B1
  5
3EE
331
53F
  5
477
331
5E8
  5
425
331
5E4
  5
421
331
623
  5
3A6
331
3DF
  5
60B
331
42D
  5
52B
331
4FC
  5
50E
331
53B
  5
473
331
56E
  5
4A6
331
5AD
  5
3EA
331
5A9
  5
3E6
331
5E0
  5
41D
331
3DB
  5
607
331
4F8
  5
50A
331
40E
  5
63A
331
455
  5
553
331
537
  5
46F
331
4C7
  5
4D7
331
56A
  5
4A2
331
3D7
  5
603
331
4F4
  5
506
331
40A
  5
636
331
451
  5
54F
331
533
  5
46B
331
484
  5
582
331
4C3
  5
4D3
331
3D3
  5
5FF
331
4F0
  5
502
331
4BF
  5
5BD
331
44D
  5
54B
331
480
  5
57E
331
4BB
  5
5B9
331
449
  5
547
331
61F
  5
3A2
331
5A5
  5
3E2
331
61B
  5
39E
331
B66
  5
B69
331
617
  5
39A
331
5A1
  5
3DE
331
52F
  5
467
331
B62
  5
B64
331
5DC
  5
419
331
613
  5
396
331
3CF
  5
5FB
331
52B
  5
463
331
59D
  5
3DA
331
599
  5
3D6
331
5D8
  5
415
331
3CB
  5
5F7
331
4B7
  5
5B5
331
445
  5
543
331
527
  5
45F
331
566
  5
49E
331
406
  5
632
331
39C
  5
5C8
331
3C7
  5
5F3
331
523
  5
45B
331
4B3
  5
5B1
331
441
  5
53F
331
562
  5
49A
331
B71
  5
BCE
331
398
  5
5C4
331
402
  5
62E
331
3C3
  5
5EF
331
43D
  5
53B
331
4AF
  5
5AD
331
4EE
  5
500
331
47C
  5
57A
331
478
  5
576
331
439
  5
537
331
4AB
  5
5A9
331
4EA
  5
4FC
331
60F
  5
44E
331
64E
  5
3D1
331
64A
  5
3CD
331
595
  5
4CD
331
5D4
  5
411
331
60B
  5
44A
331
607
  5
446
331
646
  5
3C9
331
55E
  5
496
331
591
  5
4C9
331
51F
  5
457
331
5D0
  5
40D
331
5CC
  5
409
331
603
  5
442
331
642
  5
3C5
331
3FE
  5
62A
331
394
  5
5C0
331
3BF
  5
5EB
331
51B
  5
453
331
55A
  5
492
331
58D
  5
4C5
331
589
  5
4C1
331
5C8
  5
405
331
3FA
  5
626
331
3BB
  5
5E7
331
517
  5
44F
331
435
  5
533
331
474
  5
572
331
556
  5
48E
331
4A7
  5
5A5
331
4E6
  5
4F8
331
3F6
  5
622
331
513
  5
525
331
3B7
  5
5E3
331
431
  5
52F
331
4A3
  5
5A1
331
4E2
  5
4F4
331
470
  5
56E
331
552
  5
48A
331
3F2
  5
61E
331
3B3
  5
5DF
331
425
  5
651
331
46C
  5
56A
331
49F
  5
59D
331
4DE
  5
4F0
331
421
  5
64D
331
468
  5
566
331
49B
  5
599
331
4DA
  5
4EC
331
BD2
  5
BD6
331
BCE
  5
B6F
331
5FF
  5
43E
331
63E
  5
3C1
331
63A
  5
3BD
331
585
  5
4BD
331
5C4
  5
401
331
5FB
  5
43A
331
5F7
  5
436
331
636
  5
3B9
331
50F
  5
521
331
54E
  5
486
331
581
  5
4B9
331
5C0
  5
3FD
331
5BC
  5
3F9
331
5F3
  5
432
331
632
  5
3B5
331
3EE
  5
61A
331
50B
  5
51D
331
3AF
  5
5DB
331
54A
  5
482
331
57D
  5
4B5
331
5B8
  5
3F5
331
507
  5
519
331
546
  5
47E
331
3EA
  5
616
331
3AB
  5
5D7
331
41D
  5
649
331
464
  5
562
331
497
  5
595
331
4D6
  5
4E8
331
651
  5
3D4
331
579
  5
4B1
331
3E6
  5
612
331
503
  5
515
331
3A7
  5
5D3
331
419
  5
645
331
460
  5
55E
331
542
  5
47A
331
493
  5
591
331
4D2
  5
4E3
331
3E2
  5
60E
331
3A3
  5
5CF
331
415
  5
641
331
45C
  5
55A
331
48F
  5
58D
331
4CE
  5
4DF
331
411
  5
63D
331
458
  5
556
331
48B
  5
589
331
4CA
  5
4DB
  0
ACDBDETAILVIEWSTYLE
  5
38C
102
{ACAD_XDICTIONARY
360
CB1
102
}
102
{ACAD_REACTORS
330
38B
102
}
330
38B
100
AcDbModelDocViewStyle
 70
     0
  3
Metric50
290
     0
100
AcDbDetailViewStyle
 70
     0
 71
     0
 90
        3
 71
     1
340
11
 40
5.0
340
0
 40
5.0
300

 40
0.0
280
     1
 71
     2
340
16
 90
       25
 71
     3
340
11
 40
5.0
 90
        0
 40
15.0
 90
        1
300
%<\AcVar ViewDetailId>% (%<\AcVar ViewScale \f "%sn">%)
 71
     4
340
16
 90
       25
340
16
 90
       25
280
     0
  0
GROUP
  5
C6B
102
{ACAD_REACTORS
330
D
102
}
330
D
100
AcDbGroup
300

 70
     1
 71
     1
340
BD3
340
B63
340
B62
340
B61
340
4C0
340
4BF
340
4BE
340
4BD
340
4BC
340
4BB
340
4BA
340
4B9
340
4B8
340
4B7
340
4B6
340
4B5
340
4B4
340
4B3
340
4B2
340
4B1
340
4B0
340
4AF
340
4AE
340
4AD
340
4AC
340
4AB
340
4AA
340
4A9
340
4A8
340
4A7
340
4A6
340
4A5
340
4A4
340
4A3
340
4A2
340
4A1
340
4A0
340
49F
340
49E
340
49D
340
49C
340
49B
340
49A
340
499
340
498
340
497
340
496
340
495
340
494
340
493
340
492
340
491
340
490
340
48F
340
48E
340
48D
340
48C
340
48B
340
48A
340
489
340
488
340
487
340
486
340
485
340
484
340
483
340
482
340
481
340
480
340
47F
340
47E
340
47D
340
47C
340
47B
340
47A
340
479
340
478
340
477
340
476
340
475
340
474
340
473
340
472
340
471
340
470
340
46F
340
46E
340
46D
340
46C
340
46B
340
46A
340
469
340
468
340
467
340
466
340
465
340
464
340
463
340
462
340
461
340
460
340
45F
340
45E
340
45D
340
45C
340
45B
340
45A
340
459
340
458
340
457
340
456
340
455
340
454
340
453
340
452
340
451
340
450
340
44F
340
44E
340
44D
340
44C
340
44B
340
44A
340
449
340
448
340
447
340
446
340
445
340
444
340
443
340
442
340
441
340
440
340
43F
340
43E
340
43D
340
43C
340
43B
340
43A
340
439
340
438
340
437
340
436
340
435
340
434
340
433
340
432
340
431
340
430
340
42F
340
42E
340
42D
340
42C
340
42B
  0
GROUP
  5
C6C
102
{ACAD_REACTORS
330
D
102
}
330
D
100
AcDbGroup
300

 70
     1
 71
     1
340
BCC
340
B6D
340
B65
340
BCD
340
B64
340
598
340
597
340
596
340
595
340
594
340
593
340
592
340
591
340
590
340
58F
340
58E
340
58D
340
58C
340
58B
340
58A
340
589
340
588
340
587
340
586
340
585
340
584
340
583
340
582
340
581
340
580
340
57F
340
57E
340
57D
340
57C
340
57B
340
57A
340
579
340
578
340
577
340
576
340
575
340
574
340
573
340
572
340
571
340
570
340
56F
340
56E
340
56D
340
56C
340
56B
340
56A
340
569
340
568
340
567
340
566
340
565
340
564
340
563
340
562
340
561
340
560
340
55F
340
55E
340
55D
340
55C
340
55B
340
55A
340
559
340
558
340
557
340
556
340
555
340
554
340
553
340
552
340
551
340
550
340
54F
340
54E
340
54D
340
54C
340
54B
340
54A
340
549
340
548
340
547
340
546
340
545
340
544
340
543
340
542
340
541
340
540
340
53F
340
53E
340
53D
340
53C
340
53B
340
53A
340
539
340
538
340
537
340
536
340
535
340
534
340
533
340
532
340
531
340
530
340
52F
340
52E
340
52D
340
52C
340
52B
340
52A
340
529
340
528
340
527
340
526
340
525
340
524
340
523
340
522
340
521
340
520
340
51F
340
51E
340
51D
340
51C
340
51B
340
51A
340
519
340
518
340
517
  0
GROUP
  5
C6D
102
{ACAD_REACTORS
330
D
102
}
330
D
100
AcDbGroup
300

 70
     1
 71
     1
340
BC5
340
B72
340
B71
340
BD4
340
B70
340
516
340
515
340
514
340
513
340
512
340
511
340
510
340
50F
340
50E
340
50D
340
50C
340
50B
340
50A
340
509
340
508
340
507
340
506
340
505
340
504
340
503
340
502
340
501
340
500
340
4FF
340
4FE
340
4FD
340
4FC
340
4FB
340
4FA
340
4F9
340
4F8
340
4F7
340
4F6
340
4F5
340
4F4
340
4F3
340
4F2
340
4F1
340
4F0
340
4EF
340
4EE
340
4ED
340
4EC
340
4EB
340
4EA
340
4E9
340
4E8
340
4E7
340
4E6
340
4E5
340
4E4
340
4E3
340
4E2
340
4E1
340
4E0
340
4DF
340
4DE
340
4DD
340
4DC
340
4DB
340
4DA
340
4D9
340
4D8
340
4D7
340
4D6
340
4D5
340
4D4
340
4D3
340
4D2
340
4D1
340
4D0
340
4CF
340
4CE
340
4CD
340
4CC
340
4CB
340
4CA
340
4C9
340
4C8
340
4C7
340
4C6
340
4C5
340
4C4
340
4C3
340
4C2
340
4C1
  0
GROUP
  5
C68
102
{ACAD_REACTORS
330
D
102
}
330
D
100
AcDbGroup
300

 70
     1
 71
     1
340
BD0
340
BCF
340
B6C
340
BCE
340
B6B
340
60F
340
60E
340
60D
340
60C
340
60B
340
60A
340
609
340
608
340
607
340
606
340
605
340
604
340
603
340
602
340
601
340
600
340
5FF
340
5FE
340
5FD
340
5FC
340
5FB
340
5FA
340
5F9
340
5F8
340
5F7
340
5F6
340
5F5
340
5F4
340
5F3
340
5F2
340
5F1
340
5F0
340
5EF
340
5EE
340
5ED
340
5EC
340
5EB
340
5EA
340
5E9
340
5E8
340
5E7
340
5E6
340
5E5
340
5E4
340
5E3
340
5E2
340
5E1
340
5E0
340
5DF
340
5DE
340
5DD
340
5DC
340
5DB
340
5DA
340
5D9
340
5D8
340
5D7
340
5D6
340
5D5
340
5D4
340
5D3
340
5D2
340
5D1
340
5D0
340
5CF
340
5CE
340
5CD
340
5CC
340
5CB
340
5CA
340
5C9
340
5C8
340
5C7
340
5C6
340
5C5
340
5C4
340
5C3
340
5C2
340
5C1
340
5C0
340
5BF
340
5BE
340
5BD
340
5BC
340
5BB
340
5BA
340
5B9
340
5B8
340
5B7
340
5B6
340
5B5
340
5B4
340
5B3
340
5B2
340
5B1
340
5B0
340
5AF
340
5AE
340
5AD
340
5AC
340
5AB
340
5AA
340
5A9
340
5A8
340
5A7
340
5A6
340
5A5
340
5A4
340
5A3
340
5A2
340
5A1
340
5A0
340
59F
340
59E
340
59D
340
59C
340
59B
340
59A
340
599
  0
GROUP
  5
C69
102
{ACAD_REACTORS
330
D
102
}
330
D
100
AcDbGroup
300

 70
     1
 71
     1
340
BD1
340
B6A
340
B69
340
B68
340
428
340
427
340
426
340
425
340
424
340
423
340
422
340
421
340
420
340
41F
340
41E
340
41D
340
41C
340
41B
340
41A
340
419
340
418
340
417
340
416
340
415
340
414
340
413
340
412
340
411
340
410
340
40F
340
40E
340
40D
340
40C
340
40B
340
40A
340
409
340
408
340
407
340
406
340
405
340
404
340
403
340
402
340
401
340
400
340
3FF
340
3FE
340
3FD
340
3FC
340
3FB
340
3FA
340
3F9
340
3F8
340
3F7
340
3F6
340
3F5
340
3F4
340
3F3
340
3F2
340
3F1
340
3F0
340
3EF
340
3EE
340
3ED
340
3EC
340
3EB
340
3EA
340
3E9
340
3E8
340
3E7
340
3E6
340
3E5
340
3E4
340
3E3
340
3E2
340
3E1
340
3E0
340
3DF
340
3DE
340
3DD
340
3DC
340
3DB
340
3DA
340
3D9
340
3D8
340
3D7
340
3D6
340
3D5
340
3D4
340
3D3
340
3D2
340
3D1
340
3D0
340
3CF
340
3CE
340
3CD
340
3CC
340
3CB
340
3CA
340
3C9
340
3C8
340
3C7
340
3C6
340
3C5
340
3C4
340
3C3
340
3C2
340
3C1
340
3C0
340
3BF
340
3BE
340
3BD
340
3BC
340
3BB
340
3BA
340
3B9
340
3B8
340
3B7
340
3B6
340
3B5
340
3B4
340
3B3
340
3B2
340
3B1
340
3B0
340
3AF
340
3AE
340
3AD
340
3AC
340
3AB
340
3AA
340
3A9
340
3A8
340
3A7
340
3A6
340
3A5
340
3A4
340
3A3
340
3A2
340
3A1
340
3A0
340
39F
340
39E
340
39D
340
39C
340
39B
340
39A
340
399
340
398
340
397
340
396
340
395
340
394
340
393
  0
GROUP
  5
C6A
102
{ACAD_REACTORS
330
D
102
}
330
D
100
AcDbGroup
300

 70
     1
 71
     1
340
BD2
340
B6F
340
B6E
340
B67
340
B66
340
652
340
651
340
650
340
64F
340
64E
340
64D
340
64C
340
64B
340
64A
340
649
340
646
340
645
340
644
340
643
340
642
340
641
340
640
340
63F
340
63E
340
63D
340
63C
340
63B
340
63A
340
639
340
638
340
637
340
636
340
635
340
634
340
633
340
632
340
631
340
630
340
62F
340
62E
340
62D
340
62C
340
62B
340
62A
340
629
340
628
340
627
340
626
340
625
340
624
340
623
340
622
340
621
340
620
340
61F
340
61E
340
61D
340
61C
340
61B
340
61A
340
619
340
618
340
617
340
616
340
615
340
614
340
613
340
612
340
611
340
610
  0
LAYOUT
  5
1E
102
{ACAD_XDICTIONARY
360
C7A
102
}
102
{ACAD_REACTORS
330
1A
102
}
330
1A
100
AcDbPlotSettings
  1

  2
none_device
  4

  6

 40
0.0
 41
0.0
 42
0.0
 43
0.0
 44
0.0
 45
0.0
 46
0.0
 47
0.0
 48
0.0
 49
0.0
140
0.0
141
0.0
142
1.0
143
1.0
 70
   688
 72
     1
 73
     0
 74
     5
  7

 75
    16
147
1.0
148
0.0
149
0.0
100
AcDbLayout
  1
Layout1
 70
     1
 71
     1
 10
0.0
 20
0.0
 11
420.0
 21
297.0
 12
0.0
 22
0.0
 32
0.0
 14
1.000000000000000E+20
 24
1.000000000000000E+20
 34
1.000000000000000E+20
 15
-1.000000000000000E+20
 25
-1.000000000000000E+20
 35
-1.000000000000000E+20
146
0.0
 13
0.0
 23
0.0
 33
0.0
 16
1.0
 26
0.0
 36
0.0
 17
0.0
 27
1.0
 37
0.0
 76
     0
330
1B
  0
LAYOUT
  5
22
102
{ACAD_XDICTIONARY
360
C7C
102
}
102
{ACAD_REACTORS
330
1A
102
}
330
1A
100
AcDbPlotSettings
  1

  2
none_device
  4
Letter_(8.50_x_11.00_Inches)
  6

 40
6.349999999999998
 41
6.349999999999998
 42
6.350005079999998
 43
6.350005079999998
 44
215.9
 45
279.4
 46
0.0
 47
0.0
 48
0.0
 49
0.0
140
0.0
141
0.0
142
1.0
143
1.0
 70
  1712
 72
     1
 73
     0
 74
     0
  7

 75
     0
147
1.0
148
0.0
149
0.0
100
AcDbLayout
  1
Model
 70
     1
 71
     0
 10
-563.0947677612303
 20
-651.9088432312011
 11
1309.331329345703
 21
804.4249183654786
 12
0.0
 22
0.0
 32
0.0
 14
-563.0947677612303
 24
-651.9088432312011
 34
0.0
 15
1309.331329345703
 25
804.4249183654786
 35
0.0
146
0.0
 13
0.0
 23
0.0
 33
0.0
 16
1.0
 26
0.0
 36
0.0
 17
0.0
 27
1.0
 37
0.0
 76
     0
330
1F
331
29
  0
LAYOUT
  5
38D
102
{ACAD_XDICTIONARY
360
CB3
102
}
102
{ACAD_REACTORS
330
1A
102
}
330
1A
100
AcDbPlotSettings
  1

  2
青梅 FX DocuCentre-V C2275 T2
  4

  6

 40
0.0
 41
0.0
 42
0.0
 43
0.0
 44
0.0
 45
0.0
 46
0.0
 47
0.0
 48
0.0
 49
0.0
140
0.0
141
0.0
142
1.0
143
1.0
 70
   688
 72
     0
 73
     0
 74
     5
  7
AutoCAD_PEN.ctb
 75
    16
147
1.0
148
0.0
149
0.0
100
AcDbLayout
  1
レイアウト1
 70
     1
 71
     2
 10
0.0
 20
0.0
 11
12.0
 21
9.0
 12
0.0
 22
0.0
 32
0.0
 14
0.0
 24
0.0
 34
0.0
 15
0.0
 25
0.0
 35
0.0
146
0.0
 13
0.0
 23
0.0
 33
0.0
 16
1.0
 26
0.0
 36
0.0
 17
0.0
 27
1.0
 37
0.0
 76
     0
330
23
  0
MATERIAL
  5
45
102
{ACAD_XDICTIONARY
360
37F
102
}
102
{ACAD_REACTORS
330
43
102
}
330
43
100
AcDbMaterial
  1
ByBlock
  0
MATERIAL
  5
44
102
{ACAD_XDICTIONARY
360
37D
102
}
102
{ACAD_REACTORS
330
43
102
}
330
43
100
AcDbMaterial
  1
ByLayer
  0
MATERIAL
  5
46
102
{ACAD_XDICTIONARY
360
381
102
}
102
{ACAD_REACTORS
330
43
102
}
330
43
100
AcDbMaterial
  1
Global
  0
MLEADERSTYLE
  5
5C
102
{ACAD_REACTORS
330
5B
102
}
330
5B
100
AcDbMLeaderStyle
170
     2
171
     1
172
     0
 90
        2
 40
0.0
 41
0.0
173
     1
 91
-1056964608
340
14
 92
       -2
290
     1
 42
2.0
291
     1
 43
8.0
  3
Standard
 44
4.0
300

342
11
174
     1
178
     6
175
     1
176
     0
 93
-1056964608
 45
4.0
292
     0
297
     0
 46
4.0
 94
-1056964608
 47
1.0
 49
1.0
140
1.0
293
     1
141
0.0
294
     1
177
     0
142
1.0
295
     0
296
     0
143
3.75
1001
ACAD_MLEADERVER
1070
     2
  0
MLINESTYLE
  5
18
102
{ACAD_REACTORS
330
17
102
}
330
17
100
AcDbMlineStyle
  2
STANDARD
 70
     0
  3

 62
   256
 51
90.0
 52
90.0
 71
     2
 49
0.5
 62
   256
  6
BYLAYER
 49
-0.5
 62
   256
  6
BYLAYER
  0
ACDBPLACEHOLDER
  5
F
102
{ACAD_REACTORS
330
E
102
}
330
E
  0
SCALE
  5
48
102
{ACAD_REACTORS
330
47
102
}
330
47
100
AcDbScale
 70
     0
300
1:1
140
1.0
141
1.0
290
     1
  0
SCALE
  5
49
102
{ACAD_REACTORS
330
47
102
}
330
47
100
AcDbScale
 70
     0
300
1:2
140
1.0
141
2.0
290
     0
  0
SCALE
  5
4A
102
{ACAD_REACTORS
330
47
102
}
330
47
100
AcDbScale
 70
     0
300
1:4
140
1.0
141
4.0
290
     0
  0
SCALE
  5
4B
102
{ACAD_REACTORS
330
47
102
}
330
47
100
AcDbScale
 70
     0
300
1:5
140
1.0
141
5.0
290
     0
  0
SCALE
  5
4C
102
{ACAD_REACTORS
330
47
102
}
330
47
100
AcDbScale
 70
     0
300
1:8
140
1.0
141
8.0
290
     0
  0
SCALE
  5
4D
102
{ACAD_REACTORS
330
47
102
}
330
47
100
AcDbScale
 70
     0
300
1:10
140
1.0
141
10.0
290
     0
  0
SCALE
  5
4E
102
{ACAD_REACTORS
330
47
102
}
330
47
100
AcDbScale
 70
     0
300
1:16
140
1.0
141
16.0
290
     0
  0
SCALE
  5
4F
102
{ACAD_REACTORS
330
47
102
}
330
47
100
AcDbScale
 70
     0
300
1:20
140
1.0
141
20.0
290
     0
  0
SCALE
  5
50
102
{ACAD_REACTORS
330
47
102
}
330
47
100
AcDbScale
 70
     0
300
1:30
140
1.0
141
30.0
290
     0
  0
SCALE
  5
51
102
{ACAD_REACTORS
330
47
102
}
330
47
100
AcDbScale
 70
     0
300
1:40
140
1.0
141
40.0
290
     0
  0
SCALE
  5
52
102
{ACAD_REACTORS
330
47
102
}
330
47
100
AcDbScale
 70
     0
300
1:50
140
1.0
141
50.0
290
     0
  0
SCALE
  5
53
102
{ACAD_REACTORS
330
47
102
}
330
47
100
AcDbScale
 70
     0
300
1:100
140
1.0
141
100.0
290
     0
  0
SCALE
  5
54
102
{ACAD_REACTORS
330
47
102
}
330
47
100
AcDbScale
 70
     0
300
2:1
140
2.0
141
1.0
290
     0
  0
SCALE
  5
55
102
{ACAD_REACTORS
330
47
102
}
330
47
100
AcDbScale
 70
     0
300
4:1
140
4.0
141
1.0
290
     0
  0
SCALE
  5
56
102
{ACAD_REACTORS
330
47
102
}
330
47
100
AcDbScale
 70
     0
300
8:1
140
8.0
141
1.0
290
     0
  0
SCALE
  5
57
102
{ACAD_REACTORS
330
47
102
}
330
47
100
AcDbScale
 70
     0
300
10:1
140
10.0
141
1.0
290
     0
  0
SCALE
  5
58
102
{ACAD_REACTORS
330
47
102
}
330
47
100
AcDbScale
 70
     0
300
100:1
140
100.0
141
1.0
290
     0
  0
ACDBSECTIONVIEWSTYLE
  5
38A
102
{ACAD_XDICTIONARY
360
CAF
102
}
102
{ACAD_REACTORS
330
389
102
}
330
389
100
AcDbModelDocViewStyle
 70
     0
  3
Metric50
290
     0
100
AcDbSectionViewStyle
 70
     0
 71
     0
 90
      102
 71
     1
340
11
 40
5.0
340
0
340
0
 40
5.0
300
I, O, Q, S, X, Z
 40
10.0
 90
        0
 40
2.5
 90
        0
 71
     2
340
16
 90
       25
340
16
 90
       50
 40
5.0
 40
2.5
 40
5.0
 71
     3
340
11
 40
5.0
 90
        0
 40
15.0
 90
        1
300
%<\AcVar ViewSectionStartId>%-%<\AcVar ViewSectionEndId>% (%<\AcVar ViewScale \f "%sn">%)
 71
     4
300
ANSI31
 40
1.0
 90
        0
290
     0
290
     0
 90
        6
 40
0.0
 40
1.570796326794896
 40
0.2617993877991494
 40
1.308996938995747
 40
-0.2617993877991494
 40
1.832595714594045
  0
TABLESTYLE
  5
5A
102
{ACAD_XDICTIONARY
360
B89
102
}
102
{ACAD_REACTORS
330
59
102
}
330
59
100
AcDbTableStyle
  3
Standard
 70
     0
 71
     0
 40
1.5
 41
1.5
280
     0
281
     0
  7
Standard
140
4.5
170
     2
 62
     0
 63
     7
283
     0
274
    -2
284
     1
 64
     0
275
    -2
285
     1
 65
     0
276
    -2
286
     1
 66
     0
277
    -2
287
     1
 67
     0
278
    -2
288
     1
 68
     0
279
    -2
289
     1
 69
     0
  7
Standard
140
6.0
170
     5
 62
     0
 63
     7
283
     0
274
    -2
284
     1
 64
     0
275
    -2
285
     1
 65
     0
276
    -2
286
     1
 66
     0
277
    -2
287
     1
 67
     0
278
    -2
288
     1
 68
     0
279
    -2
289
     1
 69
     0
  7
Standard
140
4.5
170
     5
 62
     0
 63
     7
283
     0
274
    -2
284
     1
 64
     0
275
    -2
285
     1
 65
     0
276
    -2
286
     1
 66
     0
277
    -2
287
     1
 67
     0
278
    -2
288
     1
 68
     0
279
    -2
289
     1
 69
     0
  0
VISUALSTYLE
  5
2F
102
{ACAD_XDICTIONARY
360
C86
102
}
102
{ACAD_REACTORS
330
2A
102
}
330
2A
100
AcDbVisualStyle
  2

 70
     4
 71
     0
 72
     2
 73
     0
 90
        0
 40
-0.6
 41
-30.0
 62
     5
 63
     7
 74
     1
 91
        4
 64
     7
 65
   257
 75
     1
175
     1
 42
1.0
 92
        0
 66
   257
 43
1.0
 76
     1
 77
     6
 78
     2
 67
     7
 79
     5
170
     0
171
     0
290
     0
174
     0
 93
        1
 44
0.0
173
     0
291
     0
 45
0.0
1001
ACAD
1000
AcDbSavedByObjectVersion
1070
     0
  0
VISUALSTYLE
  5
32
102
{ACAD_XDICTIONARY
360
C8C
102
}
102
{ACAD_REACTORS
330
2A
102
}
330
2A
100
AcDbVisualStyle
  2

 70
     7
 71
     1
 72
     0
 73
     1
 90
        0
 40
-0.6
 41
-30.0
 62
     5
 63
     7
 74
     0
 91
        4
 64
     7
 65
   257
 75
     1
175
     1
 42
1.0
 92
        8
 66
     7
 43
1.0
 76
     1
 77
     6
 78
     2
 67
     7
 79
     5
170
     0
171
     0
290
     0
174
     0
 93
        1
 44
0.0
173
     0
291
     1
 45
0.0
1001
ACAD
1000
AcDbSavedByObjectVersion
1070
     0
  0
VISUALSTYLE
  5
36
102
{ACAD_XDICTIONARY
360
C94
102
}
102
{ACAD_REACTORS
330
2A
102
}
330
2A
100
AcDbVisualStyle
  2

 70
    12
 71
     2
 72
     2
 73
     0
 90
        0
 40
-0.6
 41
-30.0
 62
     5
 63
     7
 74
     1
 91
        4
 64
     7
 65
   257
 75
     1
175
     1
 42
1.0
 92
        8
 66
     7
 43
1.0
 76
     1
 77
     6
 78
     2
 67
     7
 79
     5
170
     0
171
     0
290
     0
174
     0
 93
        1
 44
50.0
173
     0
291
     1
 45
0.0
1001
ACAD
1000
AcDbSavedByObjectVersion
1070
     0
  0
VISUALSTYLE
  5
3A
102
{ACAD_XDICTIONARY
360
C9C
102
}
102
{ACAD_REACTORS
330
2A
102
}
330
2A
100
AcDbVisualStyle
  2

 70
    16
 71
     2
 72
     2
 73
     3
 90
        0
 40
-0.6
 41
-30.0
 62
     5
 63
     8
 74
     1
 91
        4
 64
     7
 65
   257
 75
     1
175
     1
 42
1.0
 92
        8
 66
     8
 43
1.0
 76
     1
 77
     6
 78
     2
 67
     7
 79
     5
170
     0
171
     0
290
     0
174
     0
 93
        1
 44
0.0
173
     0
291
     1
 45
0.0
1001
ACAD
1000
AcDbSavedByObjectVersion
1070
     0
  0
VISUALSTYLE
  5
34
102
{ACAD_XDICTIONARY
360
C90
102
}
102
{ACAD_REACTORS
330
2A
102
}
330
2A
100
AcDbVisualStyle
  2

 70
     9
 71
     3
 72
     2
 73
     0
 90
        0
 40
-0.6
 41
-30.0
 62
     5
 63
     7
 74
     2
 91
        2
 64
     7
 65
   257
 75
     1
175
     1
 42
179.0
 92
        8
 66
     7
 43
1.0
 76
     1
 77
     6
 78
     2
 67
     7
 79
     3
170
     0
171
     0
290
     0
174
     0
 93
        1
 44
0.0
173
     0
291
     0
 45
0.0
1001
ACAD
1000
AcDbSavedByObjectVersion
1070
     0
  0
VISUALSTYLE
  5
35
102
{ACAD_XDICTIONARY
360
C92
102
}
102
{ACAD_REACTORS
330
2A
102
}
330
2A
100
AcDbVisualStyle
  2

 70
    11
 71
     2
 72
     2
 73
     0
 90
        0
 40
-0.6
 41
-30.0
 62
     5
 63
     7
 74
     1
 91
        4
 64
     7
 65
   257
 75
     1
175
     1
 42
1.0
 92
        8
 66
     7
 43
1.0
 76
     1
 77
     6
 78
     2
 67
     7
 79
     5
170
     0
171
     0
290
     0
174
     0
 93
        1
 44
-50.0
173
     0
291
     1
 45
0.0
1001
ACAD
1000
AcDbSavedByObjectVersion
1070
     0
  0
VISUALSTYLE
  5
3D
102
{ACAD_XDICTIONARY
360
CA2
102
}
102
{ACAD_REACTORS
330
2A
102
}
330
2A
100
AcDbVisualStyle
  2

 70
    22
 71
     2
 72
     2
 73
     0
 90
        0
 40
-0.6
 41
-30.0
 62
     5
 63
     7
 74
     1
 91
        4
 64
     7
 65
   257
 75
     1
175
     1
 42
1.0
 92
        8
 66
     7
 43
1.0
 76
     1
 77
     6
 78
     2
 67
     7
 79
     5
170
     0
171
     0
290
     0
174
     0
 93
        1
 44
0.0
173
     0
291
     1
 45
0.0
1001
ACAD
1000
AcDbSavedByObjectVersion
1070
     0
  0
VISUALSTYLE
  5
39
102
{ACAD_XDICTIONARY
360
C9A
102
}
102
{ACAD_REACTORS
330
2A
102
}
330
2A
100
AcDbVisualStyle
  2

 70
    15
 71
     2
 72
     2
 73
     0
 90
        0
 40
-0.6
 41
-30.0
 62
     5
 63
     7
 74
     1
 91
        4
 64
     7
 65
   257
 75
     1
175
     1
 42
1.0
 92
        8
 66
     7
 43
1.0
 76
     1
 77
     6
 78
     2
 67
     7
 79
     5
170
     0
171
     0
290
     0
174
     0
 93
        1
 44
0.0
173
     0
291
     1
 45
0.0
1001
ACAD
1000
AcDbSavedByObjectVersion
1070
     0
  0
VISUALSTYLE
  5
2B
102
{ACAD_XDICTIONARY
360
C7E
102
}
102
{ACAD_REACTORS
330
2A
102
}
330
2A
100
AcDbVisualStyle
  2

 70
     0
 71
     2
 72
     1
 73
     1
 90
        2
 40
-0.6
 41
30.0
 62
     5
 63
     7
 74
     0
 91
        0
 64
     7
 65
   257
 75
     1
175
     1
 42
1.0
 92
        8
 66
     7
 43
1.0
 76
     1
 77
     6
 78
     2
 67
     7
 79
     5
170
     0
171
     0
290
     0
174
     0
 93
       13
 44
0.0
173
     0
291
     1
 45
0.0
1001
ACAD
1000
AcDbSavedByObjectVersion
1070
     0
  0
VISUALSTYLE
  5
2C
102
{ACAD_XDICTIONARY
360
C80
102
}
102
{ACAD_REACTORS
330
2A
102
}
330
2A
100
AcDbVisualStyle
  2

 70
     1
 71
     2
 72
     1
 73
     1
 90
        2
 40
-0.6
 41
30.0
 62
     5
 63
     7
 74
     1
 91
        0
 64
     7
 65
   257
 75
     1
175
     1
 42
1.0
 92
        0
 66
   257
 43
1.0
 76
     1
 77
     6
 78
     2
 67
     7
 79
     5
170
     0
171
     0
290
     0
174
     0
 93
       13
 44
0.0
173
     0
291
     1
 45
0.0
1001
ACAD
1000
AcDbSavedByObjectVersion
1070
     0
  0
VISUALSTYLE
  5
2D
102
{ACAD_XDICTIONARY
360
C82
102
}
102
{ACAD_REACTORS
330
2A
102
}
330
2A
100
AcDbVisualStyle
  2

 70
     2
 71
     2
 72
     2
 73
     1
 90
        2
 40
-0.6
 41
30.0
 62
     5
 63
     7
 74
     0
 91
        0
 64
     7
 65
   257
 75
     1
175
     1
 42
1.0
 92
        0
 66
     7
 43
1.0
 76
     1
 77
     6
 78
     2
 67
     7
 79
     5
170
     0
171
     0
290
     0
174
     0
 93
       13
 44
0.0
173
     0
291
     1
 45
0.0
1001
ACAD
1000
AcDbSavedByObjectVersion
1070
     0
  0
VISUALSTYLE
  5
2E
102
{ACAD_XDICTIONARY
360
C84
102
}
102
{ACAD_REACTORS
330
2A
102
}
330
2A
100
AcDbVisualStyle
  2

 70
     3
 71
     2
 72
     2
 73
     1
 90
        2
 40
-0.6
 41
30.0
 62
     5
 63
     7
 74
     1
 91
        0
 64
     7
 65
   257
 75
     1
175
     1
 42
1.0
 92
        0
 66
   257
 43
1.0
 76
     1
 77
     6
 78
     2
 67
     7
 79
     5
170
     0
171
     0
290
     0
174
     0
 93
       13
 44
0.0
173
     0
291
     1
 45
0.0
1001
ACAD
1000
AcDbSavedByObjectVersion
1070
     0
  0
VISUALSTYLE
  5
31
102
{ACAD_XDICTIONARY
360
C8A
102
}
102
{ACAD_REACTORS
330
2A
102
}
330
2A
100
AcDbVisualStyle
  2

 70
     6
 71
     1
 72
     2
 73
     2
 90
        0
 40
-0.6
 41
-30.0
 62
     5
 63
     7
 74
     2
 91
        2
 64
     7
 65
   257
 75
     2
175
     1
 42
40.0
 92
        0
 66
   257
 43
1.0
 76
     1
 77
     6
 78
     2
 67
     7
 79
     3
170
     0
171
     0
290
     0
174
     0
 93
        1
 44
0.0
173
     0
291
     0
 45
0.0
1001
ACAD
1000
AcDbSavedByObjectVersion
1070
     0
  0
VISUALSTYLE
  5
3B
102
{ACAD_XDICTIONARY
360
C9E
102
}
102
{ACAD_REACTORS
330
2A
102
}
330
2A
100
AcDbVisualStyle
  2

 70
    20
 71
     2
 72
     2
 73
     0
 90
        0
 40
-0.6
 41
-30.0
 62
     5
 63
     7
 74
     1
 91
        4
 64
     7
 65
   257
 75
     1
175
     1
 42
1.0
 92
       10
 66
     7
 43
1.0
 76
     1
 77
     6
 78
     2
 67
     7
 79
     5
170
     0
171
     0
290
     0
174
     0
 93
        1
 44
0.0
173
     0
291
     1
 45
0.0
1001
ACAD
1000
AcDbSavedByObjectVersion
1070
     0
  0
VISUALSTYLE
  5
38
102
{ACAD_XDICTIONARY
360
C98
102
}
102
{ACAD_REACTORS
330
2A
102
}
330
2A
100
AcDbVisualStyle
  2

 70
    14
 71
     2
 72
     2
 73
     0
 90
        0
 40
-0.6
 41
-30.0
 62
     5
 63
     7
 74
     1
 91
        4
 64
     7
 65
   257
 75
     7
175
     7
 42
1.0
 92
        8
 66
     7
 43
1.0
 76
     1
 77
     6
 78
     2
 67
     7
 79
     5
170
     0
171
     0
290
     0
174
     0
 93
        1
 44
0.0
173
     0
291
     1
 45
0.0
1001
ACAD
1000
AcDbSavedByObjectVersion
1070
     0
  0
VISUALSTYLE
  5
3C
102
{ACAD_XDICTIONARY
360
CA0
102
}
102
{ACAD_REACTORS
330
2A
102
}
330
2A
100
AcDbVisualStyle
  2

 70
    21
 71
     2
 72
     2
 73
     0
 90
        0
 40
-0.6
 41
-30.0
 62
     5
 63
     7
 74
     1
 91
        4
 64
     7
 65
   257
 75
     1
175
     1
 42
1.0
 92
        9
 66
     7
 43
1.0
 76
     1
 77
     6
 78
     2
 67
     7
 79
     5
170
     0
171
     0
290
     0
174
     0
 93
        1
 44
0.0
173
     0
291
     1
 45
0.0
1001
ACAD
1000
AcDbSavedByObjectVersion
1070
     0
  0
VISUALSTYLE
  5
33
102
{ACAD_XDICTIONARY
360
C8E
102
}
102
{ACAD_REACTORS
330
2A
102
}
330
2A
100
AcDbVisualStyle
  2

 70
     8
 71
     2
 72
     3
 73
     0
 90
        2
 40
-0.6
 41
30.0
 62
     5
 63
     7
 74
     0
 91
        0
 64
     7
 65
   257
 75
     1
175
     1
 42
1.0
 92
        8
 66
   257
 43
1.0
 76
     1
 77
     6
 78
     2
 67
     7
 79
     3
170
     0
171
     0
290
     0
174
     0
 93
       13
 44
0.0
173
     0
291
     0
 45
0.0
1001
ACAD
1000
AcDbSavedByObjectVersion
1070
     0
  0
VISUALSTYLE
  5
42
102
{ACAD_XDICTIONARY
360
CAC
102
}
102
{ACAD_REACTORS
330
2A
102
}
330
2A
100
AcDbVisualStyle
  2

 70
    27
 71
     2
 72
     2
 73
     1
 90
        2
 40
-0.6
 41
30.0
 62
     5
 63
     7
 74
     0
 91
        4
 64
     7
 65
   257
 75
     1
175
     1
 42
1.0
 92
        8
 66
   257
 43
1.0
 76
     1
 77
     6
 78
     2
 67
     8
 79
     3
170
     0
171
     0
290
     0
174
     0
 93
        5
 44
0.0
173
     0
291
     0
 45
0.0
1001
ACAD
1000
AcDbSavedByObjectVersion
1070
     0
  0
VISUALSTYLE
  5
41
102
{ACAD_XDICTIONARY
360
CAA
102
}
102
{ACAD_REACTORS
330
2A
102
}
330
2A
100
AcDbVisualStyle
  2

 70
    26
 71
     2
 72
     2
 73
     1
 90
        2
 40
-0.6
 41
30.0
 62
     5
 63
     7
 74
     1
 91
       10
 64
     7
 65
   257
 75
     2
175
     1
 42
1.0
 92
        8
 66
   257
 43
1.0
 76
     1
 77
     6
 78
     2
 67
     7
 79
     3
170
     0
171
     0
290
     0
174
     0
 93
        5
 44
0.0
173
     0
291
     0
 45
0.0
1001
ACAD
1000
AcDbSavedByObjectVersion
1070
     0
  0
VISUALSTYLE
  5
3E
102
{ACAD_XDICTIONARY
360
CA4
102
}
102
{ACAD_REACTORS
330
2A
102
}
330
2A
100
AcDbVisualStyle
  2

 70
    23
 71
     2
 72
     2
 73
     3
 90
        0
 40
-0.6
 41
-30.0
 62
     5
 63
     7
 74
     2
 91
        2
 64
     7
 65
     7
 75
     1
175
     1
 42
40.0
 92
        8
 66
     7
 43
1.0
 76
     1
 77
     6
 78
     2
 67
     7
 79
     3
170
     0
171
     0
290
     0
174
     0
 93
        1
 44
0.0
173
     0
291
     0
 45
0.0
1001
ACAD
1000
AcDbSavedByObjectVersion
1070
     0
  0
VISUALSTYLE
  5
3F
102
{ACAD_XDICTIONARY
360
CA6
102
}
102
{ACAD_REACTORS
330
2A
102
}
330
2A
100
AcDbVisualStyle
  2

 70
    24
 71
     1
 72
     2
 73
     2
 90
        0
 40
-0.6
 41
-30.0
 62
     5
 63
     7
 74
     2
 91
        2
 64
     7
 65
     7
 75
     1
175
     1
 42
40.0
 92
       11
 66
     7
 43
1.0
 76
     1
 77
     6
 78
     2
 67
     7
 79
     6
170
     0
171
     0
290
     0
174
     0
 93
        1
 44
0.0
173
     0
291
     0
 45
0.0
1001
ACAD
1000
AcDbSavedByObjectVersion
1070
     0
  0
VISUALSTYLE
  5
37
102
{ACAD_XDICTIONARY
360
C96
102
}
102
{ACAD_REACTORS
330
2A
102
}
330
2A
100
AcDbVisualStyle
  2

 70
    13
 71
     2
 72
     2
 73
     0
 90
        0
 40
-0.6
 41
-30.0
 62
     5
 63
     7
 74
     1
 91
        4
 64
     7
 65
   257
 75
     1
175
     1
 42
1.0
 92
       12
 66
     7
 43
1.0
 76
     1
 77
     6
 78
     2
 67
     7
 79
     5
170
     0
171
     0
290
     0
174
     0
 93
        1
 44
0.0
173
     0
291
     1
 45
0.0
1001
ACAD
1000
AcDbSavedByObjectVersion
1070
     0
  0
VISUALSTYLE
  5
30
102
{ACAD_XDICTIONARY
360
C88
102
}
102
{ACAD_REACTORS
330
2A
102
}
330
2A
100
AcDbVisualStyle
  2

 70
     5
 71
     0
 72
     2
 73
     0
 90
        0
 40
-0.6
 41
-30.0
 62
     5
 63
     7
 74
     1
 91
        4
 64
     7
 65
   257
 75
     1
175
     1
 42
1.0
 92
        0
 66
   257
 43
1.0
 76
     1
 77
     6
 78
     2
 67
     7
 79
     3
170
     0
171
     0
290
     0
174
     0
 93
        1
 44
0.0
173
     0
291
     0
 45
0.0
1001
ACAD
1000
AcDbSavedByObjectVersion
1070
     0
  0
VISUALSTYLE
  5
40
102
{ACAD_XDICTIONARY
360
CA8
102
}
102
{ACAD_REACTORS
330
2A
102
}
330
2A
100
AcDbVisualStyle
  2

 70
    25
 71
     2
 72
     2
 73
     1
 90
        1
 40
0.5
 41
-30.0
 62
     5
 63
     7
 74
     1
 91
        0
 64
     7
 65
   257
 75
     1
175
     1
 42
1.0
 92
        8
 66
     7
 43
1.0
 76
     1
 77
     6
 78
     2
 67
     7
 79
     3
170
     0
171
     0
290
     0
174
     0
 93
       13
 44
0.0
173
     0
291
     0
 45
0.0
1001
ACAD
1000
AcDbSavedByObjectVersion
1070
     0
  0
DICTIONARYVAR
  5
34B
102
{ACAD_REACTORS
330
33D
102
}
330
33D
100
DictionaryVariables
280
     0
  1
1:1
  0
DICTIONARYVAR
  5
344
102
{ACAD_REACTORS
330
33D
102
}
330
33D
100
DictionaryVariables
280
     0
  1
3.500000
  0
DICTIONARYVAR
  5
345
102
{ACAD_REACTORS
330
33D
102
}
330
33D
100
DictionaryVariables
280
     0
  1
acadiso.lin
  0
DICTIONARYVAR
  5
33F
102
{ACAD_REACTORS
330
33D
102
}
330
33D
100
DictionaryVariables
280
     0
  1
STANDARD
  0
DICTIONARYVAR
  5
33E
102
{ACAD_REACTORS
330
33D
102
}
330
33D
100
DictionaryVariables
280
     0
  1
STANDARD
  0
DICTIONARYVAR
  5
B84
102
{ACAD_REACTORS
330
33D
102
}
330
33D
100
DictionaryVariables
280
     0
  1
Metric50
  0
DICTIONARYVAR
  5
B85
102
{ACAD_REACTORS
330
33D
102
}
330
33D
100
DictionaryVariables
280
     0
  1
Metric50
  0
DICTIONARYVAR
  5
346
102
{ACAD_REACTORS
330
33D
102
}
330
33D
100
DictionaryVariables
280
     0
  1
2
  0
DICTIONARYVAR
  5
347
102
{ACAD_REACTORS
330
33D
102
}
330
33D
100
DictionaryVariables
280
     0
  1
1
  0
DICTIONARYVAR
  5
BE2
102
{ACAD_REACTORS
330
33D
102
}
330
33D
100
DictionaryVariables
280
     0
  1
0
  0
DICTIONARYVAR
  5
B87
102
{ACAD_REACTORS
330
33D
102
}
330
33D
100
DictionaryVariables
280
     0
  1
1
  0
DICTIONARYVAR
  5
B88
102
{ACAD_REACTORS
330
33D
102
}
330
33D
100
DictionaryVariables
280
     0
  1
15
  0
DICTIONARYVAR
  5
B86
102
{ACAD_REACTORS
330
33D
102
}
330
33D
100
DictionaryVariables
280
     0
  1
0
  0
DICTIONARYVAR
  5
BE5
102
{ACAD_REACTORS
330
33D
102
}
330
33D
100
DictionaryVariables
280
     0
  1
1.570796
  0
DICTIONARYVAR
  5
BE6
102
{ACAD_REACTORS
330
33D
102
}
330
33D
100
DictionaryVariables
280
     0
  1
1.570796
  0
DICTIONARYVAR
  5
BE7
102
{ACAD_REACTORS
330
33D
102
}
330
33D
100
DictionaryVariables
280
     0
  1
-122.394000
  0
DICTIONARYVAR
  5
34C
102
{ACAD_REACTORS
330
33D
102
}
330
33D
100
DictionaryVariables
280
     0
  1
1
  0
DICTIONARYVAR
  5
BE4
102
{ACAD_REACTORS
330
33D
102
}
330
33D
100
DictionaryVariables
280
     0
  1
80.000000
  0
DICTIONARYVAR
  5
BE3
102
{ACAD_REACTORS
330
33D
102
}
330
33D
100
DictionaryVariables
280
     0
  1
5.000000
  0
DICTIONARYVAR
  5
BE1
102
{ACAD_REACTORS
330
33D
102
}
330
33D
100
DictionaryVariables
280
     0
  1
127
  0
DICTIONARYVAR
  5
BE8
102
{ACAD_REACTORS
330
33D
102
}
330
33D
100
DictionaryVariables
280
     0
  1
2
  0
DICTIONARY
  5
CB1
330
38C
100
AcDbDictionary
280
     1
281
     1
  3
ACAD_XREC_ROUNDTRIP
360
CB2
  0
DICTIONARY
  5
C7A
330
1E
100
AcDbDictionary
280
     1
281
     1
  3
ACAD_XREC_ROUNDTRIP
360
C7B
  0
DICTIONARY
  5
C7C
330
22
100
AcDbDictionary
280
     1
281
     1
  3
ACAD_XREC_ROUNDTRIP
360
C7D
  0
DICTIONARY
  5
CB3
330
38D
100
AcDbDictionary
280
     1
281
     1
  3
ACAD_XREC_ROUNDTRIP
360
CB4
  0
DICTIONARY
  5
37F
330
45
100
AcDbDictionary
280
     1
281
     1
  3
ACAD_XREC_ROUNDTRIP
360
380
  0
DICTIONARY
  5
37D
330
44
100
AcDbDictionary
280
     1
281
     1
  3
ACAD_XREC_ROUNDTRIP
360
37E
  0
DICTIONARY
  5
381
330
46
100
AcDbDictionary
280
     1
281
     1
  3
ACAD_XREC_ROUNDTRIP
360
382
  0
DICTIONARY
  5
CAF
330
38A
100
AcDbDictionary
280
     1
281
     1
  3
ACAD_XREC_ROUNDTRIP
360
CB0
  0
DICTIONARY
  5
B89
330
5A
100
AcDbDictionary
280
     1
281
     1
  3
ACAD_ROUNDTRIP_2008_TABLESTYLE_CELLSTYLEMAP
360
C77
  3
ACAD_XREC_ROUNDTRIP
360
CAE
  0
DICTIONARY
  5
C86
330
2F
100
AcDbDictionary
280
     1
281
     1
  3
ACAD_XREC_ROUNDTRIP
360
C87
  0
DICTIONARY
  5
C8C
330
32
100
AcDbDictionary
280
     1
281
     1
  3
ACAD_XREC_ROUNDTRIP
360
C8D
  0
DICTIONARY
  5
C94
330
36
100
AcDbDictionary
280
     1
281
     1
  3
ACAD_XREC_ROUNDTRIP
360
C95
  0
DICTIONARY
  5
C9C
330
3A
100
AcDbDictionary
280
     1
281
     1
  3
ACAD_XREC_ROUNDTRIP
360
C9D
  0
DICTIONARY
  5
C90
330
34
100
AcDbDictionary
280
     1
281
     1
  3
ACAD_XREC_ROUNDTRIP
360
C91
  0
DICTIONARY
  5
C92
330
35
100
AcDbDictionary
280
     1
281
     1
  3
ACAD_XREC_ROUNDTRIP
360
C93
  0
DICTIONARY
  5
CA2
330
3D
100
AcDbDictionary
280
     1
281
     1
  3
ACAD_XREC_ROUNDTRIP
360
CA3
  0
DICTIONARY
  5
C9A
330
39
100
AcDbDictionary
280
     1
281
     1
  3
ACAD_XREC_ROUNDTRIP
360
C9B
  0
DICTIONARY
  5
C7E
330
2B
100
AcDbDictionary
280
     1
281
     1
  3
ACAD_XREC_ROUNDTRIP
360
C7F
  0
DICTIONARY
  5
C80
330
2C
100
AcDbDictionary
280
     1
281
     1
  3
ACAD_XREC_ROUNDTRIP
360
C81
  0
DICTIONARY
  5
C82
330
2D
100
AcDbDictionary
280
     1
281
     1
  3
ACAD_XREC_ROUNDTRIP
360
C83
  0
DICTIONARY
  5
C84
330
2E
100
AcDbDictionary
280
     1
281
     1
  3
ACAD_XREC_ROUNDTRIP
360
C85
  0
DICTIONARY
  5
C8A
330
31
100
AcDbDictionary
280
     1
281
     1
  3
ACAD_XREC_ROUNDTRIP
360
C8B
  0
DICTIONARY
  5
C9E
330
3B
100
AcDbDictionary
280
     1
281
     1
  3
ACAD_XREC_ROUNDTRIP
360
C9F
  0
DICTIONARY
  5
C98
330
38
100
AcDbDictionary
280
     1
281
     1
  3
ACAD_XREC_ROUNDTRIP
360
C99
  0
DICTIONARY
  5
CA0
330
3C
100
AcDbDictionary
280
     1
281
     1
  3
ACAD_XREC_ROUNDTRIP
360
CA1
  0
DICTIONARY
  5
C8E
330
33
100
AcDbDictionary
280
     1
281
     1
  3
ACAD_XREC_ROUNDTRIP
360
C8F
  0
DICTIONARY
  5
CAC
330
42
100
AcDbDictionary
280
     1
281
     1
  3
ACAD_XREC_ROUNDTRIP
360
CAD
  0
DICTIONARY
  5
CAA
330
41
100
AcDbDictionary
280
     1
281
     1
  3
ACAD_XREC_ROUNDTRIP
360
CAB
  0
DICTIONARY
  5
CA4
330
3E
100
AcDbDictionary
280
     1
281
     1
  3
ACAD_XREC_ROUNDTRIP
360
CA5
  0
DICTIONARY
  5
CA6
330
3F
100
AcDbDictionary
280
     1
281
     1
  3
ACAD_XREC_ROUNDTRIP
360
CA7
  0
DICTIONARY
  5
C96
330
37
100
AcDbDictionary
280
     1
281
     1
  3
ACAD_XREC_ROUNDTRIP
360
C97
  0
DICTIONARY
  5
C88
330
30
100
AcDbDictionary
280
     1
281
     1
  3
ACAD_XREC_ROUNDTRIP
360
C89
  0
DICTIONARY
  5
CA8
330
40
100
AcDbDictionary
280
     1
281
     1
  3
ACAD_XREC_ROUNDTRIP
360
CA9
  0
XRECORD
  5
CB2
102
{ACAD_REACTORS
330
CB1
102
}
330
CB1
100
AcDbXrecord
280
     1
102
DISPLAYNAME
  1
Metric50
102
FLAGS
 90
        0
  0
XRECORD
  5
C7B
102
{ACAD_REACTORS
330
C7A
102
}
330
C7A
100
AcDbXrecord
280
     1
102
SHADEPLOT
 70
     0
102
SHADEPLOTRESLEVEL
 70
     2
102
SHADEPLOTCUSTOMDPI
 70
   300
  0
XRECORD
  5
C7D
102
{ACAD_REACTORS
330
C7C
102
}
330
C7C
100
AcDbXrecord
280
     1
102
SHADEPLOT
 70
     0
102
SHADEPLOTRESLEVEL
 70
     2
102
SHADEPLOTCUSTOMDPI
 70
   300
  0
XRECORD
  5
CB4
102
{ACAD_REACTORS
330
CB3
102
}
330
CB3
100
AcDbXrecord
280
     1
102
SHADEPLOT
 70
     0
102
SHADEPLOTRESLEVEL
 70
     2
102
SHADEPLOTCUSTOMDPI
 70
   300
  0
XRECORD
  5
380
102
{ACAD_REACTORS
330
37F
102
}
330
37F
100
AcDbXrecord
280
     1
102
MATERIAL
148
0.0
149
0.0
149
0.0
 93
        0
 94
      127
282
     0
 72
     1
 77
     1
171
     1
175
     1
179
     1
273
     0
  0
XRECORD
  5
37E
102
{ACAD_REACTORS
330
37D
102
}
330
37D
100
AcDbXrecord
280
     1
102
MATERIAL
148
0.0
149
0.0
149
0.0
 93
        0
 94
      127
282
     0
 72
     1
 77
     1
171
     1
175
     1
179
     1
273
     0
  0
XRECORD
  5
382
102
{ACAD_REACTORS
330
381
102
}
330
381
100
AcDbXrecord
280
     1
102
MATERIAL
148
0.0
149
0.0
149
0.0
 93
        0
 94
      127
282
     0
 72
     1
 77
     1
171
     1
175
     1
179
     1
273
     0
  0
XRECORD
  5
CB0
102
{ACAD_REACTORS
330
CAF
102
}
330
CAF
100
AcDbXrecord
280
     1
102
DISPLAYNAME
  1
Metric50
102
FLAGS
 90
        0
  0
CELLSTYLEMAP
  5
C77
102
{ACAD_REACTORS
330
B89
102
}
330
B89
100
AcDbCellStyleMap
 90
        3
300
CELLSTYLE
  1
TABLEFORMAT_BEGIN
 90
        5
170
     1
 91
        0
 92
    32768
 62
   257
 93
        1
300
CONTENTFORMAT
  1
CONTENTFORMAT_BEGIN
 90
        0
 91
        0
 92
        4
 93
        0
300

 40
0.0
140
1.0
 94
        5
 62
     0
340
11
144
6.0
309
CONTENTFORMAT_END
171
     1
301
MARGIN
  1
CELLMARGIN_BEGIN
 40
1.5
 40
1.5
 40
1.5
 40
1.5
 40
0.18
 40
0.18
309
CELLMARGIN_END
 94
        6
 95
        1
302
GRIDFORMAT
  1
GRIDFORMAT_BEGIN
 90
        0
 91
        1
 62
     0
 92
       -2
340
0
 93
        0
 40
0.045
309
GRIDFORMAT_END
 95
        2
302
GRIDFORMAT
  1
GRIDFORMAT_BEGIN
 90
        0
 91
        1
 62
     0
 92
       -2
340
0
 93
        0
 40
0.045
309
GRIDFORMAT_END
 95
        4
302
GRIDFORMAT
  1
GRIDFORMAT_BEGIN
 90
        0
 91
        1
 62
     0
 92
       -2
340
0
 93
        0
 40
0.045
309
GRIDFORMAT_END
 95
        8
302
GRIDFORMAT
  1
GRIDFORMAT_BEGIN
 90
        0
 91
        1
 62
     0
 92
       -2
340
0
 93
        0
 40
0.045
309
GRIDFORMAT_END
 95
       16
302
GRIDFORMAT
  1
GRIDFORMAT_BEGIN
 90
        0
 91
        1
 62
     0
 92
       -2
340
0
 93
        0
 40
0.045
309
GRIDFORMAT_END
 95
       32
302
GRIDFORMAT
  1
GRIDFORMAT_BEGIN
 90
        0
 91
        1
 62
     0
 92
       -2
340
0
 93
        0
 40
0.045
309
GRIDFORMAT_END
309
TABLEFORMAT_END
  1
CELLSTYLE_BEGIN
 90
        1
 91
        1
300
_TITLE
309
CELLSTYLE_END
300
CELLSTYLE
  1
TABLEFORMAT_BEGIN
 90
        5
170
     1
 91
        0
 92
        0
 62
   257
 93
        1
300
CONTENTFORMAT
  1
CONTENTFORMAT_BEGIN
 90
        0
 91
        0
 92
        4
 93
        0
300

 40
0.0
140
1.0
 94
        5
 62
     0
340
11
144
4.5
309
CONTENTFORMAT_END
171
     1
301
MARGIN
  1
CELLMARGIN_BEGIN
 40
1.5
 40
1.5
 40
1.5
 40
1.5
 40
0.18
 40
0.18
309
CELLMARGIN_END
 94
        6
 95
        1
302
GRIDFORMAT
  1
GRIDFORMAT_BEGIN
 90
        0
 91
        1
 62
     0
 92
       -2
340
0
 93
        0
 40
0.045
309
GRIDFORMAT_END
 95
        2
302
GRIDFORMAT
  1
GRIDFORMAT_BEGIN
 90
        0
 91
        1
 62
     0
 92
       -2
340
0
 93
        0
 40
0.045
309
GRIDFORMAT_END
 95
        4
302
GRIDFORMAT
  1
GRIDFORMAT_BEGIN
 90
        0
 91
        1
 62
     0
 92
       -2
340
0
 93
        0
 40
0.045
309
GRIDFORMAT_END
 95
        8
302
GRIDFORMAT
  1
GRIDFORMAT_BEGIN
 90
        0
 91
        1
 62
     0
 92
       -2
340
0
 93
        0
 40
0.045
309
GRIDFORMAT_END
 95
       16
302
GRIDFORMAT
  1
GRIDFORMAT_BEGIN
 90
        0
 91
        1
 62
     0
 92
       -2
340
0
 93
        0
 40
0.045
309
GRIDFORMAT_END
 95
       32
302
GRIDFORMAT
  1
GRIDFORMAT_BEGIN
 90
        0
 91
        1
 62
     0
 92
       -2
340
0
 93
        0
 40
0.045
309
GRIDFORMAT_END
309
TABLEFORMAT_END
  1
CELLSTYLE_BEGIN
 90
        2
 91
        1
300
_HEADER
309
CELLSTYLE_END
300
CELLSTYLE
  1
TABLEFORMAT_BEGIN
 90
        5
170
     1
 91
        0
 92
        0
 62
   257
 93
        1
300
CONTENTFORMAT
  1
CONTENTFORMAT_BEGIN
 90
        0
 91
        0
 92
        4
 93
        0
300

 40
0.0
140
1.0
 94
        2
 62
     0
340
11
144
4.5
309
CONTENTFORMAT_END
171
     1
301
MARGIN
  1
CELLMARGIN_BEGIN
 40
1.5
 40
1.5
 40
1.5
 40
1.5
 40
0.18
 40
0.18
309
CELLMARGIN_END
 94
        6
 95
        1
302
GRIDFORMAT
  1
GRIDFORMAT_BEGIN
 90
        0
 91
        1
 62
     0
 92
       -2
340
0
 93
        0
 40
0.045
309
GRIDFORMAT_END
 95
        2
302
GRIDFORMAT
  1
GRIDFORMAT_BEGIN
 90
        0
 91
        1
 62
     0
 92
       -2
340
0
 93
        0
 40
0.045
309
GRIDFORMAT_END
 95
        4
302
GRIDFORMAT
  1
GRIDFORMAT_BEGIN
 90
        0
 91
        1
 62
     0
 92
       -2
340
0
 93
        0
 40
0.045
309
GRIDFORMAT_END
 95
        8
302
GRIDFORMAT
  1
GRIDFORMAT_BEGIN
 90
        0
 91
        1
 62
     0
 92
       -2
340
0
 93
        0
 40
0.045
309
GRIDFORMAT_END
 95
       16
302
GRIDFORMAT
  1
GRIDFORMAT_BEGIN
 90
        0
 91
        1
 62
     0
 92
       -2
340
0
 93
        0
 40
0.045
309
GRIDFORMAT_END
 95
       32
302
GRIDFORMAT
  1
GRIDFORMAT_BEGIN
 90
        0
 91
        1
 62
     0
 92
       -2
340
0
 93
        0
 40
0.045
309
GRIDFORMAT_END
309
TABLEFORMAT_END
  1
CELLSTYLE_BEGIN
 90
        3
 91
        2
300
_DATA
309
CELLSTYLE_END
  0
XRECORD
  5
CAE
102
{ACAD_REACTORS
330
B89
102
}
330
B89
100
AcDbXrecord
280
     1
102
ACAD_ROUNDTRIP_PRE2007_TABLESTYLE
 90
        4
 91
        0
  1

 92
        4
 93
        0
  2

 94
        4
 95
        0
  3

  0
XRECORD
  5
C87
102
{ACAD_REACTORS
330
C86
102
}
330
C86
100
AcDbXrecord
280
     1
102
RTVSPost2010Prop28
280
     1
102
RTVSPost2010PropOp28
 70
     1
102
RTVSPost2010Prop29
280
     1
102
RTVSPost2010PropOp29
 70
     1
102
RTVSPost2010Prop30
280
     0
102
RTVSPost2010PropOp30
 70
     1
102
RTVSPost2010Prop31
280
     0
102
RTVSPost2010PropOp31
 70
     1
102
RTVSPost2010Prop32
280
     0
102
RTVSPost2010PropOp32
 70
     1
102
RTVSPost2010Prop33
280
     0
102
RTVSPost2010PropOp33
 70
     1
102
RTVSPost2010Prop34
280
     0
102
RTVSPost2010PropOp34
 70
     1
102
RTVSPost2010Prop35
280
     0
102
RTVSPost2010PropOp35
 70
     1
102
RTVSPost2010Prop36
280
     0
102
RTVSPost2010PropOp36
 70
     1
102
RTVSPost2010Prop37
 90
       50
102
RTVSPost2010PropOp37
 70
     1
102
RTVSPost2010Prop38
140
0.0
102
RTVSPost2010PropOp38
 70
     1
102
RTVSPost2010Prop39
140
1.0
102
RTVSPost2010PropOp39
 70
     1
102
RTVSPost2010Prop40
 90
        0
102
RTVSPost2010PropOp40
 70
     1
102
RTVSPost2010Prop41ColorIndex
 90
       18
102
RTVSPost2010Prop41ColorRGB
 90
        0
102
RTVSPost2010PropOp41
 70
     1
102
RTVSPost2010Prop42
 90
       50
102
RTVSPost2010PropOp42
 70
     1
102
RTVSPost2010Prop43
 90
        3
102
RTVSPost2010PropOp43
 70
     1
102
RTVSPost2010Prop44ColorIndex
 90
        5
102
RTVSPost2010Prop44ColorRGB
 90
      255
102
RTVSPost2010PropOp44
 70
     1
102
RTVSPost2010Prop45
280
     0
102
RTVSPost2010PropOp45
 70
     1
102
RTVSPost2010Prop46
 90
       50
102
RTVSPost2010PropOp46
 70
     1
102
RTVSPost2010Prop47
 90
       50
102
RTVSPost2010PropOp47
 70
     1
102
RTVSPost2010Prop48
 90
       50
102
RTVSPost2010PropOp48
 70
     1
102
RTVSPost2010Prop49
280
     0
102
RTVSPost2010PropOp49
 70
     1
102
RTVSPost2010Prop50
 90
       50
102
RTVSPost2010PropOp50
 70
     1
102
RTVSPost2010Prop51ColorIndex
 90
      256
102
RTVSPost2010Prop51ColorRGB
 90
-16777216
102
RTVSPost2010PropOp51
 70
     0
102
RTVSPost2010Prop52
140
1.0
102
RTVSPost2010PropOp52
 70
     0
102
RTVSPost2010Prop53
 90
        2
102
RTVSPost2010PropOp53
 70
     1
102
RTVSPost2010Prop54
  1
strokes_ogs.tif
102
RTVSPost2010PropOp54
 70
     1
102
RTVSPost2010Prop55
280
     0
102
RTVSPost2010PropOp55
 70
     1
102
RTVSPost2010Prop56
140
1.0
102
RTVSPost2010PropOp56
 70
     1
102
RTVSPost2010Prop57
140
1.0
102
RTVSPost2010PropOp57
 70
     1
102
RTVSPropertyOp0
 70
     1
102
RTVSPropertyOp1
 70
     1
102
RTVSPropertyOp2
 70
     1
102
RTVSPropertyOp3
 70
     1
102
RTVSPropertyOp4
 70
     1
102
RTVSPropertyOp5
 70
     1
102
RTVSPropertyOp6
 70
     1
102
RTVSPropertyOp7
 70
     1
102
RTVSPropertyOp8
 70
     1
102
RTVSPropertyOp9
 70
     1
102
RTVSPropertyOp10
 70
     1
102
RTVSPropertyOp11
 70
     1
102
RTVSPropertyOp12
 70
     1
102
RTVSPropertyOp13
 70
     1
102
RTVSPropertyOp14
 70
     1
102
RTVSPropertyOp15
 70
     1
102
RTVSPropertyOp16
 70
     1
102
RTVSPropertyOp17
 70
     1
102
RTVSPropertyOp18
 70
     1
102
RTVSPropertyOp19
 70
     1
102
RTVSPropertyOp20
 70
     1
102
RTVSPropertyOp21
 70
     1
102
RTVSPropertyOp22
 70
     1
102
RTVSPropertyOp23
 70
     1
102
RTVSPropertyOp24
 70
     1
102
RTVSPropertyOp25
 70
     1
102
RTVSPropertyOp26
 70
     1
102
RTVSPropertyOp27
 70
     1
102
RTVSPropertyOp28
 70
     1
102
RTVSPropertyOp29
 70
     1
102
RTVSPropertyOp30
 70
     1
102
RTVSPropertyOp31
 70
     1
102
RTVSPropertyOp32
 70
     1
102
RTVSPropertyOp33
 70
     1
102
RTVSPropertyOp34
 70
     1
102
RTVSPropertyOp35
 70
     1
102
RTVSPropertyOp36
 70
     1
102
RTVSPropertyOp37
 70
     1
102
RTVSPropertyOp38
 70
     1
102
RTVSPropertyOp39
 70
     1
102
RTVSPropertyOp40
 70
     1
102
RTVSPropertyOp41
 70
     1
102
RTVSPropertyOp42
 70
     1
102
RTVSPropertyOp43
 70
     1
102
RTVSPropertyOp44
 70
     1
102
RTVSPropertyOp45
 70
     1
102
RTVSPropertyOp46
 70
     1
102
RTVSPropertyOp47
 70
     1
102
RTVSPropertyOp48
 70
     1
102
RTVSPropertyOp49
 70
     1
102
RTVSPropertyOp50
 70
     1
102
RTVSPropertyOp51
 70
     0
102
RTVSPropertyOp52
 70
     0
102
RTVSPropertyOp53
 70
     1
102
RTVSPropertyOp54
 70
     1
102
RTVSPropertyOp55
 70
     1
102
RTVSPropertyOp56
 70
     1
102
RTVSPropertyOp57
 70
     1
102
RTVSPropertyOp58
 70
     1
102
RTVSPropertyOp59
 70
     1
102
RTVSPropertyOp60
 70
     1
102
RTVSPropertyOp61
 70
     1
102
RTVSPropertyOp62
 70
     1
  0
XRECORD
  5
C8D
102
{ACAD_REACTORS
330
C8C
102
}
330
C8C
100
AcDbXrecord
280
     1
102
RTVSPost2010Prop28
280
     0
102
RTVSPost2010PropOp28
 70
     1
102
RTVSPost2010Prop29
280
     1
102
RTVSPost2010PropOp29
 70
     1
102
RTVSPost2010Prop30
280
     1
102
RTVSPost2010PropOp30
 70
     1
102
RTVSPost2010Prop31
280
     0
102
RTVSPost2010PropOp31
 70
     1
102
RTVSPost2010Prop32
280
     0
102
RTVSPost2010PropOp32
 70
     1
102
RTVSPost2010Prop33
280
     0
102
RTVSPost2010PropOp33
 70
     1
102
RTVSPost2010Prop34
280
     0
102
RTVSPost2010PropOp34
 70
     1
102
RTVSPost2010Prop35
280
     0
102
RTVSPost2010PropOp35
 70
     1
102
RTVSPost2010Prop36
280
     0
102
RTVSPost2010PropOp36
 70
     1
102
RTVSPost2010Prop37
 90
       50
102
RTVSPost2010PropOp37
 70
     1
102
RTVSPost2010Prop38
140
0.0
102
RTVSPost2010PropOp38
 70
     1
102
RTVSPost2010Prop39
140
1.0
102
RTVSPost2010PropOp39
 70
     1
102
RTVSPost2010Prop40
 90
        0
102
RTVSPost2010PropOp40
 70
     1
102
RTVSPost2010Prop41ColorIndex
 90
       18
102
RTVSPost2010Prop41ColorRGB
 90
        0
102
RTVSPost2010PropOp41
 70
     1
102
RTVSPost2010Prop42
 90
       50
102
RTVSPost2010PropOp42
 70
     1
102
RTVSPost2010Prop43
 90
        3
102
RTVSPost2010PropOp43
 70
     1
102
RTVSPost2010Prop44ColorIndex
 90
        5
102
RTVSPost2010Prop44ColorRGB
 90
      255
102
RTVSPost2010PropOp44
 70
     1
102
RTVSPost2010Prop45
280
     0
102
RTVSPost2010PropOp45
 70
     1
102
RTVSPost2010Prop46
 90
       50
102
RTVSPost2010PropOp46
 70
     1
102
RTVSPost2010Prop47
 90
       50
102
RTVSPost2010PropOp47
 70
     1
102
RTVSPost2010Prop48
 90
       50
102
RTVSPost2010PropOp48
 70
     1
102
RTVSPost2010Prop49
280
     0
102
RTVSPost2010PropOp49
 70
     1
102
RTVSPost2010Prop50
 90
       50
102
RTVSPost2010PropOp50
 70
     1
102
RTVSPost2010Prop51ColorIndex
 90
      256
102
RTVSPost2010Prop51ColorRGB
 90
-16777216
102
RTVSPost2010PropOp51
 70
     0
102
RTVSPost2010Prop52
140
1.0
102
RTVSPost2010PropOp52
 70
     0
102
RTVSPost2010Prop53
 90
        2
102
RTVSPost2010PropOp53
 70
     1
102
RTVSPost2010Prop54
  1
strokes_ogs.tif
102
RTVSPost2010PropOp54
 70
     1
102
RTVSPost2010Prop55
280
     0
102
RTVSPost2010PropOp55
 70
     1
102
RTVSPost2010Prop56
140
1.0
102
RTVSPost2010PropOp56
 70
     1
102
RTVSPost2010Prop57
140
1.0
102
RTVSPost2010PropOp57
 70
     1
102
RTVSPropertyOp0
 70
     1
102
RTVSPropertyOp1
 70
     1
102
RTVSPropertyOp2
 70
     1
102
RTVSPropertyOp3
 70
     1
102
RTVSPropertyOp4
 70
     1
102
RTVSPropertyOp5
 70
     1
102
RTVSPropertyOp6
 70
     1
102
RTVSPropertyOp7
 70
     1
102
RTVSPropertyOp8
 70
     1
102
RTVSPropertyOp9
 70
     1
102
RTVSPropertyOp10
 70
     1
102
RTVSPropertyOp11
 70
     1
102
RTVSPropertyOp12
 70
     1
102
RTVSPropertyOp13
 70
     1
102
RTVSPropertyOp14
 70
     1
102
RTVSPropertyOp15
 70
     1
102
RTVSPropertyOp16
 70
     1
102
RTVSPropertyOp17
 70
     1
102
RTVSPropertyOp18
 70
     1
102
RTVSPropertyOp19
 70
     1
102
RTVSPropertyOp20
 70
     1
102
RTVSPropertyOp21
 70
     1
102
RTVSPropertyOp22
 70
     1
102
RTVSPropertyOp23
 70
     1
102
RTVSPropertyOp24
 70
     1
102
RTVSPropertyOp25
 70
     1
102
RTVSPropertyOp26
 70
     1
102
RTVSPropertyOp27
 70
     1
102
RTVSPropertyOp28
 70
     1
102
RTVSPropertyOp29
 70
     1
102
RTVSPropertyOp30
 70
     1
102
RTVSPropertyOp31
 70
     1
102
RTVSPropertyOp32
 70
     1
102
RTVSPropertyOp33
 70
     1
102
RTVSPropertyOp34
 70
     1
102
RTVSPropertyOp35
 70
     1
102
RTVSPropertyOp36
 70
     1
102
RTVSPropertyOp37
 70
     1
102
RTVSPropertyOp38
 70
     1
102
RTVSPropertyOp39
 70
     1
102
RTVSPropertyOp40
 70
     1
102
RTVSPropertyOp41
 70
     1
102
RTVSPropertyOp42
 70
     1
102
RTVSPropertyOp43
 70
     1
102
RTVSPropertyOp44
 70
     1
102
RTVSPropertyOp45
 70
     1
102
RTVSPropertyOp46
 70
     1
102
RTVSPropertyOp47
 70
     1
102
RTVSPropertyOp48
 70
     1
102
RTVSPropertyOp49
 70
     1
102
RTVSPropertyOp50
 70
     1
102
RTVSPropertyOp51
 70
     0
102
RTVSPropertyOp52
 70
     0
102
RTVSPropertyOp53
 70
     1
102
RTVSPropertyOp54
 70
     1
102
RTVSPropertyOp55
 70
     1
102
RTVSPropertyOp56
 70
     1
102
RTVSPropertyOp57
 70
     1
102
RTVSPropertyOp58
 70
     1
102
RTVSPropertyOp59
 70
     1
102
RTVSPropertyOp60
 70
     1
102
RTVSPropertyOp61
 70
     1
102
RTVSPropertyOp62
 70
     1
  0
XRECORD
  5
C95
102
{ACAD_REACTORS
330
C94
102
}
330
C94
100
AcDbXrecord
280
     1
102
RTVSPost2010Prop28
280
     0
102
RTVSPost2010PropOp28
 70
     1
102
RTVSPost2010Prop29
280
     1
102
RTVSPost2010PropOp29
 70
     1
102
RTVSPost2010Prop30
280
     1
102
RTVSPost2010PropOp30
 70
     1
102
RTVSPost2010Prop31
280
     0
102
RTVSPost2010PropOp31
 70
     1
102
RTVSPost2010Prop32
280
     0
102
RTVSPost2010PropOp32
 70
     1
102
RTVSPost2010Prop33
280
     0
102
RTVSPost2010PropOp33
 70
     1
102
RTVSPost2010Prop34
280
     0
102
RTVSPost2010PropOp34
 70
     1
102
RTVSPost2010Prop35
280
     0
102
RTVSPost2010PropOp35
 70
     1
102
RTVSPost2010Prop36
280
     0
102
RTVSPost2010PropOp36
 70
     1
102
RTVSPost2010Prop37
 90
       50
102
RTVSPost2010PropOp37
 70
     1
102
RTVSPost2010Prop38
140
0.0
102
RTVSPost2010PropOp38
 70
     1
102
RTVSPost2010Prop39
140
1.0
102
RTVSPost2010PropOp39
 70
     1
102
RTVSPost2010Prop40
 90
        0
102
RTVSPost2010PropOp40
 70
     1
102
RTVSPost2010Prop41ColorIndex
 90
       18
102
RTVSPost2010Prop41ColorRGB
 90
        0
102
RTVSPost2010PropOp41
 70
     1
102
RTVSPost2010Prop42
 90
       50
102
RTVSPost2010PropOp42
 70
     1
102
RTVSPost2010Prop43
 90
        3
102
RTVSPost2010PropOp43
 70
     1
102
RTVSPost2010Prop44ColorIndex
 90
        5
102
RTVSPost2010Prop44ColorRGB
 90
      255
102
RTVSPost2010PropOp44
 70
     1
102
RTVSPost2010Prop45
280
     0
102
RTVSPost2010PropOp45
 70
     1
102
RTVSPost2010Prop46
 90
       50
102
RTVSPost2010PropOp46
 70
     1
102
RTVSPost2010Prop47
 90
       50
102
RTVSPost2010PropOp47
 70
     1
102
RTVSPost2010Prop48
 90
       50
102
RTVSPost2010PropOp48
 70
     1
102
RTVSPost2010Prop49
280
     0
102
RTVSPost2010PropOp49
 70
     1
102
RTVSPost2010Prop50
 90
       50
102
RTVSPost2010PropOp50
 70
     1
102
RTVSPost2010Prop51ColorIndex
 90
      256
102
RTVSPost2010Prop51ColorRGB
 90
-16777216
102
RTVSPost2010PropOp51
 70
     0
102
RTVSPost2010Prop52
140
1.0
102
RTVSPost2010PropOp52
 70
     0
102
RTVSPost2010Prop53
 90
        2
102
RTVSPost2010PropOp53
 70
     1
102
RTVSPost2010Prop54
  1
strokes_ogs.tif
102
RTVSPost2010PropOp54
 70
     1
102
RTVSPost2010Prop55
280
     0
102
RTVSPost2010PropOp55
 70
     1
102
RTVSPost2010Prop56
140
1.0
102
RTVSPost2010PropOp56
 70
     1
102
RTVSPost2010Prop57
140
1.0
102
RTVSPost2010PropOp57
 70
     1
102
RTVSPropertyOp0
 70
     1
102
RTVSPropertyOp1
 70
     1
102
RTVSPropertyOp2
 70
     1
102
RTVSPropertyOp3
 70
     1
102
RTVSPropertyOp4
 70
     1
102
RTVSPropertyOp5
 70
     1
102
RTVSPropertyOp6
 70
     1
102
RTVSPropertyOp7
 70
     1
102
RTVSPropertyOp8
 70
     1
102
RTVSPropertyOp9
 70
     1
102
RTVSPropertyOp10
 70
     1
102
RTVSPropertyOp11
 70
     1
102
RTVSPropertyOp12
 70
     1
102
RTVSPropertyOp13
 70
     1
102
RTVSPropertyOp14
 70
     1
102
RTVSPropertyOp15
 70
     1
102
RTVSPropertyOp16
 70
     1
102
RTVSPropertyOp17
 70
     1
102
RTVSPropertyOp18
 70
     1
102
RTVSPropertyOp19
 70
     1
102
RTVSPropertyOp20
 70
     1
102
RTVSPropertyOp21
 70
     1
102
RTVSPropertyOp22
 70
     1
102
RTVSPropertyOp23
 70
     1
102
RTVSPropertyOp24
 70
     1
102
RTVSPropertyOp25
 70
     1
102
RTVSPropertyOp26
 70
     1
102
RTVSPropertyOp27
 70
     1
102
RTVSPropertyOp28
 70
     1
102
RTVSPropertyOp29
 70
     1
102
RTVSPropertyOp30
 70
     1
102
RTVSPropertyOp31
 70
     1
102
RTVSPropertyOp32
 70
     1
102
RTVSPropertyOp33
 70
     1
102
RTVSPropertyOp34
 70
     1
102
RTVSPropertyOp35
 70
     1
102
RTVSPropertyOp36
 70
     1
102
RTVSPropertyOp37
 70
     1
102
RTVSPropertyOp38
 70
     1
102
RTVSPropertyOp39
 70
     1
102
RTVSPropertyOp40
 70
     1
102
RTVSPropertyOp41
 70
     1
102
RTVSPropertyOp42
 70
     1
102
RTVSPropertyOp43
 70
     1
102
RTVSPropertyOp44
 70
     1
102
RTVSPropertyOp45
 70
     1
102
RTVSPropertyOp46
 70
     1
102
RTVSPropertyOp47
 70
     1
102
RTVSPropertyOp48
 70
     1
102
RTVSPropertyOp49
 70
     1
102
RTVSPropertyOp50
 70
     1
102
RTVSPropertyOp51
 70
     0
102
RTVSPropertyOp52
 70
     0
102
RTVSPropertyOp53
 70
     1
102
RTVSPropertyOp54
 70
     1
102
RTVSPropertyOp55
 70
     1
102
RTVSPropertyOp56
 70
     1
102
RTVSPropertyOp57
 70
     1
102
RTVSPropertyOp58
 70
     1
102
RTVSPropertyOp59
 70
     1
102
RTVSPropertyOp60
 70
     1
102
RTVSPropertyOp61
 70
     1
102
RTVSPropertyOp62
 70
     1
  0
XRECORD
  5
C9D
102
{ACAD_REACTORS
330
C9C
102
}
330
C9C
100
AcDbXrecord
280
     1
102
RTVSPost2010Prop28
280
     0
102
RTVSPost2010PropOp28
 70
     1
102
RTVSPost2010Prop29
280
     1
102
RTVSPost2010PropOp29
 70
     1
102
RTVSPost2010Prop30
280
     1
102
RTVSPost2010PropOp30
 70
     1
102
RTVSPost2010Prop31
280
     0
102
RTVSPost2010PropOp31
 70
     1
102
RTVSPost2010Prop32
280
     0
102
RTVSPost2010PropOp32
 70
     1
102
RTVSPost2010Prop33
280
     0
102
RTVSPost2010PropOp33
 70
     1
102
RTVSPost2010Prop34
280
     0
102
RTVSPost2010PropOp34
 70
     1
102
RTVSPost2010Prop35
280
     0
102
RTVSPost2010PropOp35
 70
     1
102
RTVSPost2010Prop36
280
     0
102
RTVSPost2010PropOp36
 70
     1
102
RTVSPost2010Prop37
 90
       50
102
RTVSPost2010PropOp37
 70
     1
102
RTVSPost2010Prop38
140
0.0
102
RTVSPost2010PropOp38
 70
     1
102
RTVSPost2010Prop39
140
1.0
102
RTVSPost2010PropOp39
 70
     1
102
RTVSPost2010Prop40
 90
        0
102
RTVSPost2010PropOp40
 70
     1
102
RTVSPost2010Prop41ColorIndex
 90
       18
102
RTVSPost2010Prop41ColorRGB
 90
        0
102
RTVSPost2010PropOp41
 70
     1
102
RTVSPost2010Prop42
 90
       50
102
RTVSPost2010PropOp42
 70
     1
102
RTVSPost2010Prop43
 90
        3
102
RTVSPost2010PropOp43
 70
     1
102
RTVSPost2010Prop44ColorIndex
 90
        5
102
RTVSPost2010Prop44ColorRGB
 90
      255
102
RTVSPost2010PropOp44
 70
     1
102
RTVSPost2010Prop45
280
     0
102
RTVSPost2010PropOp45
 70
     1
102
RTVSPost2010Prop46
 90
       50
102
RTVSPost2010PropOp46
 70
     1
102
RTVSPost2010Prop47
 90
       50
102
RTVSPost2010PropOp47
 70
     1
102
RTVSPost2010Prop48
 90
       50
102
RTVSPost2010PropOp48
 70
     1
102
RTVSPost2010Prop49
280
     0
102
RTVSPost2010PropOp49
 70
     1
102
RTVSPost2010Prop50
 90
       50
102
RTVSPost2010PropOp50
 70
     1
102
RTVSPost2010Prop51ColorIndex
 90
      256
102
RTVSPost2010Prop51ColorRGB
 90
-16777216
102
RTVSPost2010PropOp51
 70
     0
102
RTVSPost2010Prop52
140
1.0
102
RTVSPost2010PropOp52
 70
     0
102
RTVSPost2010Prop53
 90
        2
102
RTVSPost2010PropOp53
 70
     1
102
RTVSPost2010Prop54
  1
strokes_ogs.tif
102
RTVSPost2010PropOp54
 70
     1
102
RTVSPost2010Prop55
280
     0
102
RTVSPost2010PropOp55
 70
     1
102
RTVSPost2010Prop56
140
1.0
102
RTVSPost2010PropOp56
 70
     1
102
RTVSPost2010Prop57
140
1.0
102
RTVSPost2010PropOp57
 70
     1
102
RTVSPropertyOp0
 70
     1
102
RTVSPropertyOp1
 70
     1
102
RTVSPropertyOp2
 70
     1
102
RTVSPropertyOp3
 70
     1
102
RTVSPropertyOp4
 70
     1
102
RTVSPropertyOp5
 70
     1
102
RTVSPropertyOp6
 70
     1
102
RTVSPropertyOp7
 70
     1
102
RTVSPropertyOp8
 70
     1
102
RTVSPropertyOp9
 70
     1
102
RTVSPropertyOp10
 70
     1
102
RTVSPropertyOp11
 70
     1
102
RTVSPropertyOp12
 70
     1
102
RTVSPropertyOp13
 70
     1
102
RTVSPropertyOp14
 70
     1
102
RTVSPropertyOp15
 70
     1
102
RTVSPropertyOp16
 70
     1
102
RTVSPropertyOp17
 70
     1
102
RTVSPropertyOp18
 70
     1
102
RTVSPropertyOp19
 70
     1
102
RTVSPropertyOp20
 70
     1
102
RTVSPropertyOp21
 70
     1
102
RTVSPropertyOp22
 70
     1
102
RTVSPropertyOp23
 70
     1
102
RTVSPropertyOp24
 70
     1
102
RTVSPropertyOp25
 70
     1
102
RTVSPropertyOp26
 70
     1
102
RTVSPropertyOp27
 70
     1
102
RTVSPropertyOp28
 70
     1
102
RTVSPropertyOp29
 70
     1
102
RTVSPropertyOp30
 70
     1
102
RTVSPropertyOp31
 70
     1
102
RTVSPropertyOp32
 70
     1
102
RTVSPropertyOp33
 70
     1
102
RTVSPropertyOp34
 70
     1
102
RTVSPropertyOp35
 70
     1
102
RTVSPropertyOp36
 70
     1
102
RTVSPropertyOp37
 70
     1
102
RTVSPropertyOp38
 70
     1
102
RTVSPropertyOp39
 70
     1
102
RTVSPropertyOp40
 70
     1
102
RTVSPropertyOp41
 70
     1
102
RTVSPropertyOp42
 70
     1
102
RTVSPropertyOp43
 70
     1
102
RTVSPropertyOp44
 70
     1
102
RTVSPropertyOp45
 70
     1
102
RTVSPropertyOp46
 70
     1
102
RTVSPropertyOp47
 70
     1
102
RTVSPropertyOp48
 70
     1
102
RTVSPropertyOp49
 70
     1
102
RTVSPropertyOp50
 70
     1
102
RTVSPropertyOp51
 70
     0
102
RTVSPropertyOp52
 70
     0
102
RTVSPropertyOp53
 70
     1
102
RTVSPropertyOp54
 70
     1
102
RTVSPropertyOp55
 70
     1
102
RTVSPropertyOp56
 70
     1
102
RTVSPropertyOp57
 70
     1
102
RTVSPropertyOp58
 70
     1
102
RTVSPropertyOp59
 70
     1
102
RTVSPropertyOp60
 70
     1
102
RTVSPropertyOp61
 70
     1
102
RTVSPropertyOp62
 70
     1
  0
XRECORD
  5
C91
102
{ACAD_REACTORS
330
C90
102
}
330
C90
100
AcDbXrecord
280
     1
102
RTVSPost2010Prop28
280
     0
102
RTVSPost2010PropOp28
 70
     1
102
RTVSPost2010Prop29
280
     1
102
RTVSPost2010PropOp29
 70
     1
102
RTVSPost2010Prop30
280
     1
102
RTVSPost2010PropOp30
 70
     1
102
RTVSPost2010Prop31
280
     0
102
RTVSPost2010PropOp31
 70
     1
102
RTVSPost2010Prop32
280
     0
102
RTVSPost2010PropOp32
 70
     1
102
RTVSPost2010Prop33
280
     0
102
RTVSPost2010PropOp33
 70
     1
102
RTVSPost2010Prop34
280
     0
102
RTVSPost2010PropOp34
 70
     1
102
RTVSPost2010Prop35
280
     0
102
RTVSPost2010PropOp35
 70
     1
102
RTVSPost2010Prop36
280
     0
102
RTVSPost2010PropOp36
 70
     1
102
RTVSPost2010Prop37
 90
       50
102
RTVSPost2010PropOp37
 70
     1
102
RTVSPost2010Prop38
140
0.0
102
RTVSPost2010PropOp38
 70
     1
102
RTVSPost2010Prop39
140
1.0
102
RTVSPost2010PropOp39
 70
     1
102
RTVSPost2010Prop40
 90
        0
102
RTVSPost2010PropOp40
 70
     1
102
RTVSPost2010Prop41ColorIndex
 90
       18
102
RTVSPost2010Prop41ColorRGB
 90
        0
102
RTVSPost2010PropOp41
 70
     1
102
RTVSPost2010Prop42
 90
       50
102
RTVSPost2010PropOp42
 70
     1
102
RTVSPost2010Prop43
 90
        3
102
RTVSPost2010PropOp43
 70
     1
102
RTVSPost2010Prop44ColorIndex
 90
        5
102
RTVSPost2010Prop44ColorRGB
 90
      255
102
RTVSPost2010PropOp44
 70
     1
102
RTVSPost2010Prop45
280
     0
102
RTVSPost2010PropOp45
 70
     1
102
RTVSPost2010Prop46
 90
       50
102
RTVSPost2010PropOp46
 70
     1
102
RTVSPost2010Prop47
 90
       50
102
RTVSPost2010PropOp47
 70
     1
102
RTVSPost2010Prop48
 90
       50
102
RTVSPost2010PropOp48
 70
     1
102
RTVSPost2010Prop49
280
     0
102
RTVSPost2010PropOp49
 70
     1
102
RTVSPost2010Prop50
 90
       50
102
RTVSPost2010PropOp50
 70
     1
102
RTVSPost2010Prop51ColorIndex
 90
      256
102
RTVSPost2010Prop51ColorRGB
 90
-16777216
102
RTVSPost2010PropOp51
 70
     0
102
RTVSPost2010Prop52
140
1.0
102
RTVSPost2010PropOp52
 70
     0
102
RTVSPost2010Prop53
 90
        2
102
RTVSPost2010PropOp53
 70
     1
102
RTVSPost2010Prop54
  1
strokes_ogs.tif
102
RTVSPost2010PropOp54
 70
     1
102
RTVSPost2010Prop55
280
     0
102
RTVSPost2010PropOp55
 70
     1
102
RTVSPost2010Prop56
140
1.0
102
RTVSPost2010PropOp56
 70
     1
102
RTVSPost2010Prop57
140
1.0
102
RTVSPost2010PropOp57
 70
     1
102
RTVSPropertyOp0
 70
     1
102
RTVSPropertyOp1
 70
     1
102
RTVSPropertyOp2
 70
     1
102
RTVSPropertyOp3
 70
     1
102
RTVSPropertyOp4
 70
     1
102
RTVSPropertyOp5
 70
     1
102
RTVSPropertyOp6
 70
     1
102
RTVSPropertyOp7
 70
     1
102
RTVSPropertyOp8
 70
     1
102
RTVSPropertyOp9
 70
     1
102
RTVSPropertyOp10
 70
     1
102
RTVSPropertyOp11
 70
     1
102
RTVSPropertyOp12
 70
     1
102
RTVSPropertyOp13
 70
     1
102
RTVSPropertyOp14
 70
     1
102
RTVSPropertyOp15
 70
     1
102
RTVSPropertyOp16
 70
     1
102
RTVSPropertyOp17
 70
     1
102
RTVSPropertyOp18
 70
     1
102
RTVSPropertyOp19
 70
     1
102
RTVSPropertyOp20
 70
     1
102
RTVSPropertyOp21
 70
     1
102
RTVSPropertyOp22
 70
     1
102
RTVSPropertyOp23
 70
     1
102
RTVSPropertyOp24
 70
     1
102
RTVSPropertyOp25
 70
     1
102
RTVSPropertyOp26
 70
     1
102
RTVSPropertyOp27
 70
     1
102
RTVSPropertyOp28
 70
     1
102
RTVSPropertyOp29
 70
     1
102
RTVSPropertyOp30
 70
     1
102
RTVSPropertyOp31
 70
     1
102
RTVSPropertyOp32
 70
     1
102
RTVSPropertyOp33
 70
     1
102
RTVSPropertyOp34
 70
     1
102
RTVSPropertyOp35
 70
     1
102
RTVSPropertyOp36
 70
     1
102
RTVSPropertyOp37
 70
     1
102
RTVSPropertyOp38
 70
     1
102
RTVSPropertyOp39
 70
     1
102
RTVSPropertyOp40
 70
     1
102
RTVSPropertyOp41
 70
     1
102
RTVSPropertyOp42
 70
     1
102
RTVSPropertyOp43
 70
     1
102
RTVSPropertyOp44
 70
     1
102
RTVSPropertyOp45
 70
     1
102
RTVSPropertyOp46
 70
     1
102
RTVSPropertyOp47
 70
     1
102
RTVSPropertyOp48
 70
     1
102
RTVSPropertyOp49
 70
     1
102
RTVSPropertyOp50
 70
     1
102
RTVSPropertyOp51
 70
     0
102
RTVSPropertyOp52
 70
     0
102
RTVSPropertyOp53
 70
     1
102
RTVSPropertyOp54
 70
     1
102
RTVSPropertyOp55
 70
     1
102
RTVSPropertyOp56
 70
     1
102
RTVSPropertyOp57
 70
     1
102
RTVSPropertyOp58
 70
     1
102
RTVSPropertyOp59
 70
     1
102
RTVSPropertyOp60
 70
     1
102
RTVSPropertyOp61
 70
     1
102
RTVSPropertyOp62
 70
     1
  0
XRECORD
  5
C93
102
{ACAD_REACTORS
330
C92
102
}
330
C92
100
AcDbXrecord
280
     1
102
RTVSPost2010Prop28
280
     0
102
RTVSPost2010PropOp28
 70
     1
102
RTVSPost2010Prop29
280
     1
102
RTVSPost2010PropOp29
 70
     1
102
RTVSPost2010Prop30
280
     1
102
RTVSPost2010PropOp30
 70
     1
102
RTVSPost2010Prop31
280
     0
102
RTVSPost2010PropOp31
 70
     1
102
RTVSPost2010Prop32
280
     0
102
RTVSPost2010PropOp32
 70
     1
102
RTVSPost2010Prop33
280
     0
102
RTVSPost2010PropOp33
 70
     1
102
RTVSPost2010Prop34
280
     0
102
RTVSPost2010PropOp34
 70
     1
102
RTVSPost2010Prop35
280
     0
102
RTVSPost2010PropOp35
 70
     1
102
RTVSPost2010Prop36
280
     0
102
RTVSPost2010PropOp36
 70
     1
102
RTVSPost2010Prop37
 90
       50
102
RTVSPost2010PropOp37
 70
     1
102
RTVSPost2010Prop38
140
0.0
102
RTVSPost2010PropOp38
 70
     1
102
RTVSPost2010Prop39
140
1.0
102
RTVSPost2010PropOp39
 70
     1
102
RTVSPost2010Prop40
 90
        0
102
RTVSPost2010PropOp40
 70
     1
102
RTVSPost2010Prop41ColorIndex
 90
       18
102
RTVSPost2010Prop41ColorRGB
 90
        0
102
RTVSPost2010PropOp41
 70
     1
102
RTVSPost2010Prop42
 90
       50
102
RTVSPost2010PropOp42
 70
     1
102
RTVSPost2010Prop43
 90
        3
102
RTVSPost2010PropOp43
 70
     1
102
RTVSPost2010Prop44ColorIndex
 90
        5
102
RTVSPost2010Prop44ColorRGB
 90
      255
102
RTVSPost2010PropOp44
 70
     1
102
RTVSPost2010Prop45
280
     0
102
RTVSPost2010PropOp45
 70
     1
102
RTVSPost2010Prop46
 90
       50
102
RTVSPost2010PropOp46
 70
     1
102
RTVSPost2010Prop47
 90
       50
102
RTVSPost2010PropOp47
 70
     1
102
RTVSPost2010Prop48
 90
       50
102
RTVSPost2010PropOp48
 70
     1
102
RTVSPost2010Prop49
280
     0
102
RTVSPost2010PropOp49
 70
     1
102
RTVSPost2010Prop50
 90
       50
102
RTVSPost2010PropOp50
 70
     1
102
RTVSPost2010Prop51ColorIndex
 90
      256
102
RTVSPost2010Prop51ColorRGB
 90
-16777216
102
RTVSPost2010PropOp51
 70
     0
102
RTVSPost2010Prop52
140
1.0
102
RTVSPost2010PropOp52
 70
     0
102
RTVSPost2010Prop53
 90
        2
102
RTVSPost2010PropOp53
 70
     1
102
RTVSPost2010Prop54
  1
strokes_ogs.tif
102
RTVSPost2010PropOp54
 70
     1
102
RTVSPost2010Prop55
280
     0
102
RTVSPost2010PropOp55
 70
     1
102
RTVSPost2010Prop56
140
1.0
102
RTVSPost2010PropOp56
 70
     1
102
RTVSPost2010Prop57
140
1.0
102
RTVSPost2010PropOp57
 70
     1
102
RTVSPropertyOp0
 70
     1
102
RTVSPropertyOp1
 70
     1
102
RTVSPropertyOp2
 70
     1
102
RTVSPropertyOp3
 70
     1
102
RTVSPropertyOp4
 70
     1
102
RTVSPropertyOp5
 70
     1
102
RTVSPropertyOp6
 70
     1
102
RTVSPropertyOp7
 70
     1
102
RTVSPropertyOp8
 70
     1
102
RTVSPropertyOp9
 70
     1
102
RTVSPropertyOp10
 70
     1
102
RTVSPropertyOp11
 70
     1
102
RTVSPropertyOp12
 70
     1
102
RTVSPropertyOp13
 70
     1
102
RTVSPropertyOp14
 70
     1
102
RTVSPropertyOp15
 70
     1
102
RTVSPropertyOp16
 70
     1
102
RTVSPropertyOp17
 70
     1
102
RTVSPropertyOp18
 70
     1
102
RTVSPropertyOp19
 70
     1
102
RTVSPropertyOp20
 70
     1
102
RTVSPropertyOp21
 70
     1
102
RTVSPropertyOp22
 70
     1
102
RTVSPropertyOp23
 70
     1
102
RTVSPropertyOp24
 70
     1
102
RTVSPropertyOp25
 70
     1
102
RTVSPropertyOp26
 70
     1
102
RTVSPropertyOp27
 70
     1
102
RTVSPropertyOp28
 70
     1
102
RTVSPropertyOp29
 70
     1
102
RTVSPropertyOp30
 70
     1
102
RTVSPropertyOp31
 70
     1
102
RTVSPropertyOp32
 70
     1
102
RTVSPropertyOp33
 70
     1
102
RTVSPropertyOp34
 70
     1
102
RTVSPropertyOp35
 70
     1
102
RTVSPropertyOp36
 70
     1
102
RTVSPropertyOp37
 70
     1
102
RTVSPropertyOp38
 70
     1
102
RTVSPropertyOp39
 70
     1
102
RTVSPropertyOp40
 70
     1
102
RTVSPropertyOp41
 70
     1
102
RTVSPropertyOp42
 70
     1
102
RTVSPropertyOp43
 70
     1
102
RTVSPropertyOp44
 70
     1
102
RTVSPropertyOp45
 70
     1
102
RTVSPropertyOp46
 70
     1
102
RTVSPropertyOp47
 70
     1
102
RTVSPropertyOp48
 70
     1
102
RTVSPropertyOp49
 70
     1
102
RTVSPropertyOp50
 70
     1
102
RTVSPropertyOp51
 70
     0
102
RTVSPropertyOp52
 70
     0
102
RTVSPropertyOp53
 70
     1
102
RTVSPropertyOp54
 70
     1
102
RTVSPropertyOp55
 70
     1
102
RTVSPropertyOp56
 70
     1
102
RTVSPropertyOp57
 70
     1
102
RTVSPropertyOp58
 70
     1
102
RTVSPropertyOp59
 70
     1
102
RTVSPropertyOp60
 70
     1
102
RTVSPropertyOp61
 70
     1
102
RTVSPropertyOp62
 70
     1
  0
XRECORD
  5
CA3
102
{ACAD_REACTORS
330
CA2
102
}
330
CA2
100
AcDbXrecord
280
     1
102
RTVSPost2010Prop28
280
     0
102
RTVSPost2010PropOp28
 70
     0
102
RTVSPost2010Prop29
280
     1
102
RTVSPost2010PropOp29
 70
     0
102
RTVSPost2010Prop30
280
     1
102
RTVSPost2010PropOp30
 70
     0
102
RTVSPost2010Prop31
280
     0
102
RTVSPost2010PropOp31
 70
     0
102
RTVSPost2010Prop32
280
     0
102
RTVSPost2010PropOp32
 70
     0
102
RTVSPost2010Prop33
280
     0
102
RTVSPost2010PropOp33
 70
     0
102
RTVSPost2010Prop34
280
     0
102
RTVSPost2010PropOp34
 70
     0
102
RTVSPost2010Prop35
280
     0
102
RTVSPost2010PropOp35
 70
     0
102
RTVSPost2010Prop36
280
     0
102
RTVSPost2010PropOp36
 70
     0
102
RTVSPost2010Prop37
 90
       50
102
RTVSPost2010PropOp37
 70
     0
102
RTVSPost2010Prop38
140
0.0
102
RTVSPost2010PropOp38
 70
     0
102
RTVSPost2010Prop39
140
1.0
102
RTVSPost2010PropOp39
 70
     0
102
RTVSPost2010Prop40
 90
        0
102
RTVSPost2010PropOp40
 70
     0
102
RTVSPost2010Prop41ColorIndex
 90
       18
102
RTVSPost2010Prop41ColorRGB
 90
        0
102
RTVSPost2010PropOp41
 70
     0
102
RTVSPost2010Prop42
 90
       50
102
RTVSPost2010PropOp42
 70
     0
102
RTVSPost2010Prop43
 90
        3
102
RTVSPost2010PropOp43
 70
     0
102
RTVSPost2010Prop44ColorIndex
 90
        5
102
RTVSPost2010Prop44ColorRGB
 90
      255
102
RTVSPost2010PropOp44
 70
     0
102
RTVSPost2010Prop45
280
     0
102
RTVSPost2010PropOp45
 70
     0
102
RTVSPost2010Prop46
 90
       50
102
RTVSPost2010PropOp46
 70
     0
102
RTVSPost2010Prop47
 90
       50
102
RTVSPost2010PropOp47
 70
     0
102
RTVSPost2010Prop48
 90
       50
102
RTVSPost2010PropOp48
 70
     0
102
RTVSPost2010Prop49
280
     0
102
RTVSPost2010PropOp49
 70
     0
102
RTVSPost2010Prop50
 90
       50
102
RTVSPost2010PropOp50
 70
     0
102
RTVSPost2010Prop51ColorIndex
 90
      256
102
RTVSPost2010Prop51ColorRGB
 90
-16777216
102
RTVSPost2010PropOp51
 70
     0
102
RTVSPost2010Prop52
140
1.0
102
RTVSPost2010PropOp52
 70
     0
102
RTVSPost2010Prop53
 90
        2
102
RTVSPost2010PropOp53
 70
     0
102
RTVSPost2010Prop54
  1
strokes_ogs.tif
102
RTVSPost2010PropOp54
 70
     0
102
RTVSPost2010Prop55
280
     0
102
RTVSPost2010PropOp55
 70
     0
102
RTVSPost2010Prop56
140
1.0
102
RTVSPost2010PropOp56
 70
     0
102
RTVSPost2010Prop57
140
1.0
102
RTVSPost2010PropOp57
 70
     0
102
RTVSPropertyOp0
 70
     0
102
RTVSPropertyOp1
 70
     0
102
RTVSPropertyOp2
 70
     0
102
RTVSPropertyOp3
 70
     0
102
RTVSPropertyOp4
 70
     0
102
RTVSPropertyOp5
 70
     0
102
RTVSPropertyOp6
 70
     0
102
RTVSPropertyOp7
 70
     0
102
RTVSPropertyOp8
 70
     0
102
RTVSPropertyOp9
 70
     0
102
RTVSPropertyOp10
 70
     0
102
RTVSPropertyOp11
 70
     0
102
RTVSPropertyOp12
 70
     0
102
RTVSPropertyOp13
 70
     0
102
RTVSPropertyOp14
 70
     2
102
RTVSPropertyOp15
 70
     0
102
RTVSPropertyOp16
 70
     0
102
RTVSPropertyOp17
 70
     0
102
RTVSPropertyOp18
 70
     0
102
RTVSPropertyOp19
 70
     0
102
RTVSPropertyOp20
 70
     0
102
RTVSPropertyOp21
 70
     0
102
RTVSPropertyOp22
 70
     0
102
RTVSPropertyOp23
 70
     0
102
RTVSPropertyOp24
 70
     0
102
RTVSPropertyOp25
 70
     0
102
RTVSPropertyOp26
 70
     0
102
RTVSPropertyOp27
 70
     0
102
RTVSPropertyOp28
 70
     0
102
RTVSPropertyOp29
 70
     0
102
RTVSPropertyOp30
 70
     0
102
RTVSPropertyOp31
 70
     0
102
RTVSPropertyOp32
 70
     0
102
RTVSPropertyOp33
 70
     0
102
RTVSPropertyOp34
 70
     0
102
RTVSPropertyOp35
 70
     0
102
RTVSPropertyOp36
 70
     0
102
RTVSPropertyOp37
 70
     0
102
RTVSPropertyOp38
 70
     0
102
RTVSPropertyOp39
 70
     0
102
RTVSPropertyOp40
 70
     0
102
RTVSPropertyOp41
 70
     0
102
RTVSPropertyOp42
 70
     0
102
RTVSPropertyOp43
 70
     0
102
RTVSPropertyOp44
 70
     0
102
RTVSPropertyOp45
 70
     0
102
RTVSPropertyOp46
 70
     0
102
RTVSPropertyOp47
 70
     0
102
RTVSPropertyOp48
 70
     0
102
RTVSPropertyOp49
 70
     0
102
RTVSPropertyOp50
 70
     0
102
RTVSPropertyOp51
 70
     0
102
RTVSPropertyOp52
 70
     0
102
RTVSPropertyOp53
 70
     0
102
RTVSPropertyOp54
 70
     0
102
RTVSPropertyOp55
 70
     0
102
RTVSPropertyOp56
 70
     0
102
RTVSPropertyOp57
 70
     0
102
RTVSPropertyOp58
 70
     1
102
RTVSPropertyOp59
 70
     1
102
RTVSPropertyOp60
 70
     1
102
RTVSPropertyOp61
 70
     1
102
RTVSPropertyOp62
 70
     1
  0
XRECORD
  5
C9B
102
{ACAD_REACTORS
330
C9A
102
}
330
C9A
100
AcDbXrecord
280
     1
102
RTVSPost2010Prop28
280
     0
102
RTVSPost2010PropOp28
 70
     1
102
RTVSPost2010Prop29
280
     1
102
RTVSPost2010PropOp29
 70
     1
102
RTVSPost2010Prop30
280
     1
102
RTVSPost2010PropOp30
 70
     1
102
RTVSPost2010Prop31
280
     0
102
RTVSPost2010PropOp31
 70
     1
102
RTVSPost2010Prop32
280
     0
102
RTVSPost2010PropOp32
 70
     1
102
RTVSPost2010Prop33
280
     0
102
RTVSPost2010PropOp33
 70
     1
102
RTVSPost2010Prop34
280
     0
102
RTVSPost2010PropOp34
 70
     1
102
RTVSPost2010Prop35
280
     0
102
RTVSPost2010PropOp35
 70
     1
102
RTVSPost2010Prop36
280
     0
102
RTVSPost2010PropOp36
 70
     1
102
RTVSPost2010Prop37
 90
       50
102
RTVSPost2010PropOp37
 70
     1
102
RTVSPost2010Prop38
140
0.0
102
RTVSPost2010PropOp38
 70
     1
102
RTVSPost2010Prop39
140
1.0
102
RTVSPost2010PropOp39
 70
     1
102
RTVSPost2010Prop40
 90
        0
102
RTVSPost2010PropOp40
 70
     1
102
RTVSPost2010Prop41ColorIndex
 90
       18
102
RTVSPost2010Prop41ColorRGB
 90
        0
102
RTVSPost2010PropOp41
 70
     1
102
RTVSPost2010Prop42
 90
       50
102
RTVSPost2010PropOp42
 70
     1
102
RTVSPost2010Prop43
 90
        3
102
RTVSPost2010PropOp43
 70
     1
102
RTVSPost2010Prop44ColorIndex
 90
        5
102
RTVSPost2010Prop44ColorRGB
 90
      255
102
RTVSPost2010PropOp44
 70
     1
102
RTVSPost2010Prop45
280
     0
102
RTVSPost2010PropOp45
 70
     1
102
RTVSPost2010Prop46
 90
       50
102
RTVSPost2010PropOp46
 70
     1
102
RTVSPost2010Prop47
 90
       50
102
RTVSPost2010PropOp47
 70
     1
102
RTVSPost2010Prop48
 90
       50
102
RTVSPost2010PropOp48
 70
     1
102
RTVSPost2010Prop49
280
     0
102
RTVSPost2010PropOp49
 70
     1
102
RTVSPost2010Prop50
 90
       50
102
RTVSPost2010PropOp50
 70
     1
102
RTVSPost2010Prop51ColorIndex
 90
      256
102
RTVSPost2010Prop51ColorRGB
 90
-16777216
102
RTVSPost2010PropOp51
 70
     0
102
RTVSPost2010Prop52
140
1.0
102
RTVSPost2010PropOp52
 70
     0
102
RTVSPost2010Prop53
 90
        2
102
RTVSPost2010PropOp53
 70
     1
102
RTVSPost2010Prop54
  1
strokes_ogs.tif
102
RTVSPost2010PropOp54
 70
     1
102
RTVSPost2010Prop55
280
     0
102
RTVSPost2010PropOp55
 70
     1
102
RTVSPost2010Prop56
140
1.0
102
RTVSPost2010PropOp56
 70
     1
102
RTVSPost2010Prop57
140
1.0
102
RTVSPost2010PropOp57
 70
     1
102
RTVSPropertyOp0
 70
     1
102
RTVSPropertyOp1
 70
     1
102
RTVSPropertyOp2
 70
     1
102
RTVSPropertyOp3
 70
     1
102
RTVSPropertyOp4
 70
     1
102
RTVSPropertyOp5
 70
     1
102
RTVSPropertyOp6
 70
     1
102
RTVSPropertyOp7
 70
     1
102
RTVSPropertyOp8
 70
     1
102
RTVSPropertyOp9
 70
     1
102
RTVSPropertyOp10
 70
     1
102
RTVSPropertyOp11
 70
     1
102
RTVSPropertyOp12
 70
     1
102
RTVSPropertyOp13
 70
     1
102
RTVSPropertyOp14
 70
     1
102
RTVSPropertyOp15
 70
     1
102
RTVSPropertyOp16
 70
     1
102
RTVSPropertyOp17
 70
     1
102
RTVSPropertyOp18
 70
     1
102
RTVSPropertyOp19
 70
     1
102
RTVSPropertyOp20
 70
     1
102
RTVSPropertyOp21
 70
     1
102
RTVSPropertyOp22
 70
     1
102
RTVSPropertyOp23
 70
     1
102
RTVSPropertyOp24
 70
     1
102
RTVSPropertyOp25
 70
     1
102
RTVSPropertyOp26
 70
     1
102
RTVSPropertyOp27
 70
     1
102
RTVSPropertyOp28
 70
     1
102
RTVSPropertyOp29
 70
     1
102
RTVSPropertyOp30
 70
     1
102
RTVSPropertyOp31
 70
     1
102
RTVSPropertyOp32
 70
     1
102
RTVSPropertyOp33
 70
     1
102
RTVSPropertyOp34
 70
     1
102
RTVSPropertyOp35
 70
     1
102
RTVSPropertyOp36
 70
     1
102
RTVSPropertyOp37
 70
     1
102
RTVSPropertyOp38
 70
     1
102
RTVSPropertyOp39
 70
     1
102
RTVSPropertyOp40
 70
     1
102
RTVSPropertyOp41
 70
     1
102
RTVSPropertyOp42
 70
     1
102
RTVSPropertyOp43
 70
     1
102
RTVSPropertyOp44
 70
     1
102
RTVSPropertyOp45
 70
     1
102
RTVSPropertyOp46
 70
     1
102
RTVSPropertyOp47
 70
     1
102
RTVSPropertyOp48
 70
     1
102
RTVSPropertyOp49
 70
     1
102
RTVSPropertyOp50
 70
     1
102
RTVSPropertyOp51
 70
     0
102
RTVSPropertyOp52
 70
     0
102
RTVSPropertyOp53
 70
     1
102
RTVSPropertyOp54
 70
     1
102
RTVSPropertyOp55
 70
     1
102
RTVSPropertyOp56
 70
     1
102
RTVSPropertyOp57
 70
     1
102
RTVSPropertyOp58
 70
     1
102
RTVSPropertyOp59
 70
     1
102
RTVSPropertyOp60
 70
     1
102
RTVSPropertyOp61
 70
     1
102
RTVSPropertyOp62
 70
     1
  0
XRECORD
  5
C7F
102
{ACAD_REACTORS
330
C7E
102
}
330
C7E
100
AcDbXrecord
280
     1
102
RTVSPost2010Prop28
280
     0
102
RTVSPost2010PropOp28
 70
     1
102
RTVSPost2010Prop29
280
     1
102
RTVSPost2010PropOp29
 70
     1
102
RTVSPost2010Prop30
280
     1
102
RTVSPost2010PropOp30
 70
     1
102
RTVSPost2010Prop31
280
     0
102
RTVSPost2010PropOp31
 70
     1
102
RTVSPost2010Prop32
280
     0
102
RTVSPost2010PropOp32
 70
     1
102
RTVSPost2010Prop33
280
     0
102
RTVSPost2010PropOp33
 70
     1
102
RTVSPost2010Prop34
280
     0
102
RTVSPost2010PropOp34
 70
     1
102
RTVSPost2010Prop35
280
     0
102
RTVSPost2010PropOp35
 70
     1
102
RTVSPost2010Prop36
280
     0
102
RTVSPost2010PropOp36
 70
     1
102
RTVSPost2010Prop37
 90
       50
102
RTVSPost2010PropOp37
 70
     1
102
RTVSPost2010Prop38
140
0.0
102
RTVSPost2010PropOp38
 70
     1
102
RTVSPost2010Prop39
140
1.0
102
RTVSPost2010PropOp39
 70
     1
102
RTVSPost2010Prop40
 90
        0
102
RTVSPost2010PropOp40
 70
     1
102
RTVSPost2010Prop41ColorIndex
 90
       18
102
RTVSPost2010Prop41ColorRGB
 90
        0
102
RTVSPost2010PropOp41
 70
     1
102
RTVSPost2010Prop42
 90
       50
102
RTVSPost2010PropOp42
 70
     1
102
RTVSPost2010Prop43
 90
        3
102
RTVSPost2010PropOp43
 70
     1
102
RTVSPost2010Prop44ColorIndex
 90
        5
102
RTVSPost2010Prop44ColorRGB
 90
      255
102
RTVSPost2010PropOp44
 70
     1
102
RTVSPost2010Prop45
280
     0
102
RTVSPost2010PropOp45
 70
     1
102
RTVSPost2010Prop46
 90
       50
102
RTVSPost2010PropOp46
 70
     1
102
RTVSPost2010Prop47
 90
       50
102
RTVSPost2010PropOp47
 70
     1
102
RTVSPost2010Prop48
 90
       50
102
RTVSPost2010PropOp48
 70
     1
102
RTVSPost2010Prop49
280
     0
102
RTVSPost2010PropOp49
 70
     1
102
RTVSPost2010Prop50
 90
       50
102
RTVSPost2010PropOp50
 70
     1
102
RTVSPost2010Prop51ColorIndex
 90
      256
102
RTVSPost2010Prop51ColorRGB
 90
-16777216
102
RTVSPost2010PropOp51
 70
     0
102
RTVSPost2010Prop52
140
1.0
102
RTVSPost2010PropOp52
 70
     0
102
RTVSPost2010Prop53
 90
        2
102
RTVSPost2010PropOp53
 70
     1
102
RTVSPost2010Prop54
  1
strokes_ogs.tif
102
RTVSPost2010PropOp54
 70
     1
102
RTVSPost2010Prop55
280
     0
102
RTVSPost2010PropOp55
 70
     1
102
RTVSPost2010Prop56
140
1.0
102
RTVSPost2010PropOp56
 70
     1
102
RTVSPost2010Prop57
140
1.0
102
RTVSPost2010PropOp57
 70
     1
102
RTVSPropertyOp0
 70
     1
102
RTVSPropertyOp1
 70
     1
102
RTVSPropertyOp2
 70
     1
102
RTVSPropertyOp3
 70
     1
102
RTVSPropertyOp4
 70
     1
102
RTVSPropertyOp5
 70
     1
102
RTVSPropertyOp6
 70
     1
102
RTVSPropertyOp7
 70
     1
102
RTVSPropertyOp8
 70
     1
102
RTVSPropertyOp9
 70
     1
102
RTVSPropertyOp10
 70
     1
102
RTVSPropertyOp11
 70
     1
102
RTVSPropertyOp12
 70
     1
102
RTVSPropertyOp13
 70
     1
102
RTVSPropertyOp14
 70
     1
102
RTVSPropertyOp15
 70
     1
102
RTVSPropertyOp16
 70
     1
102
RTVSPropertyOp17
 70
     1
102
RTVSPropertyOp18
 70
     1
102
RTVSPropertyOp19
 70
     1
102
RTVSPropertyOp20
 70
     1
102
RTVSPropertyOp21
 70
     1
102
RTVSPropertyOp22
 70
     1
102
RTVSPropertyOp23
 70
     1
102
RTVSPropertyOp24
 70
     1
102
RTVSPropertyOp25
 70
     1
102
RTVSPropertyOp26
 70
     1
102
RTVSPropertyOp27
 70
     1
102
RTVSPropertyOp28
 70
     1
102
RTVSPropertyOp29
 70
     1
102
RTVSPropertyOp30
 70
     1
102
RTVSPropertyOp31
 70
     1
102
RTVSPropertyOp32
 70
     1
102
RTVSPropertyOp33
 70
     1
102
RTVSPropertyOp34
 70
     1
102
RTVSPropertyOp35
 70
     1
102
RTVSPropertyOp36
 70
     1
102
RTVSPropertyOp37
 70
     1
102
RTVSPropertyOp38
 70
     1
102
RTVSPropertyOp39
 70
     1
102
RTVSPropertyOp40
 70
     1
102
RTVSPropertyOp41
 70
     1
102
RTVSPropertyOp42
 70
     1
102
RTVSPropertyOp43
 70
     1
102
RTVSPropertyOp44
 70
     1
102
RTVSPropertyOp45
 70
     1
102
RTVSPropertyOp46
 70
     1
102
RTVSPropertyOp47
 70
     1
102
RTVSPropertyOp48
 70
     1
102
RTVSPropertyOp49
 70
     1
102
RTVSPropertyOp50
 70
     1
102
RTVSPropertyOp51
 70
     0
102
RTVSPropertyOp52
 70
     0
102
RTVSPropertyOp53
 70
     1
102
RTVSPropertyOp54
 70
     1
102
RTVSPropertyOp55
 70
     1
102
RTVSPropertyOp56
 70
     1
102
RTVSPropertyOp57
 70
     1
102
RTVSPropertyOp58
 70
     1
102
RTVSPropertyOp59
 70
     1
102
RTVSPropertyOp60
 70
     1
102
RTVSPropertyOp61
 70
     1
102
RTVSPropertyOp62
 70
     1
  0
XRECORD
  5
C81
102
{ACAD_REACTORS
330
C80
102
}
330
C80
100
AcDbXrecord
280
     1
102
RTVSPost2010Prop28
280
     0
102
RTVSPost2010PropOp28
 70
     1
102
RTVSPost2010Prop29
280
     1
102
RTVSPost2010PropOp29
 70
     1
102
RTVSPost2010Prop30
280
     1
102
RTVSPost2010PropOp30
 70
     1
102
RTVSPost2010Prop31
280
     0
102
RTVSPost2010PropOp31
 70
     1
102
RTVSPost2010Prop32
280
     0
102
RTVSPost2010PropOp32
 70
     1
102
RTVSPost2010Prop33
280
     0
102
RTVSPost2010PropOp33
 70
     1
102
RTVSPost2010Prop34
280
     0
102
RTVSPost2010PropOp34
 70
     1
102
RTVSPost2010Prop35
280
     0
102
RTVSPost2010PropOp35
 70
     1
102
RTVSPost2010Prop36
280
     0
102
RTVSPost2010PropOp36
 70
     1
102
RTVSPost2010Prop37
 90
       50
102
RTVSPost2010PropOp37
 70
     1
102
RTVSPost2010Prop38
140
0.0
102
RTVSPost2010PropOp38
 70
     1
102
RTVSPost2010Prop39
140
1.0
102
RTVSPost2010PropOp39
 70
     1
102
RTVSPost2010Prop40
 90
        0
102
RTVSPost2010PropOp40
 70
     1
102
RTVSPost2010Prop41ColorIndex
 90
       18
102
RTVSPost2010Prop41ColorRGB
 90
        0
102
RTVSPost2010PropOp41
 70
     1
102
RTVSPost2010Prop42
 90
       50
102
RTVSPost2010PropOp42
 70
     1
102
RTVSPost2010Prop43
 90
        3
102
RTVSPost2010PropOp43
 70
     1
102
RTVSPost2010Prop44ColorIndex
 90
        5
102
RTVSPost2010Prop44ColorRGB
 90
      255
102
RTVSPost2010PropOp44
 70
     1
102
RTVSPost2010Prop45
280
     0
102
RTVSPost2010PropOp45
 70
     1
102
RTVSPost2010Prop46
 90
       50
102
RTVSPost2010PropOp46
 70
     1
102
RTVSPost2010Prop47
 90
       50
102
RTVSPost2010PropOp47
 70
     1
102
RTVSPost2010Prop48
 90
       50
102
RTVSPost2010PropOp48
 70
     1
102
RTVSPost2010Prop49
280
     0
102
RTVSPost2010PropOp49
 70
     1
102
RTVSPost2010Prop50
 90
       50
102
RTVSPost2010PropOp50
 70
     1
102
RTVSPost2010Prop51ColorIndex
 90
      256
102
RTVSPost2010Prop51ColorRGB
 90
-16777216
102
RTVSPost2010PropOp51
 70
     0
102
RTVSPost2010Prop52
140
1.0
102
RTVSPost2010PropOp52
 70
     0
102
RTVSPost2010Prop53
 90
        2
102
RTVSPost2010PropOp53
 70
     1
102
RTVSPost2010Prop54
  1
strokes_ogs.tif
102
RTVSPost2010PropOp54
 70
     1
102
RTVSPost2010Prop55
280
     0
102
RTVSPost2010PropOp55
 70
     1
102
RTVSPost2010Prop56
140
1.0
102
RTVSPost2010PropOp56
 70
     1
102
RTVSPost2010Prop57
140
1.0
102
RTVSPost2010PropOp57
 70
     1
102
RTVSPropertyOp0
 70
     1
102
RTVSPropertyOp1
 70
     1
102
RTVSPropertyOp2
 70
     1
102
RTVSPropertyOp3
 70
     1
102
RTVSPropertyOp4
 70
     1
102
RTVSPropertyOp5
 70
     1
102
RTVSPropertyOp6
 70
     1
102
RTVSPropertyOp7
 70
     1
102
RTVSPropertyOp8
 70
     1
102
RTVSPropertyOp9
 70
     1
102
RTVSPropertyOp10
 70
     1
102
RTVSPropertyOp11
 70
     1
102
RTVSPropertyOp12
 70
     1
102
RTVSPropertyOp13
 70
     1
102
RTVSPropertyOp14
 70
     1
102
RTVSPropertyOp15
 70
     1
102
RTVSPropertyOp16
 70
     1
102
RTVSPropertyOp17
 70
     1
102
RTVSPropertyOp18
 70
     1
102
RTVSPropertyOp19
 70
     1
102
RTVSPropertyOp20
 70
     1
102
RTVSPropertyOp21
 70
     1
102
RTVSPropertyOp22
 70
     1
102
RTVSPropertyOp23
 70
     1
102
RTVSPropertyOp24
 70
     1
102
RTVSPropertyOp25
 70
     1
102
RTVSPropertyOp26
 70
     1
102
RTVSPropertyOp27
 70
     1
102
RTVSPropertyOp28
 70
     1
102
RTVSPropertyOp29
 70
     1
102
RTVSPropertyOp30
 70
     1
102
RTVSPropertyOp31
 70
     1
102
RTVSPropertyOp32
 70
     1
102
RTVSPropertyOp33
 70
     1
102
RTVSPropertyOp34
 70
     1
102
RTVSPropertyOp35
 70
     1
102
RTVSPropertyOp36
 70
     1
102
RTVSPropertyOp37
 70
     1
102
RTVSPropertyOp38
 70
     1
102
RTVSPropertyOp39
 70
     1
102
RTVSPropertyOp40
 70
     1
102
RTVSPropertyOp41
 70
     1
102
RTVSPropertyOp42
 70
     1
102
RTVSPropertyOp43
 70
     1
102
RTVSPropertyOp44
 70
     1
102
RTVSPropertyOp45
 70
     1
102
RTVSPropertyOp46
 70
     1
102
RTVSPropertyOp47
 70
     1
102
RTVSPropertyOp48
 70
     1
102
RTVSPropertyOp49
 70
     1
102
RTVSPropertyOp50
 70
     1
102
RTVSPropertyOp51
 70
     0
102
RTVSPropertyOp52
 70
     0
102
RTVSPropertyOp53
 70
     1
102
RTVSPropertyOp54
 70
     1
102
RTVSPropertyOp55
 70
     1
102
RTVSPropertyOp56
 70
     1
102
RTVSPropertyOp57
 70
     1
102
RTVSPropertyOp58
 70
     1
102
RTVSPropertyOp59
 70
     1
102
RTVSPropertyOp60
 70
     1
102
RTVSPropertyOp61
 70
     1
102
RTVSPropertyOp62
 70
     1
  0
XRECORD
  5
C83
102
{ACAD_REACTORS
330
C82
102
}
330
C82
100
AcDbXrecord
280
     1
102
RTVSPost2010Prop28
280
     0
102
RTVSPost2010PropOp28
 70
     1
102
RTVSPost2010Prop29
280
     1
102
RTVSPost2010PropOp29
 70
     1
102
RTVSPost2010Prop30
280
     1
102
RTVSPost2010PropOp30
 70
     1
102
RTVSPost2010Prop31
280
     0
102
RTVSPost2010PropOp31
 70
     1
102
RTVSPost2010Prop32
280
     0
102
RTVSPost2010PropOp32
 70
     1
102
RTVSPost2010Prop33
280
     0
102
RTVSPost2010PropOp33
 70
     1
102
RTVSPost2010Prop34
280
     0
102
RTVSPost2010PropOp34
 70
     1
102
RTVSPost2010Prop35
280
     0
102
RTVSPost2010PropOp35
 70
     1
102
RTVSPost2010Prop36
280
     0
102
RTVSPost2010PropOp36
 70
     1
102
RTVSPost2010Prop37
 90
       50
102
RTVSPost2010PropOp37
 70
     1
102
RTVSPost2010Prop38
140
0.0
102
RTVSPost2010PropOp38
 70
     1
102
RTVSPost2010Prop39
140
1.0
102
RTVSPost2010PropOp39
 70
     1
102
RTVSPost2010Prop40
 90
        0
102
RTVSPost2010PropOp40
 70
     1
102
RTVSPost2010Prop41ColorIndex
 90
       18
102
RTVSPost2010Prop41ColorRGB
 90
        0
102
RTVSPost2010PropOp41
 70
     1
102
RTVSPost2010Prop42
 90
       50
102
RTVSPost2010PropOp42
 70
     1
102
RTVSPost2010Prop43
 90
        3
102
RTVSPost2010PropOp43
 70
     1
102
RTVSPost2010Prop44ColorIndex
 90
        5
102
RTVSPost2010Prop44ColorRGB
 90
      255
102
RTVSPost2010PropOp44
 70
     1
102
RTVSPost2010Prop45
280
     0
102
RTVSPost2010PropOp45
 70
     1
102
RTVSPost2010Prop46
 90
       50
102
RTVSPost2010PropOp46
 70
     1
102
RTVSPost2010Prop47
 90
       50
102
RTVSPost2010PropOp47
 70
     1
102
RTVSPost2010Prop48
 90
       50
102
RTVSPost2010PropOp48
 70
     1
102
RTVSPost2010Prop49
280
     0
102
RTVSPost2010PropOp49
 70
     1
102
RTVSPost2010Prop50
 90
       50
102
RTVSPost2010PropOp50
 70
     1
102
RTVSPost2010Prop51ColorIndex
 90
      256
102
RTVSPost2010Prop51ColorRGB
 90
-16777216
102
RTVSPost2010PropOp51
 70
     0
102
RTVSPost2010Prop52
140
1.0
102
RTVSPost2010PropOp52
 70
     0
102
RTVSPost2010Prop53
 90
        2
102
RTVSPost2010PropOp53
 70
     1
102
RTVSPost2010Prop54
  1
strokes_ogs.tif
102
RTVSPost2010PropOp54
 70
     1
102
RTVSPost2010Prop55
280
     0
102
RTVSPost2010PropOp55
 70
     1
102
RTVSPost2010Prop56
140
1.0
102
RTVSPost2010PropOp56
 70
     1
102
RTVSPost2010Prop57
140
1.0
102
RTVSPost2010PropOp57
 70
     1
102
RTVSPropertyOp0
 70
     1
102
RTVSPropertyOp1
 70
     1
102
RTVSPropertyOp2
 70
     1
102
RTVSPropertyOp3
 70
     1
102
RTVSPropertyOp4
 70
     1
102
RTVSPropertyOp5
 70
     1
102
RTVSPropertyOp6
 70
     1
102
RTVSPropertyOp7
 70
     1
102
RTVSPropertyOp8
 70
     1
102
RTVSPropertyOp9
 70
     1
102
RTVSPropertyOp10
 70
     1
102
RTVSPropertyOp11
 70
     1
102
RTVSPropertyOp12
 70
     1
102
RTVSPropertyOp13
 70
     1
102
RTVSPropertyOp14
 70
     1
102
RTVSPropertyOp15
 70
     1
102
RTVSPropertyOp16
 70
     1
102
RTVSPropertyOp17
 70
     1
102
RTVSPropertyOp18
 70
     1
102
RTVSPropertyOp19
 70
     1
102
RTVSPropertyOp20
 70
     1
102
RTVSPropertyOp21
 70
     1
102
RTVSPropertyOp22
 70
     1
102
RTVSPropertyOp23
 70
     1
102
RTVSPropertyOp24
 70
     1
102
RTVSPropertyOp25
 70
     1
102
RTVSPropertyOp26
 70
     1
102
RTVSPropertyOp27
 70
     1
102
RTVSPropertyOp28
 70
     1
102
RTVSPropertyOp29
 70
     1
102
RTVSPropertyOp30
 70
     1
102
RTVSPropertyOp31
 70
     1
102
RTVSPropertyOp32
 70
     1
102
RTVSPropertyOp33
 70
     1
102
RTVSPropertyOp34
 70
     1
102
RTVSPropertyOp35
 70
     1
102
RTVSPropertyOp36
 70
     1
102
RTVSPropertyOp37
 70
     1
102
RTVSPropertyOp38
 70
     1
102
RTVSPropertyOp39
 70
     1
102
RTVSPropertyOp40
 70
     1
102
RTVSPropertyOp41
 70
     1
102
RTVSPropertyOp42
 70
     1
102
RTVSPropertyOp43
 70
     1
102
RTVSPropertyOp44
 70
     1
102
RTVSPropertyOp45
 70
     1
102
RTVSPropertyOp46
 70
     1
102
RTVSPropertyOp47
 70
     1
102
RTVSPropertyOp48
 70
     1
102
RTVSPropertyOp49
 70
     1
102
RTVSPropertyOp50
 70
     1
102
RTVSPropertyOp51
 70
     0
102
RTVSPropertyOp52
 70
     0
102
RTVSPropertyOp53
 70
     1
102
RTVSPropertyOp54
 70
     1
102
RTVSPropertyOp55
 70
     1
102
RTVSPropertyOp56
 70
     1
102
RTVSPropertyOp57
 70
     1
102
RTVSPropertyOp58
 70
     1
102
RTVSPropertyOp59
 70
     1
102
RTVSPropertyOp60
 70
     1
102
RTVSPropertyOp61
 70
     1
102
RTVSPropertyOp62
 70
     1
  0
XRECORD
  5
C85
102
{ACAD_REACTORS
330
C84
102
}
330
C84
100
AcDbXrecord
280
     1
102
RTVSPost2010Prop28
280
     0
102
RTVSPost2010PropOp28
 70
     1
102
RTVSPost2010Prop29
280
     1
102
RTVSPost2010PropOp29
 70
     1
102
RTVSPost2010Prop30
280
     1
102
RTVSPost2010PropOp30
 70
     1
102
RTVSPost2010Prop31
280
     0
102
RTVSPost2010PropOp31
 70
     1
102
RTVSPost2010Prop32
280
     0
102
RTVSPost2010PropOp32
 70
     1
102
RTVSPost2010Prop33
280
     0
102
RTVSPost2010PropOp33
 70
     1
102
RTVSPost2010Prop34
280
     0
102
RTVSPost2010PropOp34
 70
     1
102
RTVSPost2010Prop35
280
     0
102
RTVSPost2010PropOp35
 70
     1
102
RTVSPost2010Prop36
280
     0
102
RTVSPost2010PropOp36
 70
     1
102
RTVSPost2010Prop37
 90
       50
102
RTVSPost2010PropOp37
 70
     1
102
RTVSPost2010Prop38
140
0.0
102
RTVSPost2010PropOp38
 70
     1
102
RTVSPost2010Prop39
140
1.0
102
RTVSPost2010PropOp39
 70
     1
102
RTVSPost2010Prop40
 90
        0
102
RTVSPost2010PropOp40
 70
     1
102
RTVSPost2010Prop41ColorIndex
 90
       18
102
RTVSPost2010Prop41ColorRGB
 90
        0
102
RTVSPost2010PropOp41
 70
     1
102
RTVSPost2010Prop42
 90
       50
102
RTVSPost2010PropOp42
 70
     1
102
RTVSPost2010Prop43
 90
        3
102
RTVSPost2010PropOp43
 70
     1
102
RTVSPost2010Prop44ColorIndex
 90
        5
102
RTVSPost2010Prop44ColorRGB
 90
      255
102
RTVSPost2010PropOp44
 70
     1
102
RTVSPost2010Prop45
280
     0
102
RTVSPost2010PropOp45
 70
     1
102
RTVSPost2010Prop46
 90
       50
102
RTVSPost2010PropOp46
 70
     1
102
RTVSPost2010Prop47
 90
       50
102
RTVSPost2010PropOp47
 70
     1
102
RTVSPost2010Prop48
 90
       50
102
RTVSPost2010PropOp48
 70
     1
102
RTVSPost2010Prop49
280
     0
102
RTVSPost2010PropOp49
 70
     1
102
RTVSPost2010Prop50
 90
       50
102
RTVSPost2010PropOp50
 70
     1
102
RTVSPost2010Prop51ColorIndex
 90
      256
102
RTVSPost2010Prop51ColorRGB
 90
-16777216
102
RTVSPost2010PropOp51
 70
     0
102
RTVSPost2010Prop52
140
1.0
102
RTVSPost2010PropOp52
 70
     0
102
RTVSPost2010Prop53
 90
        2
102
RTVSPost2010PropOp53
 70
     1
102
RTVSPost2010Prop54
  1
strokes_ogs.tif
102
RTVSPost2010PropOp54
 70
     1
102
RTVSPost2010Prop55
280
     0
102
RTVSPost2010PropOp55
 70
     1
102
RTVSPost2010Prop56
140
1.0
102
RTVSPost2010PropOp56
 70
     1
102
RTVSPost2010Prop57
140
1.0
102
RTVSPost2010PropOp57
 70
     1
102
RTVSPropertyOp0
 70
     1
102
RTVSPropertyOp1
 70
     1
102
RTVSPropertyOp2
 70
     1
102
RTVSPropertyOp3
 70
     1
102
RTVSPropertyOp4
 70
     1
102
RTVSPropertyOp5
 70
     1
102
RTVSPropertyOp6
 70
     1
102
RTVSPropertyOp7
 70
     1
102
RTVSPropertyOp8
 70
     1
102
RTVSPropertyOp9
 70
     1
102
RTVSPropertyOp10
 70
     1
102
RTVSPropertyOp11
 70
     1
102
RTVSPropertyOp12
 70
     1
102
RTVSPropertyOp13
 70
     1
102
RTVSPropertyOp14
 70
     1
102
RTVSPropertyOp15
 70
     1
102
RTVSPropertyOp16
 70
     1
102
RTVSPropertyOp17
 70
     1
102
RTVSPropertyOp18
 70
     1
102
RTVSPropertyOp19
 70
     1
102
RTVSPropertyOp20
 70
     1
102
RTVSPropertyOp21
 70
     1
102
RTVSPropertyOp22
 70
     1
102
RTVSPropertyOp23
 70
     1
102
RTVSPropertyOp24
 70
     1
102
RTVSPropertyOp25
 70
     1
102
RTVSPropertyOp26
 70
     1
102
RTVSPropertyOp27
 70
     1
102
RTVSPropertyOp28
 70
     1
102
RTVSPropertyOp29
 70
     1
102
RTVSPropertyOp30
 70
     1
102
RTVSPropertyOp31
 70
     1
102
RTVSPropertyOp32
 70
     1
102
RTVSPropertyOp33
 70
     1
102
RTVSPropertyOp34
 70
     1
102
RTVSPropertyOp35
 70
     1
102
RTVSPropertyOp36
 70
     1
102
RTVSPropertyOp37
 70
     1
102
RTVSPropertyOp38
 70
     1
102
RTVSPropertyOp39
 70
     1
102
RTVSPropertyOp40
 70
     1
102
RTVSPropertyOp41
 70
     1
102
RTVSPropertyOp42
 70
     1
102
RTVSPropertyOp43
 70
     1
102
RTVSPropertyOp44
 70
     1
102
RTVSPropertyOp45
 70
     1
102
RTVSPropertyOp46
 70
     1
102
RTVSPropertyOp47
 70
     1
102
RTVSPropertyOp48
 70
     1
102
RTVSPropertyOp49
 70
     1
102
RTVSPropertyOp50
 70
     1
102
RTVSPropertyOp51
 70
     0
102
RTVSPropertyOp52
 70
     0
102
RTVSPropertyOp53
 70
     1
102
RTVSPropertyOp54
 70
     1
102
RTVSPropertyOp55
 70
     1
102
RTVSPropertyOp56
 70
     1
102
RTVSPropertyOp57
 70
     1
102
RTVSPropertyOp58
 70
     1
102
RTVSPropertyOp59
 70
     1
102
RTVSPropertyOp60
 70
     1
102
RTVSPropertyOp61
 70
     1
102
RTVSPropertyOp62
 70
     1
  0
XRECORD
  5
C8B
102
{ACAD_REACTORS
330
C8A
102
}
330
C8A
100
AcDbXrecord
280
     1
102
RTVSPost2010Prop28
280
     0
102
RTVSPost2010PropOp28
 70
     1
102
RTVSPost2010Prop29
280
     1
102
RTVSPost2010PropOp29
 70
     1
102
RTVSPost2010Prop30
280
     1
102
RTVSPost2010PropOp30
 70
     1
102
RTVSPost2010Prop31
280
     0
102
RTVSPost2010PropOp31
 70
     1
102
RTVSPost2010Prop32
280
     0
102
RTVSPost2010PropOp32
 70
     1
102
RTVSPost2010Prop33
280
     0
102
RTVSPost2010PropOp33
 70
     1
102
RTVSPost2010Prop34
280
     0
102
RTVSPost2010PropOp34
 70
     1
102
RTVSPost2010Prop35
280
     0
102
RTVSPost2010PropOp35
 70
     1
102
RTVSPost2010Prop36
280
     0
102
RTVSPost2010PropOp36
 70
     1
102
RTVSPost2010Prop37
 90
       50
102
RTVSPost2010PropOp37
 70
     1
102
RTVSPost2010Prop38
140
0.0
102
RTVSPost2010PropOp38
 70
     1
102
RTVSPost2010Prop39
140
1.0
102
RTVSPost2010PropOp39
 70
     1
102
RTVSPost2010Prop40
 90
        0
102
RTVSPost2010PropOp40
 70
     1
102
RTVSPost2010Prop41ColorIndex
 90
       18
102
RTVSPost2010Prop41ColorRGB
 90
        0
102
RTVSPost2010PropOp41
 70
     1
102
RTVSPost2010Prop42
 90
       50
102
RTVSPost2010PropOp42
 70
     1
102
RTVSPost2010Prop43
 90
        3
102
RTVSPost2010PropOp43
 70
     1
102
RTVSPost2010Prop44ColorIndex
 90
        5
102
RTVSPost2010Prop44ColorRGB
 90
      255
102
RTVSPost2010PropOp44
 70
     1
102
RTVSPost2010Prop45
280
     0
102
RTVSPost2010PropOp45
 70
     1
102
RTVSPost2010Prop46
 90
       50
102
RTVSPost2010PropOp46
 70
     1
102
RTVSPost2010Prop47
 90
       50
102
RTVSPost2010PropOp47
 70
     1
102
RTVSPost2010Prop48
 90
       50
102
RTVSPost2010PropOp48
 70
     1
102
RTVSPost2010Prop49
280
     0
102
RTVSPost2010PropOp49
 70
     1
102
RTVSPost2010Prop50
 90
       50
102
RTVSPost2010PropOp50
 70
     1
102
RTVSPost2010Prop51ColorIndex
 90
      256
102
RTVSPost2010Prop51ColorRGB
 90
-16777216
102
RTVSPost2010PropOp51
 70
     0
102
RTVSPost2010Prop52
140
1.0
102
RTVSPost2010PropOp52
 70
     0
102
RTVSPost2010Prop53
 90
        2
102
RTVSPost2010PropOp53
 70
     1
102
RTVSPost2010Prop54
  1
strokes_ogs.tif
102
RTVSPost2010PropOp54
 70
     1
102
RTVSPost2010Prop55
280
     0
102
RTVSPost2010PropOp55
 70
     1
102
RTVSPost2010Prop56
140
1.0
102
RTVSPost2010PropOp56
 70
     1
102
RTVSPost2010Prop57
140
1.0
102
RTVSPost2010PropOp57
 70
     1
102
RTVSPropertyOp0
 70
     1
102
RTVSPropertyOp1
 70
     1
102
RTVSPropertyOp2
 70
     1
102
RTVSPropertyOp3
 70
     1
102
RTVSPropertyOp4
 70
     1
102
RTVSPropertyOp5
 70
     1
102
RTVSPropertyOp6
 70
     1
102
RTVSPropertyOp7
 70
     1
102
RTVSPropertyOp8
 70
     1
102
RTVSPropertyOp9
 70
     1
102
RTVSPropertyOp10
 70
     1
102
RTVSPropertyOp11
 70
     1
102
RTVSPropertyOp12
 70
     1
102
RTVSPropertyOp13
 70
     1
102
RTVSPropertyOp14
 70
     1
102
RTVSPropertyOp15
 70
     1
102
RTVSPropertyOp16
 70
     1
102
RTVSPropertyOp17
 70
     1
102
RTVSPropertyOp18
 70
     1
102
RTVSPropertyOp19
 70
     1
102
RTVSPropertyOp20
 70
     1
102
RTVSPropertyOp21
 70
     1
102
RTVSPropertyOp22
 70
     1
102
RTVSPropertyOp23
 70
     1
102
RTVSPropertyOp24
 70
     1
102
RTVSPropertyOp25
 70
     1
102
RTVSPropertyOp26
 70
     1
102
RTVSPropertyOp27
 70
     1
102
RTVSPropertyOp28
 70
     1
102
RTVSPropertyOp29
 70
     1
102
RTVSPropertyOp30
 70
     1
102
RTVSPropertyOp31
 70
     1
102
RTVSPropertyOp32
 70
     1
102
RTVSPropertyOp33
 70
     1
102
RTVSPropertyOp34
 70
     1
102
RTVSPropertyOp35
 70
     1
102
RTVSPropertyOp36
 70
     1
102
RTVSPropertyOp37
 70
     1
102
RTVSPropertyOp38
 70
     1
102
RTVSPropertyOp39
 70
     1
102
RTVSPropertyOp40
 70
     1
102
RTVSPropertyOp41
 70
     1
102
RTVSPropertyOp42
 70
     1
102
RTVSPropertyOp43
 70
     1
102
RTVSPropertyOp44
 70
     1
102
RTVSPropertyOp45
 70
     1
102
RTVSPropertyOp46
 70
     1
102
RTVSPropertyOp47
 70
     1
102
RTVSPropertyOp48
 70
     1
102
RTVSPropertyOp49
 70
     1
102
RTVSPropertyOp50
 70
     1
102
RTVSPropertyOp51
 70
     0
102
RTVSPropertyOp52
 70
     0
102
RTVSPropertyOp53
 70
     1
102
RTVSPropertyOp54
 70
     1
102
RTVSPropertyOp55
 70
     1
102
RTVSPropertyOp56
 70
     1
102
RTVSPropertyOp57
 70
     1
102
RTVSPropertyOp58
 70
     1
102
RTVSPropertyOp59
 70
     1
102
RTVSPropertyOp60
 70
     1
102
RTVSPropertyOp61
 70
     1
102
RTVSPropertyOp62
 70
     1
  0
XRECORD
  5
C9F
102
{ACAD_REACTORS
330
C9E
102
}
330
C9E
100
AcDbXrecord
280
     1
102
RTVSPost2010Prop28
280
     0
102
RTVSPost2010PropOp28
 70
     0
102
RTVSPost2010Prop29
280
     1
102
RTVSPost2010PropOp29
 70
     0
102
RTVSPost2010Prop30
280
     1
102
RTVSPost2010PropOp30
 70
     0
102
RTVSPost2010Prop31
280
     0
102
RTVSPost2010PropOp31
 70
     0
102
RTVSPost2010Prop32
280
     0
102
RTVSPost2010PropOp32
 70
     0
102
RTVSPost2010Prop33
280
     0
102
RTVSPost2010PropOp33
 70
     0
102
RTVSPost2010Prop34
280
     0
102
RTVSPost2010PropOp34
 70
     0
102
RTVSPost2010Prop35
280
     0
102
RTVSPost2010PropOp35
 70
     0
102
RTVSPost2010Prop36
280
     0
102
RTVSPost2010PropOp36
 70
     0
102
RTVSPost2010Prop37
 90
       50
102
RTVSPost2010PropOp37
 70
     0
102
RTVSPost2010Prop38
140
0.0
102
RTVSPost2010PropOp38
 70
     0
102
RTVSPost2010Prop39
140
1.0
102
RTVSPost2010PropOp39
 70
     0
102
RTVSPost2010Prop40
 90
        0
102
RTVSPost2010PropOp40
 70
     0
102
RTVSPost2010Prop41ColorIndex
 90
       18
102
RTVSPost2010Prop41ColorRGB
 90
        0
102
RTVSPost2010PropOp41
 70
     0
102
RTVSPost2010Prop42
 90
       50
102
RTVSPost2010PropOp42
 70
     0
102
RTVSPost2010Prop43
 90
        3
102
RTVSPost2010PropOp43
 70
     0
102
RTVSPost2010Prop44ColorIndex
 90
        5
102
RTVSPost2010Prop44ColorRGB
 90
      255
102
RTVSPost2010PropOp44
 70
     0
102
RTVSPost2010Prop45
280
     0
102
RTVSPost2010PropOp45
 70
     0
102
RTVSPost2010Prop46
 90
       50
102
RTVSPost2010PropOp46
 70
     0
102
RTVSPost2010Prop47
 90
       50
102
RTVSPost2010PropOp47
 70
     0
102
RTVSPost2010Prop48
 90
       50
102
RTVSPost2010PropOp48
 70
     0
102
RTVSPost2010Prop49
280
     0
102
RTVSPost2010PropOp49
 70
     0
102
RTVSPost2010Prop50
 90
       50
102
RTVSPost2010PropOp50
 70
     0
102
RTVSPost2010Prop51ColorIndex
 90
      256
102
RTVSPost2010Prop51ColorRGB
 90
-16777216
102
RTVSPost2010PropOp51
 70
     0
102
RTVSPost2010Prop52
140
1.0
102
RTVSPost2010PropOp52
 70
     0
102
RTVSPost2010Prop53
 90
        2
102
RTVSPost2010PropOp53
 70
     0
102
RTVSPost2010Prop54
  1
strokes_ogs.tif
102
RTVSPost2010PropOp54
 70
     0
102
RTVSPost2010Prop55
280
     0
102
RTVSPost2010PropOp55
 70
     0
102
RTVSPost2010Prop56
140
1.0
102
RTVSPost2010PropOp56
 70
     0
102
RTVSPost2010Prop57
140
1.0
102
RTVSPost2010PropOp57
 70
     0
102
RTVSPropertyOp0
 70
     0
102
RTVSPropertyOp1
 70
     0
102
RTVSPropertyOp2
 70
     0
102
RTVSPropertyOp3
 70
     0
102
RTVSPropertyOp4
 70
     0
102
RTVSPropertyOp5
 70
     0
102
RTVSPropertyOp6
 70
     0
102
RTVSPropertyOp7
 70
     0
102
RTVSPropertyOp8
 70
     0
102
RTVSPropertyOp9
 70
     0
102
RTVSPropertyOp10
 70
     0
102
RTVSPropertyOp11
 70
     0
102
RTVSPropertyOp12
 70
     0
102
RTVSPropertyOp13
 70
     0
102
RTVSPropertyOp14
 70
     2
102
RTVSPropertyOp15
 70
     0
102
RTVSPropertyOp16
 70
     0
102
RTVSPropertyOp17
 70
     0
102
RTVSPropertyOp18
 70
     0
102
RTVSPropertyOp19
 70
     0
102
RTVSPropertyOp20
 70
     0
102
RTVSPropertyOp21
 70
     0
102
RTVSPropertyOp22
 70
     0
102
RTVSPropertyOp23
 70
     0
102
RTVSPropertyOp24
 70
     0
102
RTVSPropertyOp25
 70
     0
102
RTVSPropertyOp26
 70
     0
102
RTVSPropertyOp27
 70
     0
102
RTVSPropertyOp28
 70
     0
102
RTVSPropertyOp29
 70
     0
102
RTVSPropertyOp30
 70
     0
102
RTVSPropertyOp31
 70
     0
102
RTVSPropertyOp32
 70
     0
102
RTVSPropertyOp33
 70
     0
102
RTVSPropertyOp34
 70
     0
102
RTVSPropertyOp35
 70
     0
102
RTVSPropertyOp36
 70
     0
102
RTVSPropertyOp37
 70
     0
102
RTVSPropertyOp38
 70
     0
102
RTVSPropertyOp39
 70
     0
102
RTVSPropertyOp40
 70
     0
102
RTVSPropertyOp41
 70
     0
102
RTVSPropertyOp42
 70
     0
102
RTVSPropertyOp43
 70
     0
102
RTVSPropertyOp44
 70
     0
102
RTVSPropertyOp45
 70
     0
102
RTVSPropertyOp46
 70
     0
102
RTVSPropertyOp47
 70
     0
102
RTVSPropertyOp48
 70
     0
102
RTVSPropertyOp49
 70
     0
102
RTVSPropertyOp50
 70
     0
102
RTVSPropertyOp51
 70
     0
102
RTVSPropertyOp52
 70
     0
102
RTVSPropertyOp53
 70
     0
102
RTVSPropertyOp54
 70
     0
102
RTVSPropertyOp55
 70
     0
102
RTVSPropertyOp56
 70
     0
102
RTVSPropertyOp57
 70
     0
102
RTVSPropertyOp58
 70
     1
102
RTVSPropertyOp59
 70
     1
102
RTVSPropertyOp60
 70
     1
102
RTVSPropertyOp61
 70
     1
102
RTVSPropertyOp62
 70
     1
  0
XRECORD
  5
C99
102
{ACAD_REACTORS
330
C98
102
}
330
C98
100
AcDbXrecord
280
     1
102
RTVSPost2010Prop28
280
     0
102
RTVSPost2010PropOp28
 70
     1
102
RTVSPost2010Prop29
280
     1
102
RTVSPost2010PropOp29
 70
     1
102
RTVSPost2010Prop30
280
     1
102
RTVSPost2010PropOp30
 70
     1
102
RTVSPost2010Prop31
280
     0
102
RTVSPost2010PropOp31
 70
     1
102
RTVSPost2010Prop32
280
     0
102
RTVSPost2010PropOp32
 70
     1
102
RTVSPost2010Prop33
280
     0
102
RTVSPost2010PropOp33
 70
     1
102
RTVSPost2010Prop34
280
     0
102
RTVSPost2010PropOp34
 70
     1
102
RTVSPost2010Prop35
280
     0
102
RTVSPost2010PropOp35
 70
     1
102
RTVSPost2010Prop36
280
     0
102
RTVSPost2010PropOp36
 70
     1
102
RTVSPost2010Prop37
 90
       50
102
RTVSPost2010PropOp37
 70
     1
102
RTVSPost2010Prop38
140
0.0
102
RTVSPost2010PropOp38
 70
     1
102
RTVSPost2010Prop39
140
1.0
102
RTVSPost2010PropOp39
 70
     1
102
RTVSPost2010Prop40
 90
        0
102
RTVSPost2010PropOp40
 70
     1
102
RTVSPost2010Prop41ColorIndex
 90
       18
102
RTVSPost2010Prop41ColorRGB
 90
        0
102
RTVSPost2010PropOp41
 70
     1
102
RTVSPost2010Prop42
 90
       50
102
RTVSPost2010PropOp42
 70
     1
102
RTVSPost2010Prop43
 90
        3
102
RTVSPost2010PropOp43
 70
     1
102
RTVSPost2010Prop44ColorIndex
 90
        5
102
RTVSPost2010Prop44ColorRGB
 90
      255
102
RTVSPost2010PropOp44
 70
     1
102
RTVSPost2010Prop45
280
     0
102
RTVSPost2010PropOp45
 70
     1
102
RTVSPost2010Prop46
 90
       50
102
RTVSPost2010PropOp46
 70
     1
102
RTVSPost2010Prop47
 90
       50
102
RTVSPost2010PropOp47
 70
     1
102
RTVSPost2010Prop48
 90
       50
102
RTVSPost2010PropOp48
 70
     1
102
RTVSPost2010Prop49
280
     0
102
RTVSPost2010PropOp49
 70
     1
102
RTVSPost2010Prop50
 90
       50
102
RTVSPost2010PropOp50
 70
     1
102
RTVSPost2010Prop51ColorIndex
 90
      256
102
RTVSPost2010Prop51ColorRGB
 90
-16777216
102
RTVSPost2010PropOp51
 70
     0
102
RTVSPost2010Prop52
140
1.0
102
RTVSPost2010PropOp52
 70
     0
102
RTVSPost2010Prop53
 90
        2
102
RTVSPost2010PropOp53
 70
     1
102
RTVSPost2010Prop54
  1
strokes_ogs.tif
102
RTVSPost2010PropOp54
 70
     1
102
RTVSPost2010Prop55
280
     0
102
RTVSPost2010PropOp55
 70
     1
102
RTVSPost2010Prop56
140
1.0
102
RTVSPost2010PropOp56
 70
     1
102
RTVSPost2010Prop57
140
1.0
102
RTVSPost2010PropOp57
 70
     1
102
RTVSPropertyOp0
 70
     1
102
RTVSPropertyOp1
 70
     1
102
RTVSPropertyOp2
 70
     1
102
RTVSPropertyOp3
 70
     1
102
RTVSPropertyOp4
 70
     1
102
RTVSPropertyOp5
 70
     1
102
RTVSPropertyOp6
 70
     1
102
RTVSPropertyOp7
 70
     1
102
RTVSPropertyOp8
 70
     1
102
RTVSPropertyOp9
 70
     1
102
RTVSPropertyOp10
 70
     1
102
RTVSPropertyOp11
 70
     1
102
RTVSPropertyOp12
 70
     1
102
RTVSPropertyOp13
 70
     1
102
RTVSPropertyOp14
 70
     1
102
RTVSPropertyOp15
 70
     1
102
RTVSPropertyOp16
 70
     1
102
RTVSPropertyOp17
 70
     1
102
RTVSPropertyOp18
 70
     1
102
RTVSPropertyOp19
 70
     1
102
RTVSPropertyOp20
 70
     1
102
RTVSPropertyOp21
 70
     1
102
RTVSPropertyOp22
 70
     1
102
RTVSPropertyOp23
 70
     1
102
RTVSPropertyOp24
 70
     1
102
RTVSPropertyOp25
 70
     1
102
RTVSPropertyOp26
 70
     1
102
RTVSPropertyOp27
 70
     1
102
RTVSPropertyOp28
 70
     1
102
RTVSPropertyOp29
 70
     1
102
RTVSPropertyOp30
 70
     1
102
RTVSPropertyOp31
 70
     1
102
RTVSPropertyOp32
 70
     1
102
RTVSPropertyOp33
 70
     1
102
RTVSPropertyOp34
 70
     1
102
RTVSPropertyOp35
 70
     1
102
RTVSPropertyOp36
 70
     1
102
RTVSPropertyOp37
 70
     1
102
RTVSPropertyOp38
 70
     1
102
RTVSPropertyOp39
 70
     1
102
RTVSPropertyOp40
 70
     1
102
RTVSPropertyOp41
 70
     1
102
RTVSPropertyOp42
 70
     1
102
RTVSPropertyOp43
 70
     1
102
RTVSPropertyOp44
 70
     1
102
RTVSPropertyOp45
 70
     1
102
RTVSPropertyOp46
 70
     1
102
RTVSPropertyOp47
 70
     1
102
RTVSPropertyOp48
 70
     1
102
RTVSPropertyOp49
 70
     1
102
RTVSPropertyOp50
 70
     1
102
RTVSPropertyOp51
 70
     0
102
RTVSPropertyOp52
 70
     0
102
RTVSPropertyOp53
 70
     1
102
RTVSPropertyOp54
 70
     1
102
RTVSPropertyOp55
 70
     1
102
RTVSPropertyOp56
 70
     1
102
RTVSPropertyOp57
 70
     1
102
RTVSPropertyOp58
 70
     1
102
RTVSPropertyOp59
 70
     1
102
RTVSPropertyOp60
 70
     1
102
RTVSPropertyOp61
 70
     1
102
RTVSPropertyOp62
 70
     1
  0
XRECORD
  5
CA1
102
{ACAD_REACTORS
330
CA0
102
}
330
CA0
100
AcDbXrecord
280
     1
102
RTVSPost2010Prop28
280
     0
102
RTVSPost2010PropOp28
 70
     0
102
RTVSPost2010Prop29
280
     1
102
RTVSPost2010PropOp29
 70
     0
102
RTVSPost2010Prop30
280
     1
102
RTVSPost2010PropOp30
 70
     0
102
RTVSPost2010Prop31
280
     0
102
RTVSPost2010PropOp31
 70
     0
102
RTVSPost2010Prop32
280
     0
102
RTVSPost2010PropOp32
 70
     0
102
RTVSPost2010Prop33
280
     0
102
RTVSPost2010PropOp33
 70
     0
102
RTVSPost2010Prop34
280
     0
102
RTVSPost2010PropOp34
 70
     0
102
RTVSPost2010Prop35
280
     0
102
RTVSPost2010PropOp35
 70
     0
102
RTVSPost2010Prop36
280
     0
102
RTVSPost2010PropOp36
 70
     0
102
RTVSPost2010Prop37
 90
       50
102
RTVSPost2010PropOp37
 70
     0
102
RTVSPost2010Prop38
140
0.0
102
RTVSPost2010PropOp38
 70
     0
102
RTVSPost2010Prop39
140
1.0
102
RTVSPost2010PropOp39
 70
     0
102
RTVSPost2010Prop40
 90
        0
102
RTVSPost2010PropOp40
 70
     0
102
RTVSPost2010Prop41ColorIndex
 90
       18
102
RTVSPost2010Prop41ColorRGB
 90
        0
102
RTVSPost2010PropOp41
 70
     0
102
RTVSPost2010Prop42
 90
       50
102
RTVSPost2010PropOp42
 70
     0
102
RTVSPost2010Prop43
 90
        3
102
RTVSPost2010PropOp43
 70
     0
102
RTVSPost2010Prop44ColorIndex
 90
        5
102
RTVSPost2010Prop44ColorRGB
 90
      255
102
RTVSPost2010PropOp44
 70
     0
102
RTVSPost2010Prop45
280
     0
102
RTVSPost2010PropOp45
 70
     0
102
RTVSPost2010Prop46
 90
       50
102
RTVSPost2010PropOp46
 70
     0
102
RTVSPost2010Prop47
 90
       50
102
RTVSPost2010PropOp47
 70
     0
102
RTVSPost2010Prop48
 90
       50
102
RTVSPost2010PropOp48
 70
     0
102
RTVSPost2010Prop49
280
     0
102
RTVSPost2010PropOp49
 70
     0
102
RTVSPost2010Prop50
 90
       50
102
RTVSPost2010PropOp50
 70
     0
102
RTVSPost2010Prop51ColorIndex
 90
      256
102
RTVSPost2010Prop51ColorRGB
 90
-16777216
102
RTVSPost2010PropOp51
 70
     0
102
RTVSPost2010Prop52
140
1.0
102
RTVSPost2010PropOp52
 70
     0
102
RTVSPost2010Prop53
 90
        2
102
RTVSPost2010PropOp53
 70
     0
102
RTVSPost2010Prop54
  1
strokes_ogs.tif
102
RTVSPost2010PropOp54
 70
     0
102
RTVSPost2010Prop55
280
     0
102
RTVSPost2010PropOp55
 70
     0
102
RTVSPost2010Prop56
140
1.0
102
RTVSPost2010PropOp56
 70
     0
102
RTVSPost2010Prop57
140
1.0
102
RTVSPost2010PropOp57
 70
     0
102
RTVSPropertyOp0
 70
     0
102
RTVSPropertyOp1
 70
     0
102
RTVSPropertyOp2
 70
     0
102
RTVSPropertyOp3
 70
     0
102
RTVSPropertyOp4
 70
     0
102
RTVSPropertyOp5
 70
     0
102
RTVSPropertyOp6
 70
     0
102
RTVSPropertyOp7
 70
     0
102
RTVSPropertyOp8
 70
     0
102
RTVSPropertyOp9
 70
     0
102
RTVSPropertyOp10
 70
     0
102
RTVSPropertyOp11
 70
     0
102
RTVSPropertyOp12
 70
     0
102
RTVSPropertyOp13
 70
     0
102
RTVSPropertyOp14
 70
     2
102
RTVSPropertyOp15
 70
     0
102
RTVSPropertyOp16
 70
     0
102
RTVSPropertyOp17
 70
     0
102
RTVSPropertyOp18
 70
     0
102
RTVSPropertyOp19
 70
     0
102
RTVSPropertyOp20
 70
     0
102
RTVSPropertyOp21
 70
     0
102
RTVSPropertyOp22
 70
     0
102
RTVSPropertyOp23
 70
     0
102
RTVSPropertyOp24
 70
     0
102
RTVSPropertyOp25
 70
     0
102
RTVSPropertyOp26
 70
     0
102
RTVSPropertyOp27
 70
     0
102
RTVSPropertyOp28
 70
     0
102
RTVSPropertyOp29
 70
     0
102
RTVSPropertyOp30
 70
     0
102
RTVSPropertyOp31
 70
     0
102
RTVSPropertyOp32
 70
     0
102
RTVSPropertyOp33
 70
     0
102
RTVSPropertyOp34
 70
     0
102
RTVSPropertyOp35
 70
     0
102
RTVSPropertyOp36
 70
     0
102
RTVSPropertyOp37
 70
     0
102
RTVSPropertyOp38
 70
     0
102
RTVSPropertyOp39
 70
     0
102
RTVSPropertyOp40
 70
     0
102
RTVSPropertyOp41
 70
     0
102
RTVSPropertyOp42
 70
     0
102
RTVSPropertyOp43
 70
     0
102
RTVSPropertyOp44
 70
     0
102
RTVSPropertyOp45
 70
     0
102
RTVSPropertyOp46
 70
     0
102
RTVSPropertyOp47
 70
     0
102
RTVSPropertyOp48
 70
     0
102
RTVSPropertyOp49
 70
     0
102
RTVSPropertyOp50
 70
     0
102
RTVSPropertyOp51
 70
     0
102
RTVSPropertyOp52
 70
     0
102
RTVSPropertyOp53
 70
     0
102
RTVSPropertyOp54
 70
     0
102
RTVSPropertyOp55
 70
     0
102
RTVSPropertyOp56
 70
     0
102
RTVSPropertyOp57
 70
     0
102
RTVSPropertyOp58
 70
     1
102
RTVSPropertyOp59
 70
     1
102
RTVSPropertyOp60
 70
     1
102
RTVSPropertyOp61
 70
     1
102
RTVSPropertyOp62
 70
     1
  0
XRECORD
  5
C8F
102
{ACAD_REACTORS
330
C8E
102
}
330
C8E
100
AcDbXrecord
280
     1
102
RTVSPost2010Prop28
280
     0
102
RTVSPost2010PropOp28
 70
     1
102
RTVSPost2010Prop29
280
     1
102
RTVSPost2010PropOp29
 70
     1
102
RTVSPost2010Prop30
280
     1
102
RTVSPost2010PropOp30
 70
     1
102
RTVSPost2010Prop31
280
     0
102
RTVSPost2010PropOp31
 70
     1
102
RTVSPost2010Prop32
280
     0
102
RTVSPost2010PropOp32
 70
     1
102
RTVSPost2010Prop33
280
     0
102
RTVSPost2010PropOp33
 70
     1
102
RTVSPost2010Prop34
280
     0
102
RTVSPost2010PropOp34
 70
     1
102
RTVSPost2010Prop35
280
     0
102
RTVSPost2010PropOp35
 70
     1
102
RTVSPost2010Prop36
280
     0
102
RTVSPost2010PropOp36
 70
     1
102
RTVSPost2010Prop37
 90
       50
102
RTVSPost2010PropOp37
 70
     1
102
RTVSPost2010Prop38
140
0.0
102
RTVSPost2010PropOp38
 70
     1
102
RTVSPost2010Prop39
140
1.0
102
RTVSPost2010PropOp39
 70
     1
102
RTVSPost2010Prop40
 90
        0
102
RTVSPost2010PropOp40
 70
     1
102
RTVSPost2010Prop41ColorIndex
 90
       18
102
RTVSPost2010Prop41ColorRGB
 90
        0
102
RTVSPost2010PropOp41
 70
     1
102
RTVSPost2010Prop42
 90
       50
102
RTVSPost2010PropOp42
 70
     1
102
RTVSPost2010Prop43
 90
        3
102
RTVSPost2010PropOp43
 70
     1
102
RTVSPost2010Prop44ColorIndex
 90
        5
102
RTVSPost2010Prop44ColorRGB
 90
      255
102
RTVSPost2010PropOp44
 70
     1
102
RTVSPost2010Prop45
280
     0
102
RTVSPost2010PropOp45
 70
     1
102
RTVSPost2010Prop46
 90
       50
102
RTVSPost2010PropOp46
 70
     1
102
RTVSPost2010Prop47
 90
       50
102
RTVSPost2010PropOp47
 70
     1
102
RTVSPost2010Prop48
 90
       50
102
RTVSPost2010PropOp48
 70
     1
102
RTVSPost2010Prop49
280
     0
102
RTVSPost2010PropOp49
 70
     1
102
RTVSPost2010Prop50
 90
       50
102
RTVSPost2010PropOp50
 70
     1
102
RTVSPost2010Prop51ColorIndex
 90
      256
102
RTVSPost2010Prop51ColorRGB
 90
-16777216
102
RTVSPost2010PropOp51
 70
     0
102
RTVSPost2010Prop52
140
1.0
102
RTVSPost2010PropOp52
 70
     0
102
RTVSPost2010Prop53
 90
        2
102
RTVSPost2010PropOp53
 70
     1
102
RTVSPost2010Prop54
  1
strokes_ogs.tif
102
RTVSPost2010PropOp54
 70
     1
102
RTVSPost2010Prop55
280
     0
102
RTVSPost2010PropOp55
 70
     1
102
RTVSPost2010Prop56
140
1.0
102
RTVSPost2010PropOp56
 70
     1
102
RTVSPost2010Prop57
140
1.0
102
RTVSPost2010PropOp57
 70
     1
102
RTVSPropertyOp0
 70
     1
102
RTVSPropertyOp1
 70
     1
102
RTVSPropertyOp2
 70
     1
102
RTVSPropertyOp3
 70
     1
102
RTVSPropertyOp4
 70
     1
102
RTVSPropertyOp5
 70
     1
102
RTVSPropertyOp6
 70
     1
102
RTVSPropertyOp7
 70
     1
102
RTVSPropertyOp8
 70
     1
102
RTVSPropertyOp9
 70
     1
102
RTVSPropertyOp10
 70
     1
102
RTVSPropertyOp11
 70
     1
102
RTVSPropertyOp12
 70
     1
102
RTVSPropertyOp13
 70
     1
102
RTVSPropertyOp14
 70
     1
102
RTVSPropertyOp15
 70
     1
102
RTVSPropertyOp16
 70
     1
102
RTVSPropertyOp17
 70
     1
102
RTVSPropertyOp18
 70
     1
102
RTVSPropertyOp19
 70
     1
102
RTVSPropertyOp20
 70
     1
102
RTVSPropertyOp21
 70
     1
102
RTVSPropertyOp22
 70
     1
102
RTVSPropertyOp23
 70
     1
102
RTVSPropertyOp24
 70
     1
102
RTVSPropertyOp25
 70
     1
102
RTVSPropertyOp26
 70
     1
102
RTVSPropertyOp27
 70
     1
102
RTVSPropertyOp28
 70
     1
102
RTVSPropertyOp29
 70
     1
102
RTVSPropertyOp30
 70
     1
102
RTVSPropertyOp31
 70
     1
102
RTVSPropertyOp32
 70
     1
102
RTVSPropertyOp33
 70
     1
102
RTVSPropertyOp34
 70
     1
102
RTVSPropertyOp35
 70
     1
102
RTVSPropertyOp36
 70
     1
102
RTVSPropertyOp37
 70
     1
102
RTVSPropertyOp38
 70
     1
102
RTVSPropertyOp39
 70
     1
102
RTVSPropertyOp40
 70
     1
102
RTVSPropertyOp41
 70
     1
102
RTVSPropertyOp42
 70
     1
102
RTVSPropertyOp43
 70
     1
102
RTVSPropertyOp44
 70
     1
102
RTVSPropertyOp45
 70
     1
102
RTVSPropertyOp46
 70
     1
102
RTVSPropertyOp47
 70
     1
102
RTVSPropertyOp48
 70
     1
102
RTVSPropertyOp49
 70
     1
102
RTVSPropertyOp50
 70
     1
102
RTVSPropertyOp51
 70
     0
102
RTVSPropertyOp52
 70
     0
102
RTVSPropertyOp53
 70
     1
102
RTVSPropertyOp54
 70
     1
102
RTVSPropertyOp55
 70
     1
102
RTVSPropertyOp56
 70
     1
102
RTVSPropertyOp57
 70
     1
102
RTVSPropertyOp58
 70
     1
102
RTVSPropertyOp59
 70
     1
102
RTVSPropertyOp60
 70
     1
102
RTVSPropertyOp61
 70
     1
102
RTVSPropertyOp62
 70
     1
  0
XRECORD
  5
CAD
102
{ACAD_REACTORS
330
CAC
102
}
330
CAC
100
AcDbXrecord
280
     1
102
RTVSPost2010Prop28
280
     0
102
RTVSPost2010PropOp28
 70
     1
102
RTVSPost2010Prop29
280
     1
102
RTVSPost2010PropOp29
 70
     1
102
RTVSPost2010Prop30
280
     1
102
RTVSPost2010PropOp30
 70
     1
102
RTVSPost2010Prop31
280
     0
102
RTVSPost2010PropOp31
 70
     1
102
RTVSPost2010Prop32
280
     0
102
RTVSPost2010PropOp32
 70
     1
102
RTVSPost2010Prop33
280
     0
102
RTVSPost2010PropOp33
 70
     1
102
RTVSPost2010Prop34
280
     0
102
RTVSPost2010PropOp34
 70
     1
102
RTVSPost2010Prop35
280
     0
102
RTVSPost2010PropOp35
 70
     1
102
RTVSPost2010Prop36
280
     0
102
RTVSPost2010PropOp36
 70
     1
102
RTVSPost2010Prop37
 90
       50
102
RTVSPost2010PropOp37
 70
     1
102
RTVSPost2010Prop38
140
0.0
102
RTVSPost2010PropOp38
 70
     1
102
RTVSPost2010Prop39
140
1.0
102
RTVSPost2010PropOp39
 70
     1
102
RTVSPost2010Prop40
 90
        0
102
RTVSPost2010PropOp40
 70
     1
102
RTVSPost2010Prop41ColorIndex
 90
       18
102
RTVSPost2010Prop41ColorRGB
 90
        0
102
RTVSPost2010PropOp41
 70
     1
102
RTVSPost2010Prop42
 90
       50
102
RTVSPost2010PropOp42
 70
     1
102
RTVSPost2010Prop43
 90
        3
102
RTVSPost2010PropOp43
 70
     1
102
RTVSPost2010Prop44ColorIndex
 90
        5
102
RTVSPost2010Prop44ColorRGB
 90
      255
102
RTVSPost2010PropOp44
 70
     1
102
RTVSPost2010Prop45
280
     0
102
RTVSPost2010PropOp45
 70
     1
102
RTVSPost2010Prop46
 90
       50
102
RTVSPost2010PropOp46
 70
     1
102
RTVSPost2010Prop47
 90
       50
102
RTVSPost2010PropOp47
 70
     1
102
RTVSPost2010Prop48
 90
       50
102
RTVSPost2010PropOp48
 70
     1
102
RTVSPost2010Prop49
280
     0
102
RTVSPost2010PropOp49
 70
     1
102
RTVSPost2010Prop50
 90
       50
102
RTVSPost2010PropOp50
 70
     1
102
RTVSPost2010Prop51ColorIndex
 90
      256
102
RTVSPost2010Prop51ColorRGB
 90
-16777216
102
RTVSPost2010PropOp51
 70
     0
102
RTVSPost2010Prop52
140
1.0
102
RTVSPost2010PropOp52
 70
     0
102
RTVSPost2010Prop53
 90
        2
102
RTVSPost2010PropOp53
 70
     1
102
RTVSPost2010Prop54
  1
strokes_ogs.tif
102
RTVSPost2010PropOp54
 70
     1
102
RTVSPost2010Prop55
280
     0
102
RTVSPost2010PropOp55
 70
     1
102
RTVSPost2010Prop56
140
1.0
102
RTVSPost2010PropOp56
 70
     1
102
RTVSPost2010Prop57
140
1.0
102
RTVSPost2010PropOp57
 70
     1
102
RTVSPropertyOp0
 70
     1
102
RTVSPropertyOp1
 70
     1
102
RTVSPropertyOp2
 70
     1
102
RTVSPropertyOp3
 70
     1
102
RTVSPropertyOp4
 70
     1
102
RTVSPropertyOp5
 70
     1
102
RTVSPropertyOp6
 70
     1
102
RTVSPropertyOp7
 70
     1
102
RTVSPropertyOp8
 70
     1
102
RTVSPropertyOp9
 70
     1
102
RTVSPropertyOp10
 70
     1
102
RTVSPropertyOp11
 70
     1
102
RTVSPropertyOp12
 70
     1
102
RTVSPropertyOp13
 70
     1
102
RTVSPropertyOp14
 70
     1
102
RTVSPropertyOp15
 70
     1
102
RTVSPropertyOp16
 70
     1
102
RTVSPropertyOp17
 70
     1
102
RTVSPropertyOp18
 70
     1
102
RTVSPropertyOp19
 70
     1
102
RTVSPropertyOp20
 70
     1
102
RTVSPropertyOp21
 70
     1
102
RTVSPropertyOp22
 70
     1
102
RTVSPropertyOp23
 70
     1
102
RTVSPropertyOp24
 70
     1
102
RTVSPropertyOp25
 70
     1
102
RTVSPropertyOp26
 70
     1
102
RTVSPropertyOp27
 70
     1
102
RTVSPropertyOp28
 70
     1
102
RTVSPropertyOp29
 70
     1
102
RTVSPropertyOp30
 70
     1
102
RTVSPropertyOp31
 70
     1
102
RTVSPropertyOp32
 70
     1
102
RTVSPropertyOp33
 70
     1
102
RTVSPropertyOp34
 70
     1
102
RTVSPropertyOp35
 70
     1
102
RTVSPropertyOp36
 70
     1
102
RTVSPropertyOp37
 70
     1
102
RTVSPropertyOp38
 70
     1
102
RTVSPropertyOp39
 70
     1
102
RTVSPropertyOp40
 70
     1
102
RTVSPropertyOp41
 70
     1
102
RTVSPropertyOp42
 70
     1
102
RTVSPropertyOp43
 70
     1
102
RTVSPropertyOp44
 70
     1
102
RTVSPropertyOp45
 70
     1
102
RTVSPropertyOp46
 70
     1
102
RTVSPropertyOp47
 70
     1
102
RTVSPropertyOp48
 70
     1
102
RTVSPropertyOp49
 70
     1
102
RTVSPropertyOp50
 70
     1
102
RTVSPropertyOp51
 70
     0
102
RTVSPropertyOp52
 70
     0
102
RTVSPropertyOp53
 70
     1
102
RTVSPropertyOp54
 70
     1
102
RTVSPropertyOp55
 70
     1
102
RTVSPropertyOp56
 70
     1
102
RTVSPropertyOp57
 70
     1
102
RTVSPropertyOp58
 70
     1
102
RTVSPropertyOp59
 70
     1
102
RTVSPropertyOp60
 70
     1
102
RTVSPropertyOp61
 70
     1
102
RTVSPropertyOp62
 70
     1
  0
XRECORD
  5
CAB
102
{ACAD_REACTORS
330
CAA
102
}
330
CAA
100
AcDbXrecord
280
     1
102
RTVSPost2010Prop28
280
     0
102
RTVSPost2010PropOp28
 70
     1
102
RTVSPost2010Prop29
280
     1
102
RTVSPost2010PropOp29
 70
     1
102
RTVSPost2010Prop30
280
     1
102
RTVSPost2010PropOp30
 70
     1
102
RTVSPost2010Prop31
280
     0
102
RTVSPost2010PropOp31
 70
     1
102
RTVSPost2010Prop32
280
     0
102
RTVSPost2010PropOp32
 70
     1
102
RTVSPost2010Prop33
280
     0
102
RTVSPost2010PropOp33
 70
     1
102
RTVSPost2010Prop34
280
     0
102
RTVSPost2010PropOp34
 70
     1
102
RTVSPost2010Prop35
280
     0
102
RTVSPost2010PropOp35
 70
     1
102
RTVSPost2010Prop36
280
     0
102
RTVSPost2010PropOp36
 70
     1
102
RTVSPost2010Prop37
 90
       50
102
RTVSPost2010PropOp37
 70
     1
102
RTVSPost2010Prop38
140
0.0
102
RTVSPost2010PropOp38
 70
     1
102
RTVSPost2010Prop39
140
1.0
102
RTVSPost2010PropOp39
 70
     1
102
RTVSPost2010Prop40
 90
        0
102
RTVSPost2010PropOp40
 70
     1
102
RTVSPost2010Prop41ColorIndex
 90
       18
102
RTVSPost2010Prop41ColorRGB
 90
        0
102
RTVSPost2010PropOp41
 70
     1
102
RTVSPost2010Prop42
 90
       50
102
RTVSPost2010PropOp42
 70
     1
102
RTVSPost2010Prop43
 90
        3
102
RTVSPost2010PropOp43
 70
     1
102
RTVSPost2010Prop44ColorIndex
 90
        5
102
RTVSPost2010Prop44ColorRGB
 90
      255
102
RTVSPost2010PropOp44
 70
     1
102
RTVSPost2010Prop45
280
     0
102
RTVSPost2010PropOp45
 70
     1
102
RTVSPost2010Prop46
 90
       50
102
RTVSPost2010PropOp46
 70
     1
102
RTVSPost2010Prop47
 90
       50
102
RTVSPost2010PropOp47
 70
     1
102
RTVSPost2010Prop48
 90
       50
102
RTVSPost2010PropOp48
 70
     1
102
RTVSPost2010Prop49
280
     0
102
RTVSPost2010PropOp49
 70
     1
102
RTVSPost2010Prop50
 90
       50
102
RTVSPost2010PropOp50
 70
     1
102
RTVSPost2010Prop51ColorIndex
 90
      256
102
RTVSPost2010Prop51ColorRGB
 90
-16777216
102
RTVSPost2010PropOp51
 70
     0
102
RTVSPost2010Prop52
140
1.0
102
RTVSPost2010PropOp52
 70
     0
102
RTVSPost2010Prop53
 90
        2
102
RTVSPost2010PropOp53
 70
     1
102
RTVSPost2010Prop54
  1
strokes_ogs.tif
102
RTVSPost2010PropOp54
 70
     1
102
RTVSPost2010Prop55
280
     0
102
RTVSPost2010PropOp55
 70
     1
102
RTVSPost2010Prop56
140
1.0
102
RTVSPost2010PropOp56
 70
     1
102
RTVSPost2010Prop57
140
1.0
102
RTVSPost2010PropOp57
 70
     1
102
RTVSPropertyOp0
 70
     1
102
RTVSPropertyOp1
 70
     1
102
RTVSPropertyOp2
 70
     1
102
RTVSPropertyOp3
 70
     1
102
RTVSPropertyOp4
 70
     1
102
RTVSPropertyOp5
 70
     1
102
RTVSPropertyOp6
 70
     1
102
RTVSPropertyOp7
 70
     1
102
RTVSPropertyOp8
 70
     1
102
RTVSPropertyOp9
 70
     1
102
RTVSPropertyOp10
 70
     1
102
RTVSPropertyOp11
 70
     1
102
RTVSPropertyOp12
 70
     1
102
RTVSPropertyOp13
 70
     1
102
RTVSPropertyOp14
 70
     1
102
RTVSPropertyOp15
 70
     1
102
RTVSPropertyOp16
 70
     1
102
RTVSPropertyOp17
 70
     1
102
RTVSPropertyOp18
 70
     1
102
RTVSPropertyOp19
 70
     1
102
RTVSPropertyOp20
 70
     1
102
RTVSPropertyOp21
 70
     1
102
RTVSPropertyOp22
 70
     1
102
RTVSPropertyOp23
 70
     1
102
RTVSPropertyOp24
 70
     1
102
RTVSPropertyOp25
 70
     1
102
RTVSPropertyOp26
 70
     1
102
RTVSPropertyOp27
 70
     1
102
RTVSPropertyOp28
 70
     1
102
RTVSPropertyOp29
 70
     1
102
RTVSPropertyOp30
 70
     1
102
RTVSPropertyOp31
 70
     1
102
RTVSPropertyOp32
 70
     1
102
RTVSPropertyOp33
 70
     1
102
RTVSPropertyOp34
 70
     1
102
RTVSPropertyOp35
 70
     1
102
RTVSPropertyOp36
 70
     1
102
RTVSPropertyOp37
 70
     1
102
RTVSPropertyOp38
 70
     1
102
RTVSPropertyOp39
 70
     1
102
RTVSPropertyOp40
 70
     1
102
RTVSPropertyOp41
 70
     1
102
RTVSPropertyOp42
 70
     1
102
RTVSPropertyOp43
 70
     1
102
RTVSPropertyOp44
 70
     1
102
RTVSPropertyOp45
 70
     1
102
RTVSPropertyOp46
 70
     1
102
RTVSPropertyOp47
 70
     1
102
RTVSPropertyOp48
 70
     1
102
RTVSPropertyOp49
 70
     1
102
RTVSPropertyOp50
 70
     1
102
RTVSPropertyOp51
 70
     0
102
RTVSPropertyOp52
 70
     0
102
RTVSPropertyOp53
 70
     1
102
RTVSPropertyOp54
 70
     1
102
RTVSPropertyOp55
 70
     1
102
RTVSPropertyOp56
 70
     1
102
RTVSPropertyOp57
 70
     1
102
RTVSPropertyOp58
 70
     1
102
RTVSPropertyOp59
 70
     1
102
RTVSPropertyOp60
 70
     1
102
RTVSPropertyOp61
 70
     1
102
RTVSPropertyOp62
 70
     1
  0
XRECORD
  5
CA5
102
{ACAD_REACTORS
330
CA4
102
}
330
CA4
100
AcDbXrecord
280
     1
102
RTVSPost2010Prop28
280
     0
102
RTVSPost2010PropOp28
 70
     1
102
RTVSPost2010Prop29
280
     1
102
RTVSPost2010PropOp29
 70
     1
102
RTVSPost2010Prop30
280
     1
102
RTVSPost2010PropOp30
 70
     1
102
RTVSPost2010Prop31
280
     0
102
RTVSPost2010PropOp31
 70
     1
102
RTVSPost2010Prop32
280
     0
102
RTVSPost2010PropOp32
 70
     1
102
RTVSPost2010Prop33
280
     0
102
RTVSPost2010PropOp33
 70
     1
102
RTVSPost2010Prop34
280
     0
102
RTVSPost2010PropOp34
 70
     1
102
RTVSPost2010Prop35
280
     0
102
RTVSPost2010PropOp35
 70
     1
102
RTVSPost2010Prop36
280
     0
102
RTVSPost2010PropOp36
 70
     1
102
RTVSPost2010Prop37
 90
       50
102
RTVSPost2010PropOp37
 70
     1
102
RTVSPost2010Prop38
140
0.0
102
RTVSPost2010PropOp38
 70
     1
102
RTVSPost2010Prop39
140
1.0
102
RTVSPost2010PropOp39
 70
     1
102
RTVSPost2010Prop40
 90
        0
102
RTVSPost2010PropOp40
 70
     1
102
RTVSPost2010Prop41ColorIndex
 90
       18
102
RTVSPost2010Prop41ColorRGB
 90
        0
102
RTVSPost2010PropOp41
 70
     1
102
RTVSPost2010Prop42
 90
       50
102
RTVSPost2010PropOp42
 70
     1
102
RTVSPost2010Prop43
 90
        3
102
RTVSPost2010PropOp43
 70
     1
102
RTVSPost2010Prop44ColorIndex
 90
        5
102
RTVSPost2010Prop44ColorRGB
 90
      255
102
RTVSPost2010PropOp44
 70
     1
102
RTVSPost2010Prop45
280
     0
102
RTVSPost2010PropOp45
 70
     1
102
RTVSPost2010Prop46
 90
       50
102
RTVSPost2010PropOp46
 70
     1
102
RTVSPost2010Prop47
 90
       50
102
RTVSPost2010PropOp47
 70
     1
102
RTVSPost2010Prop48
 90
       50
102
RTVSPost2010PropOp48
 70
     1
102
RTVSPost2010Prop49
280
     0
102
RTVSPost2010PropOp49
 70
     1
102
RTVSPost2010Prop50
 90
       50
102
RTVSPost2010PropOp50
 70
     1
102
RTVSPost2010Prop51ColorIndex
 90
      256
102
RTVSPost2010Prop51ColorRGB
 90
-16777216
102
RTVSPost2010PropOp51
 70
     0
102
RTVSPost2010Prop52
140
1.0
102
RTVSPost2010PropOp52
 70
     0
102
RTVSPost2010Prop53
 90
        2
102
RTVSPost2010PropOp53
 70
     1
102
RTVSPost2010Prop54
  1
strokes_ogs.tif
102
RTVSPost2010PropOp54
 70
     1
102
RTVSPost2010Prop55
280
     0
102
RTVSPost2010PropOp55
 70
     1
102
RTVSPost2010Prop56
140
1.0
102
RTVSPost2010PropOp56
 70
     1
102
RTVSPost2010Prop57
140
1.0
102
RTVSPost2010PropOp57
 70
     1
102
RTVSPropertyOp0
 70
     1
102
RTVSPropertyOp1
 70
     1
102
RTVSPropertyOp2
 70
     1
102
RTVSPropertyOp3
 70
     1
102
RTVSPropertyOp4
 70
     1
102
RTVSPropertyOp5
 70
     1
102
RTVSPropertyOp6
 70
     1
102
RTVSPropertyOp7
 70
     1
102
RTVSPropertyOp8
 70
     1
102
RTVSPropertyOp9
 70
     1
102
RTVSPropertyOp10
 70
     1
102
RTVSPropertyOp11
 70
     1
102
RTVSPropertyOp12
 70
     1
102
RTVSPropertyOp13
 70
     1
102
RTVSPropertyOp14
 70
     1
102
RTVSPropertyOp15
 70
     1
102
RTVSPropertyOp16
 70
     1
102
RTVSPropertyOp17
 70
     1
102
RTVSPropertyOp18
 70
     1
102
RTVSPropertyOp19
 70
     1
102
RTVSPropertyOp20
 70
     1
102
RTVSPropertyOp21
 70
     1
102
RTVSPropertyOp22
 70
     1
102
RTVSPropertyOp23
 70
     1
102
RTVSPropertyOp24
 70
     1
102
RTVSPropertyOp25
 70
     1
102
RTVSPropertyOp26
 70
     1
102
RTVSPropertyOp27
 70
     1
102
RTVSPropertyOp28
 70
     1
102
RTVSPropertyOp29
 70
     1
102
RTVSPropertyOp30
 70
     1
102
RTVSPropertyOp31
 70
     1
102
RTVSPropertyOp32
 70
     1
102
RTVSPropertyOp33
 70
     1
102
RTVSPropertyOp34
 70
     1
102
RTVSPropertyOp35
 70
     1
102
RTVSPropertyOp36
 70
     1
102
RTVSPropertyOp37
 70
     1
102
RTVSPropertyOp38
 70
     1
102
RTVSPropertyOp39
 70
     1
102
RTVSPropertyOp40
 70
     1
102
RTVSPropertyOp41
 70
     1
102
RTVSPropertyOp42
 70
     1
102
RTVSPropertyOp43
 70
     1
102
RTVSPropertyOp44
 70
     1
102
RTVSPropertyOp45
 70
     1
102
RTVSPropertyOp46
 70
     1
102
RTVSPropertyOp47
 70
     1
102
RTVSPropertyOp48
 70
     1
102
RTVSPropertyOp49
 70
     1
102
RTVSPropertyOp50
 70
     1
102
RTVSPropertyOp51
 70
     0
102
RTVSPropertyOp52
 70
     0
102
RTVSPropertyOp53
 70
     1
102
RTVSPropertyOp54
 70
     1
102
RTVSPropertyOp55
 70
     1
102
RTVSPropertyOp56
 70
     1
102
RTVSPropertyOp57
 70
     1
102
RTVSPropertyOp58
 70
     1
102
RTVSPropertyOp59
 70
     1
102
RTVSPropertyOp60
 70
     1
102
RTVSPropertyOp61
 70
     1
102
RTVSPropertyOp62
 70
     1
  0
XRECORD
  5
CA7
102
{ACAD_REACTORS
330
CA6
102
}
330
CA6
100
AcDbXrecord
280
     1
102
RTVSPost2010Prop28
280
     0
102
RTVSPost2010PropOp28
 70
     1
102
RTVSPost2010Prop29
280
     1
102
RTVSPost2010PropOp29
 70
     1
102
RTVSPost2010Prop30
280
     1
102
RTVSPost2010PropOp30
 70
     1
102
RTVSPost2010Prop31
280
     0
102
RTVSPost2010PropOp31
 70
     1
102
RTVSPost2010Prop32
280
     0
102
RTVSPost2010PropOp32
 70
     1
102
RTVSPost2010Prop33
280
     0
102
RTVSPost2010PropOp33
 70
     1
102
RTVSPost2010Prop34
280
     0
102
RTVSPost2010PropOp34
 70
     1
102
RTVSPost2010Prop35
280
     0
102
RTVSPost2010PropOp35
 70
     1
102
RTVSPost2010Prop36
280
     0
102
RTVSPost2010PropOp36
 70
     1
102
RTVSPost2010Prop37
 90
       50
102
RTVSPost2010PropOp37
 70
     1
102
RTVSPost2010Prop38
140
0.0
102
RTVSPost2010PropOp38
 70
     1
102
RTVSPost2010Prop39
140
1.0
102
RTVSPost2010PropOp39
 70
     1
102
RTVSPost2010Prop40
 90
        0
102
RTVSPost2010PropOp40
 70
     1
102
RTVSPost2010Prop41ColorIndex
 90
       18
102
RTVSPost2010Prop41ColorRGB
 90
        0
102
RTVSPost2010PropOp41
 70
     1
102
RTVSPost2010Prop42
 90
       50
102
RTVSPost2010PropOp42
 70
     1
102
RTVSPost2010Prop43
 90
        3
102
RTVSPost2010PropOp43
 70
     1
102
RTVSPost2010Prop44ColorIndex
 90
        5
102
RTVSPost2010Prop44ColorRGB
 90
      255
102
RTVSPost2010PropOp44
 70
     1
102
RTVSPost2010Prop45
280
     0
102
RTVSPost2010PropOp45
 70
     1
102
RTVSPost2010Prop46
 90
       50
102
RTVSPost2010PropOp46
 70
     1
102
RTVSPost2010Prop47
 90
       50
102
RTVSPost2010PropOp47
 70
     1
102
RTVSPost2010Prop48
 90
       50
102
RTVSPost2010PropOp48
 70
     1
102
RTVSPost2010Prop49
280
     0
102
RTVSPost2010PropOp49
 70
     1
102
RTVSPost2010Prop50
 90
       50
102
RTVSPost2010PropOp50
 70
     1
102
RTVSPost2010Prop51ColorIndex
 90
      256
102
RTVSPost2010Prop51ColorRGB
 90
-16777216
102
RTVSPost2010PropOp51
 70
     0
102
RTVSPost2010Prop52
140
1.0
102
RTVSPost2010PropOp52
 70
     0
102
RTVSPost2010Prop53
 90
        2
102
RTVSPost2010PropOp53
 70
     1
102
RTVSPost2010Prop54
  1
strokes_ogs.tif
102
RTVSPost2010PropOp54
 70
     1
102
RTVSPost2010Prop55
280
     0
102
RTVSPost2010PropOp55
 70
     1
102
RTVSPost2010Prop56
140
1.0
102
RTVSPost2010PropOp56
 70
     1
102
RTVSPost2010Prop57
140
1.0
102
RTVSPost2010PropOp57
 70
     1
102
RTVSPropertyOp0
 70
     1
102
RTVSPropertyOp1
 70
     1
102
RTVSPropertyOp2
 70
     1
102
RTVSPropertyOp3
 70
     1
102
RTVSPropertyOp4
 70
     1
102
RTVSPropertyOp5
 70
     1
102
RTVSPropertyOp6
 70
     1
102
RTVSPropertyOp7
 70
     1
102
RTVSPropertyOp8
 70
     1
102
RTVSPropertyOp9
 70
     1
102
RTVSPropertyOp10
 70
     1
102
RTVSPropertyOp11
 70
     1
102
RTVSPropertyOp12
 70
     1
102
RTVSPropertyOp13
 70
     1
102
RTVSPropertyOp14
 70
     1
102
RTVSPropertyOp15
 70
     1
102
RTVSPropertyOp16
 70
     1
102
RTVSPropertyOp17
 70
     1
102
RTVSPropertyOp18
 70
     1
102
RTVSPropertyOp19
 70
     1
102
RTVSPropertyOp20
 70
     1
102
RTVSPropertyOp21
 70
     1
102
RTVSPropertyOp22
 70
     1
102
RTVSPropertyOp23
 70
     1
102
RTVSPropertyOp24
 70
     1
102
RTVSPropertyOp25
 70
     1
102
RTVSPropertyOp26
 70
     1
102
RTVSPropertyOp27
 70
     1
102
RTVSPropertyOp28
 70
     1
102
RTVSPropertyOp29
 70
     1
102
RTVSPropertyOp30
 70
     1
102
RTVSPropertyOp31
 70
     1
102
RTVSPropertyOp32
 70
     1
102
RTVSPropertyOp33
 70
     1
102
RTVSPropertyOp34
 70
     1
102
RTVSPropertyOp35
 70
     1
102
RTVSPropertyOp36
 70
     1
102
RTVSPropertyOp37
 70
     1
102
RTVSPropertyOp38
 70
     1
102
RTVSPropertyOp39
 70
     1
102
RTVSPropertyOp40
 70
     1
102
RTVSPropertyOp41
 70
     1
102
RTVSPropertyOp42
 70
     1
102
RTVSPropertyOp43
 70
     1
102
RTVSPropertyOp44
 70
     1
102
RTVSPropertyOp45
 70
     1
102
RTVSPropertyOp46
 70
     1
102
RTVSPropertyOp47
 70
     1
102
RTVSPropertyOp48
 70
     1
102
RTVSPropertyOp49
 70
     1
102
RTVSPropertyOp50
 70
     1
102
RTVSPropertyOp51
 70
     0
102
RTVSPropertyOp52
 70
     0
102
RTVSPropertyOp53
 70
     1
102
RTVSPropertyOp54
 70
     1
102
RTVSPropertyOp55
 70
     1
102
RTVSPropertyOp56
 70
     1
102
RTVSPropertyOp57
 70
     1
102
RTVSPropertyOp58
 70
     1
102
RTVSPropertyOp59
 70
     1
102
RTVSPropertyOp60
 70
     1
102
RTVSPropertyOp61
 70
     1
102
RTVSPropertyOp62
 70
     1
  0
XRECORD
  5
C97
102
{ACAD_REACTORS
330
C96
102
}
330
C96
100
AcDbXrecord
280
     1
102
RTVSPost2010Prop28
280
     0
102
RTVSPost2010PropOp28
 70
     1
102
RTVSPost2010Prop29
280
     1
102
RTVSPost2010PropOp29
 70
     1
102
RTVSPost2010Prop30
280
     1
102
RTVSPost2010PropOp30
 70
     1
102
RTVSPost2010Prop31
280
     0
102
RTVSPost2010PropOp31
 70
     1
102
RTVSPost2010Prop32
280
     0
102
RTVSPost2010PropOp32
 70
     1
102
RTVSPost2010Prop33
280
     0
102
RTVSPost2010PropOp33
 70
     1
102
RTVSPost2010Prop34
280
     0
102
RTVSPost2010PropOp34
 70
     1
102
RTVSPost2010Prop35
280
     0
102
RTVSPost2010PropOp35
 70
     1
102
RTVSPost2010Prop36
280
     0
102
RTVSPost2010PropOp36
 70
     1
102
RTVSPost2010Prop37
 90
       50
102
RTVSPost2010PropOp37
 70
     1
102
RTVSPost2010Prop38
140
0.0
102
RTVSPost2010PropOp38
 70
     1
102
RTVSPost2010Prop39
140
1.0
102
RTVSPost2010PropOp39
 70
     1
102
RTVSPost2010Prop40
 90
        0
102
RTVSPost2010PropOp40
 70
     1
102
RTVSPost2010Prop41ColorIndex
 90
       18
102
RTVSPost2010Prop41ColorRGB
 90
        0
102
RTVSPost2010PropOp41
 70
     1
102
RTVSPost2010Prop42
 90
       50
102
RTVSPost2010PropOp42
 70
     1
102
RTVSPost2010Prop43
 90
        3
102
RTVSPost2010PropOp43
 70
     1
102
RTVSPost2010Prop44ColorIndex
 90
        5
102
RTVSPost2010Prop44ColorRGB
 90
      255
102
RTVSPost2010PropOp44
 70
     1
102
RTVSPost2010Prop45
280
     0
102
RTVSPost2010PropOp45
 70
     1
102
RTVSPost2010Prop46
 90
       50
102
RTVSPost2010PropOp46
 70
     1
102
RTVSPost2010Prop47
 90
       50
102
RTVSPost2010PropOp47
 70
     1
102
RTVSPost2010Prop48
 90
       50
102
RTVSPost2010PropOp48
 70
     1
102
RTVSPost2010Prop49
280
     0
102
RTVSPost2010PropOp49
 70
     1
102
RTVSPost2010Prop50
 90
       50
102
RTVSPost2010PropOp50
 70
     1
102
RTVSPost2010Prop51ColorIndex
 90
      256
102
RTVSPost2010Prop51ColorRGB
 90
-16777216
102
RTVSPost2010PropOp51
 70
     0
102
RTVSPost2010Prop52
140
1.0
102
RTVSPost2010PropOp52
 70
     0
102
RTVSPost2010Prop53
 90
        2
102
RTVSPost2010PropOp53
 70
     1
102
RTVSPost2010Prop54
  1
strokes_ogs.tif
102
RTVSPost2010PropOp54
 70
     1
102
RTVSPost2010Prop55
280
     0
102
RTVSPost2010PropOp55
 70
     1
102
RTVSPost2010Prop56
140
1.0
102
RTVSPost2010PropOp56
 70
     1
102
RTVSPost2010Prop57
140
1.0
102
RTVSPost2010PropOp57
 70
     1
102
RTVSPropertyOp0
 70
     1
102
RTVSPropertyOp1
 70
     1
102
RTVSPropertyOp2
 70
     1
102
RTVSPropertyOp3
 70
     1
102
RTVSPropertyOp4
 70
     1
102
RTVSPropertyOp5
 70
     1
102
RTVSPropertyOp6
 70
     1
102
RTVSPropertyOp7
 70
     1
102
RTVSPropertyOp8
 70
     1
102
RTVSPropertyOp9
 70
     1
102
RTVSPropertyOp10
 70
     1
102
RTVSPropertyOp11
 70
     1
102
RTVSPropertyOp12
 70
     1
102
RTVSPropertyOp13
 70
     1
102
RTVSPropertyOp14
 70
     1
102
RTVSPropertyOp15
 70
     1
102
RTVSPropertyOp16
 70
     1
102
RTVSPropertyOp17
 70
     1
102
RTVSPropertyOp18
 70
     1
102
RTVSPropertyOp19
 70
     1
102
RTVSPropertyOp20
 70
     1
102
RTVSPropertyOp21
 70
     1
102
RTVSPropertyOp22
 70
     1
102
RTVSPropertyOp23
 70
     1
102
RTVSPropertyOp24
 70
     1
102
RTVSPropertyOp25
 70
     1
102
RTVSPropertyOp26
 70
     1
102
RTVSPropertyOp27
 70
     1
102
RTVSPropertyOp28
 70
     1
102
RTVSPropertyOp29
 70
     1
102
RTVSPropertyOp30
 70
     1
102
RTVSPropertyOp31
 70
     1
102
RTVSPropertyOp32
 70
     1
102
RTVSPropertyOp33
 70
     1
102
RTVSPropertyOp34
 70
     1
102
RTVSPropertyOp35
 70
     1
102
RTVSPropertyOp36
 70
     1
102
RTVSPropertyOp37
 70
     1
102
RTVSPropertyOp38
 70
     1
102
RTVSPropertyOp39
 70
     1
102
RTVSPropertyOp40
 70
     1
102
RTVSPropertyOp41
 70
     1
102
RTVSPropertyOp42
 70
     1
102
RTVSPropertyOp43
 70
     1
102
RTVSPropertyOp44
 70
     1
102
RTVSPropertyOp45
 70
     1
102
RTVSPropertyOp46
 70
     1
102
RTVSPropertyOp47
 70
     1
102
RTVSPropertyOp48
 70
     1
102
RTVSPropertyOp49
 70
     1
102
RTVSPropertyOp50
 70
     1
102
RTVSPropertyOp51
 70
     0
102
RTVSPropertyOp52
 70
     0
102
RTVSPropertyOp53
 70
     1
102
RTVSPropertyOp54
 70
     1
102
RTVSPropertyOp55
 70
     1
102
RTVSPropertyOp56
 70
     1
102
RTVSPropertyOp57
 70
     1
102
RTVSPropertyOp58
 70
     1
102
RTVSPropertyOp59
 70
     1
102
RTVSPropertyOp60
 70
     1
102
RTVSPropertyOp61
 70
     1
102
RTVSPropertyOp62
 70
     1
  0
XRECORD
  5
C89
102
{ACAD_REACTORS
330
C88
102
}
330
C88
100
AcDbXrecord
280
     1
102
RTVSPost2010Prop28
280
     0
102
RTVSPost2010PropOp28
 70
     1
102
RTVSPost2010Prop29
280
     1
102
RTVSPost2010PropOp29
 70
     1
102
RTVSPost2010Prop30
280
     1
102
RTVSPost2010PropOp30
 70
     1
102
RTVSPost2010Prop31
280
     0
102
RTVSPost2010PropOp31
 70
     1
102
RTVSPost2010Prop32
280
     0
102
RTVSPost2010PropOp32
 70
     1
102
RTVSPost2010Prop33
280
     0
102
RTVSPost2010PropOp33
 70
     1
102
RTVSPost2010Prop34
280
     0
102
RTVSPost2010PropOp34
 70
     1
102
RTVSPost2010Prop35
280
     0
102
RTVSPost2010PropOp35
 70
     1
102
RTVSPost2010Prop36
280
     0
102
RTVSPost2010PropOp36
 70
     1
102
RTVSPost2010Prop37
 90
       50
102
RTVSPost2010PropOp37
 70
     1
102
RTVSPost2010Prop38
140
0.0
102
RTVSPost2010PropOp38
 70
     1
102
RTVSPost2010Prop39
140
1.0
102
RTVSPost2010PropOp39
 70
     1
102
RTVSPost2010Prop40
 90
        0
102
RTVSPost2010PropOp40
 70
     1
102
RTVSPost2010Prop41ColorIndex
 90
       18
102
RTVSPost2010Prop41ColorRGB
 90
        0
102
RTVSPost2010PropOp41
 70
     1
102
RTVSPost2010Prop42
 90
       50
102
RTVSPost2010PropOp42
 70
     1
102
RTVSPost2010Prop43
 90
        3
102
RTVSPost2010PropOp43
 70
     1
102
RTVSPost2010Prop44ColorIndex
 90
        5
102
RTVSPost2010Prop44ColorRGB
 90
      255
102
RTVSPost2010PropOp44
 70
     1
102
RTVSPost2010Prop45
280
     0
102
RTVSPost2010PropOp45
 70
     1
102
RTVSPost2010Prop46
 90
       50
102
RTVSPost2010PropOp46
 70
     1
102
RTVSPost2010Prop47
 90
       50
102
RTVSPost2010PropOp47
 70
     1
102
RTVSPost2010Prop48
 90
       50
102
RTVSPost2010PropOp48
 70
     1
102
RTVSPost2010Prop49
280
     0
102
RTVSPost2010PropOp49
 70
     1
102
RTVSPost2010Prop50
 90
       50
102
RTVSPost2010PropOp50
 70
     1
102
RTVSPost2010Prop51ColorIndex
 90
      256
102
RTVSPost2010Prop51ColorRGB
 90
-16777216
102
RTVSPost2010PropOp51
 70
     0
102
RTVSPost2010Prop52
140
1.0
102
RTVSPost2010PropOp52
 70
     0
102
RTVSPost2010Prop53
 90
        2
102
RTVSPost2010PropOp53
 70
     1
102
RTVSPost2010Prop54
  1
strokes_ogs.tif
102
RTVSPost2010PropOp54
 70
     1
102
RTVSPost2010Prop55
280
     0
102
RTVSPost2010PropOp55
 70
     1
102
RTVSPost2010Prop56
140
1.0
102
RTVSPost2010PropOp56
 70
     1
102
RTVSPost2010Prop57
140
1.0
102
RTVSPost2010PropOp57
 70
     1
102
RTVSPropertyOp0
 70
     1
102
RTVSPropertyOp1
 70
     1
102
RTVSPropertyOp2
 70
     1
102
RTVSPropertyOp3
 70
     1
102
RTVSPropertyOp4
 70
     1
102
RTVSPropertyOp5
 70
     1
102
RTVSPropertyOp6
 70
     1
102
RTVSPropertyOp7
 70
     1
102
RTVSPropertyOp8
 70
     1
102
RTVSPropertyOp9
 70
     1
102
RTVSPropertyOp10
 70
     1
102
RTVSPropertyOp11
 70
     1
102
RTVSPropertyOp12
 70
     1
102
RTVSPropertyOp13
 70
     1
102
RTVSPropertyOp14
 70
     1
102
RTVSPropertyOp15
 70
     1
102
RTVSPropertyOp16
 70
     1
102
RTVSPropertyOp17
 70
     1
102
RTVSPropertyOp18
 70
     1
102
RTVSPropertyOp19
 70
     1
102
RTVSPropertyOp20
 70
     1
102
RTVSPropertyOp21
 70
     1
102
RTVSPropertyOp22
 70
     1
102
RTVSPropertyOp23
 70
     1
102
RTVSPropertyOp24
 70
     1
102
RTVSPropertyOp25
 70
     1
102
RTVSPropertyOp26
 70
     1
102
RTVSPropertyOp27
 70
     1
102
RTVSPropertyOp28
 70
     1
102
RTVSPropertyOp29
 70
     1
102
RTVSPropertyOp30
 70
     1
102
RTVSPropertyOp31
 70
     1
102
RTVSPropertyOp32
 70
     1
102
RTVSPropertyOp33
 70
     1
102
RTVSPropertyOp34
 70
     1
102
RTVSPropertyOp35
 70
     1
102
RTVSPropertyOp36
 70
     1
102
RTVSPropertyOp37
 70
     1
102
RTVSPropertyOp38
 70
     1
102
RTVSPropertyOp39
 70
     1
102
RTVSPropertyOp40
 70
     1
102
RTVSPropertyOp41
 70
     1
102
RTVSPropertyOp42
 70
     1
102
RTVSPropertyOp43
 70
     1
102
RTVSPropertyOp44
 70
     1
102
RTVSPropertyOp45
 70
     1
102
RTVSPropertyOp46
 70
     1
102
RTVSPropertyOp47
 70
     1
102
RTVSPropertyOp48
 70
     1
102
RTVSPropertyOp49
 70
     1
102
RTVSPropertyOp50
 70
     1
102
RTVSPropertyOp51
 70
     0
102
RTVSPropertyOp52
 70
     0
102
RTVSPropertyOp53
 70
     1
102
RTVSPropertyOp54
 70
     1
102
RTVSPropertyOp55
 70
     1
102
RTVSPropertyOp56
 70
     1
102
RTVSPropertyOp57
 70
     1
102
RTVSPropertyOp58
 70
     1
102
RTVSPropertyOp59
 70
     1
102
RTVSPropertyOp60
 70
     1
102
RTVSPropertyOp61
 70
     1
102
RTVSPropertyOp62
 70
     1
  0
XRECORD
  5
CA9
102
{ACAD_REACTORS
330
CA8
102
}
330
CA8
100
AcDbXrecord
280
     1
102
RTVSPost2010Prop28
280
     0
102
RTVSPost2010PropOp28
 70
     1
102
RTVSPost2010Prop29
280
     1
102
RTVSPost2010PropOp29
 70
     1
102
RTVSPost2010Prop30
280
     1
102
RTVSPost2010PropOp30
 70
     1
102
RTVSPost2010Prop31
280
     0
102
RTVSPost2010PropOp31
 70
     1
102
RTVSPost2010Prop32
280
     0
102
RTVSPost2010PropOp32
 70
     1
102
RTVSPost2010Prop33
280
     0
102
RTVSPost2010PropOp33
 70
     1
102
RTVSPost2010Prop34
280
     0
102
RTVSPost2010PropOp34
 70
     1
102
RTVSPost2010Prop35
280
     0
102
RTVSPost2010PropOp35
 70
     1
102
RTVSPost2010Prop36
280
     0
102
RTVSPost2010PropOp36
 70
     1
102
RTVSPost2010Prop37
 90
       50
102
RTVSPost2010PropOp37
 70
     1
102
RTVSPost2010Prop38
140
0.0
102
RTVSPost2010PropOp38
 70
     1
102
RTVSPost2010Prop39
140
1.0
102
RTVSPost2010PropOp39
 70
     1
102
RTVSPost2010Prop40
 90
        0
102
RTVSPost2010PropOp40
 70
     1
102
RTVSPost2010Prop41ColorIndex
 90
       18
102
RTVSPost2010Prop41ColorRGB
 90
        0
102
RTVSPost2010PropOp41
 70
     1
102
RTVSPost2010Prop42
 90
       50
102
RTVSPost2010PropOp42
 70
     1
102
RTVSPost2010Prop43
 90
        3
102
RTVSPost2010PropOp43
 70
     1
102
RTVSPost2010Prop44ColorIndex
 90
        5
102
RTVSPost2010Prop44ColorRGB
 90
      255
102
RTVSPost2010PropOp44
 70
     1
102
RTVSPost2010Prop45
280
     0
102
RTVSPost2010PropOp45
 70
     1
102
RTVSPost2010Prop46
 90
       50
102
RTVSPost2010PropOp46
 70
     1
102
RTVSPost2010Prop47
 90
       50
102
RTVSPost2010PropOp47
 70
     1
102
RTVSPost2010Prop48
 90
       50
102
RTVSPost2010PropOp48
 70
     1
102
RTVSPost2010Prop49
280
     0
102
RTVSPost2010PropOp49
 70
     1
102
RTVSPost2010Prop50
 90
       50
102
RTVSPost2010PropOp50
 70
     1
102
RTVSPost2010Prop51ColorIndex
 90
      256
102
RTVSPost2010Prop51ColorRGB
 90
-16777216
102
RTVSPost2010PropOp51
 70
     0
102
RTVSPost2010Prop52
140
1.0
102
RTVSPost2010PropOp52
 70
     0
102
RTVSPost2010Prop53
 90
        2
102
RTVSPost2010PropOp53
 70
     1
102
RTVSPost2010Prop54
  1
strokes_ogs.tif
102
RTVSPost2010PropOp54
 70
     1
102
RTVSPost2010Prop55
280
     0
102
RTVSPost2010PropOp55
 70
     1
102
RTVSPost2010Prop56
140
1.0
102
RTVSPost2010PropOp56
 70
     1
102
RTVSPost2010Prop57
140
1.0
102
RTVSPost2010PropOp57
 70
     1
102
RTVSPropertyOp0
 70
     1
102
RTVSPropertyOp1
 70
     1
102
RTVSPropertyOp2
 70
     1
102
RTVSPropertyOp3
 70
     1
102
RTVSPropertyOp4
 70
     1
102
RTVSPropertyOp5
 70
     1
102
RTVSPropertyOp6
 70
     1
102
RTVSPropertyOp7
 70
     1
102
RTVSPropertyOp8
 70
     1
102
RTVSPropertyOp9
 70
     1
102
RTVSPropertyOp10
 70
     1
102
RTVSPropertyOp11
 70
     1
102
RTVSPropertyOp12
 70
     1
102
RTVSPropertyOp13
 70
     1
102
RTVSPropertyOp14
 70
     1
102
RTVSPropertyOp15
 70
     1
102
RTVSPropertyOp16
 70
     1
102
RTVSPropertyOp17
 70
     1
102
RTVSPropertyOp18
 70
     1
102
RTVSPropertyOp19
 70
     1
102
RTVSPropertyOp20
 70
     1
102
RTVSPropertyOp21
 70
     1
102
RTVSPropertyOp22
 70
     1
102
RTVSPropertyOp23
 70
     1
102
RTVSPropertyOp24
 70
     1
102
RTVSPropertyOp25
 70
     1
102
RTVSPropertyOp26
 70
     1
102
RTVSPropertyOp27
 70
     1
102
RTVSPropertyOp28
 70
     1
102
RTVSPropertyOp29
 70
     1
102
RTVSPropertyOp30
 70
     1
102
RTVSPropertyOp31
 70
     1
102
RTVSPropertyOp32
 70
     1
102
RTVSPropertyOp33
 70
     1
102
RTVSPropertyOp34
 70
     1
102
RTVSPropertyOp35
 70
     1
102
RTVSPropertyOp36
 70
     1
102
RTVSPropertyOp37
 70
     1
102
RTVSPropertyOp38
 70
     1
102
RTVSPropertyOp39
 70
     1
102
RTVSPropertyOp40
 70
     1
102
RTVSPropertyOp41
 70
     1
102
RTVSPropertyOp42
 70
     1
102
RTVSPropertyOp43
 70
     1
102
RTVSPropertyOp44
 70
     1
102
RTVSPropertyOp45
 70
     1
102
RTVSPropertyOp46
 70
     1
102
RTVSPropertyOp47
 70
     1
102
RTVSPropertyOp48
 70
     1
102
RTVSPropertyOp49
 70
     1
102
RTVSPropertyOp50
 70
     1
102
RTVSPropertyOp51
 70
     0
102
RTVSPropertyOp52
 70
     0
102
RTVSPropertyOp53
 70
     1
102
RTVSPropertyOp54
 70
     1
102
RTVSPropertyOp55
 70
     1
102
RTVSPropertyOp56
 70
     1
102
RTVSPropertyOp57
 70
     1
102
RTVSPropertyOp58
 70
     1
102
RTVSPropertyOp59
 70
     1
102
RTVSPropertyOp60
 70
     1
102
RTVSPropertyOp61
 70
     1
102
RTVSPropertyOp62
 70
     1
  0
ENDSEC
  0
EOF
