  0
SECTION
  2
HEADER
  9
$ACADVER
  1
AC1015
  9
$ACADMAINTVER
 70
    20
  9
$DWGCODEPAGE
  3
ANSI_932
  9
$INSBASE
 10
0.0
 20
0.0
 30
0.0
  9
$EXTMIN
 10
39.81182637012626
 20
22.27850727759232
 30
-0.0015258207003583
  9
$EXTMAX
 10
1747.275831616691
 20
1369.767244467593
 30
0.0000000349246037
  9
$LIMMIN
 10
-749.9648254394533
 20
-822.500496673584
  9
$LIMMAX
 10
1634.662132263184
 20
829.2268989562986
  9
$ORTHOMODE
 70
     1
  9
$REGENMODE
 70
     1
  9
$FILLMODE
 70
     1
  9
$QTEXTMODE
 70
     0
  9
$MIRRTEXT
 70
     1
  9
$LTSCALE
 40
1.032712461997205
  9
$ATTMODE
 70
     1
  9
$TEXTSIZE
 40
2.5
  9
$TRACEWID
 40
1.0
  9
$TEXTSTYLE
  7
Standard
  9
$CLAYER
  8
0
  9
$CELTYPE
  6
ByLayer
  9
$CECOLOR
 62
   256
  9
$CELTSCALE
 40
1.0
  9
$DISPSILH
 70
     0
  9
$DIMSCALE
 40
1.0
  9
$DIMASZ
 40
2.5
  9
$DIMEXO
 40
0.625
  9
$DIMDLI
 40
3.75
  9
$DIMRND
 40
0.0
  9
$DIMDLE
 40
0.0
  9
$DIMEXE
 40
1.25
  9
$DIMTP
 40
0.0
  9
$DIMTM
 40
0.0
  9
$DIMTXT
 40
2.5
  9
$DIMCEN
 40
2.5
  9
$DIMTSZ
 40
0.0
  9
$DIMTOL
 70
     0
  9
$DIMLIM
 70
     0
  9
$DIMTIH
 70
     0
  9
$DIMTOH
 70
     0
  9
$DIMSE1
 70
     0
  9
$DIMSE2
 70
     0
  9
$DIMTAD
 70
     1
  9
$DIMZIN
 70
     0
  9
$DIMBLK
  1

  9
$DIMASO
 70
     1
  9
$DIMSHO
 70
     1
  9
$DIMPOST
  1

  9
$DIMAPOST
  1

  9
$DIMALT
 70
     0
  9
$DIMALTD
 70
     3
  9
$DIMALTF
 40
0.03937007874016
  9
$DIMLFAC
 40
1.0
  9
$DIMTOFL
 70
     1
  9
$DIMTVP
 40
0.0
  9
$DIMTIX
 70
     0
  9
$DIMSOXD
 70
     0
  9
$DIMSAH
 70
     0
  9
$DIMBLK1
  1

  9
$DIMBLK2
  1

  9
$DIMSTYLE
  2
Standard
  9
$DIMCLRD
 70
     0
  9
$DIMCLRE
 70
     0
  9
$DIMCLRT
 70
     0
  9
$DIMTFAC
 40
0.75
  9
$DIMGAP
 40
0.625
  9
$DIMJUST
 70
     0
  9
$DIMSD1
 70
     0
  9
$DIMSD2
 70
     0
  9
$DIMTOLJ
 70
     0
  9
$DIMTZIN
 70
     8
  9
$DIMALTZ
 70
     0
  9
$DIMALTTZ
 70
     0
  9
$DIMUPT
 70
     0
  9
$DIMDEC
 70
     2
  9
$DIMTDEC
 70
     2
  9
$DIMALTU
 70
     2
  9
$DIMALTTD
 70
     3
  9
$DIMTXSTY
  7
Standard
  9
$DIMAUNIT
 70
     0
  9
$DIMADEC
 70
     0
  9
$DIMALTRND
 40
0.0
  9
$DIMAZIN
 70
     0
  9
$DIMDSEP
 70
    46
  9
$DIMATFIT
 70
     3
  9
$DIMFRAC
 70
     0
  9
$DIMLDRBLK
  1

  9
$DIMLUNIT
 70
     2
  9
$DIMLWD
 70
    -2
  9
$DIMLWE
 70
    -2
  9
$DIMTMOVE
 70
     0
  9
$LUNITS
 70
     2
  9
$LUPREC
 70
     4
  9
$SKETCHINC
 40
1.0
  9
$FILLETRAD
 40
0.0
  9
$AUNITS
 70
     0
  9
$AUPREC
 70
     0
  9
$MENU
  1
.
  9
$ELEVATION
 40
0.0
  9
$PELEVATION
 40
0.0
  9
$THICKNESS
 40
0.0
  9
$LIMCHECK
 70
     0
  9
$CHAMFERA
 40
10.0
  9
$CHAMFERB
 40
10.0
  9
$CHAMFERC
 40
20.0
  9
$CHAMFERD
 40
0.0
  9
$SKPOLY
 70
     0
  9
$TDCREATE
 40
2455188.750000000
  9
$TDUCREATE
 40
2455188.375000000
  9
$TDUPDATE
 40
2459753.601196574
  9
$TDUUPDATE
 40
2459753.226196574
  9
$TDINDWG
 40
0.0398738542
  9
$TDUSRTIMER
 40
0.0398736227
  9
$USRTIMER
 70
     1
  9
$ANGBASE
 50
0.0
  9
$ANGDIR
 70
     0
  9
$PDMODE
 70
     0
  9
$PDSIZE
 40
0.0
  9
$PLINEWID
 40
0.0
  9
$SPLFRAME
 70
     0
  9
$SPLINETYPE
 70
     6
  9
$SPLINESEGS
 70
     8
  9
$HANDSEED
  5
C4B
  9
$SURFTAB1
 70
     6
  9
$SURFTAB2
 70
     6
  9
$SURFTYPE
 70
     6
  9
$SURFU
 70
     6
  9
$SURFV
 70
     6
  9
$UCSBASE
  2

  9
$UCSNAME
  2

  9
$UCSORG
 10
0.0
 20
0.0
 30
0.0
  9
$UCSXDIR
 10
1.0
 20
0.0
 30
0.0
  9
$UCSYDIR
 10
0.0
 20
1.0
 30
0.0
  9
$UCSORTHOREF
  2

  9
$UCSORTHOVIEW
 70
     0
  9
$UCSORGTOP
 10
0.0
 20
0.0
 30
0.0
  9
$UCSORGBOTTOM
 10
0.0
 20
0.0
 30
0.0
  9
$UCSORGLEFT
 10
0.0
 20
0.0
 30
0.0
  9
$UCSORGRIGHT
 10
0.0
 20
0.0
 30
0.0
  9
$UCSORGFRONT
 10
0.0
 20
0.0
 30
0.0
  9
$UCSORGBACK
 10
0.0
 20
0.0
 30
0.0
  9
$PUCSBASE
  2

  9
$PUCSNAME
  2

  9
$PUCSORG
 10
0.0
 20
0.0
 30
0.0
  9
$PUCSXDIR
 10
1.0
 20
0.0
 30
0.0
  9
$PUCSYDIR
 10
0.0
 20
1.0
 30
0.0
  9
$PUCSORTHOREF
  2

  9
$PUCSORTHOVIEW
 70
     0
  9
$PUCSORGTOP
 10
0.0
 20
0.0
 30
0.0
  9
$PUCSORGBOTTOM
 10
0.0
 20
0.0
 30
0.0
  9
$PUCSORGLEFT
 10
0.0
 20
0.0
 30
0.0
  9
$PUCSORGRIGHT
 10
0.0
 20
0.0
 30
0.0
  9
$PUCSORGFRONT
 10
0.0
 20
0.0
 30
0.0
  9
$PUCSORGBACK
 10
0.0
 20
0.0
 30
0.0
  9
$USERI1
 70
     0
  9
$USERI2
 70
     0
  9
$USERI3
 70
     0
  9
$USERI4
 70
     0
  9
$USERI5
 70
     0
  9
$USERR1
 40
0.0
  9
$USERR2
 40
0.0
  9
$USERR3
 40
0.0
  9
$USERR4
 40
0.0
  9
$USERR5
 40
0.0
  9
$WORLDVIEW
 70
     1
  9
$SHADEDGE
 70
     3
  9
$SHADEDIF
 70
    70
  9
$TILEMODE
 70
     1
  9
$MAXACTVP
 70
    64
  9
$PINSBASE
 10
0.0
 20
0.0
 30
0.0
  9
$PLIMCHECK
 70
     0
  9
$PEXTMIN
 10
1.000000000000000E+20
 20
1.000000000000000E+20
 30
1.000000000000000E+20
  9
$PEXTMAX
 10
-1.000000000000000E+20
 20
-1.000000000000000E+20
 30
-1.000000000000000E+20
  9
$PLIMMIN
 10
0.0
 20
0.0
  9
$PLIMMAX
 10
420.0
 20
297.0
  9
$UNITMODE
 70
     0
  9
$VISRETAIN
 70
     1
  9
$PLINEGEN
 70
     0
  9
$PSLTSCALE
 70
     1
  9
$TREEDEPTH
 70
  3020
  9
$CMLSTYLE
  2
Standard
  9
$CMLJUST
 70
     0
  9
$CMLSCALE
 40
20.0
  9
$PROXYGRAPHICS
 70
     1
  9
$MEASUREMENT
 70
     1
  9
$CELWEIGHT
370
    -1
  9
$ENDCAPS
280
     0
  9
$JOINSTYLE
280
     0
  9
$LWDISPLAY
290
     0
  9
$INSUNITS
 70
     4
  9
$HYPERLINKBASE
  1

  9
$STYLESHEET
  1

  9
$XEDIT
290
     1
  9
$CEPSNTYPE
380
     0
  9
$PSTYLEMODE
290
     1
  9
$FINGERPRINTGUID
  2
{335217F5-220C-4BB3-848E-D0A4B6BFD48C}
  9
$VERSIONGUID
  2
{5AADA53D-F206-47FF-A4E9-6E3FE64A6292}
  9
$EXTNAMES
290
     1
  9
$PSVPSCALE
 40
0.0
  9
$OLESTARTUP
290
     0
  0
ENDSEC
  0
SECTION
  2
CLASSES
  0
CLASS
  1
ACDBDICTIONARYWDFLT
  2
AcDbDictionaryWithDefault
  3
ObjectDBX Classes
 90
        0
280
     0
281
     0
  0
CLASS
  1
VISUALSTYLE
  2
AcDbVisualStyle
  3
ObjectDBX Classes
 90
     4095
280
     0
281
     0
  0
CLASS
  1
MATERIAL
  2
AcDbMaterial
  3
ObjectDBX Classes
 90
     1153
280
     0
281
     0
  0
CLASS
  1
SCALE
  2
AcDbScale
  3
ObjectDBX Classes
 90
     1153
280
     0
281
     0
  0
CLASS
  1
TABLESTYLE
  2
AcDbTableStyle
  3
ObjectDBX Classes
 90
     4095
280
     0
281
     0
  0
CLASS
  1
MLEADERSTYLE
  2
AcDbMLeaderStyle
  3
ACDB_MLEADERSTYLE_CLASS
 90
     4095
280
     0
281
     0
  0
CLASS
  1
SUN
  2
AcDbSun
  3
SCENEOE
 90
    33921
280
     0
281
     0
  0
CLASS
  1
DICTIONARYVAR
  2
AcDbDictionaryVar
  3
ObjectDBX Classes
 90
        0
280
     0
281
     0
  0
CLASS
  1
ACDBSECTIONVIEWSTYLE
  2
AcDbSectionViewStyle
  3
ObjectDBX Classes
 90
     1025
280
     0
281
     0
  0
CLASS
  1
ACDBDETAILVIEWSTYLE
  2
AcDbDetailViewStyle
  3
ObjectDBX Classes
 90
     1025
280
     0
281
     0
  0
CLASS
  1
SORTENTSTABLE
  2
AcDbSortentsTable
  3
ObjectDBX Classes
 90
        0
280
     0
281
     0
  0
CLASS
  1
CELLSTYLEMAP
  2
AcDbCellStyleMap
  3
ObjectDBX Classes
 90
     1152
280
     0
281
     0
  0
CLASS
  1
ACDBPLACEHOLDER
  2
AcDbPlaceHolder
  3
ObjectDBX Classes
 90
        0
280
     0
281
     0
  0
CLASS
  1
LAYOUT
  2
AcDbLayout
  3
ObjectDBX Classes
 90
        0
280
     0
281
     0
  0
ENDSEC
  0
SECTION
  2
TABLES
  0
TABLE
  2
VPORT
  5
8
330
0
100
AcDbSymbolTable
 70
     1
  0
VPORT
  5
29
330
8
100
AcDbSymbolTableRecord
100
AcDbViewportTableRecord
  2
*Active
 70
     0
 10
0.0
 20
0.0
 11
1.0
 21
1.0
 12
893.5438289934086
 22
696.0228758725925
 13
0.0
 23
0.0
 14
10.0
 24
10.0
 15
10.0
 25
10.0
 16
0.0
 26
0.0
 36
1.0
 17
0.0
 27
0.0
 37
0.0
 40
1357.136627909738
 41
1.918757467144563
 42
50.0
 43
0.0
 44
0.0
 50
0.0
 51
0.0
 71
     0
 72
 20000
 73
     1
 74
     3
 75
     0
 76
     0
 77
     0
 78
     0
281
     0
 65
     1
110
0.0
120
0.0
130
0.0
111
1.0
121
0.0
131
0.0
112
0.0
122
1.0
132
0.0
 79
     0
146
0.0
1001
ACAD_NAV_VCDISPLAY
1070
     3
  0
ENDTAB
  0
TABLE
  2
LTYPE
  5
5
330
0
100
AcDbSymbolTable
 70
     2
  0
LTYPE
  5
14
330
5
100
AcDbSymbolTableRecord
100
AcDbLinetypeTableRecord
  2
ByBlock
 70
     0
  3

 72
    65
 73
     0
 40
0.0
  0
LTYPE
  5
15
330
5
100
AcDbSymbolTableRecord
100
AcDbLinetypeTableRecord
  2
ByLayer
 70
     0
  3

 72
    65
 73
     0
 40
0.0
  0
LTYPE
  5
16
330
5
100
AcDbSymbolTableRecord
100
AcDbLinetypeTableRecord
  2
Continuous
 70
     0
  3
Solid line
 72
    65
 73
     0
 40
0.0
  0
LTYPE
  5
34E
330
5
100
AcDbSymbolTableRecord
100
AcDbLinetypeTableRecord
  2
CENTER2
 70
     0
  3
Center (.5x) ___ _ ___ _ ___ _ ___ _ ___ _ ___
 72
    65
 73
     4
 40
28.575
 49
19.05
 74
     0
 49
-3.174999999999998
 74
     0
 49
3.174999999999998
 74
     0
 49
-3.174999999999998
 74
     0
  0
ENDTAB
  0
TABLE
  2
LAYER
  5
2
102
{ACAD_XDICTIONARY
360
354
102
}
330
0
100
AcDbSymbolTable
 70
     4
  0
LAYER
  5
10
102
{ACAD_XDICTIONARY
360
AC1
102
}
330
2
100
AcDbSymbolTableRecord
100
AcDbLayerTableRecord
  2
0
 70
     0
 62
     7
  6
Continuous
370
    -3
390
F
  0
LAYER
  5
66
330
2
100
AcDbSymbolTableRecord
100
AcDbLayerTableRecord
  2
Defpoints
 70
     0
 62
     7
  6
Continuous
290
     0
370
    -3
390
F
  0
LAYER
  5
34F
102
{ACAD_XDICTIONARY
360
350
102
}
330
2
100
AcDbSymbolTableRecord
100
AcDbLayerTableRecord
  2
中心線
 70
     0
 62
     3
  6
CENTER2
370
    -3
390
F
  0
LAYER
  5
351
102
{ACAD_XDICTIONARY
360
352
102
}
330
2
100
AcDbSymbolTableRecord
100
AcDbLayerTableRecord
  2
実線
 70
     0
 62
     7
  6
Continuous
370
    -3
390
F
  0
ENDTAB
  0
TABLE
  2
STYLE
  5
3
330
0
100
AcDbSymbolTable
 70
     1
  0
STYLE
  5
11
330
3
100
AcDbSymbolTableRecord
100
AcDbTextStyleTableRecord
  2
Standard
 70
     0
 40
0.0
 41
1.0
 50
0.0
 71
     0
 42
2.5
  3
txt
  4
extfont2
  0
ENDTAB
  0
TABLE
  2
VIEW
  5
6
330
0
100
AcDbSymbolTable
 70
     0
  0
ENDTAB
  0
TABLE
  2
UCS
  5
7
330
0
100
AcDbSymbolTable
 70
     0
  0
ENDTAB
  0
TABLE
  2
APPID
  5
9
330
0
100
AcDbSymbolTable
 70
     5
  0
APPID
  5
12
330
9
100
AcDbSymbolTableRecord
100
AcDbRegAppTableRecord
  2
ACAD
 70
     0
  0
APPID
  5
33E
330
9
100
AcDbSymbolTableRecord
100
AcDbRegAppTableRecord
  2
ACAD_MLEADERVER
 70
     0
  0
APPID
  5
353
330
9
100
AcDbSymbolTableRecord
100
AcDbRegAppTableRecord
  2
ACAD_NAV_VCDISPLAY
 70
     0
  0
APPID
  5
AB4
330
9
100
AcDbSymbolTableRecord
100
AcDbRegAppTableRecord
  2
ACAD_EXEMPT_FROM_CAD_STANDARDS
 70
     0
  0
APPID
  5
B16
330
9
100
AcDbSymbolTableRecord
100
AcDbRegAppTableRecord
  2
ACAD_DSTYLE_DIMRADIAL_EXTENSION
 70
     0
  0
ENDTAB
  0
TABLE
  2
DIMSTYLE
  5
A
330
0
100
AcDbSymbolTable
 70
     1
100
AcDbDimStyleTable
 71
     1
340
27
  0
DIMSTYLE
105
27
330
A
100
AcDbSymbolTableRecord
100
AcDbDimStyleTableRecord
  2
Standard
 70
     0
 41
2.5
 42
0.625
 43
3.75
 44
1.25
 73
     0
 74
     0
 77
     1
140
2.5
141
2.5
143
0.03937007874016
146
0.75
147
0.625
171
     3
172
     1
271
     2
272
     2
274
     3
283
     0
284
     8
340
11
  0
ENDTAB
  0
TABLE
  2
BLOCK_RECORD
  5
1
330
0
100
AcDbSymbolTable
 70
     1
  0
BLOCK_RECORD
  5
1F
102
{ACAD_XDICTIONARY
360
8BC
102
}
330
1
100
AcDbSymbolTableRecord
100
AcDbBlockTableRecord
  2
*Model_Space
340
22
  0
BLOCK_RECORD
  5
1B
330
1
100
AcDbSymbolTableRecord
100
AcDbBlockTableRecord
  2
*Paper_Space
340
1E
  0
BLOCK_RECORD
  5
23
330
1
100
AcDbSymbolTableRecord
100
AcDbBlockTableRecord
  2
*Paper_Space0
340
348
  0
ENDTAB
  0
ENDSEC
  0
SECTION
  2
BLOCKS
  0
BLOCK
  5
20
330
1F
100
AcDbEntity
  8
0
100
AcDbBlockBegin
  2
*Model_Space
 70
     0
 10
0.0
 20
0.0
 30
0.0
  3
*Model_Space
  1

  0
ENDBLK
  5
21
330
1F
100
AcDbEntity
  8
0
100
AcDbBlockEnd
  0
BLOCK
  5
1C
330
1B
100
AcDbEntity
 67
     1
  8
0
100
AcDbBlockBegin
  2
*Paper_Space
 70
     0
 10
0.0
 20
0.0
 30
0.0
  3
*Paper_Space
  1

  0
ENDBLK
  5
1D
330
1B
100
AcDbEntity
 67
     1
  8
0
100
AcDbBlockEnd
  0
BLOCK
  5
24
330
23
100
AcDbEntity
 67
     1
  8
0
100
AcDbBlockBegin
  2
*Paper_Space0
 70
     0
 10
0.0
 20
0.0
 30
0.0
  3
*Paper_Space0
  1

  0
ENDBLK
  5
25
330
23
100
AcDbEntity
 67
     1
  8
0
100
AcDbBlockEnd
  0
ENDSEC
  0
SECTION
  2
ENTITIES
  0
LINE
  5
824
102
{ACAD_REACTORS
330
BB0
102
}
330
1F
100
AcDbEntity
  8
中心線
100
AcDbLine
 10
621.2509482492187
 20
456.1757270755271
 30
0.0
 11
775.2509356301498
 21
456.1757270755273
 31
0.0
  0
LINE
  5
825
102
{ACAD_REACTORS
330
BB0
102
}
330
1F
100
AcDbEntity
  8
中心線
100
AcDbLine
 10
710.2509482492187
 20
22.30626379404737
 30
0.0
 11
710.2509482492187
 21
491.1757270755273
 31
0.0
  0
LINE
  5
826
102
{ACAD_REACTORS
330
BB0
102
}
330
1F
100
AcDbEntity
  8
中心線
100
AcDbLine
 10
710.2509482492186
 20
405.6757270755273
 30
0.0
 11
867.2509482492181
 21
405.6757270755273
 31
0.0
  0
LINE
  5
829
102
{ACAD_REACTORS
330
BB3
102
}
330
1F
100
AcDbEntity
  8
中心線
100
AcDbLine
 10
1054.750948249218
 20
713.2757270755277
 30
0.0
 11
1054.750948249218
 21
643.2757270755277
 31
0.0
  0
LINE
  5
82A
102
{ACAD_REACTORS
330
BB3
102
}
330
1F
100
AcDbEntity
  8
中心線
100
AcDbLine
 10
1019.750948249217
 20
678.2757270755277
 30
0.0
 11
1089.750948249218
 21
678.2757270755277
 31
0.0
  0
LINE
  5
82B
102
{ACAD_REACTORS
330
BB2
102
}
330
1F
100
AcDbEntity
  8
中心線
100
AcDbLine
 10
764.2509482492178
 20
811.2757270755277
 30
0.0
 11
764.2509482492178
 21
641.2757270755276
 31
0.0
  0
LINE
  5
82C
102
{ACAD_REACTORS
330
BB2
102
}
330
1F
100
AcDbEntity
  8
中心線
100
AcDbLine
 10
679.250948249218
 20
726.2757270755274
 30
0.0
 11
849.2509482492177
 21
726.2757270755274
 31
0.0
  0
LINE
  5
82D
102
{ACAD_REACTORS
330
BB5
102
}
330
1F
100
AcDbEntity
  8
中心線
100
AcDbLine
 10
621.2509482492187
 20
936.1757270755276
 30
0.0
 11
775.2509356301498
 21
936.1757270755273
 31
0.0
  0
LINE
  5
82E
102
{ACAD_REACTORS
330
BB5
102
}
330
1F
100
AcDbEntity
  8
中心線
100
AcDbLine
 10
710.2509482492187
 20
901.1757270755277
 30
0.0
 11
710.2509482492187
 21
1369.570754231354
 31
0.0
  0
LINE
  5
82F
102
{ACAD_REACTORS
330
BB5
102
}
330
1F
100
AcDbEntity
  8
中心線
100
AcDbLine
 10
710.2509482492187
 20
986.6757270755272
 30
0.0
 11
867.2509482492181
 21
986.6757270755272
 31
0.0
  0
LINE
  5
830
102
{ACAD_REACTORS
330
BB1
102
}
330
1F
100
AcDbEntity
  8
中心線
100
AcDbLine
 10
470.2509482492186
 20
731.1757270755276
 30
0.0
 11
470.2509482492188
 21
661.1757270755274
 31
0.0
  0
LINE
  5
831
102
{ACAD_REACTORS
330
BB1
102
}
330
1F
100
AcDbEntity
  8
中心線
100
AcDbLine
 10
40.00950822778031
 20
696.1757270755274
 30
0.0
 11
505.2509482492183
 21
696.1757270755274
 31
0.0
  0
LINE
  5
832
102
{ACAD_REACTORS
330
BB3
102
}
330
1F
100
AcDbEntity
  8
中心線
100
AcDbLine
 10
969.2509926464493
 20
696.1757270755274
 30
0.0
 11
1435.341047131899
 21
696.1757270755274
 31
0.0
  0
LINE
  5
834
102
{ACAD_REACTORS
330
BB2
102
}
330
1F
100
AcDbEntity
  8
中心線
100
AcDbLine
 10
710.2509482492187
 20
678.2757270755272
 30
0.0
 11
867.2509482492181
 21
678.2757270755272
 31
0.0
  0
LINE
  5
835
102
{ACAD_REACTORS
330
BB2
102
}
330
1F
100
AcDbEntity
  8
中心線
100
AcDbLine
 10
621.2509482492187
 20
696.1757270755271
 30
0.0
 11
775.2509356301498
 21
696.1757270755273
 31
0.0
  0
ELLIPSE
  5
836
102
{ACAD_REACTORS
330
BB0
102
}
330
1F
100
AcDbEntity
  8
実線
100
AcDbEllipse
 10
881.4306180612232
 20
455.4757270755271
 30
0.0
 11
0.0
 21
6.0
 31
0.0
210
0.0
220
0.0
230
1.0
 40
0.3420201433256688
 41
4.71238898038469
 42
6.283185307179584
  0
LINE
  5
837
102
{ACAD_REACTORS
330
BB0
102
}
330
1F
100
AcDbEntity
  8
実線
100
AcDbLine
 10
834.9158333323211
 20
461.4757270755273
 30
0.0
 11
824.4009482492181
 21
461.4757270755273
 31
0.0
  0
LINE
  5
838
102
{ACAD_REACTORS
330
BB0
102
}
330
1F
100
AcDbEntity
  8
実線
100
AcDbLine
 10
881.4306180612232
 20
461.4757270755273
 30
0.0
 11
843.165775130013
 21
461.4757270755273
 31
0.0
  0
LINE
  5
839
102
{ACAD_REACTORS
330
BB0
102
}
330
1F
100
AcDbEntity
  8
実線
100
AcDbLine
 10
843.165775130013
 20
449.4757270755273
 30
0.0
 11
881.4306180612232
 21
449.4757270755273
 31
0.0
  0
LINE
  5
83A
102
{ACAD_REACTORS
330
BB0
102
}
330
1F
100
AcDbEntity
  8
実線
100
AcDbLine
 10
824.4009482492181
 20
449.4757270755273
 30
0.0
 11
834.9158333323211
 21
449.4757270755273
 31
0.0
  0
ELLIPSE
  5
83B
102
{ACAD_REACTORS
330
BB0
102
}
330
1F
100
AcDbEntity
  8
実線
100
AcDbEllipse
 10
823.169675572497
 20
455.4757270755271
 30
0.0
 11
0.0
 21
6.0
 31
0.0
210
0.0
220
0.0
230
1.0
 40
0.3420201433256688
 41
3.785093860299631
 42
5.639684100469746
  0
ELLIPSE
  5
83C
102
{ACAD_REACTORS
330
BB0
102
}
330
1F
100
AcDbEntity
  8
実線
100
AcDbEllipse
 10
881.4306180612232
 20
455.4757270755271
 30
0.0
 11
0.0
 21
6.0
 31
0.0
210
0.0
220
0.0
230
1.0
 40
0.3420201433256688
 41
3.141592653589792
 42
4.71238898038469
  0
LINE
  5
83D
102
{ACAD_REACTORS
330
BB0
102
}
330
1F
100
AcDbEntity
  8
実線
100
AcDbLine
 10
742.8224334038882
 20
504.4757270755273
 30
0.0
 11
742.8224334038882
 21
516.0757270755273
 31
0.0
  0
LINE
  5
83E
102
{ACAD_REACTORS
330
BB0
102
}
330
1F
100
AcDbEntity
  8
実線
100
AcDbLine
 10
742.8224334038882
 20
516.0757270755273
 30
0.0
 11
731.9534448319433
 21
516.0757270755273
 31
0.0
  0
LINE
  5
83F
102
{ACAD_REACTORS
330
BB0
102
}
330
1F
100
AcDbEntity
  8
実線
100
AcDbLine
 10
741.0724334038881
 20
516.0757270755273
 30
0.0
 11
741.0724334038881
 21
521.9757270755272
 31
0.0
  0
LINE
  5
840
102
{ACAD_REACTORS
330
BB0
102
}
330
1F
100
AcDbEntity
  8
実線
100
AcDbLine
 10
741.0724334038881
 20
521.9757270755272
 30
0.0
 11
730.2034448319433
 21
521.9757270755272
 31
0.0
  0
LINE
  5
841
102
{ACAD_REACTORS
330
BB0
102
}
330
1F
100
AcDbEntity
  8
実線
100
AcDbLine
 10
683.5249299866132
 20
516.0757270755273
 30
0.0
 11
683.5249299866132
 21
504.4757270755273
 31
0.0
  0
LINE
  5
842
102
{ACAD_REACTORS
330
BB0
102
}
330
1F
100
AcDbEntity
  8
実線
100
AcDbLine
 10
701.5249299866129
 20
504.4757270755273
 30
0.0
 11
701.5249299866129
 21
516.0757270755273
 31
0.0
  0
LINE
  5
843
102
{ACAD_REACTORS
330
BB0
102
}
330
1F
100
AcDbEntity
  8
実線
100
AcDbLine
 10
701.5249299866129
 20
516.0757270755273
 30
0.0
 11
683.5249299866132
 21
516.0757270755273
 31
0.0
  0
LINE
  5
844
102
{ACAD_REACTORS
330
BB0
102
}
330
1F
100
AcDbEntity
  8
実線
100
AcDbLine
 10
814.5484516664938
 20
504.4757270755273
 30
0.0
 11
814.5484516664938
 21
516.0757270755273
 31
0.0
  0
LINE
  5
845
102
{ACAD_REACTORS
330
BB0
102
}
330
1F
100
AcDbEntity
  8
実線
100
AcDbLine
 10
814.5484516664938
 20
516.0757270755273
 30
0.0
 11
803.679463094549
 21
516.0757270755273
 31
0.0
  0
LINE
  5
846
102
{ACAD_REACTORS
330
BB0
102
}
330
1F
100
AcDbEntity
  8
実線
100
AcDbLine
 10
826.9769665118243
 20
516.0757270755273
 30
0.0
 11
826.9769665118243
 21
504.4757270755273
 31
0.0
  0
LINE
  5
847
102
{ACAD_REACTORS
330
BB0
102
}
330
1F
100
AcDbEntity
  8
実線
100
AcDbLine
 10
844.9769665118243
 20
504.4757270755273
 30
0.0
 11
844.9769665118243
 21
516.0757270755273
 31
0.0
  0
LINE
  5
848
102
{ACAD_REACTORS
330
BB0
102
}
330
1F
100
AcDbEntity
  8
実線
100
AcDbLine
 10
844.9769665118243
 20
516.0757270755273
 30
0.0
 11
826.9769665118243
 21
516.0757270755273
 31
0.0
  0
LINE
  5
849
102
{ACAD_REACTORS
330
BB0
102
}
330
1F
100
AcDbEntity
  8
実線
100
AcDbLine
 10
785.6794630945491
 20
516.0757270755273
 30
0.0
 11
785.6794630945491
 21
504.4757270755273
 31
0.0
  0
LINE
  5
84A
102
{ACAD_REACTORS
330
BB0
102
}
330
1F
100
AcDbEntity
  8
実線
100
AcDbLine
 10
803.679463094549
 20
504.4757270755273
 30
0.0
 11
803.679463094549
 21
516.0757270755273
 31
0.0
  0
LINE
  5
84B
102
{ACAD_REACTORS
330
BB0
102
}
330
1F
100
AcDbEntity
  8
実線
100
AcDbLine
 10
803.679463094549
 20
516.0757270755273
 30
0.0
 11
785.6794630945491
 21
516.0757270755273
 31
0.0
  0
LINE
  5
84C
102
{ACAD_REACTORS
330
BB0
102
}
330
1F
100
AcDbEntity
  8
実線
100
AcDbLine
 10
713.9534448319433
 20
516.0757270755273
 30
0.0
 11
713.9534448319433
 21
504.4757270755273
 31
0.0
  0
LINE
  5
84D
102
{ACAD_REACTORS
330
BB0
102
}
330
1F
100
AcDbEntity
  8
実線
100
AcDbLine
 10
731.9534448319433
 20
504.4757270755273
 30
0.0
 11
731.9534448319433
 21
516.0757270755273
 31
0.0
  0
LINE
  5
84E
102
{ACAD_REACTORS
330
BB0
102
}
330
1F
100
AcDbEntity
  8
実線
100
AcDbLine
 10
731.9534448319433
 20
516.0757270755273
 30
0.0
 11
713.9534448319433
 21
516.0757270755273
 31
0.0
  0
LINE
  5
84F
102
{ACAD_REACTORS
330
BB0
102
}
330
1F
100
AcDbEntity
  8
実線
100
AcDbLine
 10
685.2749299866132
 20
521.9757270755272
 30
0.0
 11
685.2749299866132
 21
516.0757270755273
 31
0.0
  0
LINE
  5
850
102
{ACAD_REACTORS
330
BB0
102
}
330
1F
100
AcDbEntity
  8
実線
100
AcDbLine
 10
699.7749299866129
 20
516.0757270755273
 30
0.0
 11
699.7749299866129
 21
521.9757270755272
 31
0.0
  0
LINE
  5
851
102
{ACAD_REACTORS
330
BB0
102
}
330
1F
100
AcDbEntity
  8
実線
100
AcDbLine
 10
699.7749299866129
 20
521.9757270755272
 30
0.0
 11
685.2749299866132
 21
521.9757270755272
 31
0.0
  0
LINE
  5
852
102
{ACAD_REACTORS
330
BB0
102
}
330
1F
100
AcDbEntity
  8
実線
100
AcDbLine
 10
812.7984516664938
 20
516.0757270755273
 30
0.0
 11
812.7984516664938
 21
521.9757270755272
 31
0.0
  0
LINE
  5
853
102
{ACAD_REACTORS
330
BB0
102
}
330
1F
100
AcDbEntity
  8
実線
100
AcDbLine
 10
812.7984516664938
 20
521.9757270755272
 30
0.0
 11
801.9294630945489
 21
521.9757270755272
 31
0.0
  0
LINE
  5
854
102
{ACAD_REACTORS
330
BB0
102
}
330
1F
100
AcDbEntity
  8
実線
100
AcDbLine
 10
787.4294630945489
 20
521.9757270755272
 30
0.0
 11
787.4294630945489
 21
516.0757270755273
 31
0.0
  0
LINE
  5
855
102
{ACAD_REACTORS
330
BB0
102
}
330
1F
100
AcDbEntity
  8
実線
100
AcDbLine
 10
801.9294630945489
 20
516.0757270755273
 30
0.0
 11
801.9294630945489
 21
521.9757270755272
 31
0.0
  0
LINE
  5
856
102
{ACAD_REACTORS
330
BB0
102
}
330
1F
100
AcDbEntity
  8
実線
100
AcDbLine
 10
801.9294630945489
 20
521.9757270755272
 30
0.0
 11
787.4294630945489
 21
521.9757270755272
 31
0.0
  0
LINE
  5
857
102
{ACAD_REACTORS
330
BB0
102
}
330
1F
100
AcDbEntity
  8
実線
100
AcDbLine
 10
828.7269665118241
 20
521.9757270755272
 30
0.0
 11
828.7269665118241
 21
516.0757270755273
 31
0.0
  0
LINE
  5
858
102
{ACAD_REACTORS
330
BB0
102
}
330
1F
100
AcDbEntity
  8
実線
100
AcDbLine
 10
843.2269665118242
 20
516.0757270755273
 30
0.0
 11
843.2269665118242
 21
521.9757270755272
 31
0.0
  0
LINE
  5
859
102
{ACAD_REACTORS
330
BB0
102
}
330
1F
100
AcDbEntity
  8
実線
100
AcDbLine
 10
843.2269665118242
 20
521.9757270755272
 30
0.0
 11
828.7269665118241
 21
521.9757270755272
 31
0.0
  0
LINE
  5
85A
102
{ACAD_REACTORS
330
BB0
102
}
330
1F
100
AcDbEntity
  8
実線
100
AcDbLine
 10
715.7034448319433
 20
521.9757270755272
 30
0.0
 11
715.7034448319433
 21
516.0757270755273
 31
0.0
  0
LINE
  5
85B
102
{ACAD_REACTORS
330
BB0
102
}
330
1F
100
AcDbEntity
  8
実線
100
AcDbLine
 10
730.2034448319433
 20
516.0757270755273
 30
0.0
 11
730.2034448319433
 21
521.9757270755272
 31
0.0
  0
LINE
  5
85C
102
{ACAD_REACTORS
330
BB0
102
}
330
1F
100
AcDbEntity
  8
実線
100
AcDbLine
 10
730.2034448319433
 20
521.9757270755272
 30
0.0
 11
715.7034448319433
 21
521.9757270755272
 31
0.0
  0
LINE
  5
85D
102
{ACAD_REACTORS
330
BB0
102
}
330
1F
100
AcDbEntity
  8
実線
100
AcDbLine
 10
824.4009482492181
 20
432.5757270755271
 30
0.0
 11
824.4009482492181
 21
472.4757270755271
 31
0.0
  0
LINE
  5
85E
102
{ACAD_REACTORS
330
BB0
102
}
330
1F
100
AcDbEntity
  8
実線
100
AcDbLine
 10
653.7477826571628
 20
370.6757270755272
 30
0.0
 11
766.7541138412738
 21
370.6757270755272
 31
0.0
  0
LINE
  5
85F
102
{ACAD_REACTORS
330
BB0
102
}
330
1F
100
AcDbEntity
  8
実線
100
AcDbLine
 10
653.7477826571628
 20
385.6757270755272
 30
0.0
 11
766.7541138412738
 21
385.6757270755272
 31
0.0
  0
LINE
  5
860
102
{ACAD_REACTORS
330
BB0
102
}
330
1F
100
AcDbEntity
  8
実線
100
AcDbLine
 10
766.7541138412738
 20
370.6757270755272
 30
0.0
 11
766.7541138412738
 21
385.6757270755272
 31
0.0
  0
LINE
  5
861
102
{ACAD_REACTORS
330
BB0
102
}
330
1F
100
AcDbEntity
  8
実線
100
AcDbLine
 10
653.7477826571628
 20
385.6757270755272
 30
0.0
 11
653.7477826571628
 21
370.6757270755272
 31
0.0
  0
LINE
  5
862
102
{ACAD_REACTORS
330
BB0
102
}
330
1F
100
AcDbEntity
  8
実線
100
AcDbLine
 10
687.8727049620753
 20
385.6757270755272
 30
0.0
 11
687.8727049620753
 21
370.6757270755272
 31
0.0
  0
LINE
  5
863
102
{ACAD_REACTORS
330
BB0
102
}
330
1F
100
AcDbEntity
  8
実線
100
AcDbLine
 10
732.6291915363616
 20
385.6757270755272
 30
0.0
 11
732.6291915363616
 21
370.6757270755272
 31
0.0
  0
LINE
  5
864
102
{ACAD_REACTORS
330
BB0
102
}
330
1F
100
AcDbEntity
  8
実線
100
AcDbLine
 10
859.9509482492178
 20
432.5757270755271
 30
0.0
 11
812.7509482492181
 21
432.5757270755271
 31
0.0
  0
LINE
  5
865
102
{ACAD_REACTORS
330
BB0
102
}
330
1F
100
AcDbEntity
  8
実線
100
AcDbLine
 10
766.7541138412738
 20
378.7757270755272
 30
0.0
 11
859.9509482492178
 21
378.7757270755272
 31
0.0
  0
LINE
  5
866
102
{ACAD_REACTORS
330
BB0
102
}
330
1F
100
AcDbEntity
  8
実線
100
AcDbLine
 10
859.9509482492178
 20
378.7757270755272
 30
0.0
 11
862.3509482492181
 21
373.6757270755273
 31
0.0
  0
LINE
  5
867
102
{ACAD_REACTORS
330
BB0
102
}
330
1F
100
AcDbEntity
  8
実線
100
AcDbLine
 10
862.3509482492181
 20
437.6757270755273
 30
0.0
 11
859.9509482492178
 21
432.5757270755271
 31
0.0
  0
LINE
  5
868
102
{ACAD_REACTORS
330
BB0
102
}
330
1F
100
AcDbEntity
  8
実線
100
AcDbLine
 10
859.9509482492178
 20
378.7757270755272
 30
0.0
 11
859.9509482492178
 21
432.5757270755271
 31
0.0
  0
LINE
  5
869
102
{ACAD_REACTORS
330
BB0
102
}
330
1F
100
AcDbEntity
  8
実線
100
AcDbLine
 10
865.2509482492177
 20
437.6757270755273
 30
0.0
 11
862.3509482492181
 21
437.6757270755273
 31
0.0
  0
LINE
  5
86A
102
{ACAD_REACTORS
330
BB0
102
}
330
1F
100
AcDbEntity
  8
実線
100
AcDbLine
 10
862.3509482492181
 20
373.6757270755273
 30
0.0
 11
865.2509482492177
 21
373.6757270755273
 31
0.0
  0
LINE
  5
86B
102
{ACAD_REACTORS
330
BB0
102
}
330
1F
100
AcDbEntity
  8
実線
100
AcDbLine
 10
865.2509482492177
 20
373.6757270755273
 30
0.0
 11
865.2509482492177
 21
437.6757270755273
 31
0.0
  0
LINE
  5
86C
102
{ACAD_REACTORS
330
BB0
102
}
330
1F
100
AcDbEntity
  8
実線
100
AcDbLine
 10
862.3509482492181
 20
373.6757270755273
 30
0.0
 11
862.3509482492181
 21
437.6757270755273
 31
0.0
  0
LINE
  5
86D
102
{ACAD_REACTORS
330
BB0
102
}
330
1F
100
AcDbEntity
  8
実線
100
AcDbLine
 10
628.5509482492187
 20
429.2757270755273
 30
0.0
 11
669.60564402677
 21
429.2757270755273
 31
0.0
  0
LINE
  5
86E
102
{ACAD_REACTORS
330
BB0
102
}
330
1F
100
AcDbEntity
  8
実線
100
AcDbLine
 10
688.5129789075469
 20
483.0757270755271
 30
0.0
 11
628.5509482492187
 21
483.0757270755271
 31
0.0
  0
LINE
  5
86F
102
{ACAD_REACTORS
330
BB0
102
}
330
1F
100
AcDbEntity
  8
実線
100
AcDbLine
 10
628.5509482492187
 20
483.0757270755271
 30
0.0
 11
626.1509482492185
 21
488.1757270755273
 31
0.0
  0
LINE
  5
870
102
{ACAD_REACTORS
330
BB0
102
}
330
1F
100
AcDbEntity
  8
実線
100
AcDbLine
 10
626.1509482492185
 20
424.1757270755273
 30
0.0
 11
628.5509482492187
 21
429.2757270755273
 31
0.0
  0
LINE
  5
871
102
{ACAD_REACTORS
330
BB0
102
}
330
1F
100
AcDbEntity
  8
実線
100
AcDbLine
 10
628.5509482492187
 20
483.0757270755271
 30
0.0
 11
628.5509482492187
 21
429.2757270755272
 31
0.0
  0
LINE
  5
872
102
{ACAD_REACTORS
330
BB0
102
}
330
1F
100
AcDbEntity
  8
実線
100
AcDbLine
 10
623.2509482492186
 20
424.1757270755273
 30
0.0
 11
626.1509482492185
 21
424.1757270755273
 31
0.0
  0
LINE
  5
873
102
{ACAD_REACTORS
330
BB0
102
}
330
1F
100
AcDbEntity
  8
実線
100
AcDbLine
 10
626.1509482492185
 20
488.1757270755273
 30
0.0
 11
623.2509482492186
 21
488.1757270755273
 31
0.0
  0
LINE
  5
874
102
{ACAD_REACTORS
330
BB0
102
}
330
1F
100
AcDbEntity
  8
実線
100
AcDbLine
 10
623.2509482492186
 20
488.1757270755273
 30
0.0
 11
623.2509482492186
 21
424.1757270755273
 31
0.0
  0
LINE
  5
875
102
{ACAD_REACTORS
330
BB0
102
}
330
1F
100
AcDbEntity
  8
実線
100
AcDbLine
 10
626.1509482492185
 20
488.1757270755273
 30
0.0
 11
626.1509482492185
 21
424.1757270755273
 31
0.0
  0
LINE
  5
876
102
{ACAD_REACTORS
330
BB0
102
}
330
1F
100
AcDbEntity
  8
実線
100
AcDbLine
 10
742.7509482492187
 20
456.1757270755271
 30
0.0
 11
742.7509482492187
 21
416.1757270755272
 31
0.0
  0
LINE
  5
877
102
{ACAD_REACTORS
330
BB0
102
}
330
1F
100
AcDbEntity
  8
実線
100
AcDbLine
 10
717.7509482492187
 20
456.1757270755271
 30
0.0
 11
742.7509482492187
 21
456.1757270755271
 31
0.0
  0
LINE
  5
878
102
{ACAD_REACTORS
330
BB0
102
}
330
1F
100
AcDbEntity
  8
実線
100
AcDbLine
 10
717.7509482492187
 20
416.1757270755271
 30
0.0
 11
717.7509482492187
 21
456.1757270755271
 31
0.0
  0
LINE
  5
879
102
{ACAD_REACTORS
330
BB0
102
}
330
1F
100
AcDbEntity
  8
実線
100
AcDbLine
 10
742.7509482492187
 20
416.1757270755271
 30
0.0
 11
717.7509482492187
 21
416.1757270755271
 31
0.0
  0
LINE
  5
87A
102
{ACAD_REACTORS
330
BB0
102
}
330
1F
100
AcDbEntity
  8
実線
100
AcDbLine
 10
702.2509482492186
 20
357.1757270755274
 30
0.0
 11
702.2509482492186
 21
324.6757270755272
 31
0.0
  0
LINE
  5
87B
102
{ACAD_REACTORS
330
BB0
102
}
330
1F
100
AcDbEntity
  8
実線
100
AcDbLine
 10
718.2509482492187
 20
324.6757270755272
 30
0.0
 11
718.2509482492187
 21
357.1757270755272
 31
0.0
  0
LINE
  5
87C
102
{ACAD_REACTORS
330
BB0
102
}
330
1F
100
AcDbEntity
  8
実線
100
AcDbLine
 10
647.7509482492187
 20
271.2757270755274
 30
0.0
 11
647.7509482492187
 21
179.2757270755272
 31
0.0
  0
LINE
  5
87D
102
{ACAD_REACTORS
330
BB0
102
}
330
1F
100
AcDbEntity
  8
実線
100
AcDbLine
 10
772.750948249218
 20
179.2757270755272
 30
0.0
 11
772.750948249218
 21
271.2757270755274
 31
0.0
  0
LINE
  5
87E
102
{ACAD_REACTORS
330
BB0
102
}
330
1F
100
AcDbEntity
  8
実線
100
AcDbLine
 10
647.7509482492187
 20
179.2757270755272
 30
0.0
 11
772.750948249218
 21
179.2757270755272
 31
0.0
  0
LINE
  5
87F
102
{ACAD_REACTORS
330
BB0
102
}
330
1F
100
AcDbEntity
  8
実線
100
AcDbLine
 10
647.7509482492187
 20
271.2757270755274
 30
0.0
 11
772.750948249218
 21
271.2757270755274
 31
0.0
  0
LINE
  5
880
102
{ACAD_REACTORS
330
BB0
102
}
330
1F
100
AcDbEntity
  8
実線
100
AcDbLine
 10
766.7541138412738
 20
357.1757270755274
 30
0.0
 11
653.7477826571628
 21
357.1757270755274
 31
0.0
  0
LINE
  5
881
102
{ACAD_REACTORS
330
BB0
102
}
330
1F
100
AcDbEntity
  8
実線
100
AcDbLine
 10
653.7477826571628
 20
370.6757270755272
 30
0.0
 11
653.7477826571628
 21
357.1757270755274
 31
0.0
  0
LINE
  5
882
102
{ACAD_REACTORS
330
BB0
102
}
330
1F
100
AcDbEntity
  8
実線
100
AcDbLine
 10
766.7541138412738
 20
357.1757270755274
 30
0.0
 11
766.7541138412738
 21
370.6757270755272
 31
0.0
  0
LINE
  5
883
102
{ACAD_REACTORS
330
BB0
102
}
330
1F
100
AcDbEntity
  8
実線
100
AcDbLine
 10
732.6291915363616
 20
357.1757270755274
 30
0.0
 11
732.6291915363616
 21
370.6757270755272
 31
0.0
  0
LINE
  5
884
102
{ACAD_REACTORS
330
BB0
102
}
330
1F
100
AcDbEntity
  8
実線
100
AcDbLine
 10
687.8727049620753
 20
357.1757270755274
 30
0.0
 11
687.8727049620753
 21
370.6757270755272
 31
0.0
  0
LINE
  5
885
102
{ACAD_REACTORS
330
BB0
102
}
330
1F
100
AcDbEntity
  8
実線
100
AcDbLine
 10
664.2509482492187
 20
174.7757270755272
 30
0.0
 11
664.2509482492187
 21
163.2757270755272
 31
0.0
  0
LINE
  5
886
102
{ACAD_REACTORS
330
BB0
102
}
330
1F
100
AcDbEntity
  8
実線
100
AcDbLine
 10
756.2509482492187
 20
163.2757270755272
 30
0.0
 11
756.2509482492187
 21
174.7757270755272
 31
0.0
  0
LINE
  5
887
102
{ACAD_REACTORS
330
BB0
102
}
330
1F
100
AcDbEntity
  8
実線
100
AcDbLine
 10
664.2509482492187
 20
163.2757270755272
 30
0.0
 11
756.2509482492187
 21
163.2757270755272
 31
0.0
  0
LINE
  5
888
102
{ACAD_REACTORS
330
BB0
102
}
330
1F
100
AcDbEntity
  8
実線
100
AcDbLine
 10
694.7509482492185
 20
163.2757270755272
 30
0.0
 11
694.7509482492185
 21
156.2757270755272
 31
0.0
  0
LINE
  5
889
102
{ACAD_REACTORS
330
BB0
102
}
330
1F
100
AcDbEntity
  8
実線
100
AcDbLine
 10
725.7509482492187
 20
156.2757270755272
 30
0.0
 11
725.7509482492187
 21
163.2757270755272
 31
0.0
  0
LINE
  5
88A
102
{ACAD_REACTORS
330
BB0
102
}
330
1F
100
AcDbEntity
  8
実線
100
AcDbLine
 10
666.9509482492186
 20
152.5757270755273
 30
0.0
 11
666.9509482492186
 21
116.5757270755273
 31
0.0
  0
LINE
  5
88B
102
{ACAD_REACTORS
330
BB0
102
}
330
1F
100
AcDbEntity
  8
実線
100
AcDbLine
 10
753.5509482492185
 20
116.5757270755273
 30
0.0
 11
753.5509482492185
 21
152.5757270755273
 31
0.0
  0
LINE
  5
88C
102
{ACAD_REACTORS
330
BB0
102
}
330
1F
100
AcDbEntity
  8
実線
100
AcDbLine
 10
666.9509482492186
 20
116.5757270755273
 30
0.0
 11
753.5509482492185
 21
116.5757270755273
 31
0.0
  0
LINE
  5
88D
102
{ACAD_REACTORS
330
BB0
102
}
330
1F
100
AcDbEntity
  8
実線
100
AcDbLine
 10
726.7509482492187
 20
30.37572707552727
 30
0.0
 11
752.7509482492185
 21
39.57572707552731
 31
0.0
  0
LINE
  5
88E
102
{ACAD_REACTORS
330
BB0
102
}
330
1F
100
AcDbEntity
  8
実線
100
AcDbLine
 10
667.7509482492187
 20
39.57572707552731
 30
0.0
 11
693.7509482492187
 21
30.37572707552727
 31
0.0
  0
LINE
  5
88F
102
{ACAD_REACTORS
330
BB0
102
}
330
1F
100
AcDbEntity
  8
実線
100
AcDbLine
 10
752.7509482492185
 20
39.57572707552731
 30
0.0
 11
667.7509482492187
 21
39.57572707552731
 31
0.0
  0
LINE
  5
890
102
{ACAD_REACTORS
330
BB0
102
}
330
1F
100
AcDbEntity
  8
実線
100
AcDbLine
 10
693.7509482492187
 20
30.37572707552727
 30
0.0
 11
726.7509482492187
 21
30.37572707552727
 31
0.0
  0
LINE
  5
891
102
{ACAD_REACTORS
330
BB0
102
}
330
1F
100
AcDbEntity
  8
実線
100
AcDbLine
 10
667.7509482492187
 20
116.5757270755273
 30
0.0
 11
667.7509482492187
 21
39.57572707552731
 31
0.0
  0
LINE
  5
892
102
{ACAD_REACTORS
330
BB0
102
}
330
1F
100
AcDbEntity
  8
実線
100
AcDbLine
 10
752.7509482492185
 20
39.57572707552731
 30
0.0
 11
752.7509482492185
 21
116.5757270755273
 31
0.0
  0
LINE
  5
893
102
{ACAD_REACTORS
330
BB0
102
}
330
1F
100
AcDbEntity
  8
実線
100
AcDbLine
 10
753.5509482492185
 20
152.5757270755273
 30
0.0
 11
754.2509482492187
 21
156.2757270755272
 31
0.0
  0
LINE
  5
894
102
{ACAD_REACTORS
330
BB0
102
}
330
1F
100
AcDbEntity
  8
実線
100
AcDbLine
 10
666.2509482492187
 20
156.2757270755272
 30
0.0
 11
666.9509482492186
 21
152.5757270755273
 31
0.0
  0
LINE
  5
895
102
{ACAD_REACTORS
330
BB0
102
}
330
1F
100
AcDbEntity
  8
実線
100
AcDbLine
 10
754.2509482492187
 20
156.2757270755272
 30
0.0
 11
666.2509482492187
 21
156.2757270755272
 31
0.0
  0
LINE
  5
896
102
{ACAD_REACTORS
330
BB0
102
}
330
1F
100
AcDbEntity
  8
実線
100
AcDbLine
 10
666.9509482492186
 20
152.5757270755273
 30
0.0
 11
753.5509482492185
 21
152.5757270755273
 31
0.0
  0
ARC
  5
897
102
{ACAD_REACTORS
330
BB0
102
}
330
1F
100
AcDbEntity
  8
実線
100
AcDbCircle
 10
714.9509482492186
 20
311.1757270755273
 30
0.0
 40
47.99999999999999
100
AcDbArc
 50
106.5978421358643
 51
163.6651772193141
  0
ARC
  5
898
102
{ACAD_REACTORS
330
BB0
102
}
330
1F
100
AcDbEntity
  8
実線
100
AcDbCircle
 10
712.9509482492186
 20
311.1757270755271
 30
0.0
 40
60.00000000000005
100
AcDbArc
 50
129.9445051898157
 51
180.0
  0
LINE
  5
899
102
{ACAD_REACTORS
330
BB0
102
}
330
1F
100
AcDbEntity
  8
実線
100
AcDbLine
 10
652.9509482492187
 20
271.2757270755274
 30
0.0
 11
652.9509482492187
 21
311.1757270755273
 31
0.0
  0
ARC
  5
89A
102
{ACAD_REACTORS
330
BB0
102
}
330
1F
100
AcDbEntity
  8
実線
100
AcDbCircle
 10
705.5509482492185
 20
311.1757270755273
 30
0.0
 40
47.99999999999999
100
AcDbArc
 50
16.33482278068592
 51
73.40215786413567
  0
LINE
  5
89B
102
{ACAD_REACTORS
330
BB0
102
}
330
1F
100
AcDbEntity
  8
実線
100
AcDbLine
 10
767.550948249219
 20
271.2757270755274
 30
0.0
 11
767.550948249219
 21
311.1757270755273
 31
0.0
  0
ARC
  5
89C
102
{ACAD_REACTORS
330
BB0
102
}
330
1F
100
AcDbEntity
  8
実線
100
AcDbCircle
 10
707.5509482492186
 20
311.1757270755271
 30
0.0
 40
60.00000000000005
100
AcDbArc
 50
0.0
 51
50.05549481018428
  0
LINE
  5
89D
102
{ACAD_REACTORS
330
BB0
102
}
330
1F
100
AcDbEntity
  8
実線
100
AcDbLine
 10
758.3939643574767
 20
324.6757270755273
 30
0.0
 11
662.1079321409608
 21
324.6757270755273
 31
0.0
  0
LINE
  5
89E
102
{ACAD_REACTORS
330
BB0
102
}
330
1F
100
AcDbEntity
  8
実線
100
AcDbLine
 10
758.3939643574767
 20
324.6757270755273
 30
0.0
 11
758.3939643574767
 21
271.2757270755274
 31
0.0
  0
LINE
  5
89F
102
{ACAD_REACTORS
330
BB0
102
}
330
1F
100
AcDbEntity
  8
実線
100
AcDbLine
 10
662.1079321409604
 20
324.6757270755273
 30
0.0
 11
662.1079321409604
 21
271.2757270755274
 31
0.0
  0
LINE
  5
8A0
102
{ACAD_REACTORS
330
BB0
102
}
330
1F
100
AcDbEntity
  8
実線
100
AcDbLine
 10
828.0754304658072
 20
449.4757270755273
 30
0.0
 11
828.0754304658072
 21
442.4757270755271
 31
0.0
  0
LINE
  5
8A1
102
{ACAD_REACTORS
330
BB0
102
}
330
1F
100
AcDbEntity
  8
実線
100
AcDbLine
 10
828.0754304658072
 20
470.9757270755269
 30
0.0
 11
828.0754304658072
 21
461.4757270755273
 31
0.0
  0
LINE
  5
8A2
102
{ACAD_REACTORS
330
BB0
102
}
330
1F
100
AcDbEntity
  8
実線
100
AcDbLine
 10
828.0754304658072
 20
442.4757270755271
 30
0.0
 11
843.165775130013
 21
442.4757270755271
 31
0.0
  0
LINE
  5
8A3
102
{ACAD_REACTORS
330
BB0
102
}
330
1F
100
AcDbEntity
  8
実線
100
AcDbLine
 10
824.4009482492181
 20
470.9757270755269
 30
0.0
 11
841.7562361988339
 21
470.9757270755269
 31
0.0
  0
LINE
  5
8A4
102
{ACAD_REACTORS
330
BB0
102
}
330
1F
100
AcDbEntity
  8
実線
100
AcDbLine
 10
841.7562361988339
 20
470.9757270755269
 30
0.0
 11
841.7562361988339
 21
442.4757270755271
 31
0.0
  0
LINE
  5
8A5
102
{ACAD_REACTORS
330
BB0
102
}
330
1F
100
AcDbEntity
  8
実線
100
AcDbLine
 10
843.165775130013
 20
472.4757270755271
 30
0.0
 11
843.165775130013
 21
442.4757270755271
 31
0.0
  0
LINE
  5
8A6
102
{ACAD_REACTORS
330
BB0
102
}
330
1F
100
AcDbEntity
  8
実線
100
AcDbLine
 10
829.0703858182242
 20
472.4757270755271
 30
0.0
 11
829.0703858182242
 21
470.9757270755269
 31
0.0
  0
LINE
  5
8A7
102
{ACAD_REACTORS
330
BB0
102
}
330
1F
100
AcDbEntity
  8
実線
100
AcDbLine
 10
845.7509482492181
 20
484.4757270755273
 30
0.0
 11
845.7509482492181
 21
504.4757270755273
 31
0.0
  0
LINE
  5
8A8
102
{ACAD_REACTORS
330
BB0
102
}
330
1F
100
AcDbEntity
  8
実線
100
AcDbLine
 10
682.7509482492187
 20
504.4757270755273
 30
0.0
 11
682.7509482492187
 21
484.4757270755273
 31
0.0
  0
LINE
  5
8A9
102
{ACAD_REACTORS
330
BB0
102
}
330
1F
100
AcDbEntity
  8
実線
100
AcDbLine
 10
845.7509482492181
 20
504.4757270755273
 30
0.0
 11
682.7509482492187
 21
504.4757270755273
 31
0.0
  0
LINE
  5
8AA
102
{ACAD_REACTORS
330
BB0
102
}
330
1F
100
AcDbEntity
  8
実線
100
AcDbLine
 10
845.7509482492181
 20
472.4757270755271
 30
0.0
 11
845.7509482492181
 21
484.4757270755273
 31
0.0
  0
LINE
  5
8AB
102
{ACAD_REACTORS
330
BB0
102
}
330
1F
100
AcDbEntity
  8
実線
100
AcDbLine
 10
682.7509482492187
 20
484.4757270755273
 30
0.0
 11
682.7509482492187
 21
483.0757270755273
 31
0.0
  0
LINE
  5
8AC
102
{ACAD_REACTORS
330
BB0
102
}
330
1F
100
AcDbEntity
  8
実線
100
AcDbLine
 10
701.0837394861997
 20
472.4757270755271
 30
0.0
 11
845.7509482492181
 21
472.4757270755271
 31
0.0
  0
LINE
  5
8AD
102
{ACAD_REACTORS
330
BB0
102
}
330
1F
100
AcDbEntity
  8
実線
100
AcDbLine
 10
845.7509482492181
 20
484.4757270755273
 30
0.0
 11
682.7509482492187
 21
484.4757270755273
 31
0.0
  0
LINE
  5
8AE
102
{ACAD_REACTORS
330
BB0
102
}
330
1F
100
AcDbEntity
  8
実線
100
AcDbLine
 10
812.7509482492181
 20
456.1757270755271
 30
0.0
 11
812.7509482492181
 21
416.1757270755272
 31
0.0
  0
LINE
  5
8AF
102
{ACAD_REACTORS
330
BB0
102
}
330
1F
100
AcDbEntity
  8
実線
100
AcDbLine
 10
787.7509482492189
 20
456.1757270755271
 30
0.0
 11
812.7509482492181
 21
456.1757270755271
 31
0.0
  0
LINE
  5
8B0
102
{ACAD_REACTORS
330
BB0
102
}
330
1F
100
AcDbEntity
  8
実線
100
AcDbLine
 10
787.7509482492189
 20
416.1757270755271
 30
0.0
 11
787.7509482492189
 21
456.1757270755271
 31
0.0
  0
LINE
  5
8B1
102
{ACAD_REACTORS
330
BB0
102
}
330
1F
100
AcDbEntity
  8
実線
100
AcDbLine
 10
812.7509482492181
 20
416.1757270755271
 30
0.0
 11
787.7509482492189
 21
416.1757270755271
 31
0.0
  0
LINE
  5
8B2
102
{ACAD_REACTORS
330
BB0
102
}
330
1F
100
AcDbEntity
  8
実線
100
AcDbLine
 10
693.8282682781834
 20
439.1757270755273
 30
0.0
 11
717.7509482492187
 21
439.1757270755273
 31
0.0
  0
ARC
  5
8B3
102
{ACAD_REACTORS
330
BB0
102
}
330
1F
100
AcDbEntity
  8
実線
100
AcDbCircle
 10
683.7120255613807
 20
424.1757270755273
 30
0.0
 40
15.0
100
AcDbArc
 50
160.1231259299193
 51
167.9920309403025
  0
LINE
  5
8B4
102
{ACAD_REACTORS
330
BB0
102
}
330
1F
100
AcDbEntity
  8
実線
100
AcDbLine
 10
669.0402454573995
 20
427.2964431120214
 30
0.0
 11
661.2509482492185
 21
390.6757270755274
 31
0.0
  0
LINE
  5
8B5
102
{ACAD_REACTORS
330
BB0
102
}
330
1F
100
AcDbEntity
  8
実線
100
AcDbLine
 10
661.2509482492185
 20
390.6757270755274
 30
0.0
 11
661.2509482492185
 21
385.6757270755273
 31
0.0
  0
LINE
  5
8B6
102
{ACAD_REACTORS
330
BB0
102
}
330
1F
100
AcDbEntity
  8
実線
100
AcDbLine
 10
738.2256001793816
 20
390.6757270755274
 30
0.0
 11
661.2509482492185
 21
390.6757270755274
 31
0.0
  0
LINE
  5
8B7
102
{ACAD_REACTORS
330
BB0
102
}
330
1F
100
AcDbEntity
  8
実線
100
AcDbLine
 10
769.750948249218
 20
174.7757270755272
 30
0.0
 11
650.7509482492183
 21
174.7757270755272
 31
0.0
  0
ARC
  5
8B8
102
{ACAD_REACTORS
330
BB0
102
}
330
1F
100
AcDbEntity
  8
実線
100
AcDbCircle
 10
650.7509482492183
 20
177.7757270755273
 30
0.0
 40
3.0
100
AcDbArc
 50
180.0
 51
270.0
  0
ARC
  5
8B9
102
{ACAD_REACTORS
330
BB0
102
}
330
1F
100
AcDbEntity
  8
実線
100
AcDbCircle
 10
769.750948249218
 20
177.7757270755273
 30
0.0
 40
3.0
100
AcDbArc
 50
270.0
 51
0.0
  0
LINE
  5
8BA
102
{ACAD_REACTORS
330
BB0
102
}
330
1F
100
AcDbEntity
  8
実線
100
AcDbLine
 10
647.7509482492187
 20
179.2757270755272
 30
0.0
 11
647.7509482492187
 21
177.7757270755273
 31
0.0
  0
LINE
  5
8BB
102
{ACAD_REACTORS
330
BB0
102
}
330
1F
100
AcDbEntity
  8
実線
100
AcDbLine
 10
772.750948249218
 20
177.7757270755273
 30
0.0
 11
772.750948249218
 21
179.2757270755272
 31
0.0
  0
ELLIPSE
  5
8BE
102
{ACAD_REACTORS
330
BB5
102
}
330
1F
100
AcDbEntity
  8
実線
100
AcDbEllipse
 10
823.169675572497
 20
936.8757270755274
 30
0.0
 11
0.0
 21
6.0
 31
0.0
210
0.0
220
0.0
230
1.0
 40
0.3420201433256688
 41
1.570796326794897
 42
3.141592653589792
  0
LINE
  5
8BF
102
{ACAD_REACTORS
330
BB5
102
}
330
1F
100
AcDbEntity
  8
実線
100
AcDbLine
 10
828.0754304658072
 20
942.8757270755276
 30
0.0
 11
823.169675572497
 21
942.8757270755276
 31
0.0
  0
LINE
  5
8C0
102
{ACAD_REACTORS
330
BB5
102
}
330
1F
100
AcDbEntity
  8
実線
100
AcDbLine
 10
881.4306180612232
 20
942.8757270755276
 30
0.0
 11
836.3253722635002
 21
942.8757270755276
 31
0.0
  0
LINE
  5
8C1
102
{ACAD_REACTORS
330
BB5
102
}
330
1F
100
AcDbEntity
  8
実線
100
AcDbLine
 10
836.325372263499
 20
930.8757270755275
 30
0.0
 11
881.4306180612232
 21
930.8757270755275
 31
0.0
  0
LINE
  5
8C2
102
{ACAD_REACTORS
330
BB5
102
}
330
1F
100
AcDbEntity
  8
実線
100
AcDbLine
 10
823.169675572497
 20
930.8757270755275
 30
0.0
 11
828.0754304658072
 21
930.8757270755275
 31
0.0
  0
ELLIPSE
  5
8C3
102
{ACAD_REACTORS
330
BB5
102
}
330
1F
100
AcDbEntity
  8
実線
100
AcDbEllipse
 10
823.169675572497
 20
936.8757270755274
 30
0.0
 11
0.0
 21
6.0
 31
0.0
210
0.0
220
0.0
230
1.0
 40
0.3420201433256688
 41
0.0
 42
1.570796326794897
  0
ELLIPSE
  5
8C4
102
{ACAD_REACTORS
330
BB5
102
}
330
1F
100
AcDbEntity
  8
実線
100
AcDbEllipse
 10
881.4306180612232
 20
936.8757270755274
 30
0.0
 11
0.0
 21
6.0
 31
0.0
210
0.0
220
0.0
230
1.0
 40
0.3420201433256688
 41
0.0
 42
3.141592653589792
  0
ELLIPSE
  5
8C5
102
{ACAD_REACTORS
330
BB5
102
}
330
1F
100
AcDbEntity
  8
実線
100
AcDbEllipse
 10
881.4306180612232
 20
936.8757270755274
 30
0.0
 11
0.0
 21
6.0
 31
0.0
210
0.0
220
0.0
230
1.0
 40
0.3420201433256688
 41
4.71238898038469
 42
6.283185307179584
  0
ELLIPSE
  5
8C6
102
{ACAD_REACTORS
330
BB5
102
}
330
1F
100
AcDbEntity
  8
実線
100
AcDbEllipse
 10
881.4306180612232
 20
936.8757270755274
 30
0.0
 11
0.0
 21
6.0
 31
0.0
210
0.0
220
0.0
230
1.0
 40
0.3420201433256688
 41
3.141592653589792
 42
4.71238898038469
  0
LINE
  5
8C7
102
{ACAD_REACTORS
330
BB5
102
}
330
1F
100
AcDbEntity
  8
実線
100
AcDbLine
 10
724.8224334038884
 20
876.2757270755276
 30
0.0
 11
742.8224334038882
 21
876.2757270755276
 31
0.0
  0
LINE
  5
8C8
102
{ACAD_REACTORS
330
BB5
102
}
330
1F
100
AcDbEntity
  8
実線
100
AcDbLine
 10
742.8224334038882
 20
876.2757270755276
 30
0.0
 11
742.8224334038882
 21
887.8757270755274
 31
0.0
  0
LINE
  5
8C9
102
{ACAD_REACTORS
330
BB5
102
}
330
1F
100
AcDbEntity
  8
実線
100
AcDbLine
 10
724.8224334038884
 20
887.8757270755274
 30
0.0
 11
724.8224334038884
 21
876.2757270755276
 31
0.0
  0
LINE
  5
8CA
102
{ACAD_REACTORS
330
BB5
102
}
330
1F
100
AcDbEntity
  8
実線
100
AcDbLine
 10
726.5724334038885
 20
870.3757270755275
 30
0.0
 11
741.0724334038881
 21
870.3757270755275
 31
0.0
  0
LINE
  5
8CB
102
{ACAD_REACTORS
330
BB5
102
}
330
1F
100
AcDbEntity
  8
実線
100
AcDbLine
 10
741.0724334038881
 20
870.3757270755275
 30
0.0
 11
741.0724334038881
 21
876.2757270755276
 31
0.0
  0
LINE
  5
8CC
102
{ACAD_REACTORS
330
BB5
102
}
330
1F
100
AcDbEntity
  8
実線
100
AcDbLine
 10
726.5724334038885
 20
876.2757270755276
 30
0.0
 11
726.5724334038885
 21
870.3757270755275
 31
0.0
  0
LINE
  5
8CD
102
{ACAD_REACTORS
330
BB5
102
}
330
1F
100
AcDbEntity
  8
実線
100
AcDbLine
 10
683.5249299866132
 20
876.2757270755276
 30
0.0
 11
701.5249299866129
 21
876.2757270755276
 31
0.0
  0
LINE
  5
8CE
102
{ACAD_REACTORS
330
BB5
102
}
330
1F
100
AcDbEntity
  8
実線
100
AcDbLine
 10
701.5249299866129
 20
876.2757270755276
 30
0.0
 11
701.5249299866129
 21
887.8757270755274
 31
0.0
  0
LINE
  5
8CF
102
{ACAD_REACTORS
330
BB5
102
}
330
1F
100
AcDbEntity
  8
実線
100
AcDbLine
 10
683.5249299866132
 20
887.8757270755274
 30
0.0
 11
683.5249299866132
 21
876.2757270755276
 31
0.0
  0
LINE
  5
8D0
102
{ACAD_REACTORS
330
BB5
102
}
330
1F
100
AcDbEntity
  8
実線
100
AcDbLine
 10
796.548451666494
 20
876.2757270755276
 30
0.0
 11
814.5484516664938
 21
876.2757270755276
 31
0.0
  0
LINE
  5
8D1
102
{ACAD_REACTORS
330
BB5
102
}
330
1F
100
AcDbEntity
  8
実線
100
AcDbLine
 10
814.5484516664938
 20
876.2757270755276
 30
0.0
 11
814.5484516664938
 21
887.8757270755274
 31
0.0
  0
LINE
  5
8D2
102
{ACAD_REACTORS
330
BB5
102
}
330
1F
100
AcDbEntity
  8
実線
100
AcDbLine
 10
796.548451666494
 20
887.8757270755274
 30
0.0
 11
796.548451666494
 21
876.2757270755276
 31
0.0
  0
LINE
  5
8D3
102
{ACAD_REACTORS
330
BB5
102
}
330
1F
100
AcDbEntity
  8
実線
100
AcDbLine
 10
826.9769665118243
 20
876.2757270755276
 30
0.0
 11
844.9769665118243
 21
876.2757270755276
 31
0.0
  0
LINE
  5
8D4
102
{ACAD_REACTORS
330
BB5
102
}
330
1F
100
AcDbEntity
  8
実線
100
AcDbLine
 10
844.9769665118243
 20
876.2757270755276
 30
0.0
 11
844.9769665118243
 21
887.8757270755274
 31
0.0
  0
LINE
  5
8D5
102
{ACAD_REACTORS
330
BB5
102
}
330
1F
100
AcDbEntity
  8
実線
100
AcDbLine
 10
826.9769665118243
 20
887.8757270755274
 30
0.0
 11
826.9769665118243
 21
876.2757270755276
 31
0.0
  0
LINE
  5
8D6
102
{ACAD_REACTORS
330
BB5
102
}
330
1F
100
AcDbEntity
  8
実線
100
AcDbLine
 10
785.6794630945491
 20
876.2757270755276
 30
0.0
 11
796.548451666494
 21
876.2757270755276
 31
0.0
  0
LINE
  5
8D7
102
{ACAD_REACTORS
330
BB5
102
}
330
1F
100
AcDbEntity
  8
実線
100
AcDbLine
 10
785.6794630945491
 20
887.8757270755274
 30
0.0
 11
785.6794630945491
 21
876.2757270755276
 31
0.0
  0
LINE
  5
8D8
102
{ACAD_REACTORS
330
BB5
102
}
330
1F
100
AcDbEntity
  8
実線
100
AcDbLine
 10
713.9534448319433
 20
876.2757270755276
 30
0.0
 11
724.8224334038884
 21
876.2757270755276
 31
0.0
  0
LINE
  5
8D9
102
{ACAD_REACTORS
330
BB5
102
}
330
1F
100
AcDbEntity
  8
実線
100
AcDbLine
 10
713.9534448319433
 20
887.8757270755274
 30
0.0
 11
713.9534448319433
 21
876.2757270755276
 31
0.0
  0
LINE
  5
8DA
102
{ACAD_REACTORS
330
BB5
102
}
330
1F
100
AcDbEntity
  8
実線
100
AcDbLine
 10
685.2749299866132
 20
870.3757270755275
 30
0.0
 11
699.7749299866129
 21
870.3757270755275
 31
0.0
  0
LINE
  5
8DB
102
{ACAD_REACTORS
330
BB5
102
}
330
1F
100
AcDbEntity
  8
実線
100
AcDbLine
 10
699.7749299866129
 20
870.3757270755275
 30
0.0
 11
699.7749299866129
 21
876.2757270755276
 31
0.0
  0
LINE
  5
8DC
102
{ACAD_REACTORS
330
BB5
102
}
330
1F
100
AcDbEntity
  8
実線
100
AcDbLine
 10
685.2749299866132
 20
876.2757270755276
 30
0.0
 11
685.2749299866132
 21
870.3757270755275
 31
0.0
  0
LINE
  5
8DD
102
{ACAD_REACTORS
330
BB5
102
}
330
1F
100
AcDbEntity
  8
実線
100
AcDbLine
 10
798.298451666494
 20
870.3757270755275
 30
0.0
 11
812.7984516664938
 21
870.3757270755275
 31
0.0
  0
LINE
  5
8DE
102
{ACAD_REACTORS
330
BB5
102
}
330
1F
100
AcDbEntity
  8
実線
100
AcDbLine
 10
812.7984516664938
 20
870.3757270755275
 30
0.0
 11
812.7984516664938
 21
876.2757270755276
 31
0.0
  0
LINE
  5
8DF
102
{ACAD_REACTORS
330
BB5
102
}
330
1F
100
AcDbEntity
  8
実線
100
AcDbLine
 10
798.298451666494
 20
876.2757270755276
 30
0.0
 11
798.298451666494
 21
870.3757270755275
 31
0.0
  0
LINE
  5
8E0
102
{ACAD_REACTORS
330
BB5
102
}
330
1F
100
AcDbEntity
  8
実線
100
AcDbLine
 10
787.4294630945489
 20
870.3757270755275
 30
0.0
 11
798.298451666494
 21
870.3757270755275
 31
0.0
  0
LINE
  5
8E1
102
{ACAD_REACTORS
330
BB5
102
}
330
1F
100
AcDbEntity
  8
実線
100
AcDbLine
 10
787.4294630945489
 20
876.2757270755276
 30
0.0
 11
787.4294630945489
 21
870.3757270755275
 31
0.0
  0
LINE
  5
8E2
102
{ACAD_REACTORS
330
BB5
102
}
330
1F
100
AcDbEntity
  8
実線
100
AcDbLine
 10
828.7269665118241
 20
870.3757270755275
 30
0.0
 11
843.2269665118242
 21
870.3757270755275
 31
0.0
  0
LINE
  5
8E3
102
{ACAD_REACTORS
330
BB5
102
}
330
1F
100
AcDbEntity
  8
実線
100
AcDbLine
 10
843.2269665118242
 20
870.3757270755275
 30
0.0
 11
843.2269665118242
 21
876.2757270755276
 31
0.0
  0
LINE
  5
8E4
102
{ACAD_REACTORS
330
BB5
102
}
330
1F
100
AcDbEntity
  8
実線
100
AcDbLine
 10
828.7269665118241
 20
876.2757270755276
 30
0.0
 11
828.7269665118241
 21
870.3757270755275
 31
0.0
  0
LINE
  5
8E5
102
{ACAD_REACTORS
330
BB5
102
}
330
1F
100
AcDbEntity
  8
実線
100
AcDbLine
 10
715.7034448319433
 20
870.3757270755275
 30
0.0
 11
726.5724334038885
 21
870.3757270755275
 31
0.0
  0
LINE
  5
8E6
102
{ACAD_REACTORS
330
BB5
102
}
330
1F
100
AcDbEntity
  8
実線
100
AcDbLine
 10
715.7034448319433
 20
876.2757270755276
 30
0.0
 11
715.7034448319433
 21
870.3757270755275
 31
0.0
  0
LINE
  5
8E7
102
{ACAD_REACTORS
330
BB5
102
}
330
1F
100
AcDbEntity
  8
実線
100
AcDbLine
 10
744.2509482492186
 20
963.1757270755272
 30
0.0
 11
704.9786392633624
 21
963.1757270755272
 31
0.0
  0
LINE
  5
8E8
102
{ACAD_REACTORS
330
BB5
102
}
330
1F
100
AcDbEntity
  8
実線
100
AcDbLine
 10
824.4009482492181
 20
963.1757270755272
 30
0.0
 11
784.250948249218
 21
963.1757270755272
 31
0.0
  0
LINE
  5
8E9
102
{ACAD_REACTORS
330
BB5
102
}
330
1F
100
AcDbEntity
  8
実線
100
AcDbLine
 10
704.1009482492187
 20
953.7707605638123
 30
0.0
 11
704.1009482492187
 21
919.8757270755274
 31
0.0
  0
LINE
  5
8EA
102
{ACAD_REACTORS
330
BB5
102
}
330
1F
100
AcDbEntity
  8
実線
100
AcDbLine
 10
824.4009482492181
 20
942.8757270755276
 30
0.0
 11
824.4009482492181
 21
963.1757270755272
 31
0.0
  0
LINE
  5
8EB
102
{ACAD_REACTORS
330
BB5
102
}
330
1F
100
AcDbEntity
  8
実線
100
AcDbLine
 10
824.4009482492181
 20
921.3757270755277
 30
0.0
 11
824.4009482492181
 21
930.8757270755275
 31
0.0
  0
LINE
  5
8EC
102
{ACAD_REACTORS
330
BB5
102
}
330
1F
100
AcDbEntity
  8
実線
100
AcDbLine
 10
766.7541138412738
 20
1006.675727075527
 30
0.0
 11
653.7477826571628
 21
1006.675727075527
 31
0.0
  0
LINE
  5
8ED
102
{ACAD_REACTORS
330
BB5
102
}
330
1F
100
AcDbEntity
  8
実線
100
AcDbLine
 10
653.7477826571628
 20
1021.675727075527
 30
0.0
 11
653.7477826571628
 21
1006.675727075527
 31
0.0
  0
LINE
  5
8EE
102
{ACAD_REACTORS
330
BB5
102
}
330
1F
100
AcDbEntity
  8
実線
100
AcDbLine
 10
766.7541138412738
 20
1006.675727075527
 30
0.0
 11
766.7541138412738
 21
1021.675727075527
 31
0.0
  0
LINE
  5
8EF
102
{ACAD_REACTORS
330
BB5
102
}
330
1F
100
AcDbEntity
  8
実線
100
AcDbLine
 10
732.6291915363616
 20
1006.675727075527
 30
0.0
 11
732.6291915363616
 21
1021.675727075527
 31
0.0
  0
LINE
  5
8F0
102
{ACAD_REACTORS
330
BB5
102
}
330
1F
100
AcDbEntity
  8
実線
100
AcDbLine
 10
687.8727049620753
 20
1006.675727075527
 30
0.0
 11
687.8727049620753
 21
1021.675727075527
 31
0.0
  0
LINE
  5
8F1
102
{ACAD_REACTORS
330
BB5
102
}
330
1F
100
AcDbEntity
  8
実線
100
AcDbLine
 10
859.9509482492178
 20
1013.575727075527
 30
0.0
 11
766.7541138412738
 21
1013.575727075527
 31
0.0
  0
LINE
  5
8F2
102
{ACAD_REACTORS
330
BB5
102
}
330
1F
100
AcDbEntity
  8
実線
100
AcDbLine
 10
824.4009482492181
 20
959.7757270755277
 30
0.0
 11
859.9509482492178
 21
959.7757270755277
 31
0.0
  0
LINE
  5
8F3
102
{ACAD_REACTORS
330
BB5
102
}
330
1F
100
AcDbEntity
  8
実線
100
AcDbLine
 10
865.2509482492177
 20
1018.675727075527
 30
0.0
 11
865.2509482492177
 21
954.6757270755277
 31
0.0
  0
LINE
  5
8F4
102
{ACAD_REACTORS
330
BB5
102
}
330
1F
100
AcDbEntity
  8
実線
100
AcDbLine
 10
865.2509482492177
 20
1018.675727075527
 30
0.0
 11
862.3509482492181
 21
1018.675727075527
 31
0.0
  0
LINE
  5
8F5
102
{ACAD_REACTORS
330
BB5
102
}
330
1F
100
AcDbEntity
  8
実線
100
AcDbLine
 10
862.3509482492181
 20
954.6757270755277
 30
0.0
 11
865.2509482492177
 21
954.6757270755277
 31
0.0
  0
LINE
  5
8F6
102
{ACAD_REACTORS
330
BB5
102
}
330
1F
100
AcDbEntity
  8
実線
100
AcDbLine
 10
862.3509482492181
 20
1018.675727075527
 30
0.0
 11
862.3509482492181
 21
954.6757270755277
 31
0.0
  0
LINE
  5
8F7
102
{ACAD_REACTORS
330
BB5
102
}
330
1F
100
AcDbEntity
  8
実線
100
AcDbLine
 10
859.9509482492178
 20
1013.575727075527
 30
0.0
 11
859.9509482492178
 21
959.7757270755277
 31
0.0
  0
LINE
  5
8F8
102
{ACAD_REACTORS
330
BB5
102
}
330
1F
100
AcDbEntity
  8
実線
100
AcDbLine
 10
859.9509482492178
 20
959.7757270755277
 30
0.0
 11
862.3509482492181
 21
954.6757270755277
 31
0.0
  0
LINE
  5
8F9
102
{ACAD_REACTORS
330
BB5
102
}
330
1F
100
AcDbEntity
  8
実線
100
AcDbLine
 10
862.3509482492181
 20
1018.675727075527
 30
0.0
 11
859.9509482492178
 21
1013.575727075527
 31
0.0
  0
LINE
  5
8FA
102
{ACAD_REACTORS
330
BB5
102
}
330
1F
100
AcDbEntity
  8
実線
100
AcDbLine
 10
628.5509482492187
 20
909.2757270755276
 30
0.0
 11
682.7509482492187
 21
909.2757270755276
 31
0.0
  0
LINE
  5
8FB
102
{ACAD_REACTORS
330
BB5
102
}
330
1F
100
AcDbEntity
  8
実線
100
AcDbLine
 10
669.60564402677
 20
963.0757270755276
 30
0.0
 11
628.5509482492187
 21
963.0757270755276
 31
0.0
  0
LINE
  5
8FC
102
{ACAD_REACTORS
330
BB5
102
}
330
1F
100
AcDbEntity
  8
実線
100
AcDbLine
 10
628.5509482492187
 20
909.2757270755276
 30
0.0
 11
628.5509482492187
 21
963.0757270755276
 31
0.0
  0
LINE
  5
8FD
102
{ACAD_REACTORS
330
BB5
102
}
330
1F
100
AcDbEntity
  8
実線
100
AcDbLine
 10
628.5509482492187
 20
963.0757270755276
 30
0.0
 11
626.1509482492185
 21
968.1757270755277
 31
0.0
  0
LINE
  5
8FE
102
{ACAD_REACTORS
330
BB5
102
}
330
1F
100
AcDbEntity
  8
実線
100
AcDbLine
 10
626.1509482492185
 20
904.1757270755272
 30
0.0
 11
628.5509482492187
 21
909.2757270755276
 31
0.0
  0
LINE
  5
8FF
102
{ACAD_REACTORS
330
BB5
102
}
330
1F
100
AcDbEntity
  8
実線
100
AcDbLine
 10
623.2509482492186
 20
904.1757270755272
 30
0.0
 11
623.2509482492186
 21
968.1757270755277
 31
0.0
  0
LINE
  5
900
102
{ACAD_REACTORS
330
BB5
102
}
330
1F
100
AcDbEntity
  8
実線
100
AcDbLine
 10
626.1509482492185
 20
904.1757270755272
 30
0.0
 11
626.1509482492185
 21
968.1757270755277
 31
0.0
  0
LINE
  5
901
102
{ACAD_REACTORS
330
BB5
102
}
330
1F
100
AcDbEntity
  8
実線
100
AcDbLine
 10
623.2509482492186
 20
904.1757270755272
 30
0.0
 11
626.1509482492185
 21
904.1757270755272
 31
0.0
  0
LINE
  5
902
102
{ACAD_REACTORS
330
BB5
102
}
330
1F
100
AcDbEntity
  8
実線
100
AcDbLine
 10
626.1509482492185
 20
968.1757270755277
 30
0.0
 11
623.2509482492186
 21
968.1757270755277
 31
0.0
  0
LINE
  5
903
102
{ACAD_REACTORS
330
BB5
102
}
330
1F
100
AcDbEntity
  8
実線
100
AcDbLine
 10
744.2509482492186
 20
984.7757270755277
 30
0.0
 11
784.250948249218
 21
984.7757270755277
 31
0.0
  0
LINE
  5
904
102
{ACAD_REACTORS
330
BB5
102
}
330
1F
100
AcDbEntity
  8
実線
100
AcDbLine
 10
784.250948249218
 20
944.7757270755277
 30
0.0
 11
744.2509482492186
 21
944.7757270755277
 31
0.0
  0
LINE
  5
905
102
{ACAD_REACTORS
330
BB5
102
}
330
1F
100
AcDbEntity
  8
実線
100
AcDbLine
 10
744.2509482492186
 20
944.7757270755277
 30
0.0
 11
744.2509482492186
 21
984.7757270755277
 31
0.0
  0
LINE
  5
906
102
{ACAD_REACTORS
330
BB5
102
}
330
1F
100
AcDbEntity
  8
実線
100
AcDbLine
 10
784.250948249218
 20
984.7757270755277
 30
0.0
 11
784.250948249218
 21
944.7757270755277
 31
0.0
  0
LINE
  5
907
102
{ACAD_REACTORS
330
BB5
102
}
330
1F
100
AcDbEntity
  8
実線
100
AcDbLine
 10
718.2509482492187
 20
1035.175727075527
 30
0.0
 11
718.2509482492187
 21
1067.675727075527
 31
0.0
  0
LINE
  5
908
102
{ACAD_REACTORS
330
BB5
102
}
330
1F
100
AcDbEntity
  8
実線
100
AcDbLine
 10
702.2509482492186
 20
1067.675727075527
 30
0.0
 11
702.2509482492186
 21
1035.175727075527
 31
0.0
  0
LINE
  5
909
102
{ACAD_REACTORS
330
BB5
102
}
330
1F
100
AcDbEntity
  8
実線
100
AcDbLine
 10
647.7509482492187
 20
1121.075727075527
 30
0.0
 11
772.750948249218
 21
1121.075727075527
 31
0.0
  0
LINE
  5
90A
102
{ACAD_REACTORS
330
BB5
102
}
330
1F
100
AcDbEntity
  8
実線
100
AcDbLine
 10
772.750948249218
 20
1121.075727075527
 30
0.0
 11
772.750948249218
 21
1213.075727075527
 31
0.0
  0
LINE
  5
90B
102
{ACAD_REACTORS
330
BB5
102
}
330
1F
100
AcDbEntity
  8
実線
100
AcDbLine
 10
647.7509482492187
 20
1213.075727075527
 30
0.0
 11
647.7509482492187
 21
1121.075727075527
 31
0.0
  0
LINE
  5
90C
102
{ACAD_REACTORS
330
BB5
102
}
330
1F
100
AcDbEntity
  8
実線
100
AcDbLine
 10
766.7541138412738
 20
1035.175727075527
 30
0.0
 11
653.7477826571628
 21
1035.175727075527
 31
0.0
  0
LINE
  5
90D
102
{ACAD_REACTORS
330
BB5
102
}
330
1F
100
AcDbEntity
  8
実線
100
AcDbLine
 10
766.7541138412738
 20
1021.675727075527
 30
0.0
 11
653.7477826571628
 21
1021.675727075527
 31
0.0
  0
LINE
  5
90E
102
{ACAD_REACTORS
330
BB5
102
}
330
1F
100
AcDbEntity
  8
実線
100
AcDbLine
 10
653.7477826571628
 20
1035.175727075527
 30
0.0
 11
653.7477826571628
 21
1021.675727075527
 31
0.0
  0
LINE
  5
90F
102
{ACAD_REACTORS
330
BB5
102
}
330
1F
100
AcDbEntity
  8
実線
100
AcDbLine
 10
766.7541138412738
 20
1021.675727075527
 30
0.0
 11
766.7541138412738
 21
1035.175727075527
 31
0.0
  0
LINE
  5
910
102
{ACAD_REACTORS
330
BB5
102
}
330
1F
100
AcDbEntity
  8
実線
100
AcDbLine
 10
687.8727049620753
 20
1035.175727075527
 30
0.0
 11
687.8727049620753
 21
1021.675727075527
 31
0.0
  0
LINE
  5
911
102
{ACAD_REACTORS
330
BB5
102
}
330
1F
100
AcDbEntity
  8
実線
100
AcDbLine
 10
732.6291915363616
 20
1035.175727075527
 30
0.0
 11
732.6291915363616
 21
1021.675727075527
 31
0.0
  0
LINE
  5
912
102
{ACAD_REACTORS
330
BB5
102
}
330
1F
100
AcDbEntity
  8
実線
100
AcDbLine
 10
756.2509482492187
 20
1229.075727075527
 30
0.0
 11
664.2509482492187
 21
1229.075727075527
 31
0.0
  0
LINE
  5
913
102
{ACAD_REACTORS
330
BB5
102
}
330
1F
100
AcDbEntity
  8
実線
100
AcDbLine
 10
756.2509482492187
 20
1217.575727075527
 30
0.0
 11
756.2509482492187
 21
1229.075727075527
 31
0.0
  0
LINE
  5
914
102
{ACAD_REACTORS
330
BB5
102
}
330
1F
100
AcDbEntity
  8
実線
100
AcDbLine
 10
664.2509482492187
 20
1229.075727075527
 30
0.0
 11
664.2509482492187
 21
1217.575727075527
 31
0.0
  0
LINE
  5
915
102
{ACAD_REACTORS
330
BB5
102
}
330
1F
100
AcDbEntity
  8
実線
100
AcDbLine
 10
725.7509482492187
 20
1229.075727075527
 30
0.0
 11
725.7509482492187
 21
1236.075727075527
 31
0.0
  0
LINE
  5
916
102
{ACAD_REACTORS
330
BB5
102
}
330
1F
100
AcDbEntity
  8
実線
100
AcDbLine
 10
694.7509482492185
 20
1236.075727075527
 30
0.0
 11
694.7509482492185
 21
1229.075727075527
 31
0.0
  0
LINE
  5
917
102
{ACAD_REACTORS
330
BB5
102
}
330
1F
100
AcDbEntity
  8
実線
100
AcDbLine
 10
666.9509482492186
 20
1239.775727075527
 30
0.0
 11
753.5509482492185
 21
1239.775727075527
 31
0.0
  0
LINE
  5
918
102
{ACAD_REACTORS
330
BB5
102
}
330
1F
100
AcDbEntity
  8
実線
100
AcDbLine
 10
753.5509482492185
 20
1275.775727075527
 30
0.0
 11
666.9509482492186
 21
1275.775727075527
 31
0.0
  0
LINE
  5
919
102
{ACAD_REACTORS
330
BB5
102
}
330
1F
100
AcDbEntity
  8
実線
100
AcDbLine
 10
753.5509482492185
 20
1239.775727075527
 30
0.0
 11
753.5509482492185
 21
1275.775727075527
 31
0.0
  0
LINE
  5
91A
102
{ACAD_REACTORS
330
BB5
102
}
330
1F
100
AcDbEntity
  8
実線
100
AcDbLine
 10
666.9509482492186
 20
1275.775727075527
 30
0.0
 11
666.9509482492186
 21
1239.775727075527
 31
0.0
  0
LINE
  5
91B
102
{ACAD_REACTORS
330
BB5
102
}
330
1F
100
AcDbEntity
  8
実線
100
AcDbLine
 10
667.7509482492187
 20
1352.775727075527
 30
0.0
 11
752.7509482492185
 21
1352.775727075527
 31
0.0
  0
LINE
  5
91C
102
{ACAD_REACTORS
330
BB5
102
}
330
1F
100
AcDbEntity
  8
実線
100
AcDbLine
 10
726.7509482492187
 20
1361.975727075527
 30
0.0
 11
693.7509482492187
 21
1361.975727075527
 31
0.0
  0
LINE
  5
91D
102
{ACAD_REACTORS
330
BB5
102
}
330
1F
100
AcDbEntity
  8
実線
100
AcDbLine
 10
693.7509482492187
 20
1361.975727075527
 30
0.0
 11
667.7509482492187
 21
1352.775727075527
 31
0.0
  0
LINE
  5
91E
102
{ACAD_REACTORS
330
BB5
102
}
330
1F
100
AcDbEntity
  8
実線
100
AcDbLine
 10
752.7509482492185
 20
1352.775727075527
 30
0.0
 11
726.7509482492187
 21
1361.975727075527
 31
0.0
  0
LINE
  5
91F
102
{ACAD_REACTORS
330
BB5
102
}
330
1F
100
AcDbEntity
  8
実線
100
AcDbLine
 10
752.7509482492185
 20
1275.775727075527
 30
0.0
 11
752.7509482492185
 21
1352.775727075527
 31
0.0
  0
LINE
  5
920
102
{ACAD_REACTORS
330
BB5
102
}
330
1F
100
AcDbEntity
  8
実線
100
AcDbLine
 10
667.7509482492187
 20
1352.775727075527
 30
0.0
 11
667.7509482492187
 21
1275.775727075527
 31
0.0
  0
LINE
  5
921
102
{ACAD_REACTORS
330
BB5
102
}
330
1F
100
AcDbEntity
  8
実線
100
AcDbLine
 10
666.2509482492187
 20
1236.075727075527
 30
0.0
 11
754.2509482492187
 21
1236.075727075527
 31
0.0
  0
LINE
  5
922
102
{ACAD_REACTORS
330
BB5
102
}
330
1F
100
AcDbEntity
  8
実線
100
AcDbLine
 10
666.9509482492186
 20
1239.775727075527
 30
0.0
 11
666.2509482492187
 21
1236.075727075527
 31
0.0
  0
LINE
  5
923
102
{ACAD_REACTORS
330
BB5
102
}
330
1F
100
AcDbEntity
  8
実線
100
AcDbLine
 10
754.2509482492187
 20
1236.075727075527
 30
0.0
 11
753.5509482492185
 21
1239.775727075527
 31
0.0
  0
LINE
  5
924
102
{ACAD_REACTORS
330
BB5
102
}
330
1F
100
AcDbEntity
  8
実線
100
AcDbLine
 10
767.550948249219
 20
1121.075727075527
 30
0.0
 11
767.550948249219
 21
1081.175727075527
 31
0.0
  0
ARC
  5
925
102
{ACAD_REACTORS
330
BB5
102
}
330
1F
100
AcDbEntity
  8
実線
100
AcDbCircle
 10
707.5509482492186
 20
1081.175727075527
 30
0.0
 40
60.00000000000005
100
AcDbArc
 50
309.9445051898157
 51
0.0
  0
ARC
  5
926
102
{ACAD_REACTORS
330
BB5
102
}
330
1F
100
AcDbEntity
  8
実線
100
AcDbCircle
 10
705.5509482492185
 20
1081.175727075527
 30
0.0
 40
47.99999999999999
100
AcDbArc
 50
286.5978421358643
 51
343.665177219314
  0
ARC
  5
927
102
{ACAD_REACTORS
330
BB5
102
}
330
1F
100
AcDbEntity
  8
実線
100
AcDbCircle
 10
714.9509482492186
 20
1081.175727075527
 30
0.0
 40
47.99999999999999
100
AcDbArc
 50
196.3348227806859
 51
253.4021578641357
  0
LINE
  5
928
102
{ACAD_REACTORS
330
BB5
102
}
330
1F
100
AcDbEntity
  8
実線
100
AcDbLine
 10
652.9509482492187
 20
1121.075727075527
 30
0.0
 11
652.9509482492187
 21
1081.175727075527
 31
0.0
  0
ARC
  5
929
102
{ACAD_REACTORS
330
BB5
102
}
330
1F
100
AcDbEntity
  8
実線
100
AcDbCircle
 10
712.9509482492186
 20
1081.175727075527
 30
0.0
 40
60.00000000000005
100
AcDbArc
 50
180.0
 51
230.0554948101843
  0
LINE
  5
92A
102
{ACAD_REACTORS
330
BB5
102
}
330
1F
100
AcDbEntity
  8
実線
100
AcDbLine
 10
662.1079321409604
 20
1067.675727075527
 30
0.0
 11
758.3939643574767
 21
1067.675727075527
 31
0.0
  0
LINE
  5
92B
102
{ACAD_REACTORS
330
BB5
102
}
330
1F
100
AcDbEntity
  8
実線
100
AcDbLine
 10
758.3939643574767
 20
1067.675727075527
 30
0.0
 11
758.3939643574767
 21
1121.075727075527
 31
0.0
  0
LINE
  5
92C
102
{ACAD_REACTORS
330
BB5
102
}
330
1F
100
AcDbEntity
  8
実線
100
AcDbLine
 10
662.1079321409604
 20
1067.675727075527
 30
0.0
 11
662.1079321409604
 21
1121.075727075527
 31
0.0
  0
LINE
  5
92D
102
{ACAD_REACTORS
330
BB5
102
}
330
1F
100
AcDbEntity
  8
実線
100
AcDbLine
 10
828.0754304658072
 20
949.8757270755275
 30
0.0
 11
843.165775130013
 21
949.8757270755275
 31
0.0
  0
LINE
  5
92E
102
{ACAD_REACTORS
330
BB5
102
}
330
1F
100
AcDbEntity
  8
実線
100
AcDbLine
 10
828.0754304658072
 20
921.3757270755277
 30
0.0
 11
828.0754304658072
 21
949.8757270755275
 31
0.0
  0
LINE
  5
92F
102
{ACAD_REACTORS
330
BB5
102
}
330
1F
100
AcDbEntity
  8
実線
100
AcDbLine
 10
828.0754304658072
 20
921.3757270755277
 30
0.0
 11
815.3895800851971
 21
921.3757270755277
 31
0.0
  0
LINE
  5
930
102
{ACAD_REACTORS
330
BB5
102
}
330
1F
100
AcDbEntity
  8
実線
100
AcDbLine
 10
815.3895800851971
 20
919.8757270755274
 30
0.0
 11
815.3895800851971
 21
921.3757270755277
 31
0.0
  0
LINE
  5
931
102
{ACAD_REACTORS
330
BB5
102
}
330
1F
100
AcDbEntity
  8
実線
100
AcDbLine
 10
843.165775130013
 20
942.8757270755276
 30
0.0
 11
843.165775130013
 21
949.8757270755275
 31
0.0
  0
LINE
  5
932
102
{ACAD_REACTORS
330
BB5
102
}
330
1F
100
AcDbEntity
  8
実線
100
AcDbLine
 10
843.165775130013
 20
919.8757270755274
 30
0.0
 11
843.165775130013
 21
930.8757270755275
 31
0.0
  0
LINE
  5
933
102
{ACAD_REACTORS
330
BB5
102
}
330
1F
100
AcDbEntity
  8
実線
100
AcDbLine
 10
829.4849693969862
 20
919.8757270755274
 30
0.0
 11
829.4849693969862
 21
949.8757270755275
 31
0.0
  0
LINE
  5
934
102
{ACAD_REACTORS
330
BB5
102
}
330
1F
100
AcDbEntity
  8
実線
100
AcDbLine
 10
682.7509482492187
 20
887.8757270755274
 30
0.0
 11
845.7509482492181
 21
887.8757270755274
 31
0.0
  0
LINE
  5
935
102
{ACAD_REACTORS
330
BB5
102
}
330
1F
100
AcDbEntity
  8
実線
100
AcDbLine
 10
682.7509482492187
 20
907.8757270755275
 30
0.0
 11
682.7509482492187
 21
887.8757270755274
 31
0.0
  0
LINE
  5
936
102
{ACAD_REACTORS
330
BB5
102
}
330
1F
100
AcDbEntity
  8
実線
100
AcDbLine
 10
845.7509482492181
 20
887.8757270755274
 30
0.0
 11
845.7509482492181
 21
907.8757270755275
 31
0.0
  0
LINE
  5
937
102
{ACAD_REACTORS
330
BB5
102
}
330
1F
100
AcDbEntity
  8
実線
100
AcDbLine
 10
682.7509482492187
 20
919.8757270755274
 30
0.0
 11
845.7509482492181
 21
919.8757270755274
 31
0.0
  0
LINE
  5
938
102
{ACAD_REACTORS
330
BB5
102
}
330
1F
100
AcDbEntity
  8
実線
100
AcDbLine
 10
845.7509482492181
 20
907.8757270755275
 30
0.0
 11
682.7509482492187
 21
907.8757270755275
 31
0.0
  0
LINE
  5
939
102
{ACAD_REACTORS
330
BB5
102
}
330
1F
100
AcDbEntity
  8
実線
100
AcDbLine
 10
682.7509482492187
 20
919.8757270755274
 30
0.0
 11
682.7509482492187
 21
907.8757270755275
 31
0.0
  0
LINE
  5
93A
102
{ACAD_REACTORS
330
BB5
102
}
330
1F
100
AcDbEntity
  8
実線
100
AcDbLine
 10
845.7509482492181
 20
907.8757270755275
 30
0.0
 11
845.7509482492181
 21
919.8757270755274
 31
0.0
  0
LINE
  5
93B
102
{ACAD_REACTORS
330
BB5
102
}
330
1F
100
AcDbEntity
  8
実線
100
AcDbLine
 10
796.750948249218
 20
919.8757270755274
 30
0.0
 11
796.750948249218
 21
907.8757270755275
 31
0.0
  0
LINE
  5
93C
102
{ACAD_REACTORS
330
BB5
102
}
330
1F
100
AcDbEntity
  8
実線
100
AcDbLine
 10
731.7509482492186
 20
907.8757270755275
 30
0.0
 11
731.7509482492186
 21
919.8757270755274
 31
0.0
  0
LINE
  5
93D
102
{ACAD_REACTORS
330
BB5
102
}
330
1F
100
AcDbEntity
  8
実線
100
AcDbLine
 10
812.7509482492181
 20
994.8757270755274
 30
0.0
 11
812.7509482492181
 21
963.1757270755272
 31
0.0
  0
LINE
  5
93E
102
{ACAD_REACTORS
330
BB5
102
}
330
1F
100
AcDbEntity
  8
実線
100
AcDbLine
 10
744.2509482492186
 20
994.8757270755274
 30
0.0
 11
812.7509482492181
 21
994.8757270755274
 31
0.0
  0
LINE
  5
93F
102
{ACAD_REACTORS
330
BB5
102
}
330
1F
100
AcDbEntity
  8
実線
100
AcDbLine
 10
744.2509482492186
 20
984.7757270755277
 30
0.0
 11
744.2509482492186
 21
994.8757270755274
 31
0.0
  0
LINE
  5
940
102
{ACAD_REACTORS
330
BB5
102
}
330
1F
100
AcDbEntity
  8
実線
100
AcDbLine
 10
704.1009482492187
 20
953.1757270755273
 30
0.0
 11
693.8282682781834
 21
953.1757270755273
 31
0.0
  0
ARC
  5
941
102
{ACAD_REACTORS
330
BB5
102
}
330
1F
100
AcDbEntity
  8
実線
100
AcDbCircle
 10
683.7120255613807
 20
968.1757270755277
 30
0.0
 40
15.0
100
AcDbArc
 50
192.0079690596974
 51
199.8768740700807
  0
LINE
  5
942
102
{ACAD_REACTORS
330
BB5
102
}
330
1F
100
AcDbEntity
  8
実線
100
AcDbLine
 10
661.2509482492185
 20
1001.675727075527
 30
0.0
 11
669.0402454573995
 21
965.0550110390325
 31
0.0
  0
LINE
  5
943
102
{ACAD_REACTORS
330
BB5
102
}
330
1F
100
AcDbEntity
  8
実線
100
AcDbLine
 10
661.2509482492185
 20
1001.675727075527
 30
0.0
 11
759.0503217020225
 21
1001.675727075527
 31
0.0
  0
LINE
  5
944
102
{ACAD_REACTORS
330
BB5
102
}
330
1F
100
AcDbEntity
  8
実線
100
AcDbLine
 10
661.2509482492185
 20
1006.675727075527
 30
0.0
 11
661.2509482492185
 21
1001.675727075527
 31
0.0
  0
LINE
  5
945
102
{ACAD_REACTORS
330
BB5
102
}
330
1F
100
AcDbEntity
  8
実線
100
AcDbLine
 10
772.750948249218
 20
1213.075727075527
 30
0.0
 11
772.750948249218
 21
1214.575727075527
 31
0.0
  0
LINE
  5
946
102
{ACAD_REACTORS
330
BB5
102
}
330
1F
100
AcDbEntity
  8
実線
100
AcDbLine
 10
647.7509482492187
 20
1214.575727075527
 30
0.0
 11
647.7509482492187
 21
1213.075727075527
 31
0.0
  0
LINE
  5
947
102
{ACAD_REACTORS
330
BB5
102
}
330
1F
100
AcDbEntity
  8
実線
100
AcDbLine
 10
772.750948249218
 20
1213.075727075527
 30
0.0
 11
647.7509482492187
 21
1213.075727075527
 31
0.0
  0
LINE
  5
948
102
{ACAD_REACTORS
330
BB5
102
}
330
1F
100
AcDbEntity
  8
実線
100
AcDbLine
 10
650.7509482495876
 20
1217.575727075527
 30
0.0
 11
769.750948249218
 21
1217.575727075527
 31
0.0
  0
ARC
  5
949
102
{ACAD_REACTORS
330
BB5
102
}
330
1F
100
AcDbEntity
  8
実線
100
AcDbCircle
 10
769.750948249218
 20
1214.575727075527
 30
0.0
 40
3.0
100
AcDbArc
 50
0.0
 51
90.0
  0
ARC
  5
94A
102
{ACAD_REACTORS
330
BB5
102
}
330
1F
100
AcDbEntity
  8
実線
100
AcDbCircle
 10
650.7509482492183
 20
1214.575727075527
 30
0.0
 40
3.0
100
AcDbArc
 50
90.0
 51
180.0
  0
LINE
  5
94B
102
{ACAD_REACTORS
330
BB4
102
}
330
1F
100
AcDbEntity
  8
実線
100
AcDbLine
 10
1531.533942306162
 20
746.3574861289033
 30
0.0
 11
1543.280100065986
 21
742.082234337332
 31
0.0
  0
LINE
  5
94C
102
{ACAD_REACTORS
330
BB4
102
}
330
1F
100
AcDbEntity
  8
実線
100
AcDbLine
 10
1485.019157577259
 20
763.2874832235236
 30
0.0
 11
1530.124403374983
 21
746.8705163438916
 31
0.0
  0
LINE
  5
94D
102
{ACAD_REACTORS
330
BB4
102
}
330
1F
100
AcDbEntity
  8
実線
100
AcDbLine
 10
1534.228645094891
 20
758.1468277933225
 30
0.0
 11
1489.123399297168
 21
774.5637946729547
 31
0.0
  0
LINE
  5
94E
102
{ACAD_REACTORS
330
BB4
102
}
330
1F
100
AcDbEntity
  8
実線
100
AcDbLine
 10
1547.384341785894
 20
753.3585457867632
 30
0.0
 11
1535.63818402607
 21
757.633797578334
 31
0.0
  0
LINE
  5
94F
102
{ACAD_REACTORS
330
BB4
102
}
330
1F
100
AcDbEntity
  8
実線
100
AcDbLine
 10
1543.280100065986
 20
742.082234337332
 30
0.0
 11
1547.384341785894
 21
753.3585457867632
 31
0.0
  0
LINE
  5
950
102
{ACAD_REACTORS
330
BB4
102
}
330
1F
100
AcDbEntity
  8
実線
100
AcDbLine
 10
1485.019157577259
 20
763.2874832235236
 30
0.0
 11
1489.123399297168
 21
774.5637946729547
 31
0.0
  0
ARC
  5
951
102
{ACAD_REACTORS
330
BB4
102
}
330
1F
100
AcDbEntity
  8
実線
100
AcDbCircle
 10
1604.250948249218
 20
726.2757270755275
 30
0.0
 40
60.15
100
AcDbArc
 50
109.4207119974919
 51
200.5356238326482
  0
ARC
  5
952
102
{ACAD_REACTORS
330
BB4
102
}
330
1F
100
AcDbEntity
  8
実線
100
AcDbCircle
 10
1604.250948249218
 20
726.2757270755275
 30
0.0
 40
60.15
100
AcDbArc
 50
32.4954386313277
 51
70.5792880025081
  0
LINE
  5
953
102
{ACAD_REACTORS
330
BB4
102
}
330
1F
100
AcDbEntity
  8
実線
100
AcDbLine
 10
1508.550948249218
 20
651.3757270755275
 30
0.0
 11
1601.782197564775
 21
651.3757270755275
 31
0.0
  0
LINE
  5
954
102
{ACAD_REACTORS
330
BB4
102
}
330
1F
100
AcDbEntity
  8
実線
100
AcDbLine
 10
1555.750948249218
 20
705.1757270755274
 30
0.0
 11
1508.550948249218
 21
705.1757270755274
 31
0.0
  0
LINE
  5
955
102
{ACAD_REACTORS
330
BB4
102
}
330
1F
100
AcDbEntity
  8
実線
100
AcDbLine
 10
1508.550948249218
 20
705.1757270755274
 30
0.0
 11
1508.550948249218
 21
651.3757270755275
 31
0.0
  0
LINE
  5
956
102
{ACAD_REACTORS
330
BB4
102
}
330
1F
100
AcDbEntity
  8
実線
100
AcDbLine
 10
1508.550948249218
 20
705.1757270755274
 30
0.0
 11
1506.150948249218
 21
710.2757270755278
 31
0.0
  0
LINE
  5
957
102
{ACAD_REACTORS
330
BB4
102
}
330
1F
100
AcDbEntity
  8
実線
100
AcDbLine
 10
1506.150948249218
 20
646.2757270755274
 30
0.0
 11
1508.550948249218
 21
651.3757270755275
 31
0.0
  0
LINE
  5
958
102
{ACAD_REACTORS
330
BB4
102
}
330
1F
100
AcDbEntity
  8
実線
100
AcDbLine
 10
1503.250948249218
 20
710.2757270755278
 30
0.0
 11
1503.250948249218
 21
646.2757270755274
 31
0.0
  0
LINE
  5
959
102
{ACAD_REACTORS
330
BB4
102
}
330
1F
100
AcDbEntity
  8
実線
100
AcDbLine
 10
1506.150948249218
 20
710.2757270755278
 30
0.0
 11
1506.150948249218
 21
646.2757270755274
 31
0.0
  0
LINE
  5
95A
102
{ACAD_REACTORS
330
BB4
102
}
330
1F
100
AcDbEntity
  8
実線
100
AcDbLine
 10
1503.250948249218
 20
646.2757270755274
 30
0.0
 11
1506.150948249218
 21
646.2757270755274
 31
0.0
  0
LINE
  5
95B
102
{ACAD_REACTORS
330
BB4
102
}
330
1F
100
AcDbEntity
  8
実線
100
AcDbLine
 10
1506.150948249218
 20
710.2757270755278
 30
0.0
 11
1503.250948249218
 21
710.2757270755278
 31
0.0
  0
LINE
  5
95C
102
{ACAD_REACTORS
330
BB4
102
}
330
1F
100
AcDbEntity
  8
実線
100
AcDbLine
 10
1739.950948249218
 20
723.0757270755276
 30
0.0
 11
1714.665839900269
 21
723.0757270755276
 31
0.0
  0
LINE
  5
95D
102
{ACAD_REACTORS
330
BB4
102
}
330
1F
100
AcDbEntity
  8
実線
100
AcDbLine
 10
1714.665839900269
 20
669.2757270755273
 30
0.0
 11
1739.950948249218
 21
669.2757270755273
 31
0.0
  0
LINE
  5
95E
102
{ACAD_REACTORS
330
BB4
102
}
330
1F
100
AcDbEntity
  8
実線
100
AcDbLine
 10
1745.250948249218
 20
728.1757270755275
 30
0.0
 11
1742.350948249218
 21
728.1757270755275
 31
0.0
  0
LINE
  5
95F
102
{ACAD_REACTORS
330
BB4
102
}
330
1F
100
AcDbEntity
  8
実線
100
AcDbLine
 10
1742.350948249218
 20
664.1757270755274
 30
0.0
 11
1745.250948249218
 21
664.1757270755274
 31
0.0
  0
LINE
  5
960
102
{ACAD_REACTORS
330
BB4
102
}
330
1F
100
AcDbEntity
  8
実線
100
AcDbLine
 10
1745.250948249218
 20
728.1757270755275
 30
0.0
 11
1745.250948249218
 21
664.1757270755274
 31
0.0
  0
LINE
  5
961
102
{ACAD_REACTORS
330
BB4
102
}
330
1F
100
AcDbEntity
  8
実線
100
AcDbLine
 10
1739.950948249218
 20
669.2757270755273
 30
0.0
 11
1742.350948249218
 21
664.1757270755274
 31
0.0
  0
LINE
  5
962
102
{ACAD_REACTORS
330
BB4
102
}
330
1F
100
AcDbEntity
  8
実線
100
AcDbLine
 10
1742.350948249218
 20
728.1757270755275
 30
0.0
 11
1739.950948249218
 21
723.0757270755276
 31
0.0
  0
LINE
  5
963
102
{ACAD_REACTORS
330
BB4
102
}
330
1F
100
AcDbEntity
  8
実線
100
AcDbLine
 10
1742.350948249218
 20
664.1757270755274
 30
0.0
 11
1742.350948249218
 21
728.1757270755275
 31
0.0
  0
LINE
  5
964
102
{ACAD_REACTORS
330
BB4
102
}
330
1F
100
AcDbEntity
  8
実線
100
AcDbLine
 10
1739.950948249218
 20
669.2757270755273
 30
0.0
 11
1739.950948249218
 21
723.0757270755276
 31
0.0
  0
LINE
  5
965
102
{ACAD_REACTORS
330
BB4
102
}
330
1F
100
AcDbEntity
  8
実線
100
AcDbLine
 10
1625.750948249218
 20
636.1757270755275
 30
0.0
 11
1640.750948249217
 21
636.1757270755275
 31
0.0
  0
LINE
  5
966
102
{ACAD_REACTORS
330
BB4
102
}
330
1F
100
AcDbEntity
  8
実線
100
AcDbLine
 10
1625.750948249218
 20
636.1757270755275
 30
0.0
 11
1625.750948249218
 21
642.7903358153709
 31
0.0
  0
LINE
  5
967
102
{ACAD_REACTORS
330
BB4
102
}
330
1F
100
AcDbEntity
  8
実線
100
AcDbLine
 10
1624.250948249217
 20
789.1757270755277
 30
0.0
 11
1584.250948249217
 21
789.1757270755277
 31
0.0
  0
LINE
  5
968
102
{ACAD_REACTORS
330
BB4
102
}
330
1F
100
AcDbEntity
  8
実線
100
AcDbLine
 10
1584.250948249217
 20
738.6757270755275
 30
0.0
 11
1584.250948249217
 21
789.1757270755277
 31
0.0
  0
LINE
  5
969
102
{ACAD_REACTORS
330
BB4
102
}
330
1F
100
AcDbEntity
  8
実線
100
AcDbLine
 10
1624.250948249217
 20
748.618553086337
 30
0.0
 11
1624.250948249217
 21
789.1757270755277
 31
0.0
  0
LINE
  5
96A
102
{ACAD_REACTORS
330
BB4
102
}
330
1F
100
AcDbEntity
  8
実線
100
AcDbLine
 10
1606.153222848905
 20
661.6492588502145
 30
0.0
 11
1603.556262214272
 21
657.9404146962763
 31
0.0
  0
ARC
  5
96B
102
{ACAD_REACTORS
330
BB4
102
}
330
1F
100
AcDbEntity
  8
実線
100
AcDbCircle
 10
1658.250948249218
 20
696.1757270755274
 30
0.0
 40
74.00000000000019
100
AcDbArc
 50
313.3968902048165
 51
316.6031097951883
  0
ARC
  5
96C
102
{ACAD_REACTORS
330
BB4
102
}
330
1F
100
AcDbEntity
  8
実線
100
AcDbCircle
 10
1704.754113841274
 20
652.2046503327658
 30
0.0
 40
10.00000000000001
100
AcDbArc
 50
316.6031097951883
 51
34.99999999999754
  0
LINE
  5
96D
102
{ACAD_REACTORS
330
BB4
102
}
330
1F
100
AcDbEntity
  8
実線
100
AcDbLine
 10
1712.945634284164
 20
657.9404146962763
 30
0.0
 11
1710.348673649531
 21
661.6492588502145
 31
0.0
  0
LINE
  5
96E
102
{ACAD_REACTORS
330
BB4
102
}
330
1F
100
AcDbEntity
  8
実線
100
AcDbLine
 10
1710.348673649531
 20
730.7021953008404
 30
0.0
 11
1712.945634284164
 21
734.4110394547789
 31
0.0
  0
ARC
  5
96F
102
{ACAD_REACTORS
330
BB4
102
}
330
1F
100
AcDbEntity
  8
実線
100
AcDbCircle
 10
1704.754113841274
 20
740.1468038182892
 30
0.0
 40
10.00000000000001
100
AcDbArc
 50
325.0000000000024
 51
43.39689020481158
  0
ARC
  5
970
102
{ACAD_REACTORS
330
BB4
102
}
330
1F
100
AcDbEntity
  8
実線
100
AcDbCircle
 10
1658.250948249218
 20
696.1757270755274
 30
0.0
 40
73.99999999999997
100
AcDbArc
 50
43.39689020481158
 51
46.60310979518348
  0
ARC
  5
971
102
{ACAD_REACTORS
330
BB4
102
}
330
1F
100
AcDbEntity
  8
実線
100
AcDbCircle
 10
1702.22202499198
 20
742.6788926675834
 30
0.0
 40
10.00000000000001
100
AcDbArc
 50
46.60310979518348
 51
124.9999999999972
  0
LINE
  5
972
102
{ACAD_REACTORS
330
BB4
102
}
330
1F
100
AcDbEntity
  8
実線
100
AcDbLine
 10
1696.48626062847
 20
750.8704131104732
 30
0.0
 11
1692.777416474531
 21
748.2734524758408
 31
0.0
  0
ARC
  5
973
102
{ACAD_REACTORS
330
BB4
102
}
330
1F
100
AcDbEntity
  8
実線
100
AcDbCircle
 10
1611.747782657162
 20
652.2046503327658
 30
0.0
 40
10.00000000000002
100
AcDbArc
 50
145.0000000000024
 51
223.3968902048115
  0
ARC
  5
974
102
{ACAD_REACTORS
330
BB4
102
}
330
1F
100
AcDbEntity
  8
実線
100
AcDbCircle
 10
1658.250948249218
 20
696.1757270755274
 30
0.0
 40
74.00000000000003
100
AcDbArc
 50
223.3968902048115
 51
226.6031097951834
  0
ARC
  5
975
102
{ACAD_REACTORS
330
BB4
102
}
330
1F
100
AcDbEntity
  8
実線
100
AcDbCircle
 10
1614.279871506457
 20
649.6725614834714
 30
0.0
 40
10.00000000000001
100
AcDbArc
 50
226.6031097951834
 51
304.9999999999971
  0
LINE
  5
976
102
{ACAD_REACTORS
330
BB4
102
}
330
1F
100
AcDbEntity
  8
実線
100
AcDbLine
 10
1620.015635869967
 20
641.4810410405818
 30
0.0
 11
1623.724480023905
 21
644.0780016752142
 31
0.0
  0
LINE
  5
977
102
{ACAD_REACTORS
330
BB4
102
}
330
1F
100
AcDbEntity
  8
実線
100
AcDbLine
 10
1692.777416474531
 20
644.0780016752142
 30
0.0
 11
1696.48626062847
 21
641.4810410405818
 31
0.0
  0
ARC
  5
978
102
{ACAD_REACTORS
330
BB4
102
}
330
1F
100
AcDbEntity
  8
実線
100
AcDbCircle
 10
1702.22202499198
 20
649.6725614834714
 30
0.0
 40
10.0
100
AcDbArc
 50
235.0000000000028
 51
313.3968902048165
  0
LINE
  5
979
102
{ACAD_REACTORS
330
BB4
102
}
330
1F
100
AcDbEntity
  8
実線
100
AcDbLine
 10
1623.724480023905
 20
748.2734524758408
 30
0.0
 11
1620.015635869967
 21
750.8704131104732
 31
0.0
  0
ARC
  5
97A
102
{ACAD_REACTORS
330
BB4
102
}
330
1F
100
AcDbEntity
  8
実線
100
AcDbCircle
 10
1614.279871506457
 20
742.6788926675834
 30
0.0
 40
10.00000000000003
100
AcDbArc
 50
55.00000000000284
 51
133.3968902048165
  0
ARC
  5
97B
102
{ACAD_REACTORS
330
BB4
102
}
330
1F
100
AcDbEntity
  8
実線
100
AcDbCircle
 10
1658.250948249218
 20
696.1757270755274
 30
0.0
 40
73.99999999999984
100
AcDbArc
 50
133.3968902048165
 51
136.6031097951884
  0
ARC
  5
97C
102
{ACAD_REACTORS
330
BB4
102
}
330
1F
100
AcDbEntity
  8
実線
100
AcDbCircle
 10
1611.747782657162
 20
740.1468038182892
 30
0.0
 40
9.999999999999976
100
AcDbArc
 50
136.6031097951884
 51
214.9999999999975
  0
LINE
  5
97D
102
{ACAD_REACTORS
330
BB4
102
}
330
1F
100
AcDbEntity
  8
実線
100
AcDbLine
 10
1603.556262214272
 20
734.4110394547789
 30
0.0
 11
1606.153222848905
 21
730.7021953008404
 31
0.0
  0
CIRCLE
  5
97E
102
{ACAD_REACTORS
330
BB4
102
}
330
1F
100
AcDbEntity
  8
実線
100
AcDbCircle
 10
1658.250948249218
 20
696.1757270755274
 30
0.0
 40
46.0
  0
CIRCLE
  5
97F
102
{ACAD_REACTORS
330
BB4
102
}
330
1F
100
AcDbEntity
  8
実線
100
AcDbCircle
 10
1658.250948249218
 20
696.1757270755274
 30
0.0
 40
43.3
  0
CIRCLE
  5
980
102
{ACAD_REACTORS
330
BB4
102
}
330
1F
100
AcDbEntity
  8
実線
100
AcDbCircle
 10
1658.250948249218
 20
696.1757270755274
 30
0.0
 40
16.5
  0
CIRCLE
  5
981
102
{ACAD_REACTORS
330
BB4
102
}
330
1F
100
AcDbEntity
  8
実線
100
AcDbCircle
 10
1658.250948249218
 20
696.1757270755274
 30
0.0
 40
42.5
  0
CIRCLE
  5
982
102
{ACAD_REACTORS
330
BB4
102
}
330
1F
100
AcDbEntity
  8
実線
100
AcDbCircle
 10
1658.250948249218
 20
696.1757270755274
 30
0.0
 40
44.0
  0
LINE
  5
983
102
{ACAD_REACTORS
330
BB4
102
}
330
1F
100
AcDbEntity
  8
実線
100
AcDbLine
 10
1539.431510680212
 20
728.5845175030036
 30
0.0
 11
1525.336121368423
 21
733.7148196528887
 31
0.0
  0
LINE
  5
984
102
{ACAD_REACTORS
330
BB4
102
}
330
1F
100
AcDbEntity
  8
実線
100
AcDbLine
 10
1553.112316413239
 20
766.17222233444
 30
0.0
 11
1539.016927101451
 21
771.3025244843251
 31
0.0
  0
LINE
  5
985
102
{ACAD_REACTORS
330
BB4
102
}
330
1F
100
AcDbEntity
  8
実線
100
AcDbLine
 10
1553.112316413239
 20
766.17222233444
 30
0.0
 11
1539.431510680212
 21
728.584517503004
 31
0.0
  0
LINE
  5
986
102
{ACAD_REACTORS
330
BB4
102
}
330
1F
100
AcDbEntity
  8
実線
100
AcDbLine
 10
1540.426466032629
 20
770.7894942693363
 30
0.0
 11
1526.745660299602
 21
733.2017894379004
 31
0.0
  0
LINE
  5
987
102
{ACAD_REACTORS
330
BB4
102
}
330
1F
100
AcDbEntity
  8
実線
100
AcDbLine
 10
1525.336121368423
 20
733.7148196528887
 30
0.0
 11
1539.016927101451
 21
771.3025244843251
 31
0.0
  0
ARC
  5
988
102
{ACAD_REACTORS
330
BB4
102
}
330
1F
100
AcDbEntity
  8
実線
100
AcDbCircle
 10
1604.250948249218
 20
726.2757270755275
 30
0.0
 40
81.5
100
AcDbArc
 50
113.5014955496454
 51
155.7780862399276
  0
ARC
  5
989
102
{ACAD_REACTORS
330
BB4
102
}
330
1F
100
AcDbEntity
  8
実線
100
AcDbCircle
 10
1604.250948249218
 20
726.2757270755275
 30
0.0
 40
81.5
100
AcDbArc
 50
164.2219137600691
 51
195.0045473110343
  0
ARC
  5
98A
102
{ACAD_REACTORS
330
BB4
102
}
330
1F
100
AcDbEntity
  8
実線
100
AcDbCircle
 10
1604.250948249218
 20
726.2757270755275
 30
0.0
 40
81.5
100
AcDbArc
 50
253.2411867673036
 51
270.5349103804842
  0
ARC
  5
98B
102
{ACAD_REACTORS
330
BB4
102
}
330
1F
100
AcDbEntity
  8
実線
100
AcDbCircle
 10
1604.250948249218
 20
726.2757270755275
 30
0.0
 40
81.5
100
AcDbArc
 50
20.26345096490692
 51
66.4985044503546
  0
LINE
  5
98C
102
{ACAD_REACTORS
330
BB4
102
}
330
1F
100
AcDbEntity
  8
実線
100
AcDbLine
 10
1636.750948249218
 20
801.0152748397468
 30
0.0
 11
1636.750948249218
 21
808.7757270755274
 31
0.0
  0
LINE
  5
98D
102
{ACAD_REACTORS
330
BB4
102
}
330
1F
100
AcDbEntity
  8
実線
100
AcDbLine
 10
1571.750948249218
 20
801.0152748397468
 30
0.0
 11
1571.750948249218
 21
808.7757270755274
 31
0.0
  0
LINE
  5
98E
102
{ACAD_REACTORS
330
BB4
102
}
330
1F
100
AcDbEntity
  8
実線
100
AcDbLine
 10
1636.750948249218
 20
808.7757270755274
 30
0.0
 11
1571.750948249218
 21
808.7757270755274
 31
0.0
  0
LINE
  5
98F
102
{ACAD_REACTORS
330
BB4
102
}
330
1F
100
AcDbEntity
  8
実線
100
AcDbLine
 10
1555.750948249218
 20
636.1757270755275
 30
0.0
 11
1555.750948249218
 21
651.3757270755275
 31
0.0
  0
LINE
  5
990
102
{ACAD_REACTORS
330
BB4
102
}
330
1F
100
AcDbEntity
  8
実線
100
AcDbLine
 10
1580.750948249218
 20
636.1757270755275
 30
0.0
 11
1580.750948249218
 21
651.3757270755275
 31
0.0
  0
LINE
  5
991
102
{ACAD_REACTORS
330
BB4
102
}
330
1F
100
AcDbEntity
  8
実線
100
AcDbLine
 10
1555.750948249218
 20
636.1757270755275
 30
0.0
 11
1580.750948249218
 21
636.1757270755275
 31
0.0
  0
LINE
  5
992
102
{ACAD_REACTORS
330
BB4
102
}
330
1F
100
AcDbEntity
  8
実線
100
AcDbLine
 10
1601.856577815642
 20
738.6757270755275
 30
0.0
 11
1555.750948249218
 21
738.6757270755275
 31
0.0
  0
LINE
  5
993
102
{ACAD_REACTORS
330
BB4
102
}
330
1F
100
AcDbEntity
  8
実線
100
AcDbLine
 10
1555.750948249218
 20
703.895446043541
 30
0.0
 11
1555.750948249218
 21
738.6757270755275
 31
0.0
  0
CIRCLE
  5
994
102
{ACAD_REACTORS
330
BB4
102
}
330
1F
100
AcDbEntity
  8
実線
100
AcDbCircle
 10
1658.250948249218
 20
696.1757270755274
 30
0.0
 40
62.5
  0
ELLIPSE
  5
995
102
{ACAD_REACTORS
330
BB3
102
}
330
1F
100
AcDbEntity
  8
実線
100
AcDbEllipse
 10
1004.950948249218
 20
768.9256389482392
 30
0.0
 11
6.0
 21
0.0
 31
0.0
210
0.0
220
0.0
230
1.0
 40
0.9396926207859085
 41
3.141592653589792
 42
4.71238898038469
  0
LINE
  5
996
102
{ACAD_REACTORS
330
BB3
102
}
330
1F
100
AcDbEntity
  8
実線
100
AcDbLine
 10
998.9509482492179
 20
768.9256389482392
 30
0.0
 11
998.9509482492179
 21
752.508672068607
 31
0.0
  0
LINE
  5
997
102
{ACAD_REACTORS
330
BB3
102
}
330
1F
100
AcDbEntity
  8
実線
100
AcDbLine
 10
1010.950948249218
 20
752.508672068607
 30
0.0
 11
1010.950948249218
 21
768.9256389482392
 31
0.0
  0
ELLIPSE
  5
998
102
{ACAD_REACTORS
330
BB3
102
}
330
1F
100
AcDbEntity
  8
実線
100
AcDbEllipse
 10
1004.950948249218
 20
768.9256389482392
 30
0.0
 11
6.0
 21
0.0
 31
0.0
210
0.0
220
0.0
230
1.0
 40
0.9396926207859085
 41
0.0
 42
3.141592653589792
  0
ELLIPSE
  5
999
102
{ACAD_REACTORS
330
BB3
102
}
330
1F
100
AcDbEntity
  8
実線
100
AcDbEllipse
 10
1004.950948249218
 20
768.9256389482392
 30
0.0
 11
6.0
 21
0.0
 31
0.0
210
0.0
220
0.0
230
1.0
 40
0.9396926207859085
 41
4.71238898038469
 42
6.283185307179584
  0
LINE
  5
99A
102
{ACAD_REACTORS
330
BB3
102
}
330
1F
100
AcDbEntity
  8
実線
100
AcDbLine
 10
955.9509482492179
 20
800.5298877421664
 30
0.0
 11
944.3509482492167
 21
800.5298877421664
 31
0.0
  0
LINE
  5
99B
102
{ACAD_REACTORS
330
BB3
102
}
330
1F
100
AcDbEntity
  8
実線
100
AcDbLine
 10
944.3509482492167
 20
800.5298877421664
 30
0.0
 11
944.3509482492167
 21
794.254674264335
 31
0.0
  0
LINE
  5
99C
102
{ACAD_REACTORS
330
BB3
102
}
330
1F
100
AcDbEntity
  8
実線
100
AcDbLine
 10
944.3509482492167
 20
798.7798877421663
 30
0.0
 11
938.450948249217
 21
798.7798877421663
 31
0.0
  0
LINE
  5
99D
102
{ACAD_REACTORS
330
BB3
102
}
330
1F
100
AcDbEntity
  8
実線
100
AcDbLine
 10
938.450948249217
 20
798.7798877421663
 30
0.0
 11
938.450948249217
 21
792.504674264335
 31
0.0
  0
LINE
  5
99E
102
{ACAD_REACTORS
330
BB3
102
}
330
1F
100
AcDbEntity
  8
実線
100
AcDbLine
 10
955.9509482492179
 20
741.5509405533589
 30
0.0
 11
944.3509482492167
 21
741.5509405533589
 31
0.0
  0
LINE
  5
99F
102
{ACAD_REACTORS
330
BB3
102
}
330
1F
100
AcDbEntity
  8
実線
100
AcDbLine
 10
944.3509482492167
 20
741.5509405533589
 30
0.0
 11
944.3509482492167
 21
729.000513597696
 31
0.0
  0
LINE
  5
9A0
102
{ACAD_REACTORS
330
BB3
102
}
330
1F
100
AcDbEntity
  8
実線
100
AcDbLine
 10
944.3509482492167
 20
776.2546742643349
 30
0.0
 11
955.9509482492179
 21
776.2546742643349
 31
0.0
  0
LINE
  5
9A1
102
{ACAD_REACTORS
330
BB3
102
}
330
1F
100
AcDbEntity
  8
実線
100
AcDbLine
 10
955.9509482492179
 20
794.254674264335
 30
0.0
 11
944.3509482492167
 21
794.254674264335
 31
0.0
  0
LINE
  5
9A2
102
{ACAD_REACTORS
330
BB3
102
}
330
1F
100
AcDbEntity
  8
実線
100
AcDbLine
 10
944.3509482492167
 20
794.254674264335
 30
0.0
 11
944.3509482492167
 21
776.2546742643349
 31
0.0
  0
LINE
  5
9A3
102
{ACAD_REACTORS
330
BB3
102
}
330
1F
100
AcDbEntity
  8
実線
100
AcDbLine
 10
944.3509482492167
 20
711.000513597696
 30
0.0
 11
955.9509482492179
 21
711.000513597696
 31
0.0
  0
LINE
  5
9A4
102
{ACAD_REACTORS
330
BB3
102
}
330
1F
100
AcDbEntity
  8
実線
100
AcDbLine
 10
955.9509482492179
 20
729.000513597696
 30
0.0
 11
944.3509482492167
 21
729.000513597696
 31
0.0
  0
LINE
  5
9A5
102
{ACAD_REACTORS
330
BB3
102
}
330
1F
100
AcDbEntity
  8
実線
100
AcDbLine
 10
944.3509482492167
 20
729.000513597696
 30
0.0
 11
944.3509482492167
 21
711.000513597696
 31
0.0
  0
LINE
  5
9A6
102
{ACAD_REACTORS
330
BB3
102
}
330
1F
100
AcDbEntity
  8
実線
100
AcDbLine
 10
944.3509482492167
 20
652.0215664088886
 30
0.0
 11
955.9509482492179
 21
652.0215664088886
 31
0.0
  0
LINE
  5
9A7
102
{ACAD_REACTORS
330
BB3
102
}
330
1F
100
AcDbEntity
  8
実線
100
AcDbLine
 10
955.9509482492179
 20
670.0215664088886
 30
0.0
 11
944.3509482492167
 21
670.0215664088886
 31
0.0
  0
LINE
  5
9A8
102
{ACAD_REACTORS
330
BB3
102
}
330
1F
100
AcDbEntity
  8
実線
100
AcDbLine
 10
944.3509482492167
 20
670.0215664088886
 30
0.0
 11
944.3509482492167
 21
652.0215664088886
 31
0.0
  0
LINE
  5
9A9
102
{ACAD_REACTORS
330
BB3
102
}
330
1F
100
AcDbEntity
  8
実線
100
AcDbLine
 10
955.9509482492179
 20
676.2967798867201
 30
0.0
 11
944.3509482492167
 21
676.2967798867201
 31
0.0
  0
LINE
  5
9AA
102
{ACAD_REACTORS
330
BB3
102
}
330
1F
100
AcDbEntity
  8
実線
100
AcDbLine
 10
944.3509482492167
 20
676.2967798867201
 30
0.0
 11
944.3509482492167
 21
670.0215664088886
 31
0.0
  0
LINE
  5
9AB
102
{ACAD_REACTORS
330
BB3
102
}
330
1F
100
AcDbEntity
  8
実線
100
AcDbLine
 10
944.3509482492167
 20
739.8009405533588
 30
0.0
 11
938.450948249217
 21
739.8009405533588
 31
0.0
  0
LINE
  5
9AC
102
{ACAD_REACTORS
330
BB3
102
}
330
1F
100
AcDbEntity
  8
実線
100
AcDbLine
 10
938.450948249217
 20
739.8009405533588
 30
0.0
 11
938.450948249217
 21
727.250513597696
 31
0.0
  0
LINE
  5
9AD
102
{ACAD_REACTORS
330
BB3
102
}
330
1F
100
AcDbEntity
  8
実線
100
AcDbLine
 10
938.450948249217
 20
778.0046742643349
 30
0.0
 11
944.3509482492167
 21
778.0046742643349
 31
0.0
  0
LINE
  5
9AE
102
{ACAD_REACTORS
330
BB3
102
}
330
1F
100
AcDbEntity
  8
実線
100
AcDbLine
 10
944.3509482492167
 20
792.504674264335
 30
0.0
 11
938.450948249217
 21
792.504674264335
 31
0.0
  0
LINE
  5
9AF
102
{ACAD_REACTORS
330
BB3
102
}
330
1F
100
AcDbEntity
  8
実線
100
AcDbLine
 10
938.450948249217
 20
792.504674264335
 30
0.0
 11
938.450948249217
 21
778.0046742643349
 31
0.0
  0
LINE
  5
9B0
102
{ACAD_REACTORS
330
BB3
102
}
330
1F
100
AcDbEntity
  8
実線
100
AcDbLine
 10
938.450948249217
 20
653.7715664088888
 30
0.0
 11
944.3509482492167
 21
653.7715664088888
 31
0.0
  0
LINE
  5
9B1
102
{ACAD_REACTORS
330
BB3
102
}
330
1F
100
AcDbEntity
  8
実線
100
AcDbLine
 10
944.3509482492167
 20
668.2715664088888
 30
0.0
 11
938.450948249217
 21
668.2715664088888
 31
0.0
  0
LINE
  5
9B2
102
{ACAD_REACTORS
330
BB3
102
}
330
1F
100
AcDbEntity
  8
実線
100
AcDbLine
 10
938.450948249217
 20
668.2715664088888
 30
0.0
 11
938.450948249217
 21
653.7715664088888
 31
0.0
  0
LINE
  5
9B3
102
{ACAD_REACTORS
330
BB3
102
}
330
1F
100
AcDbEntity
  8
実線
100
AcDbLine
 10
938.450948249217
 20
712.750513597696
 30
0.0
 11
944.3509482492167
 21
712.750513597696
 31
0.0
  0
LINE
  5
9B4
102
{ACAD_REACTORS
330
BB3
102
}
330
1F
100
AcDbEntity
  8
実線
100
AcDbLine
 10
944.3509482492167
 20
727.250513597696
 30
0.0
 11
938.450948249217
 21
727.250513597696
 31
0.0
  0
LINE
  5
9B5
102
{ACAD_REACTORS
330
BB3
102
}
330
1F
100
AcDbEntity
  8
実線
100
AcDbLine
 10
938.450948249217
 20
727.250513597696
 30
0.0
 11
938.450948249217
 21
712.750513597696
 31
0.0
  0
LINE
  5
9B6
102
{ACAD_REACTORS
330
BB3
102
}
330
1F
100
AcDbEntity
  8
実線
100
AcDbLine
 10
944.3509482492167
 20
674.5467798867202
 30
0.0
 11
938.450948249217
 21
674.5467798867202
 31
0.0
  0
LINE
  5
9B7
102
{ACAD_REACTORS
330
BB3
102
}
330
1F
100
AcDbEntity
  8
実線
100
AcDbLine
 10
938.450948249217
 20
674.5467798867202
 30
0.0
 11
938.450948249217
 21
668.2715664088888
 31
0.0
  0
LINE
  5
9B8
102
{ACAD_REACTORS
330
BB3
102
}
330
1F
100
AcDbEntity
  8
実線
100
AcDbLine
 10
1031.250948249218
 20
783.0033438067104
 30
0.0
 11
1031.250948249218
 21
699.9955337045009
 31
0.0
  0
LINE
  5
9B9
102
{ACAD_REACTORS
330
BB3
102
}
330
1F
100
AcDbEntity
  8
実線
100
AcDbLine
 10
1012.850948249218
 20
786.4257270755275
 30
0.0
 11
987.950948249218
 21
786.4257270755275
 31
0.0
  0
LINE
  5
9BA
102
{ACAD_REACTORS
330
BB3
102
}
330
1F
100
AcDbEntity
  8
実線
100
AcDbLine
 10
987.950948249218
 20
666.1257270755278
 30
0.0
 11
1004.250948249218
 21
666.1257270755278
 31
0.0
  0
LINE
  5
9BB
102
{ACAD_REACTORS
330
BB3
102
}
330
1F
100
AcDbEntity
  8
実線
100
AcDbLine
 10
1089.750948249218
 20
752.6788926675832
 30
0.0
 11
1089.750948249218
 21
639.6725614834715
 31
0.0
  0
LINE
  5
9BC
102
{ACAD_REACTORS
330
BB3
102
}
330
1F
100
AcDbEntity
  8
実線
100
AcDbLine
 10
1074.750948249218
 20
703.2557190691211
 30
0.0
 11
1074.750948249218
 21
752.6788926675832
 31
0.0
  0
LINE
  5
9BD
102
{ACAD_REACTORS
330
BB3
102
}
330
1F
100
AcDbEntity
  8
実線
100
AcDbLine
 10
1074.750948249218
 20
639.6725614834715
 30
0.0
 11
1089.750948249218
 21
639.6725614834715
 31
0.0
  0
LINE
  5
9BE
102
{ACAD_REACTORS
330
BB3
102
}
330
1F
100
AcDbEntity
  8
実線
100
AcDbLine
 10
1074.750948249218
 20
639.6725614834715
 30
0.0
 11
1074.750948249218
 21
653.2957350819339
 31
0.0
  0
LINE
  5
9BF
102
{ACAD_REACTORS
330
BB3
102
}
330
1F
100
AcDbEntity
  8
実線
100
AcDbLine
 10
1089.750948249218
 20
752.6788926675832
 30
0.0
 11
1074.750948249218
 21
752.6788926675832
 31
0.0
  0
LINE
  5
9C0
102
{ACAD_REACTORS
330
BB3
102
}
330
1F
100
AcDbEntity
  8
実線
100
AcDbLine
 10
1074.750948249218
 20
718.5539703626703
 30
0.0
 11
1089.750948249218
 21
718.5539703626703
 31
0.0
  0
LINE
  5
9C1
102
{ACAD_REACTORS
330
BB3
102
}
330
1F
100
AcDbEntity
  8
実線
100
AcDbLine
 10
1086.43604469946
 20
673.7974837883844
 30
0.0
 11
1089.750948249218
 21
673.7974837883844
 31
0.0
  0
CIRCLE
  5
9C2
102
{ACAD_REACTORS
330
BB3
102
}
330
1F
100
AcDbEntity
  8
実線
100
AcDbCircle
 10
1054.750948249218
 20
678.2757270755275
 30
0.0
 40
32.0
  0
ARC
  5
9C3
102
{ACAD_REACTORS
330
BB3
102
}
330
1F
100
AcDbEntity
  8
実線
100
AcDbCircle
 10
1004.250948249218
 20
696.1757270755274
 30
0.0
 40
32.0
100
AcDbArc
 50
249.8947068817062
 51
270.0
  0
LINE
  5
9C4
102
{ACAD_REACTORS
330
BB3
102
}
330
1F
100
AcDbEntity
  8
実線
100
AcDbLine
 10
1052.850948249218
 20
789.1757270755276
 30
0.0
 11
1012.850948249218
 21
789.1757270755276
 31
0.0
  0
LINE
  5
9C5
102
{ACAD_REACTORS
330
BB3
102
}
330
1F
100
AcDbEntity
  8
実線
100
AcDbLine
 10
1012.850948249218
 20
783.0033438067104
 30
0.0
 11
1012.850948249218
 21
789.1757270755276
 31
0.0
  0
LINE
  5
9C6
102
{ACAD_REACTORS
330
BB3
102
}
330
1F
100
AcDbEntity
  8
実線
100
AcDbLine
 10
1052.850948249218
 20
738.6757270755275
 30
0.0
 11
1052.850948249218
 21
789.1757270755276
 31
0.0
  0
LINE
  5
9C7
102
{ACAD_REACTORS
330
BB3
102
}
330
1F
100
AcDbEntity
  8
実線
100
AcDbLine
 10
1189.150948249218
 20
633.6757270755274
 30
0.0
 11
1281.150948249218
 21
633.6757270755274
 31
0.0
  0
LINE
  5
9C8
102
{ACAD_REACTORS
330
BB3
102
}
330
1F
100
AcDbEntity
  8
実線
100
AcDbLine
 10
1281.150948249218
 20
758.6757270755275
 30
0.0
 11
1189.150948249218
 21
758.6757270755275
 31
0.0
  0
LINE
  5
9C9
102
{ACAD_REACTORS
330
BB3
102
}
330
1F
100
AcDbEntity
  8
実線
100
AcDbLine
 10
1189.150948249218
 20
758.6757270755275
 30
0.0
 11
1189.150948249218
 21
633.6757270755274
 31
0.0
  0
LINE
  5
9CA
102
{ACAD_REACTORS
330
BB3
102
}
330
1F
100
AcDbEntity
  8
実線
100
AcDbLine
 10
1103.250948249218
 20
639.6725614834715
 30
0.0
 11
1103.250948249218
 21
752.6788926675832
 31
0.0
  0
LINE
  5
9CB
102
{ACAD_REACTORS
330
BB3
102
}
330
1F
100
AcDbEntity
  8
実線
100
AcDbLine
 10
1103.250948249218
 20
752.6788926675832
 30
0.0
 11
1089.750948249218
 21
752.6788926675832
 31
0.0
  0
LINE
  5
9CC
102
{ACAD_REACTORS
330
BB3
102
}
330
1F
100
AcDbEntity
  8
実線
100
AcDbLine
 10
1089.750948249218
 20
639.6725614834715
 30
0.0
 11
1103.250948249218
 21
639.6725614834715
 31
0.0
  0
LINE
  5
9CD
102
{ACAD_REACTORS
330
BB3
102
}
330
1F
100
AcDbEntity
  8
実線
100
AcDbLine
 10
1103.250948249218
 20
673.7974837883844
 30
0.0
 11
1089.750948249218
 21
673.7974837883844
 31
0.0
  0
LINE
  5
9CE
102
{ACAD_REACTORS
330
BB3
102
}
330
1F
100
AcDbEntity
  8
実線
100
AcDbLine
 10
1103.250948249218
 20
718.5539703626703
 30
0.0
 11
1089.750948249218
 21
718.5539703626703
 31
0.0
  0
LINE
  5
9CF
102
{ACAD_REACTORS
330
BB3
102
}
330
1F
100
AcDbEntity
  8
実線
100
AcDbLine
 10
1297.150948249218
 20
742.1757270755274
 30
0.0
 11
1297.150948249218
 21
650.1757270755274
 31
0.0
  0
LINE
  5
9D0
102
{ACAD_REACTORS
330
BB3
102
}
330
1F
100
AcDbEntity
  8
実線
100
AcDbLine
 10
1285.650948249218
 20
650.1757270755274
 30
0.0
 11
1297.150948249218
 21
650.1757270755274
 31
0.0
  0
LINE
  5
9D1
102
{ACAD_REACTORS
330
BB3
102
}
330
1F
100
AcDbEntity
  8
実線
100
AcDbLine
 10
1297.150948249218
 20
742.1757270755274
 30
0.0
 11
1285.650948249218
 21
742.1757270755274
 31
0.0
  0
LINE
  5
9D2
102
{ACAD_REACTORS
330
BB3
102
}
330
1F
100
AcDbEntity
  8
実線
100
AcDbLine
 10
1297.150948249218
 20
680.6757270755274
 30
0.0
 11
1304.150948249218
 21
680.6757270755274
 31
0.0
  0
LINE
  5
9D3
102
{ACAD_REACTORS
330
BB3
102
}
330
1F
100
AcDbEntity
  8
実線
100
AcDbLine
 10
1304.150948249218
 20
711.6757270755275
 30
0.0
 11
1297.150948249218
 21
711.6757270755275
 31
0.0
  0
LINE
  5
9D4
102
{ACAD_REACTORS
330
BB3
102
}
330
1F
100
AcDbEntity
  8
実線
100
AcDbLine
 10
1343.850948249217
 20
739.4757270755276
 30
0.0
 11
1343.850948249217
 21
652.8757270755273
 31
0.0
  0
LINE
  5
9D5
102
{ACAD_REACTORS
330
BB3
102
}
330
1F
100
AcDbEntity
  8
実線
100
AcDbLine
 10
1307.850948249218
 20
652.8757270755273
 30
0.0
 11
1343.850948249217
 21
652.8757270755273
 31
0.0
  0
LINE
  5
9D6
102
{ACAD_REACTORS
330
BB3
102
}
330
1F
100
AcDbEntity
  8
実線
100
AcDbLine
 10
1343.850948249217
 20
739.4757270755276
 30
0.0
 11
1307.850948249218
 21
739.4757270755276
 31
0.0
  0
LINE
  5
9D7
102
{ACAD_REACTORS
330
BB3
102
}
330
1F
100
AcDbEntity
  8
実線
100
AcDbLine
 10
1307.850948249218
 20
739.4757270755276
 30
0.0
 11
1307.850948249218
 21
652.8757270755273
 31
0.0
  0
LINE
  5
9D8
102
{ACAD_REACTORS
330
BB3
102
}
330
1F
100
AcDbEntity
  8
実線
100
AcDbLine
 10
1430.050948249218
 20
712.6757270755275
 30
0.0
 11
1430.050948249218
 21
679.6757270755274
 31
0.0
  0
LINE
  5
9D9
102
{ACAD_REACTORS
330
BB3
102
}
330
1F
100
AcDbEntity
  8
実線
100
AcDbLine
 10
1430.050948249218
 20
712.6757270755275
 30
0.0
 11
1420.850948249218
 21
738.6757270755275
 31
0.0
  0
LINE
  5
9DA
102
{ACAD_REACTORS
330
BB3
102
}
330
1F
100
AcDbEntity
  8
実線
100
AcDbLine
 10
1420.850948249218
 20
653.6757270755274
 30
0.0
 11
1430.050948249218
 21
679.6757270755274
 31
0.0
  0
LINE
  5
9DB
102
{ACAD_REACTORS
330
BB3
102
}
330
1F
100
AcDbEntity
  8
実線
100
AcDbLine
 10
1420.850948249218
 20
738.6757270755275
 30
0.0
 11
1420.850948249218
 21
653.6757270755274
 31
0.0
  0
LINE
  5
9DC
102
{ACAD_REACTORS
330
BB3
102
}
330
1F
100
AcDbEntity
  8
実線
100
AcDbLine
 10
1343.850948249217
 20
653.6757270755274
 30
0.0
 11
1420.850948249218
 21
653.6757270755274
 31
0.0
  0
LINE
  5
9DD
102
{ACAD_REACTORS
330
BB3
102
}
330
1F
100
AcDbEntity
  8
実線
100
AcDbLine
 10
1420.850948249218
 20
738.6757270755275
 30
0.0
 11
1343.850948249217
 21
738.6757270755275
 31
0.0
  0
LINE
  5
9DE
102
{ACAD_REACTORS
330
BB3
102
}
330
1F
100
AcDbEntity
  8
実線
100
AcDbLine
 10
1307.850948249218
 20
739.4757270755276
 30
0.0
 11
1304.150948249218
 21
740.1757270755275
 31
0.0
  0
LINE
  5
9DF
102
{ACAD_REACTORS
330
BB3
102
}
330
1F
100
AcDbEntity
  8
実線
100
AcDbLine
 10
1304.150948249218
 20
652.1757270755274
 30
0.0
 11
1307.850948249218
 21
652.8757270755273
 31
0.0
  0
LINE
  5
9E0
102
{ACAD_REACTORS
330
BB3
102
}
330
1F
100
AcDbEntity
  8
実線
100
AcDbLine
 10
1304.150948249218
 20
740.1757270755275
 30
0.0
 11
1304.150948249218
 21
652.1757270755274
 31
0.0
  0
LINE
  5
9E1
102
{ACAD_REACTORS
330
BB3
102
}
330
1F
100
AcDbEntity
  8
実線
100
AcDbLine
 10
1135.750948249217
 20
682.6757270755274
 30
0.0
 11
1135.750948249217
 21
646.1757270755274
 31
0.0
  0
LINE
  5
9E2
102
{ACAD_REACTORS
330
BB3
102
}
330
1F
100
AcDbEntity
  8
実線
100
AcDbLine
 10
1135.750948249217
 20
646.1757270755274
 30
0.0
 11
1189.150948249218
 21
646.1757270755274
 31
0.0
  0
LINE
  5
9E3
102
{ACAD_REACTORS
330
BB3
102
}
330
1F
100
AcDbEntity
  8
実線
100
AcDbLine
 10
1189.150948249218
 20
746.1757270755275
 30
0.0
 11
1135.750948249217
 21
746.1757270755275
 31
0.0
  0
LINE
  5
9E4
102
{ACAD_REACTORS
330
BB3
102
}
330
1F
100
AcDbEntity
  8
実線
100
AcDbLine
 10
1135.750948249217
 20
746.1757270755275
 30
0.0
 11
1135.750948249217
 21
709.6757270755276
 31
0.0
  0
LINE
  5
9E5
102
{ACAD_REACTORS
330
BB3
102
}
330
1F
100
AcDbEntity
  8
実線
100
AcDbLine
 10
1189.150948249218
 20
682.6757270755274
 30
0.0
 11
1103.250948249218
 21
682.6757270755274
 31
0.0
  0
LINE
  5
9E6
102
{ACAD_REACTORS
330
BB3
102
}
330
1F
100
AcDbEntity
  8
実線
100
AcDbLine
 10
1189.150948249218
 20
709.6757270755276
 30
0.0
 11
1103.250948249218
 21
709.6757270755276
 31
0.0
  0
LINE
  5
9E7
102
{ACAD_REACTORS
330
BB3
102
}
330
1F
100
AcDbEntity
  8
実線
100
AcDbLine
 10
989.450948249218
 20
728.5845175030036
 30
0.0
 11
989.450948249218
 21
733.2017894379005
 31
0.0
  0
LINE
  5
9E8
102
{ACAD_REACTORS
330
BB3
102
}
330
1F
100
AcDbEntity
  8
実線
100
AcDbLine
 10
989.450948249218
 20
733.2017894379005
 30
0.0
 11
1017.950948249218
 21
733.2017894379005
 31
0.0
  0
LINE
  5
9E9
102
{ACAD_REACTORS
330
BB3
102
}
330
1F
100
AcDbEntity
  8
実線
100
AcDbLine
 10
1017.950948249218
 20
733.2017894379005
 30
0.0
 11
1017.950948249218
 21
771.3025244843249
 31
0.0
  0
LINE
  5
9EA
102
{ACAD_REACTORS
330
BB3
102
}
330
1F
100
AcDbEntity
  8
実線
100
AcDbLine
 10
987.950948249218
 20
728.5845175030036
 30
0.0
 11
989.450948249218
 21
728.5845175030036
 31
0.0
  0
LINE
  5
9EB
102
{ACAD_REACTORS
330
BB3
102
}
330
1F
100
AcDbEntity
  8
実線
100
AcDbLine
 10
987.950948249218
 20
733.7148196528887
 30
0.0
 11
1017.950948249218
 21
733.7148196528887
 31
0.0
  0
LINE
  5
9EC
102
{ACAD_REACTORS
330
BB3
102
}
330
1F
100
AcDbEntity
  8
実線
100
AcDbLine
 10
1010.391719350106
 20
771.3025244843249
 30
0.0
 11
1017.950948249218
 21
771.3025244843249
 31
0.0
  0
LINE
  5
9ED
102
{ACAD_REACTORS
330
BB3
102
}
330
1F
100
AcDbEntity
  8
実線
100
AcDbLine
 10
987.950948249218
 20
771.3025244843249
 30
0.0
 11
999.51017714833
 21
771.3025244843249
 31
0.0
  0
LINE
  5
9EE
102
{ACAD_REACTORS
330
BB3
102
}
330
1F
100
AcDbEntity
  8
実線
100
AcDbLine
 10
975.9509482492179
 20
807.7757270755274
 30
0.0
 11
955.9509482492179
 21
807.7757270755274
 31
0.0
  0
LINE
  5
9EF
102
{ACAD_REACTORS
330
BB3
102
}
330
1F
100
AcDbEntity
  8
実線
100
AcDbLine
 10
955.9509482492179
 20
644.7757270755275
 30
0.0
 11
975.9509482492179
 21
644.7757270755275
 31
0.0
  0
LINE
  5
9F0
102
{ACAD_REACTORS
330
BB3
102
}
330
1F
100
AcDbEntity
  8
実線
100
AcDbLine
 10
955.9509482492179
 20
807.7757270755274
 30
0.0
 11
955.9509482492179
 21
644.7757270755275
 31
0.0
  0
LINE
  5
9F1
102
{ACAD_REACTORS
330
BB3
102
}
330
1F
100
AcDbEntity
  8
実線
100
AcDbLine
 10
975.9509482492179
 20
808.7757270755274
 30
0.0
 11
975.9509482492179
 21
644.7757270755275
 31
0.0
  0
LINE
  5
9F2
102
{ACAD_REACTORS
330
BB3
102
}
330
1F
100
AcDbEntity
  8
実線
100
AcDbLine
 10
987.950948249218
 20
808.7757270755274
 30
0.0
 11
987.950948249218
 21
644.7757270755275
 31
0.0
  0
LINE
  5
9F3
102
{ACAD_REACTORS
330
BB3
102
}
330
1F
100
AcDbEntity
  8
実線
100
AcDbLine
 10
987.950948249218
 20
808.7757270755274
 30
0.0
 11
975.9509482492179
 21
808.7757270755274
 31
0.0
  0
LINE
  5
9F4
102
{ACAD_REACTORS
330
BB3
102
}
330
1F
100
AcDbEntity
  8
実線
100
AcDbLine
 10
975.9509482492179
 20
801.0152748397469
 30
0.0
 11
987.950948249218
 21
801.0152748397469
 31
0.0
  0
LINE
  5
9F5
102
{ACAD_REACTORS
330
BB3
102
}
330
1F
100
AcDbEntity
  8
実線
100
AcDbLine
 10
975.9509482492179
 20
644.7757270755275
 30
0.0
 11
987.950948249218
 21
644.7757270755275
 31
0.0
  0
LINE
  5
9F6
102
{ACAD_REACTORS
330
BB3
102
}
330
1F
100
AcDbEntity
  8
実線
100
AcDbLine
 10
1044.250948249218
 20
636.1757270755276
 30
0.0
 11
1044.250948249218
 21
648.0474290751438
 31
0.0
  0
LINE
  5
9F7
102
{ACAD_REACTORS
330
BB3
102
}
330
1F
100
AcDbEntity
  8
実線
100
AcDbLine
 10
1004.250948249218
 20
636.1757270755276
 30
0.0
 11
1004.250948249218
 21
690.698030410341
 31
0.0
  0
LINE
  5
9F8
102
{ACAD_REACTORS
330
BB3
102
}
330
1F
100
AcDbEntity
  8
実線
100
AcDbLine
 10
1004.250948249218
 20
636.1757270755276
 30
0.0
 11
1044.250948249218
 21
636.1757270755276
 31
0.0
  0
LINE
  5
9F9
102
{ACAD_REACTORS
330
BB3
102
}
330
1F
100
AcDbEntity
  8
実線
100
AcDbLine
 10
1062.950948249218
 20
709.2072643797095
 30
0.0
 11
1062.950948249218
 21
738.6757270755275
 31
0.0
  0
LINE
  5
9FA
102
{ACAD_REACTORS
330
BB3
102
}
330
1F
100
AcDbEntity
  8
実線
100
AcDbLine
 10
1062.950948249218
 20
738.6757270755275
 30
0.0
 11
1031.250948249218
 21
738.6757270755275
 31
0.0
  0
LINE
  5
9FB
102
{ACAD_REACTORS
330
BB3
102
}
330
1F
100
AcDbEntity
  8
実線
100
AcDbLine
 10
1065.402769338515
 20
648.1005931490377
 30
0.0
 11
1069.750948249218
 21
647.1757270755274
 31
0.0
  0
LINE
  5
9FC
102
{ACAD_REACTORS
330
BB3
102
}
330
1F
100
AcDbEntity
  8
実線
100
AcDbLine
 10
1069.750948249218
 20
745.1757270755275
 30
0.0
 11
1052.850948249218
 21
741.5810643527378
 31
0.0
  0
LINE
  5
9FD
102
{ACAD_REACTORS
330
BB3
102
}
330
1F
100
AcDbEntity
  8
実線
100
AcDbLine
 10
1069.750948249218
 20
647.1757270755274
 30
0.0
 11
1074.750948249218
 21
647.1757270755274
 31
0.0
  0
LINE
  5
9FE
102
{ACAD_REACTORS
330
BB3
102
}
330
1F
100
AcDbEntity
  8
実線
100
AcDbLine
 10
1074.750948249218
 20
745.1757270755275
 30
0.0
 11
1069.750948249218
 21
745.1757270755275
 31
0.0
  0
LINE
  5
9FF
102
{ACAD_REACTORS
330
BB3
102
}
330
1F
100
AcDbEntity
  8
実線
100
AcDbLine
 10
1069.750948249218
 20
650.0091390253224
 30
0.0
 11
1069.750948249218
 21
647.1757270755274
 31
0.0
  0
LINE
  5
A00
102
{ACAD_REACTORS
330
BB3
102
}
330
1F
100
AcDbEntity
  8
実線
100
AcDbLine
 10
1069.750948249218
 20
745.1757270755275
 30
0.0
 11
1069.750948249218
 21
706.5423151257327
 31
0.0
  0
LINE
  5
A01
102
{ACAD_REACTORS
330
BB3
102
}
330
1F
100
AcDbEntity
  8
実線
100
AcDbLine
 10
1285.650948249218
 20
636.6757270755274
 30
0.0
 11
1285.650948249218
 21
755.6757270755276
 31
0.0
  0
ARC
  5
A02
102
{ACAD_REACTORS
330
BB3
102
}
330
1F
100
AcDbEntity
  8
実線
100
AcDbCircle
 10
1282.650948249218
 20
636.6757270755274
 30
0.0
 40
3.0
100
AcDbArc
 50
270.0
 51
0.0
  0
ARC
  5
A03
102
{ACAD_REACTORS
330
BB3
102
}
330
1F
100
AcDbEntity
  8
実線
100
AcDbCircle
 10
1282.650948249218
 20
755.6757270755276
 30
0.0
 40
3.0
100
AcDbArc
 50
0.0
 51
90.0
  0
LINE
  5
A04
102
{ACAD_REACTORS
330
BB3
102
}
330
1F
100
AcDbEntity
  8
実線
100
AcDbLine
 10
1281.150948249218
 20
633.6757270755274
 30
0.0
 11
1281.150948249218
 21
758.6757270755275
 31
0.0
  0
LINE
  5
A05
102
{ACAD_REACTORS
330
BB3
102
}
330
1F
100
AcDbEntity
  8
実線
100
AcDbLine
 10
1281.150948249218
 20
633.6757270755274
 30
0.0
 11
1282.650948249218
 21
633.6757270755274
 31
0.0
  0
LINE
  5
A06
102
{ACAD_REACTORS
330
BB3
102
}
330
1F
100
AcDbEntity
  8
実線
100
AcDbLine
 10
1282.650948249218
 20
758.6757270755275
 30
0.0
 11
1281.150948249218
 21
758.6757270755275
 31
0.0
  0
LINE
  5
A07
102
{ACAD_REACTORS
330
BB1
102
}
330
1F
100
AcDbEntity
  8
実線
100
AcDbLine
 10
530.1509482492186
 20
800.5298877421664
 30
0.0
 11
530.1509482492186
 21
782.5298877421665
 31
0.0
  0
LINE
  5
A08
102
{ACAD_REACTORS
330
BB1
102
}
330
1F
100
AcDbEntity
  8
実線
100
AcDbLine
 10
530.1509482492186
 20
800.5298877421664
 30
0.0
 11
518.5509482492185
 21
800.5298877421664
 31
0.0
  0
LINE
  5
A09
102
{ACAD_REACTORS
330
BB1
102
}
330
1F
100
AcDbEntity
  8
実線
100
AcDbLine
 10
518.5509482492185
 20
782.5298877421665
 30
0.0
 11
530.1509482492186
 21
782.5298877421665
 31
0.0
  0
LINE
  5
A0A
102
{ACAD_REACTORS
330
BB1
102
}
330
1F
100
AcDbEntity
  8
実線
100
AcDbLine
 10
536.0509482492187
 20
798.7798877421664
 30
0.0
 11
536.0509482492187
 21
784.2798877421665
 31
0.0
  0
LINE
  5
A0B
102
{ACAD_REACTORS
330
BB1
102
}
330
1F
100
AcDbEntity
  8
実線
100
AcDbLine
 10
536.0509482492187
 20
798.7798877421664
 30
0.0
 11
530.1509482492186
 21
798.7798877421664
 31
0.0
  0
LINE
  5
A0C
102
{ACAD_REACTORS
330
BB1
102
}
330
1F
100
AcDbEntity
  8
実線
100
AcDbLine
 10
530.1509482492186
 20
784.2798877421665
 30
0.0
 11
536.0509482492187
 21
784.2798877421665
 31
0.0
  0
LINE
  5
A0D
102
{ACAD_REACTORS
330
BB1
102
}
330
1F
100
AcDbEntity
  8
実線
100
AcDbLine
 10
530.1509482492186
 20
741.550940553359
 30
0.0
 11
530.1509482492186
 21
723.5509405533591
 31
0.0
  0
LINE
  5
A0E
102
{ACAD_REACTORS
330
BB1
102
}
330
1F
100
AcDbEntity
  8
実線
100
AcDbLine
 10
530.1509482492186
 20
741.550940553359
 30
0.0
 11
518.5509482492185
 21
741.550940553359
 31
0.0
  0
LINE
  5
A0F
102
{ACAD_REACTORS
330
BB1
102
}
330
1F
100
AcDbEntity
  8
実線
100
AcDbLine
 10
518.5509482492185
 20
723.5509405533591
 30
0.0
 11
530.1509482492186
 21
723.5509405533591
 31
0.0
  0
LINE
  5
A10
102
{ACAD_REACTORS
330
BB1
102
}
330
1F
100
AcDbEntity
  8
実線
100
AcDbLine
 10
518.5509482492185
 20
776.2546742643348
 30
0.0
 11
530.1509482492186
 21
776.2546742643348
 31
0.0
  0
LINE
  5
A11
102
{ACAD_REACTORS
330
BB1
102
}
330
1F
100
AcDbEntity
  8
実線
100
AcDbLine
 10
530.1509482492186
 20
776.2546742643348
 30
0.0
 11
530.1509482492186
 21
782.5298877421665
 31
0.0
  0
LINE
  5
A12
102
{ACAD_REACTORS
330
BB1
102
}
330
1F
100
AcDbEntity
  8
実線
100
AcDbLine
 10
530.1509482492186
 20
723.5509405533591
 30
0.0
 11
530.1509482492186
 21
711.0005135976961
 31
0.0
  0
LINE
  5
A13
102
{ACAD_REACTORS
330
BB1
102
}
330
1F
100
AcDbEntity
  8
実線
100
AcDbLine
 10
518.5509482492185
 20
711.0005135976961
 30
0.0
 11
530.1509482492186
 21
711.0005135976961
 31
0.0
  0
LINE
  5
A14
102
{ACAD_REACTORS
330
BB1
102
}
330
1F
100
AcDbEntity
  8
実線
100
AcDbLine
 10
518.5509482492185
 20
652.0215664088888
 30
0.0
 11
530.1509482492186
 21
652.0215664088888
 31
0.0
  0
LINE
  5
A15
102
{ACAD_REACTORS
330
BB1
102
}
330
1F
100
AcDbEntity
  8
実線
100
AcDbLine
 10
530.1509482492186
 20
652.0215664088888
 30
0.0
 11
530.1509482492186
 21
658.2967798867201
 31
0.0
  0
LINE
  5
A16
102
{ACAD_REACTORS
330
BB1
102
}
330
1F
100
AcDbEntity
  8
実線
100
AcDbLine
 10
530.1509482492186
 20
676.2967798867201
 30
0.0
 11
530.1509482492186
 21
658.2967798867201
 31
0.0
  0
LINE
  5
A17
102
{ACAD_REACTORS
330
BB1
102
}
330
1F
100
AcDbEntity
  8
実線
100
AcDbLine
 10
530.1509482492186
 20
676.2967798867201
 30
0.0
 11
518.5509482492185
 21
676.2967798867201
 31
0.0
  0
LINE
  5
A18
102
{ACAD_REACTORS
330
BB1
102
}
330
1F
100
AcDbEntity
  8
実線
100
AcDbLine
 10
518.5509482492185
 20
658.2967798867201
 30
0.0
 11
530.1509482492186
 21
658.2967798867201
 31
0.0
  0
LINE
  5
A19
102
{ACAD_REACTORS
330
BB1
102
}
330
1F
100
AcDbEntity
  8
実線
100
AcDbLine
 10
536.0509482492187
 20
739.8009405533587
 30
0.0
 11
536.0509482492187
 21
725.3009405533587
 31
0.0
  0
LINE
  5
A1A
102
{ACAD_REACTORS
330
BB1
102
}
330
1F
100
AcDbEntity
  8
実線
100
AcDbLine
 10
536.0509482492187
 20
739.8009405533587
 30
0.0
 11
530.1509482492186
 21
739.8009405533587
 31
0.0
  0
LINE
  5
A1B
102
{ACAD_REACTORS
330
BB1
102
}
330
1F
100
AcDbEntity
  8
実線
100
AcDbLine
 10
530.1509482492186
 20
725.3009405533587
 30
0.0
 11
536.0509482492187
 21
725.3009405533587
 31
0.0
  0
LINE
  5
A1C
102
{ACAD_REACTORS
330
BB1
102
}
330
1F
100
AcDbEntity
  8
実線
100
AcDbLine
 10
530.1509482492186
 20
778.0046742643349
 30
0.0
 11
536.0509482492187
 21
778.0046742643349
 31
0.0
  0
LINE
  5
A1D
102
{ACAD_REACTORS
330
BB1
102
}
330
1F
100
AcDbEntity
  8
実線
100
AcDbLine
 10
536.0509482492187
 20
778.0046742643349
 30
0.0
 11
536.0509482492187
 21
784.2798877421665
 31
0.0
  0
LINE
  5
A1E
102
{ACAD_REACTORS
330
BB1
102
}
330
1F
100
AcDbEntity
  8
実線
100
AcDbLine
 10
530.1509482492186
 20
653.7715664088888
 30
0.0
 11
536.0509482492187
 21
653.7715664088888
 31
0.0
  0
LINE
  5
A1F
102
{ACAD_REACTORS
330
BB1
102
}
330
1F
100
AcDbEntity
  8
実線
100
AcDbLine
 10
536.0509482492187
 20
653.7715664088888
 30
0.0
 11
536.0509482492187
 21
660.0467798867201
 31
0.0
  0
LINE
  5
A20
102
{ACAD_REACTORS
330
BB1
102
}
330
1F
100
AcDbEntity
  8
実線
100
AcDbLine
 10
536.0509482492187
 20
725.3009405533587
 30
0.0
 11
536.0509482492187
 21
712.7505135976961
 31
0.0
  0
LINE
  5
A21
102
{ACAD_REACTORS
330
BB1
102
}
330
1F
100
AcDbEntity
  8
実線
100
AcDbLine
 10
530.1509482492186
 20
712.7505135976961
 30
0.0
 11
536.0509482492187
 21
712.7505135976961
 31
0.0
  0
LINE
  5
A22
102
{ACAD_REACTORS
330
BB1
102
}
330
1F
100
AcDbEntity
  8
実線
100
AcDbLine
 10
536.0509482492187
 20
674.5467798867203
 30
0.0
 11
536.0509482492187
 21
660.0467798867201
 31
0.0
  0
LINE
  5
A23
102
{ACAD_REACTORS
330
BB1
102
}
330
1F
100
AcDbEntity
  8
実線
100
AcDbLine
 10
536.0509482492187
 20
674.5467798867203
 30
0.0
 11
530.1509482492186
 21
674.5467798867203
 31
0.0
  0
LINE
  5
A24
102
{ACAD_REACTORS
330
BB1
102
}
330
1F
100
AcDbEntity
  8
実線
100
AcDbLine
 10
530.1509482492186
 20
660.0467798867201
 30
0.0
 11
536.0509482492187
 21
660.0467798867201
 31
0.0
  0
LINE
  5
A25
102
{ACAD_REACTORS
330
BB1
102
}
330
1F
100
AcDbEntity
  8
実線
100
AcDbLine
 10
481.2508346122681
 20
666.1257270755277
 30
0.0
 11
486.5509482492186
 21
666.1257270755277
 31
0.0
  0
LINE
  5
A26
102
{ACAD_REACTORS
330
BB1
102
}
330
1F
100
AcDbEntity
  8
実線
100
AcDbLine
 10
486.5509482492186
 20
786.4257270755278
 30
0.0
 11
461.6509482492185
 21
786.4257270755278
 31
0.0
  0
LINE
  5
A27
102
{ACAD_REACTORS
330
BB1
102
}
330
1F
100
AcDbEntity
  8
実線
100
AcDbLine
 10
443.2509482492186
 20
783.0033438067104
 30
0.0
 11
443.2509482492186
 21
736.5136901290448
 31
0.0
  0
LINE
  5
A28
102
{ACAD_REACTORS
330
BB1
102
}
330
1F
100
AcDbEntity
  8
実線
100
AcDbLine
 10
399.7509482492186
 20
639.6725614834715
 30
0.0
 11
399.7509482492186
 21
752.6788926675833
 31
0.0
  0
LINE
  5
A29
102
{ACAD_REACTORS
330
BB1
102
}
330
1F
100
AcDbEntity
  8
実線
100
AcDbLine
 10
384.7509482492186
 20
639.6725614834715
 30
0.0
 11
384.7509482492186
 21
752.6788926675833
 31
0.0
  0
LINE
  5
A2A
102
{ACAD_REACTORS
330
BB1
102
}
330
1F
100
AcDbEntity
  8
実線
100
AcDbLine
 10
399.7509482492186
 20
752.6788926675833
 30
0.0
 11
384.7509482492186
 21
752.6788926675833
 31
0.0
  0
LINE
  5
A2B
102
{ACAD_REACTORS
330
BB1
102
}
330
1F
100
AcDbEntity
  8
実線
100
AcDbLine
 10
384.7509482492186
 20
639.6725614834715
 30
0.0
 11
399.7509482492186
 21
639.6725614834715
 31
0.0
  0
LINE
  5
A2C
102
{ACAD_REACTORS
330
BB1
102
}
330
1F
100
AcDbEntity
  8
実線
100
AcDbLine
 10
399.7509482492186
 20
718.5539703626703
 30
0.0
 11
384.7509482492186
 21
718.5539703626703
 31
0.0
  0
LINE
  5
A2D
102
{ACAD_REACTORS
330
BB1
102
}
330
1F
100
AcDbEntity
  8
実線
100
AcDbLine
 10
399.7509482492186
 20
673.7974837883844
 30
0.0
 11
384.7509482492186
 21
673.7974837883844
 31
0.0
  0
ARC
  5
A2E
102
{ACAD_REACTORS
330
BB1
102
}
330
1F
100
AcDbEntity
  8
実線
100
AcDbCircle
 10
419.7509482492185
 20
678.2757270755275
 30
0.0
 40
32.0
100
AcDbArc
 50
250.5569702208467
 51
289.1550100735638
  0
CIRCLE
  5
A2F
102
{ACAD_REACTORS
330
BB1
102
}
330
1F
100
AcDbEntity
  8
実線
100
AcDbCircle
 10
470.2509482492186
 20
696.1757270755274
 30
0.0
 40
32.0
  0
LINE
  5
A30
102
{ACAD_REACTORS
330
BB1
102
}
330
1F
100
AcDbEntity
  8
実線
100
AcDbLine
 10
470.2509482492186
 20
636.1757270755276
 30
0.0
 11
470.2509482492186
 21
664.1757270755276
 31
0.0
  0
LINE
  5
A31
102
{ACAD_REACTORS
330
BB1
102
}
330
1F
100
AcDbEntity
  8
実線
100
AcDbLine
 10
430.2509482492183
 20
636.1757270755276
 30
0.0
 11
430.2509482492183
 21
652.5996264501514
 31
0.0
  0
LINE
  5
A32
102
{ACAD_REACTORS
330
BB1
102
}
330
1F
100
AcDbEntity
  8
実線
100
AcDbLine
 10
430.2509482492183
 20
636.1757270755276
 30
0.0
 11
470.2509482492184
 21
636.1757270755276
 31
0.0
  0
LINE
  5
A33
102
{ACAD_REACTORS
330
BB1
102
}
330
1F
100
AcDbEntity
  8
実線
100
AcDbLine
 10
461.6509482492185
 20
789.1757270755276
 30
0.0
 11
421.6509482492186
 21
789.1757270755276
 31
0.0
  0
LINE
  5
A34
102
{ACAD_REACTORS
330
BB1
102
}
330
1F
100
AcDbEntity
  8
実線
100
AcDbLine
 10
421.6509482492186
 20
741.5810643527377
 30
0.0
 11
421.6509482492186
 21
789.1757270755276
 31
0.0
  0
LINE
  5
A35
102
{ACAD_REACTORS
330
BB1
102
}
330
1F
100
AcDbEntity
  8
実線
100
AcDbLine
 10
461.6509482492185
 20
783.0033438067104
 30
0.0
 11
461.6509482492185
 21
789.1757270755276
 31
0.0
  0
LINE
  5
A36
102
{ACAD_REACTORS
330
BB1
102
}
330
1F
100
AcDbEntity
  8
実線
100
AcDbLine
 10
285.3509482492186
 20
758.6757270755278
 30
0.0
 11
285.3509482492186
 21
633.6757270755274
 31
0.0
  0
LINE
  5
A37
102
{ACAD_REACTORS
330
BB1
102
}
330
1F
100
AcDbEntity
  8
実線
100
AcDbLine
 10
285.3509482492186
 20
758.6757270755278
 30
0.0
 11
193.3509482492186
 21
758.6757270755278
 31
0.0
  0
LINE
  5
A38
102
{ACAD_REACTORS
330
BB1
102
}
330
1F
100
AcDbEntity
  8
実線
100
AcDbLine
 10
193.3509482492186
 20
633.6757270755274
 30
0.0
 11
285.3509482492186
 21
633.6757270755274
 31
0.0
  0
LINE
  5
A39
102
{ACAD_REACTORS
330
BB1
102
}
330
1F
100
AcDbEntity
  8
実線
100
AcDbLine
 10
193.3509482492186
 20
758.6757270755278
 30
0.0
 11
193.3509482492186
 21
633.6757270755274
 31
0.0
  0
LINE
  5
A3A
102
{ACAD_REACTORS
330
BB1
102
}
330
1F
100
AcDbEntity
  8
実線
100
AcDbLine
 10
371.2509482492186
 20
752.6788926675833
 30
0.0
 11
371.2509482492186
 21
639.6725614834715
 31
0.0
  0
LINE
  5
A3B
102
{ACAD_REACTORS
330
BB1
102
}
330
1F
100
AcDbEntity
  8
実線
100
AcDbLine
 10
371.2509482492186
 20
639.6725614834715
 30
0.0
 11
384.7509482492186
 21
639.6725614834715
 31
0.0
  0
LINE
  5
A3C
102
{ACAD_REACTORS
330
BB1
102
}
330
1F
100
AcDbEntity
  8
実線
100
AcDbLine
 10
384.7509482492186
 20
752.6788926675833
 30
0.0
 11
371.2509482492186
 21
752.6788926675833
 31
0.0
  0
LINE
  5
A3D
102
{ACAD_REACTORS
330
BB1
102
}
330
1F
100
AcDbEntity
  8
実線
100
AcDbLine
 10
371.2509482492186
 20
673.7974837883844
 30
0.0
 11
384.7509482492186
 21
673.7974837883844
 31
0.0
  0
LINE
  5
A3E
102
{ACAD_REACTORS
330
BB1
102
}
330
1F
100
AcDbEntity
  8
実線
100
AcDbLine
 10
371.2509482492186
 20
718.5539703626703
 30
0.0
 11
384.7509482492186
 21
718.5539703626703
 31
0.0
  0
LINE
  5
A3F
102
{ACAD_REACTORS
330
BB1
102
}
330
1F
100
AcDbEntity
  8
実線
100
AcDbLine
 10
188.8509482492186
 20
742.1757270755274
 30
0.0
 11
177.3509482492186
 21
742.1757270755274
 31
0.0
  0
LINE
  5
A40
102
{ACAD_REACTORS
330
BB1
102
}
330
1F
100
AcDbEntity
  8
実線
100
AcDbLine
 10
177.3509482492186
 20
650.1757270755274
 30
0.0
 11
188.8509482492186
 21
650.1757270755274
 31
0.0
  0
LINE
  5
A41
102
{ACAD_REACTORS
330
BB1
102
}
330
1F
100
AcDbEntity
  8
実線
100
AcDbLine
 10
177.3509482492186
 20
742.1757270755274
 30
0.0
 11
177.3509482492186
 21
650.1757270755274
 31
0.0
  0
LINE
  5
A42
102
{ACAD_REACTORS
330
BB1
102
}
330
1F
100
AcDbEntity
  8
実線
100
AcDbLine
 10
177.3509482492186
 20
711.6757270755276
 30
0.0
 11
170.3509482492186
 21
711.6757270755276
 31
0.0
  0
LINE
  5
A43
102
{ACAD_REACTORS
330
BB1
102
}
330
1F
100
AcDbEntity
  8
実線
100
AcDbLine
 10
170.3509482492186
 20
680.6757270755277
 30
0.0
 11
177.3509482492186
 21
680.6757270755277
 31
0.0
  0
LINE
  5
A44
102
{ACAD_REACTORS
330
BB1
102
}
330
1F
100
AcDbEntity
  8
実線
100
AcDbLine
 10
166.6509482492187
 20
739.4757270755276
 30
0.0
 11
130.6509482492185
 21
739.4757270755276
 31
0.0
  0
LINE
  5
A45
102
{ACAD_REACTORS
330
BB1
102
}
330
1F
100
AcDbEntity
  8
実線
100
AcDbLine
 10
130.6509482492185
 20
652.8757270755273
 30
0.0
 11
166.6509482492187
 21
652.8757270755273
 31
0.0
  0
LINE
  5
A46
102
{ACAD_REACTORS
330
BB1
102
}
330
1F
100
AcDbEntity
  8
実線
100
AcDbLine
 10
130.6509482492185
 20
739.4757270755276
 30
0.0
 11
130.6509482492185
 21
652.8757270755273
 31
0.0
  0
LINE
  5
A47
102
{ACAD_REACTORS
330
BB1
102
}
330
1F
100
AcDbEntity
  8
実線
100
AcDbLine
 10
53.65094824921864
 20
738.6757270755277
 30
0.0
 11
53.65094824921864
 21
653.6757270755274
 31
0.0
  0
LINE
  5
A48
102
{ACAD_REACTORS
330
BB1
102
}
330
1F
100
AcDbEntity
  8
実線
100
AcDbLine
 10
44.45094824921865
 20
679.6757270755274
 30
0.0
 11
53.65094824921864
 21
653.6757270755274
 31
0.0
  0
LINE
  5
A49
102
{ACAD_REACTORS
330
BB1
102
}
330
1F
100
AcDbEntity
  8
実線
100
AcDbLine
 10
53.65094824921864
 20
738.6757270755277
 30
0.0
 11
44.45094824921865
 21
712.6757270755274
 31
0.0
  0
LINE
  5
A4A
102
{ACAD_REACTORS
330
BB1
102
}
330
1F
100
AcDbEntity
  8
実線
100
AcDbLine
 10
44.45094824921865
 20
712.6757270755274
 30
0.0
 11
44.45094824921865
 21
679.6757270755274
 31
0.0
  0
LINE
  5
A4B
102
{ACAD_REACTORS
330
BB1
102
}
330
1F
100
AcDbEntity
  8
実線
100
AcDbLine
 10
130.6509482492185
 20
738.6757270755274
 30
0.0
 11
53.65094824921864
 21
738.6757270755274
 31
0.0
  0
LINE
  5
A4C
102
{ACAD_REACTORS
330
BB1
102
}
330
1F
100
AcDbEntity
  8
実線
100
AcDbLine
 10
53.65094824921864
 20
653.6757270755274
 30
0.0
 11
130.6509482492185
 21
653.6757270755274
 31
0.0
  0
LINE
  5
A4D
102
{ACAD_REACTORS
330
BB1
102
}
330
1F
100
AcDbEntity
  8
実線
100
AcDbLine
 10
170.3509482492186
 20
740.1757270755276
 30
0.0
 11
170.3509482492186
 21
652.1757270755276
 31
0.0
  0
LINE
  5
A4E
102
{ACAD_REACTORS
330
BB1
102
}
330
1F
100
AcDbEntity
  8
実線
100
AcDbLine
 10
166.6509482492187
 20
652.8757270755273
 30
0.0
 11
170.3509482492186
 21
652.1757270755276
 31
0.0
  0
LINE
  5
A4F
102
{ACAD_REACTORS
330
BB1
102
}
330
1F
100
AcDbEntity
  8
実線
100
AcDbLine
 10
170.3509482492186
 20
740.1757270755276
 30
0.0
 11
166.6509482492187
 21
739.4757270755276
 31
0.0
  0
LINE
  5
A50
102
{ACAD_REACTORS
330
BB1
102
}
330
1F
100
AcDbEntity
  8
実線
100
AcDbLine
 10
166.6509482492187
 20
739.4757270755276
 30
0.0
 11
166.6509482492187
 21
652.8757270755273
 31
0.0
  0
LINE
  5
A51
102
{ACAD_REACTORS
330
BB1
102
}
330
1F
100
AcDbEntity
  8
実線
100
AcDbLine
 10
285.3509482492186
 20
646.1757270755274
 30
0.0
 11
338.7509482492187
 21
646.1757270755274
 31
0.0
  0
LINE
  5
A52
102
{ACAD_REACTORS
330
BB1
102
}
330
1F
100
AcDbEntity
  8
実線
100
AcDbLine
 10
338.7509482492187
 20
646.1757270755274
 30
0.0
 11
338.7509482492187
 21
682.6757270755274
 31
0.0
  0
LINE
  5
A53
102
{ACAD_REACTORS
330
BB1
102
}
330
1F
100
AcDbEntity
  8
実線
100
AcDbLine
 10
338.7509482492187
 20
709.6757270755277
 30
0.0
 11
338.7509482492187
 21
746.1757270755278
 31
0.0
  0
LINE
  5
A54
102
{ACAD_REACTORS
330
BB1
102
}
330
1F
100
AcDbEntity
  8
実線
100
AcDbLine
 10
338.7509482492187
 20
746.1757270755278
 30
0.0
 11
285.3509482492186
 21
746.1757270755278
 31
0.0
  0
LINE
  5
A55
102
{ACAD_REACTORS
330
BB1
102
}
330
1F
100
AcDbEntity
  8
実線
100
AcDbLine
 10
371.2509482492186
 20
682.6757270755274
 30
0.0
 11
285.3509482492186
 21
682.6757270755274
 31
0.0
  0
LINE
  5
A56
102
{ACAD_REACTORS
330
BB1
102
}
330
1F
100
AcDbEntity
  8
実線
100
AcDbLine
 10
371.2509482492186
 20
709.6757270755277
 30
0.0
 11
285.3509482492186
 21
709.6757270755277
 31
0.0
  0
LINE
  5
A57
102
{ACAD_REACTORS
330
BB1
102
}
330
1F
100
AcDbEntity
  8
実線
100
AcDbLine
 10
518.5509482492185
 20
807.7757270755274
 30
0.0
 11
518.5509482492185
 21
644.7757270755275
 31
0.0
  0
LINE
  5
A58
102
{ACAD_REACTORS
330
BB1
102
}
330
1F
100
AcDbEntity
  8
実線
100
AcDbLine
 10
498.5509482492187
 20
644.7757270755275
 30
0.0
 11
518.5509482492185
 21
644.7757270755275
 31
0.0
  0
LINE
  5
A59
102
{ACAD_REACTORS
330
BB1
102
}
330
1F
100
AcDbEntity
  8
実線
100
AcDbLine
 10
518.5509482492185
 20
807.7757270755274
 30
0.0
 11
498.5509482492187
 21
807.7757270755274
 31
0.0
  0
LINE
  5
A5A
102
{ACAD_REACTORS
330
BB1
102
}
330
1F
100
AcDbEntity
  8
実線
100
AcDbLine
 10
498.5509482492187
 20
681.2388599341218
 30
0.0
 11
498.5509482492187
 21
644.7757270755275
 31
0.0
  0
LINE
  5
A5B
102
{ACAD_REACTORS
330
BB1
102
}
330
1F
100
AcDbEntity
  8
実線
100
AcDbLine
 10
498.5509482492187
 20
808.7757270755274
 30
0.0
 11
498.5509482492187
 21
711.1125942169327
 31
0.0
  0
LINE
  5
A5C
102
{ACAD_REACTORS
330
BB1
102
}
330
1F
100
AcDbEntity
  8
実線
100
AcDbLine
 10
486.5509482492186
 20
808.7757270755274
 30
0.0
 11
486.5509482492186
 21
723.7131561494261
 31
0.0
  0
LINE
  5
A5D
102
{ACAD_REACTORS
330
BB1
102
}
330
1F
100
AcDbEntity
  8
実線
100
AcDbLine
 10
498.5509482492187
 20
808.7757270755274
 30
0.0
 11
486.5509482492186
 21
808.7757270755274
 31
0.0
  0
LINE
  5
A5E
102
{ACAD_REACTORS
330
BB1
102
}
330
1F
100
AcDbEntity
  8
実線
100
AcDbLine
 10
486.5509482492186
 20
801.0152748397469
 30
0.0
 11
498.5509482492187
 21
801.0152748397469
 31
0.0
  0
LINE
  5
A5F
102
{ACAD_REACTORS
330
BB1
102
}
330
1F
100
AcDbEntity
  8
実線
100
AcDbLine
 10
486.5509482492186
 20
668.6382980016287
 30
0.0
 11
486.5509482492186
 21
644.7757270755275
 31
0.0
  0
LINE
  5
A60
102
{ACAD_REACTORS
330
BB1
102
}
330
1F
100
AcDbEntity
  8
実線
100
AcDbLine
 10
486.5509482492186
 20
644.7757270755275
 30
0.0
 11
498.5509482492187
 21
644.7757270755275
 31
0.0
  0
LINE
  5
A61
102
{ACAD_REACTORS
330
BB1
102
}
330
1F
100
AcDbEntity
  8
実線
100
AcDbLine
 10
443.2509482492186
 20
738.6757270755277
 30
0.0
 11
435.3101434982074
 21
738.6757270755277
 31
0.0
  0
ARC
  5
A62
102
{ACAD_REACTORS
330
BB1
102
}
330
1F
100
AcDbEntity
  8
実線
100
AcDbCircle
 10
438.2509482492186
 20
669.6368043876892
 30
0.0
 40
15.0
100
AcDbArc
 50
282.0079690596974
 51
357.8402913078948
  0
ARC
  5
A63
102
{ACAD_REACTORS
330
BB1
102
}
330
1F
100
AcDbEntity
  8
実線
100
AcDbCircle
 10
438.2509482492186
 20
722.7146497633656
 30
0.0
 40
15.0
100
AcDbArc
 50
70.5287793655053
 51
77.99203094030261
  0
LINE
  5
A64
102
{ACAD_REACTORS
330
BB1
102
}
330
1F
100
AcDbEntity
  8
実線
100
AcDbLine
 10
441.3716642857126
 20
737.3864298673463
 30
0.0
 11
404.7509482492186
 21
745.1757270755276
 31
0.0
  0
LINE
  5
A65
102
{ACAD_REACTORS
330
BB1
102
}
330
1F
100
AcDbEntity
  8
実線
100
AcDbLine
 10
404.7509482492186
 20
647.1757270755277
 30
0.0
 11
441.3716642857126
 21
654.9650242837087
 31
0.0
  0
LINE
  5
A66
102
{ACAD_REACTORS
330
BB1
102
}
330
1F
100
AcDbEntity
  8
実線
100
AcDbLine
 10
404.7509482492186
 20
745.1757270755276
 30
0.0
 11
404.7509482492186
 21
647.1757270755277
 31
0.0
  0
LINE
  5
A67
102
{ACAD_REACTORS
330
BB1
102
}
330
1F
100
AcDbEntity
  8
実線
100
AcDbLine
 10
404.7509482492186
 20
745.1757270755276
 30
0.0
 11
399.7509482492188
 21
745.1757270755276
 31
0.0
  0
LINE
  5
A68
102
{ACAD_REACTORS
330
BB1
102
}
330
1F
100
AcDbEntity
  8
実線
100
AcDbLine
 10
399.7509482492186
 20
647.1757270755277
 30
0.0
 11
404.7509482492186
 21
647.1757270755277
 31
0.0
  0
LINE
  5
A69
102
{ACAD_REACTORS
330
BB1
102
}
330
1F
100
AcDbEntity
  8
実線
100
AcDbLine
 10
188.8509482492186
 20
636.6757270755274
 30
0.0
 11
188.8509482492186
 21
755.6757270755277
 31
0.0
  0
ARC
  5
A6A
102
{ACAD_REACTORS
330
BB1
102
}
330
1F
100
AcDbEntity
  8
実線
100
AcDbCircle
 10
191.8509482492186
 20
755.6757270755277
 30
0.0
 40
3.0
100
AcDbArc
 50
90.0
 51
180.0
  0
ARC
  5
A6B
102
{ACAD_REACTORS
330
BB1
102
}
330
1F
100
AcDbEntity
  8
実線
100
AcDbCircle
 10
191.8509482492186
 20
636.6757270755274
 30
0.0
 40
3.0
100
AcDbArc
 50
180.0
 51
270.0
  0
LINE
  5
A6C
102
{ACAD_REACTORS
330
BB1
102
}
330
1F
100
AcDbEntity
  8
実線
100
AcDbLine
 10
193.3509482492186
 20
758.6757270755278
 30
0.0
 11
191.8509482492186
 21
758.6757270755278
 31
0.0
  0
LINE
  5
A6D
102
{ACAD_REACTORS
330
BB1
102
}
330
1F
100
AcDbEntity
  8
実線
100
AcDbLine
 10
191.8509482492186
 20
633.6757270755274
 30
0.0
 11
193.3509482492186
 21
633.6757270755274
 31
0.0
  0
LINE
  5
A6E
102
{ACAD_REACTORS
330
BB2
102
}
330
1F
100
AcDbEntity
  8
実線
100
AcDbLine
 10
883.4827389211771
 20
763.2874832235235
 30
0.0
 11
879.3784972012691
 21
774.5637946729545
 31
0.0
  0
LINE
  5
A6F
102
{ACAD_REACTORS
330
BB2
102
}
330
1F
100
AcDbEntity
  8
実線
100
AcDbLine
 10
879.3784972012691
 20
774.5637946729545
 30
0.0
 11
838.575954535926
 21
759.7128836603928
 31
0.0
  0
LINE
  5
A70
102
{ACAD_REACTORS
330
BB2
102
}
330
1F
100
AcDbEntity
  8
実線
100
AcDbLine
 10
842.6801962558339
 20
748.436572210962
 30
0.0
 11
883.4827389211771
 21
763.2874832235235
 31
0.0
  0
CIRCLE
  5
A71
102
{ACAD_REACTORS
330
BB2
102
}
330
1F
100
AcDbEntity
  8
実線
100
AcDbCircle
 10
733.8224334038884
 20
791.5298877421662
 30
0.0
 40
9.0
  0
CIRCLE
  5
A72
102
{ACAD_REACTORS
330
BB2
102
}
330
1F
100
AcDbEntity
  8
実線
100
AcDbCircle
 10
733.8224334038884
 20
791.5298877421662
 30
0.0
 40
7.25
  0
CIRCLE
  5
A73
102
{ACAD_REACTORS
330
BB2
102
}
330
1F
100
AcDbEntity
  8
実線
100
AcDbCircle
 10
692.5249299866131
 20
732.5509405533589
 30
0.0
 40
9.0
  0
CIRCLE
  5
A74
102
{ACAD_REACTORS
330
BB2
102
}
330
1F
100
AcDbEntity
  8
実線
100
AcDbCircle
 10
805.548451666494
 20
785.2546742643347
 30
0.0
 40
9.0
  0
CIRCLE
  5
A75
102
{ACAD_REACTORS
330
BB2
102
}
330
1F
100
AcDbEntity
  8
実線
100
AcDbCircle
 10
835.9769665118243
 20
720.0005135976961
 30
0.0
 40
9.0
  0
CIRCLE
  5
A76
102
{ACAD_REACTORS
330
BB2
102
}
330
1F
100
AcDbEntity
  8
実線
100
AcDbCircle
 10
794.679463094549
 20
661.0215664088886
 30
0.0
 40
9.0
  0
CIRCLE
  5
A77
102
{ACAD_REACTORS
330
BB2
102
}
330
1F
100
AcDbEntity
  8
実線
100
AcDbCircle
 10
722.9534448319433
 20
667.29677988672
 30
0.0
 40
9.0
  0
CIRCLE
  5
A78
102
{ACAD_REACTORS
330
BB2
102
}
330
1F
100
AcDbEntity
  8
実線
100
AcDbCircle
 10
692.5249299866131
 20
732.5509405533587
 30
0.0
 40
7.25
  0
CIRCLE
  5
A79
102
{ACAD_REACTORS
330
BB2
102
}
330
1F
100
AcDbEntity
  8
実線
100
AcDbCircle
 10
805.548451666494
 20
785.2546742643347
 30
0.0
 40
7.25
  0
CIRCLE
  5
A7A
102
{ACAD_REACTORS
330
BB2
102
}
330
1F
100
AcDbEntity
  8
実線
100
AcDbCircle
 10
794.679463094549
 20
661.0215664088888
 30
0.0
 40
7.25
  0
CIRCLE
  5
A7B
102
{ACAD_REACTORS
330
BB2
102
}
330
1F
100
AcDbEntity
  8
実線
100
AcDbCircle
 10
835.9769665118243
 20
720.0005135976961
 30
0.0
 40
7.25
  0
CIRCLE
  5
A7C
102
{ACAD_REACTORS
330
BB2
102
}
330
1F
100
AcDbEntity
  8
実線
100
AcDbCircle
 10
722.9534448319433
 20
667.29677988672
 30
0.0
 40
7.25
  0
LINE
  5
A7D
102
{ACAD_REACTORS
330
BB2
102
}
330
1F
100
AcDbEntity
  8
実線
100
AcDbLine
 10
672.0156358699673
 20
641.4810410405817
 30
0.0
 11
687.8727049620753
 21
652.584280352788
 31
0.0
  0
ARC
  5
A7E
102
{ACAD_REACTORS
330
BB2
102
}
330
1F
100
AcDbEntity
  8
実線
100
AcDbCircle
 10
666.2798715064572
 20
649.6725614834716
 30
0.0
 40
10.00000000000001
100
AcDbArc
 50
226.6031097951835
 51
304.9999999999972
  0
ARC
  5
A7F
102
{ACAD_REACTORS
330
BB2
102
}
330
1F
100
AcDbEntity
  8
実線
100
AcDbCircle
 10
710.2509482492187
 20
696.1757270755271
 30
0.0
 40
74.00000000000019
100
AcDbArc
 50
133.3968902048164
 51
136.6031097951837
  0
LINE
  5
A80
102
{ACAD_REACTORS
330
BB2
102
}
330
1F
100
AcDbEntity
  8
実線
100
AcDbLine
 10
684.331180866885
 20
742.2469756664708
 30
0.0
 11
672.0156358699673
 21
750.8704131104731
 31
0.0
  0
ARC
  5
A81
102
{ACAD_REACTORS
330
BB2
102
}
330
1F
100
AcDbEntity
  8
実線
100
AcDbCircle
 10
666.2798715064572
 20
742.6788926675833
 30
0.0
 40
10.0
100
AcDbArc
 50
55.00000000000277
 51
133.3968902048164
  0
ARC
  5
A82
102
{ACAD_REACTORS
330
BB2
102
}
330
1F
100
AcDbEntity
  8
実線
100
AcDbCircle
 10
663.7477826571625
 20
740.1468038182891
 30
0.0
 40
10.00000000000001
100
AcDbArc
 50
136.6031097951837
 51
214.9999999999974
  0
LINE
  5
A83
102
{ACAD_REACTORS
330
BB2
102
}
330
1F
100
AcDbEntity
  8
実線
100
AcDbLine
 10
655.5562622142728
 20
734.4110394547787
 30
0.0
 11
663.4933333901864
 21
723.0757270755275
 31
0.0
  0
LINE
  5
A84
102
{ACAD_REACTORS
330
BB2
102
}
330
1F
100
AcDbEntity
  8
実線
100
AcDbLine
 10
663.4933333901864
 20
669.2757270755272
 30
0.0
 11
655.5562622142728
 21
657.9404146962762
 31
0.0
  0
ARC
  5
A85
102
{ACAD_REACTORS
330
BB2
102
}
330
1F
100
AcDbEntity
  8
実線
100
AcDbCircle
 10
663.7477826571625
 20
652.2046503327657
 30
0.0
 40
10.00000000000001
100
AcDbArc
 50
145.0000000000025
 51
223.3968902048163
  0
ARC
  5
A86
102
{ACAD_REACTORS
330
BB2
102
}
330
1F
100
AcDbEntity
  8
実線
100
AcDbCircle
 10
710.2509482492187
 20
696.1757270755271
 30
0.0
 40
73.99999999999997
100
AcDbArc
 50
223.3968902048163
 51
226.6031097951835
  0
LINE
  5
A87
102
{ACAD_REACTORS
330
BB2
102
}
330
1F
100
AcDbEntity
  8
実線
100
AcDbLine
 10
742.7509482492187
 20
645.4969500025206
 30
0.0
 11
748.4862606284695
 21
641.4810410405817
 31
0.0
  0
ARC
  5
A88
102
{ACAD_REACTORS
330
BB2
102
}
330
1F
100
AcDbEntity
  8
実線
100
AcDbCircle
 10
754.2220249919803
 20
649.6725614834713
 30
0.0
 40
10.00000000000003
100
AcDbArc
 50
235.0000000000027
 51
313.3968902048164
  0
ARC
  5
A89
102
{ACAD_REACTORS
330
BB2
102
}
330
1F
100
AcDbEntity
  8
実線
100
AcDbCircle
 10
710.2509482492187
 20
696.1757270755271
 30
0.0
 40
73.99999999999984
100
AcDbArc
 50
313.3968902048164
 51
316.0089020572765
  0
LINE
  5
A8A
102
{ACAD_REACTORS
330
BB2
102
}
330
1F
100
AcDbEntity
  8
実線
100
AcDbLine
 10
859.9509482492178
 20
705.1757270755273
 30
0.0
 11
842.9722287266089
 21
705.1757270755273
 31
0.0
  0
LINE
  5
A8B
102
{ACAD_REACTORS
330
BB2
102
}
330
1F
100
AcDbEntity
  8
実線
100
AcDbLine
 10
812.7509482492181
 20
651.3757270755274
 30
0.0
 11
859.9509482492178
 21
651.3757270755274
 31
0.0
  0
LINE
  5
A8C
102
{ACAD_REACTORS
330
BB2
102
}
330
1F
100
AcDbEntity
  8
実線
100
AcDbLine
 10
865.2509482492177
 20
710.2757270755277
 30
0.0
 11
862.3509482492181
 21
710.2757270755277
 31
0.0
  0
LINE
  5
A8D
102
{ACAD_REACTORS
330
BB2
102
}
330
1F
100
AcDbEntity
  8
実線
100
AcDbLine
 10
862.3509482492181
 20
646.2757270755274
 30
0.0
 11
865.2509482492177
 21
646.2757270755274
 31
0.0
  0
LINE
  5
A8E
102
{ACAD_REACTORS
330
BB2
102
}
330
1F
100
AcDbEntity
  8
実線
100
AcDbLine
 10
865.2509482492177
 20
710.2757270755277
 30
0.0
 11
865.2509482492177
 21
646.2757270755274
 31
0.0
  0
LINE
  5
A8F
102
{ACAD_REACTORS
330
BB2
102
}
330
1F
100
AcDbEntity
  8
実線
100
AcDbLine
 10
859.9509482492178
 20
651.3757270755274
 30
0.0
 11
862.3509482492181
 21
646.2757270755274
 31
0.0
  0
LINE
  5
A90
102
{ACAD_REACTORS
330
BB2
102
}
330
1F
100
AcDbEntity
  8
実線
100
AcDbLine
 10
862.3509482492181
 20
710.2757270755277
 30
0.0
 11
859.9509482492178
 21
705.1757270755273
 31
0.0
  0
LINE
  5
A91
102
{ACAD_REACTORS
330
BB2
102
}
330
1F
100
AcDbEntity
  8
実線
100
AcDbLine
 10
862.3509482492181
 20
646.2757270755274
 30
0.0
 11
862.3509482492181
 21
710.2757270755277
 31
0.0
  0
LINE
  5
A92
102
{ACAD_REACTORS
330
BB2
102
}
330
1F
100
AcDbEntity
  8
実線
100
AcDbLine
 10
859.9509482492178
 20
651.3757270755274
 30
0.0
 11
859.9509482492178
 21
705.1757270755273
 31
0.0
  0
LINE
  5
A93
102
{ACAD_REACTORS
330
BB2
102
}
330
1F
100
AcDbEntity
  8
実線
100
AcDbLine
 10
628.5509482492187
 20
669.2757270755272
 30
0.0
 11
705.9993388293922
 21
669.2757270755272
 31
0.0
  0
LINE
  5
A94
102
{ACAD_REACTORS
330
BB2
102
}
330
1F
100
AcDbEntity
  8
実線
100
AcDbLine
 10
682.8137945661487
 20
723.0757270755275
 30
0.0
 11
628.5509482492187
 21
723.0757270755275
 31
0.0
  0
LINE
  5
A95
102
{ACAD_REACTORS
330
BB2
102
}
330
1F
100
AcDbEntity
  8
実線
100
AcDbLine
 10
628.5509482492187
 20
723.0757270755275
 30
0.0
 11
628.5509482492187
 21
669.2757270755272
 31
0.0
  0
LINE
  5
A96
102
{ACAD_REACTORS
330
BB2
102
}
330
1F
100
AcDbEntity
  8
実線
100
AcDbLine
 10
628.5509482492187
 20
723.0757270755275
 30
0.0
 11
626.1509482492185
 21
728.1757270755274
 31
0.0
  0
LINE
  5
A97
102
{ACAD_REACTORS
330
BB2
102
}
330
1F
100
AcDbEntity
  8
実線
100
AcDbLine
 10
626.1509482492185
 20
664.1757270755273
 30
0.0
 11
628.5509482492187
 21
669.2757270755272
 31
0.0
  0
LINE
  5
A98
102
{ACAD_REACTORS
330
BB2
102
}
330
1F
100
AcDbEntity
  8
実線
100
AcDbLine
 10
623.2509482492186
 20
728.1757270755274
 30
0.0
 11
623.2509482492186
 21
664.1757270755273
 31
0.0
  0
LINE
  5
A99
102
{ACAD_REACTORS
330
BB2
102
}
330
1F
100
AcDbEntity
  8
実線
100
AcDbLine
 10
626.1509482492185
 20
728.1757270755274
 30
0.0
 11
626.1509482492185
 21
664.1757270755273
 31
0.0
  0
LINE
  5
A9A
102
{ACAD_REACTORS
330
BB2
102
}
330
1F
100
AcDbEntity
  8
実線
100
AcDbLine
 10
623.2509482492186
 20
664.1757270755273
 30
0.0
 11
626.1509482492185
 21
664.1757270755273
 31
0.0
  0
LINE
  5
A9B
102
{ACAD_REACTORS
330
BB2
102
}
330
1F
100
AcDbEntity
  8
実線
100
AcDbLine
 10
626.1509482492185
 20
728.1757270755274
 30
0.0
 11
623.2509482492186
 21
728.1757270755274
 31
0.0
  0
LINE
  5
A9C
102
{ACAD_REACTORS
330
BB2
102
}
330
1F
100
AcDbEntity
  8
実線
100
AcDbLine
 10
742.7509482492187
 20
636.1757270755274
 30
0.0
 11
742.7509482492187
 21
647.6627510473933
 31
0.0
  0
LINE
  5
A9D
102
{ACAD_REACTORS
330
BB2
102
}
330
1F
100
AcDbEntity
  8
実線
100
AcDbLine
 10
717.7509482492187
 20
636.1757270755274
 30
0.0
 11
717.7509482492187
 21
659.3429249528013
 31
0.0
  0
LINE
  5
A9E
102
{ACAD_REACTORS
330
BB2
102
}
330
1F
100
AcDbEntity
  8
実線
100
AcDbLine
 10
717.7509482492187
 20
636.1757270755274
 30
0.0
 11
742.7509482492187
 21
636.1757270755274
 31
0.0
  0
ARC
  5
A9F
102
{ACAD_REACTORS
330
BB2
102
}
330
1F
100
AcDbEntity
  8
実線
100
AcDbCircle
 10
710.2509482492187
 20
696.1757270755273
 30
0.0
 40
62.5
100
AcDbArc
 50
205.4929478227514
 51
213.5334340052859
  0
ARC
  5
AA0
102
{ACAD_REACTORS
330
BB2
102
}
330
1F
100
AcDbEntity
  8
実線
100
AcDbCircle
 10
710.2509482492187
 20
696.1757270755273
 30
0.0
 40
62.5
100
AcDbArc
 50
236.4665659947142
 51
286.2602047083103
  0
ARC
  5
AA1
102
{ACAD_REACTORS
330
BB2
102
}
330
1F
100
AcDbEntity
  8
実線
100
AcDbCircle
 10
710.2509482492187
 20
696.1757270755273
 30
0.0
 40
62.5
100
AcDbArc
 50
301.3322514975931
 51
303.5334340052858
  0
ARC
  5
AA2
102
{ACAD_REACTORS
330
BB2
102
}
330
1F
100
AcDbEntity
  8
実線
100
AcDbCircle
 10
710.2509482492187
 20
696.1757270755273
 30
0.0
 40
62.5
100
AcDbArc
 50
111.0569372458458
 51
123.5334340052858
  0
ARC
  5
AA3
102
{ACAD_REACTORS
330
BB2
102
}
330
1F
100
AcDbEntity
  8
実線
100
AcDbCircle
 10
710.2509482492187
 20
696.1757270755273
 30
0.0
 40
62.5
100
AcDbArc
 50
146.466565994714
 51
154.5070521772485
  0
ARC
  5
AA4
102
{ACAD_REACTORS
330
BB2
102
}
330
1F
100
AcDbEntity
  8
実線
100
AcDbCircle
 10
710.2509482492187
 20
696.1757270755273
 30
0.0
 40
50.0
100
AcDbArc
 50
242.2225404895802
 51
278.6269265586773
  0
CIRCLE
  5
AA7
102
{ACAD_REACTORS
330
BB2
102
}
330
1F
100
AcDbEntity
  8
実線
100
AcDbCircle
 10
764.2509482492178
 20
726.2757270755274
 30
0.0
 40
52.5
  0
CIRCLE
  5
AA8
102
{ACAD_REACTORS
330
BB2
102
}
330
1F
100
AcDbEntity
  8
実線
100
AcDbCircle
 10
764.2509482492178
 20
726.2757270755274
 30
0.0
 40
81.5
  0
LINE
  5
AA9
102
{ACAD_REACTORS
330
BB2
102
}
330
1F
100
AcDbEntity
  8
実線
100
AcDbLine
 10
731.7509482492186
 20
801.0152748397466
 30
0.0
 11
731.7509482492186
 21
808.7757270755274
 31
0.0
  0
LINE
  5
AAA
102
{ACAD_REACTORS
330
BB2
102
}
330
1F
100
AcDbEntity
  8
実線
100
AcDbLine
 10
796.750948249218
 20
801.0152748397466
 30
0.0
 11
796.750948249218
 21
808.7757270755274
 31
0.0
  0
LINE
  5
AAB
102
{ACAD_REACTORS
330
BB2
102
}
330
1F
100
AcDbEntity
  8
実線
100
AcDbLine
 10
796.750948249218
 20
808.7757270755274
 30
0.0
 11
731.7509482492186
 21
808.7757270755274
 31
0.0
  0
LINE
  5
AAC
102
{ACAD_REACTORS
330
BB2
102
}
330
1F
100
AcDbEntity
  8
実線
100
AcDbLine
 10
787.7509482492189
 20
636.1757270755274
 30
0.0
 11
812.7509482492181
 21
636.1757270755274
 31
0.0
  0
LINE
  5
AAD
102
{ACAD_REACTORS
330
BB2
102
}
330
1F
100
AcDbEntity
  8
実線
100
AcDbLine
 10
812.7509482492181
 20
636.1757270755274
 30
0.0
 11
812.7509482492181
 21
660.7776355002761
 31
0.0
  0
LINE
  5
AAE
102
{ACAD_REACTORS
330
BB2
102
}
330
1F
100
AcDbEntity
  8
実線
100
AcDbLine
 10
787.7509482492189
 20
636.1757270755274
 30
0.0
 11
787.7509482492189
 21
648.2372750150203
 31
0.0
  0
ARC
  5
AAF
102
{ACAD_REACTORS
330
BB2
102
}
330
1F
100
AcDbEntity
  8
実線
100
AcDbCircle
 10
710.2509482492187
 20
696.1757270755273
 30
0.0
 40
48.99999999999996
100
AcDbArc
 50
213.297036835689
 51
278.8043709041394
  0
ARC
  5
AB0
102
{ACAD_REACTORS
330
BB2
102
}
330
1F
100
AcDbEntity
  8
実線
100
AcDbCircle
 10
710.2509482492187
 20
696.1757270755273
 30
0.0
 40
48.99999999999996
100
AcDbArc
 50
123.1035178253905
 51
146.702963164311
  0
LINE
  5
AB1
102
{ACAD_REACTORS
330
BB4
102
}
330
1F
100
AcDbEntity
  8
中心線
100
AcDbLine
 10
1658.250948249218
 20
761.1757270755274
 30
0.0
 11
1658.250948249218
 21
631.1757270755274
 31
0.0
  0
LINE
  5
AB2
102
{ACAD_REACTORS
330
BB4
102
}
330
1F
100
AcDbEntity
  8
中心線
100
AcDbLine
 10
1593.250948249218
 20
696.1757270755274
 30
0.0
 11
1747.250948249218
 21
696.1757270755273
 31
0.0
  0
LINE
  5
AB3
102
{ACAD_REACTORS
330
BB4
102
}
330
1F
100
AcDbEntity
  8
中心線
100
AcDbLine
 10
1501.250948249218
 20
678.2757270755276
 30
0.0
 11
1658.250948249218
 21
678.2757270755273
 31
0.0
  0
LINE
  5
B06
102
{ACAD_REACTORS
330
BB5
102
}
330
1F
100
AcDbEntity
  8
中心線
100
AcDbLine
 10
764.2509482492178
 20
865.3757270755276
 30
0.0
 11
764.2509482492178
 21
986.6757270755272
 31
0.0
  0
LINE
  5
B07
102
{ACAD_REACTORS
330
BB2
102
}
330
1F
100
AcDbEntity
  8
中心線
100
AcDbLine
 10
710.2509482492187
 20
761.1757270755273
 30
0.0
 11
710.2509482492187
 21
631.1757270755273
 31
0.0
  0
LINE
  5
B08
102
{ACAD_REACTORS
330
BB1
102
}
330
1F
100
AcDbEntity
  8
中心線
100
AcDbLine
 10
454.7509482492183
 20
678.2757270755275
 30
0.0
 11
384.7509482492185
 21
678.2757270755275
 31
0.0
  0
LINE
  5
B09
102
{ACAD_REACTORS
330
BB1
102
}
330
1F
100
AcDbEntity
  8
中心線
100
AcDbLine
 10
419.7509482492185
 20
713.2757270755273
 30
0.0
 11
419.7509482492185
 21
643.2757270755273
 31
0.0
  0
LINE
  5
B0A
102
{ACAD_REACTORS
330
BB1
102
}
330
1F
100
AcDbEntity
  8
中心線
100
AcDbLine
 10
541.0509482492185
 20
726.2757270755274
 30
0.0
 11
419.7509482492185
 21
726.2757270755274
 31
0.0
  0
LINE
  5
B0B
102
{ACAD_REACTORS
330
BB3
102
}
330
1F
100
AcDbEntity
  8
中心線
100
AcDbLine
 10
933.4509482492167
 20
726.2757270755275
 30
0.0
 11
1100.552174794923
 21
726.2757270755275
 31
0.0
  0
LINE
  5
B0C
102
{ACAD_REACTORS
330
BB3
102
}
330
1F
100
AcDbEntity
  8
中心線
100
AcDbLine
 10
1004.250948249218
 20
731.1199793919374
 30
0.0
 11
1004.250948249218
 21
661.1199793919374
 31
0.0
  0
LINE
  5
B0D
102
{ACAD_REACTORS
330
BB4
102
}
330
1F
100
AcDbEntity
  8
中心線
100
AcDbLine
 10
1604.250948249218
 20
811.2756206083313
 30
0.0
 11
1604.250948249218
 21
641.275833542724
 31
0.0
  0
LINE
  5
B0E
102
{ACAD_REACTORS
330
BB4
102
}
330
1F
100
AcDbEntity
  8
中心線
100
AcDbLine
 10
1519.385482304608
 20
726.2757270755275
 30
0.0
 11
1689.385482304608
 21
726.2757270755275
 31
0.0
  0
LINE
  5
B0F
102
{ACAD_REACTORS
330
BB0
102
}
330
1F
100
AcDbEntity
  8
中心線
100
AcDbLine
 10
764.2509482492181
 20
526.9757270755272
 30
0.0
 11
764.2509482492178
 21
405.6757270755273
 31
0.0
  0
ENDSEC
  0
SECTION
  2
OBJECTS
  0
DICTIONARY
  5
C
330
0
100
AcDbDictionary
281
     1
  3
ACAD_CIP_PREVIOUS_PRODUCT_INFO
350
34D
  3
ACAD_COLOR
350
343
  3
ACAD_DETAILVIEWSTYLE
350
346
  3
ACAD_GROUP
350
D
  3
ACAD_LAYOUT
350
1A
  3
ACAD_MATERIAL
350
43
  3
ACAD_MLEADERSTYLE
350
5B
  3
ACAD_MLINESTYLE
350
17
  3
ACAD_PLOTSETTINGS
350
19
  3
ACAD_PLOTSTYLENAME
350
E
  3
ACAD_SCALELIST
350
47
  3
ACAD_SECTIONVIEWSTYLE
350
344
  3
ACAD_TABLESTYLE
350
59
  3
ACAD_VISUALSTYLE
350
2A
  3
ACDB_RECOMPOSE_DATA
350
C0E
  3
AcDbVariableDictionary
350
2F8
  3
DWGPROPS
350
C0F
  0
DICTIONARY
  5
354
330
2
100
AcDbDictionary
280
     1
281
     1
  3
ACAD_LAYERSTATES
360
355
  0
DICTIONARY
  5
AC1
330
10
100
AcDbDictionary
280
     1
281
     1
  3
ADSK_XREC_LAYER_RECONCILED
360
AC2
  0
DICTIONARY
  5
350
330
34F
100
AcDbDictionary
280
     1
281
     1
  3
ADSK_XREC_LAYER_RECONCILED
360
AC3
  0
DICTIONARY
  5
352
330
351
100
AcDbDictionary
280
     1
281
     1
  3
ADSK_XREC_LAYER_RECONCILED
360
AC4
  0
DICTIONARY
  5
8BC
330
1F
100
AcDbDictionary
280
     1
281
     1
  3
ACAD_SORTENTS
360
8BD
  0
XRECORD
  5
34D
102
{ACAD_REACTORS
330
C
102
}
330
C
100
AcDbXrecord
280
     1
300
ACDLT
300
2016
300
ACDLT_F_S
  0
DICTIONARY
  5
343
102
{ACAD_REACTORS
330
C
102
}
330
C
100
AcDbDictionary
281
     1
  0
DICTIONARY
  5
346
102
{ACAD_REACTORS
330
C
102
}
330
C
100
AcDbDictionary
281
     1
  3
Metric50
350
347
  0
DICTIONARY
  5
D
102
{ACAD_REACTORS
330
C
102
}
330
C
100
AcDbDictionary
281
     1
  3
*A1
350
BB3
  3
*A2
350
BB4
  3
*A3
350
BB5
  3
*A4
350
BB0
  3
*A5
350
BB1
  3
*A6
350
BB2
  0
DICTIONARY
  5
1A
102
{ACAD_REACTORS
330
C
102
}
330
C
100
AcDbDictionary
281
     1
  3
Layout1
350
1E
  3
Model
350
22
  3
レイアウト1
350
348
  0
DICTIONARY
  5
43
102
{ACAD_REACTORS
330
C
102
}
330
C
100
AcDbDictionary
281
     1
  3
ByBlock
350
45
  3
ByLayer
350
44
  3
Global
350
46
  0
DICTIONARY
  5
5B
102
{ACAD_REACTORS
330
C
102
}
330
C
100
AcDbDictionary
281
     1
  3
Standard
350
5C
  0
DICTIONARY
  5
17
102
{ACAD_REACTORS
330
C
102
}
330
C
100
AcDbDictionary
281
     1
  3
Standard
350
18
  0
DICTIONARY
  5
19
102
{ACAD_REACTORS
330
C
102
}
330
C
100
AcDbDictionary
281
     1
  0
ACDBDICTIONARYWDFLT
  5
E
102
{ACAD_REACTORS
330
C
102
}
330
C
100
AcDbDictionary
281
     1
  3
Normal
350
F
100
AcDbDictionaryWithDefault
340
F
  0
DICTIONARY
  5
47
102
{ACAD_REACTORS
330
C
102
}
330
C
100
AcDbDictionary
281
     1
  3
A0
350
48
  3
A1
350
49
  3
A2
350
4A
  3
A3
350
4B
  3
A4
350
4C
  3
A5
350
4D
  3
A6
350
4E
  3
A7
350
4F
  3
A8
350
50
  3
A9
350
51
  3
B0
350
52
  3
B1
350
53
  3
B2
350
54
  3
B3
350
55
  3
B4
350
56
  3
B5
350
57
  3
B6
350
58
  0
DICTIONARY
  5
344
102
{ACAD_REACTORS
330
C
102
}
330
C
100
AcDbDictionary
281
     1
  3
Metric50
350
345
  0
DICTIONARY
  5
59
102
{ACAD_REACTORS
330
C
102
}
330
C
100
AcDbDictionary
281
     1
  3
Standard
350
5A
  0
DICTIONARY
  5
2A
102
{ACAD_REACTORS
330
C
102
}
330
C
100
AcDbDictionary
281
     1
  3
2dWireframe
350
2F
  3
Basic
350
32
  3
Brighten
350
36
  3
ColorChange
350
3A
  3
Conceptual
350
34
  3
Dim
350
35
  3
EdgeColorOff
350
3D
  3
Facepattern
350
39
  3
Flat
350
2B
  3
FlatWithEdges
350
2C
  3
Gouraud
350
2D
  3
GouraudWithEdges
350
2E
  3
Hidden
350
31
  3
JitterOff
350
3B
  3
Linepattern
350
38
  3
OverhangOff
350
3C
  3
Realistic
350
33
  3
Shaded
350
42
  3
Shaded with edges
350
41
  3
Shades of Gray
350
3E
  3
Sketchy
350
3F
  3
Thicken
350
37
  3
Wireframe
350
30
  3
X-Ray
350
40
  0
XRECORD
  5
C0E
102
{ACAD_REACTORS
330
C
102
}
330
C
100
AcDbXrecord
280
     1
 90
        1
330
5A
  0
DICTIONARY
  5
2F8
102
{ACAD_REACTORS
330
C
102
}
330
C
100
AcDbDictionary
281
     1
  3
CANNOSCALE
350
306
  3
CENTEREXE
350
2FF
  3
CENTERLTYPEFILE
350
300
  3
CMLEADERSTYLE
350
2FA
  3
CTABLESTYLE
350
2F9
  3
CVIEWDETAILSTYLE
350
AC5
  3
CVIEWSECTIONSTYLE
350
AC6
  3
DIMASSOC
350
301
  3
HIDETEXT
350
302
  3
INDEXCTL
350
B1A
  3
LAYEREVAL
350
AC8
  3
LAYERNOTIFY
350
AC9
  3
LIGHTINGUNITS
350
AC7
  3
LOFTANG1
350
C0A
  3
LOFTANG2
350
C0B
  3
MSLTSCALE
350
307
  3
PSOLHEIGHT
350
C09
  3
PSOLWIDTH
350
C08
  3
SORTENTS
350
B19
  3
XCLIPFRAME
350
C0C
  0
XRECORD
  5
C0F
102
{ACAD_REACTORS
330
C
102
}
330
C
100
AcDbXrecord
280
     1
  1
DWGPROPS COOKIE
  2

  3

  4

  6
File was created by TR2_DExp
  7

  8
t.yanai
  9

300
=
301
=
302
=
303
=
304
=
305
=
306
=
307
=
308
=
309
=
 40
0.0398713078703704
 41
2455188.75
 42
2459753.601196574
  1

 90
        0
  0
DICTIONARY
  5
355
102
{ACAD_REACTORS
330
354
102
}
330
354
100
AcDbDictionary
281
     1
  0
XRECORD
  5
AC2
102
{ACAD_REACTORS
330
AC1
102
}
330
AC1
100
AcDbXrecord
280
     1
290
     1
  0
XRECORD
  5
AC3
102
{ACAD_REACTORS
330
350
102
}
330
350
100
AcDbXrecord
280
     1
290
     1
  0
XRECORD
  5
AC4
102
{ACAD_REACTORS
330
352
102
}
330
352
100
AcDbXrecord
280
     1
290
     1
  0
SORTENTSTABLE
  5
8BD
102
{ACAD_REACTORS
330
8BC
102
}
330
8BC
100
AcDbSortentsTable
330
1F
331
8BE
  5
731
331
8BA
  5
A9F
331
83D
  5
7C5
331
87C
  5
804
331
839
  5
7C1
331
878
  5
800
331
874
  5
7FC
331
835
  5
B06
331
831
  5
AB1
331
870
  5
7F8
331
A9F
  5
5FA
331
A9B
  5
5F6
331
A97
  5
5F2
331
A93
  5
5EE
331
8FF
  5
772
331
936
  5
7A9
331
975
  5
711
331
8B4
  5
83C
331
8FB
  5
76E
331
932
  5
7A5
331
971
  5
70D
331
96D
  5
709
331
8B0
  5
838
331
8F7
  5
76A
331
92E
  5
7A1
331
92A
  5
79D
331
969
  5
705
331
8AC
  5
834
331
8F3
  5
766
331
8A8
  5
830
331
A64
  5
669
331
9AF
  5
68D
331
9EE
  5
6CC
331
A25
  5
62A
331
A21
  5
626
331
A60
  5
665
331
9AB
  5
689
331
9EA
  5
6C8
331
9E6
  5
6C4
331
A1D
  5
622
331
A5C
  5
661
331
9A7
  5
685
331
9E2
  5
6C0
331
A19
  5
61E
331
A58
  5
65D
331
9A3
  5
681
331
82D
  5
AAB
331
86C
  5
7F4
331
829
  5
AA6
331
868
  5
7F0
331
864
  5
7EC
331
860
  5
7E8
331
A8F
  5
5EA
331
A8B
  5
5E6
331
A87
  5
5E2
331
A83
  5
5DE
331
8EF
  5
762
331
926
  5
799
331
965
  5
701
331
8A4
  5
82C
331
8EB
  5
75E
331
922
  5
795
331
961
  5
6FD
331
95D
  5
6F8
331
8A0
  5
828
331
8E7
  5
75A
331
91E
  5
791
331
91A
  5
78D
331
959
  5
6F4
331
89C
  5
824
331
8E3
  5
756
331
898
  5
820
331
A54
  5
659
331
99F
  5
67D
331
9DE
  5
6BC
331
A15
  5
61A
331
A11
  5
616
331
A50
  5
655
331
99B
  5
679
331
9DA
  5
6B8
331
A0D
  5
612
331
A4C
  5
651
331
997
  5
675
331
9D6
  5
6B4
331
9D2
  5
6B0
331
A09
  5
60E
331
A48
  5
64D
331
993
  5
72F
331
85C
  5
7E4
331
897
  5
81F
331
825
  5
AA4
331
858
  5
7E0
331
854
  5
7DC
331
893
  5
81B
331
850
  5
7D8
331
B0E
  5
B5F
331
B0A
  5
B0E
331
B06
  5
B0B
331
8DF
  5
752
331
955
  5
6EF
331
8DB
  5
74E
331
951
  5
6EB
331
94D
  5
6E7
331
98C
  5
728
331
8D7
  5
74A
331
916
  5
789
331
912
  5
785
331
949
  5
7BC
331
988
  5
724
331
8D3
  5
746
331
A44
  5
649
331
9CE
  5
6AC
331
A40
  5
645
331
A7F
  5
5DA
331
9CA
  5
6A8
331
A05
  5
6E3
331
A3C
  5
641
331
A7B
  5
5D6
331
9C6
  5
6A4
331
9C2
  5
6A0
331
A01
  5
6DF
331
A38
  5
63D
331
88F
  5
817
331
AB2
  5
B09
331
84C
  5
7D4
331
88B
  5
813
331
887
  5
80F
331
848
  5
7D0
331
844
  5
7CC
331
883
  5
80B
331
840
  5
7C8
331
AAE
  5
609
331
AAA
  5
605
331
AA2
  5
5FD
331
90E
  5
781
331
945
  5
7B8
331
984
  5
720
331
8CF
  5
742
331
980
  5
71C
331
8CB
  5
73E
331
90A
  5
77D
331
941
  5
7B4
331
93D
  5
7B0
331
97C
  5
718
331
8C7
  5
73A
331
906
  5
779
331
939
  5
7AC
331
978
  5
714
331
8C3
  5
736
331
902
  5
775
331
A77
  5
5D2
331
A73
  5
5CE
331
9BE
  5
69C
331
9FD
  5
6DB
331
A34
  5
639
331
A30
  5
635
331
A6F
  5
5CA
331
9BA
  5
698
331
9F9
  5
6D7
331
9F5
  5
6D3
331
A2C
  5
631
331
A6B
  5
670
331
9B6
  5
694
331
9B2
  5
690
331
9F1
  5
6CF
331
A28
  5
62D
331
87F
  5
807
331
8B9
  5
841
331
83C
  5
7C4
331
87B
  5
803
331
877
  5
7FF
331
838
  5
7C0
331
873
  5
7FB
331
834
  5
AB3
331
830
  5
AAF
331
A9E
  5
5F9
331
A9A
  5
5F5
331
A96
  5
5F1
331
A92
  5
5ED
331
8FE
  5
771
331
935
  5
7A8
331
974
  5
710
331
8B7
  5
83F
331
970
  5
70C
331
8B3
  5
83B
331
8FA
  5
76D
331
931
  5
7A4
331
96C
  5
708
331
8AF
  5
837
331
8F6
  5
769
331
92D
  5
7A0
331
929
  5
79C
331
968
  5
704
331
8AB
  5
833
331
8F2
  5
765
331
A67
  5
66C
331
A63
  5
668
331
9AE
  5
68C
331
9ED
  5
6CB
331
A24
  5
629
331
A20
  5
625
331
A5F
  5
664
331
9AA
  5
688
331
9E9
  5
6C7
331
9E5
  5
6C3
331
A1C
  5
621
331
A5B
  5
660
331
9A6
  5
684
331
9A2
  5
680
331
9E1
  5
6BF
331
A18
  5
61D
331
86F
  5
7F7
331
82C
  5
AAA
331
86B
  5
7F3
331
867
  5
7EF
331
863
  5
7EB
331
A8E
  5
5E9
331
A8A
  5
5E5
331
A86
  5
5E1
331
A82
  5
5DD
331
8EE
  5
761
331
925
  5
798
331
964
  5
700
331
8A7
  5
82F
331
8A3
  5
82B
331
8EA
  5
75D
331
921
  5
794
331
960
  5
6FB
331
95C
  5
6F7
331
89F
  5
827
331
8E6
  5
759
331
91D
  5
790
331
919
  5
78C
331
958
  5
6F2
331
89B
  5
823
331
8E2
  5
755
331
A57
  5
65C
331
A53
  5
658
331
99E
  5
67C
331
9DD
  5
6BB
331
A14
  5
619
331
A10
  5
615
331
A4F
  5
654
331
99A
  5
678
331
9D9
  5
6B7
331
9D5
  5
6B3
331
A0C
  5
611
331
A4B
  5
650
331
996
  5
674
331
9D1
  5
6AF
331
A08
  5
60D
331
992
  5
72E
331
85F
  5
7E7
331
85B
  5
7E3
331
896
  5
81E
331
824
  5
AA1
331
857
  5
7DF
331
853
  5
7DB
331
892
  5
81A
331
B0D
  5
B08
331
B09
  5
AB0
331
8DE
  5
751
331
954
  5
6EE
331
98F
  5
72B
331
8DA
  5
74D
331
950
  5
6EA
331
94C
  5
6E6
331
98B
  5
727
331
8D6
  5
749
331
915
  5
788
331
911
  5
784
331
948
  5
7BB
331
8D2
  5
745
331
A47
  5
64C
331
A43
  5
648
331
9CD
  5
6AB
331
A3F
  5
644
331
A7E
  5
5D9
331
9C9
  5
6A7
331
A04
  5
6E2
331
A3B
  5
640
331
A7A
  5
5D5
331
9C5
  5
6A3
331
9C1
  5
69F
331
A00
  5
6DE
331
84F
  5
7D7
331
88E
  5
816
331
AB1
  5
B07
331
84B
  5
7D3
331
88A
  5
812
331
886
  5
80E
331
847
  5
7CF
331
843
  5
7CB
331
882
  5
80A
331
AAD
  5
608
331
AA9
  5
604
331
AA1
  5
5FC
331
987
  5
723
331
8CE
  5
741
331
90D
  5
780
331
944
  5
7B7
331
983
  5
71F
331
97F
  5
71B
331
8CA
  5
73D
331
909
  5
77C
331
940
  5
7B3
331
93C
  5
7AF
331
97B
  5
717
331
8C6
  5
739
331
905
  5
778
331
901
  5
774
331
938
  5
7AB
331
8C2
  5
735
331
A76
  5
5D1
331
A37
  5
63C
331
A33
  5
638
331
A72
  5
5CD
331
9BD
  5
69B
331
9FC
  5
6DA
331
A2F
  5
634
331
A6E
  5
5C9
331
9B9
  5
697
331
9F8
  5
6D6
331
9F4
  5
6D2
331
A2B
  5
630
331
A6A
  5
66F
331
9B5
  5
693
331
9B1
  5
68F
331
9F0
  5
6CE
331
83F
  5
7C7
331
87E
  5
806
331
8B8
  5
840
331
83B
  5
7C3
331
87A
  5
802
331
876
  5
7FE
331
837
  5
7BF
331
872
  5
7FA
331
A9D
  5
5F8
331
A99
  5
5F4
331
A95
  5
5F0
331
A91
  5
5EC
331
977
  5
713
331
8FD
  5
770
331
934
  5
7A7
331
973
  5
70F
331
8B6
  5
83E
331
96F
  5
70B
331
8B2
  5
83A
331
8F9
  5
76C
331
930
  5
7A3
331
92C
  5
79F
331
96B
  5
707
331
8AE
  5
836
331
8F5
  5
768
331
928
  5
79B
331
8AA
  5
832
331
8F1
  5
764
331
A66
  5
66B
331
A27
  5
62C
331
A62
  5
667
331
9AD
  5
68B
331
9EC
  5
6CA
331
A23
  5
628
331
A1F
  5
624
331
A5E
  5
663
331
9A9
  5
687
331
9E8
  5
6C6
331
9E4
  5
6C2
331
A1B
  5
620
331
A5A
  5
65F
331
9A5
  5
683
331
9A1
  5
67F
331
9E0
  5
6BE
331
82F
  5
AAD
331
86E
  5
7F6
331
82B
  5
AA9
331
86A
  5
7F2
331
866
  5
7EE
331
862
  5
7EA
331
A8D
  5
5E8
331
A89
  5
5E4
331
A85
  5
5E0
331
A81
  5
5DC
331
967
  5
703
331
8ED
  5
760
331
924
  5
797
331
963
  5
6FF
331
8A6
  5
82E
331
95F
  5
6FA
331
8A2
  5
82A
331
8E9
  5
75C
331
920
  5
793
331
95B
  5
6F6
331
89E
  5
826
331
8E5
  5
758
331
91C
  5
78F
331
918
  5
78B
331
89A
  5
822
331
8E1
  5
754
331
A17
  5
61C
331
A56
  5
65B
331
A52
  5
657
331
99D
  5
67B
331
9DC
  5
6BA
331
A13
  5
618
331
A0F
  5
614
331
A4E
  5
653
331
999
  5
677
331
9D8
  5
6B6
331
9D4
  5
6B2
331
A0B
  5
610
331
A4A
  5
64F
331
995
  5
673
331
991
  5
72D
331
9D0
  5
6AE
331
85E
  5
7E6
331
85A
  5
7E2
331
895
  5
81D
331
856
  5
7DE
331
852
  5
7DA
331
891
  5
819
331
B0C
  5
AA7
331
B08
  5
B0D
331
957
  5
6F1
331
8DD
  5
750
331
953
  5
6ED
331
98E
  5
72A
331
8D9
  5
74C
331
94F
  5
6E9
331
94B
  5
6E5
331
98A
  5
726
331
8D5
  5
748
331
914
  5
787
331
910
  5
783
331
8D1
  5
744
331
A46
  5
64B
331
A42
  5
647
331
9CC
  5
6AA
331
A07
  5
60C
331
A3E
  5
643
331
A7D
  5
5D8
331
9C8
  5
6A6
331
9C4
  5
6A2
331
A03
  5
6E1
331
A3A
  5
63F
331
A79
  5
5D4
331
9C0
  5
69E
331
84E
  5
7D6
331
88D
  5
815
331
AB0
  5
60B
331
84A
  5
7D2
331
889
  5
811
331
885
  5
80D
331
846
  5
7CE
331
842
  5
7CA
331
881
  5
809
331
AAC
  5
607
331
AA8
  5
603
331
AA4
  5
5FF
331
AA0
  5
5FB
331
947
  5
7BA
331
986
  5
722
331
8CD
  5
740
331
90C
  5
77F
331
943
  5
7B6
331
982
  5
71E
331
97E
  5
71A
331
8C9
  5
73C
331
908
  5
77B
331
93F
  5
7B2
331
93B
  5
7AE
331
97A
  5
716
331
8C5
  5
738
331
904
  5
777
331
900
  5
773
331
8C1
  5
734
331
A75
  5
5D0
331
9FF
  5
6DD
331
A36
  5
63B
331
A32
  5
637
331
A71
  5
5CC
331
9BC
  5
69A
331
9FB
  5
6D9
331
9F7
  5
6D5
331
A2E
  5
633
331
A6D
  5
672
331
9B8
  5
696
331
9F3
  5
6D1
331
A2A
  5
62F
331
A69
  5
66E
331
9B4
  5
692
331
9B0
  5
68E
331
8BF
  5
732
331
8BB
  5
AA0
331
83E
  5
7C6
331
87D
  5
805
331
83A
  5
7C2
331
879
  5
801
331
875
  5
7FD
331
836
  5
7BE
331
832
  5
AB2
331
871
  5
7F9
331
A9C
  5
5F7
331
A98
  5
5F3
331
A94
  5
5EF
331
A90
  5
5EB
331
937
  5
7AA
331
976
  5
712
331
8B5
  5
83D
331
8FC
  5
76F
331
933
  5
7A6
331
972
  5
70E
331
96E
  5
70A
331
8B1
  5
839
331
8F8
  5
76B
331
92F
  5
7A2
331
92B
  5
79E
331
96A
  5
706
331
8AD
  5
835
331
8F4
  5
767
331
8F0
  5
763
331
8A9
  5
831
331
A65
  5
66A
331
9EF
  5
6CD
331
A26
  5
62B
331
A22
  5
627
331
A61
  5
666
331
9AC
  5
68A
331
9EB
  5
6C9
331
A1E
  5
623
331
A5D
  5
662
331
9A8
  5
686
331
9E7
  5
6C5
331
9E3
  5
6C1
331
A1A
  5
61F
331
A59
  5
65E
331
9A4
  5
682
331
9A0
  5
67E
331
82E
  5
AAC
331
86D
  5
7F5
331
82A
  5
AA8
331
869
  5
7F1
331
865
  5
7ED
331
861
  5
7E9
331
A8C
  5
5E7
331
A88
  5
5E3
331
A84
  5
5DF
331
A80
  5
5DB
331
927
  5
79A
331
966
  5
702
331
8EC
  5
75F
331
923
  5
796
331
962
  5
6FE
331
8A5
  5
82D
331
95E
  5
6F9
331
8A1
  5
829
331
8E8
  5
75B
331
91F
  5
792
331
91B
  5
78E
331
95A
  5
6F5
331
89D
  5
825
331
8E4
  5
757
331
899
  5
821
331
8E0
  5
753
331
A55
  5
65A
331
9DF
  5
6BD
331
A16
  5
61B
331
A51
  5
656
331
99C
  5
67A
331
9DB
  5
6B9
331
A12
  5
617
331
A0E
  5
613
331
A4D
  5
652
331
998
  5
676
331
9D7
  5
6B5
331
9D3
  5
6B1
331
A0A
  5
60F
331
A49
  5
64E
331
994
  5
730
331
990
  5
72C
331
85D
  5
7E5
331
826
  5
AA5
331
859
  5
7E1
331
855
  5
7DD
331
894
  5
81C
331
851
  5
7D9
331
890
  5
818
331
B0F
  5
B60
331
B0B
  5
B0F
331
B07
  5
B0C
331
956
  5
6F0
331
8DC
  5
74F
331
952
  5
6EC
331
94E
  5
6E8
331
98D
  5
729
331
8D8
  5
74B
331
917
  5
78A
331
94A
  5
7BD
331
989
  5
725
331
8D4
  5
747
331
913
  5
786
331
8D0
  5
743
331
9CF
  5
6AD
331
A45
  5
64A
331
A41
  5
646
331
9CB
  5
6A9
331
A06
  5
6E4
331
A3D
  5
642
331
A7C
  5
5D7
331
9C7
  5
6A5
331
9C3
  5
6A1
331
A02
  5
6E0
331
A39
  5
63E
331
A78
  5
5D3
331
AB3
  5
B0A
331
84D
  5
7D5
331
88C
  5
814
331
888
  5
810
331
849
  5
7D1
331
884
  5
80C
331
845
  5
7CD
331
841
  5
7C9
331
880
  5
808
331
AAF
  5
60A
331
AAB
  5
606
331
AA7
  5
602
331
AA3
  5
5FE
331
90F
  5
782
331
946
  5
7B9
331
985
  5
721
331
981
  5
71D
331
8CC
  5
73F
331
90B
  5
77E
331
942
  5
7B5
331
97D
  5
719
331
8C8
  5
73B
331
907
  5
77A
331
93E
  5
7B1
331
93A
  5
7AD
331
979
  5
715
331
8C4
  5
737
331
903
  5
776
331
8C0
  5
733
331
A74
  5
5CF
331
9BF
  5
69D
331
9FE
  5
6DC
331
A35
  5
63A
331
A31
  5
636
331
A70
  5
5CB
331
9BB
  5
699
331
9FA
  5
6D8
331
9F6
  5
6D4
331
A2D
  5
632
331
A6C
  5
671
331
9B7
  5
695
331
9B3
  5
691
331
9F2
  5
6D0
331
A29
  5
62E
331
A68
  5
66D
  0
ACDBDETAILVIEWSTYLE
  5
347
102
{ACAD_XDICTIONARY
360
C47
102
}
102
{ACAD_REACTORS
330
346
102
}
330
346
100
AcDbModelDocViewStyle
 70
     0
  3
Metric50
290
     0
100
AcDbDetailViewStyle
 70
     0
 71
     0
 90
        3
 71
     1
340
11
 40
5.0
340
0
 40
5.0
300

 40
0.0
280
     1
 71
     2
340
16
 90
       25
 71
     3
340
11
 40
5.0
 90
        0
 40
15.0
 90
        1
300
%<\AcVar ViewDetailId>% (%<\AcVar ViewScale \f "%sn">%)
 71
     4
340
16
 90
       25
340
16
 90
       25
280
     0
  0
GROUP
  5
BB3
102
{ACAD_REACTORS
330
D
102
}
330
D
100
AcDbGroup
300

 70
     1
 71
     1
340
B0B
340
832
340
82A
340
B0C
340
829
340
A06
340
A05
340
A04
340
A03
340
A02
340
A01
340
A00
340
9FF
340
9FE
340
9FD
340
9FC
340
9FB
340
9FA
340
9F9
340
9F8
340
9F7
340
9F6
340
9F5
340
9F4
340
9F3
340
9F2
340
9F1
340
9F0
340
9EF
340
9EE
340
9ED
340
9EC
340
9EB
340
9EA
340
9E9
340
9E8
340
9E7
340
9E6
340
9E5
340
9E4
340
9E3
340
9E2
340
9E1
340
9E0
340
9DF
340
9DE
340
9DD
340
9DC
340
9DB
340
9DA
340
9D9
340
9D8
340
9D7
340
9D6
340
9D5
340
9D4
340
9D3
340
9D2
340
9D1
340
9D0
340
9CF
340
9CE
340
9CD
340
9CC
340
9CB
340
9CA
340
9C9
340
9C8
340
9C7
340
9C6
340
9C5
340
9C4
340
9C3
340
9C2
340
9C1
340
9C0
340
9BF
340
9BE
340
9BD
340
9BC
340
9BB
340
9BA
340
9B9
340
9B8
340
9B7
340
9B6
340
9B5
340
9B4
340
9B3
340
9B2
340
9B1
340
9B0
340
9AF
340
9AE
340
9AD
340
9AC
340
9AB
340
9AA
340
9A9
340
9A8
340
9A7
340
9A6
340
9A5
340
9A4
340
9A3
340
9A2
340
9A1
340
9A0
340
99F
340
99E
340
99D
340
99C
340
99B
340
99A
340
999
340
998
340
997
340
996
340
995
  0
GROUP
  5
BB4
102
{ACAD_REACTORS
330
D
102
}
330
D
100
AcDbGroup
300

 70
     1
 71
     1
340
B0E
340
AB3
340
AB2
340
B0D
340
AB1
340
994
340
993
340
992
340
991
340
990
340
98F
340
98E
340
98D
340
98C
340
98B
340
98A
340
989
340
988
340
987
340
986
340
985
340
984
340
983
340
982
340
981
340
980
340
97F
340
97E
340
97D
340
97C
340
97B
340
97A
340
979
340
978
340
977
340
976
340
975
340
974
340
973
340
972
340
971
340
970
340
96F
340
96E
340
96D
340
96C
340
96B
340
96A
340
969
340
968
340
967
340
966
340
965
340
964
340
963
340
962
340
961
340
960
340
95F
340
95E
340
95D
340
95C
340
95B
340
95A
340
959
340
958
340
957
340
956
340
955
340
954
340
953
340
952
340
951
340
950
340
94F
340
94E
340
94D
340
94C
340
94B
  0
GROUP
  5
BB5
102
{ACAD_REACTORS
330
D
102
}
330
D
100
AcDbGroup
300

 70
     1
 71
     1
340
B06
340
82F
340
82E
340
82D
340
94A
340
949
340
948
340
947
340
946
340
945
340
944
340
943
340
942
340
941
340
940
340
93F
340
93E
340
93D
340
93C
340
93B
340
93A
340
939
340
938
340
937
340
936
340
935
340
934
340
933
340
932
340
931
340
930
340
92F
340
92E
340
92D
340
92C
340
92B
340
92A
340
929
340
928
340
927
340
926
340
925
340
924
340
923
340
922
340
921
340
920
340
91F
340
91E
340
91D
340
91C
340
91B
340
91A
340
919
340
918
340
917
340
916
340
915
340
914
340
913
340
912
340
911
340
910
340
90F
340
90E
340
90D
340
90C
340
90B
340
90A
340
909
340
908
340
907
340
906
340
905
340
904
340
903
340
902
340
901
340
900
340
8FF
340
8FE
340
8FD
340
8FC
340
8FB
340
8FA
340
8F9
340
8F8
340
8F7
340
8F6
340
8F5
340
8F4
340
8F3
340
8F2
340
8F1
340
8F0
340
8EF
340
8EE
340
8ED
340
8EC
340
8EB
340
8EA
340
8E9
340
8E8
340
8E7
340
8E6
340
8E5
340
8E4
340
8E3
340
8E2
340
8E1
340
8E0
340
8DF
340
8DE
340
8DD
340
8DC
340
8DB
340
8DA
340
8D9
340
8D8
340
8D7
340
8D6
340
8D5
340
8D4
340
8D3
340
8D2
340
8D1
340
8D0
340
8CF
340
8CE
340
8CD
340
8CC
340
8CB
340
8CA
340
8C9
340
8C8
340
8C7
340
8C6
340
8C5
340
8C4
340
8C3
340
8C2
340
8C1
340
8C0
340
8BF
340
8BE
  0
GROUP
  5
BB0
102
{ACAD_REACTORS
330
D
102
}
330
D
100
AcDbGroup
300

 70
     1
 71
     1
340
B0F
340
826
340
825
340
824
340
8BB
340
8BA
340
8B9
340
8B8
340
8B7
340
8B6
340
8B5
340
8B4
340
8B3
340
8B2
340
8B1
340
8B0
340
8AF
340
8AE
340
8AD
340
8AC
340
8AB
340
8AA
340
8A9
340
8A8
340
8A7
340
8A6
340
8A5
340
8A4
340
8A3
340
8A2
340
8A1
340
8A0
340
89F
340
89E
340
89D
340
89C
340
89B
340
89A
340
899
340
898
340
897
340
896
340
895
340
894
340
893
340
892
340
891
340
890
340
88F
340
88E
340
88D
340
88C
340
88B
340
88A
340
889
340
888
340
887
340
886
340
885
340
884
340
883
340
882
340
881
340
880
340
87F
340
87E
340
87D
340
87C
340
87B
340
87A
340
879
340
878
340
877
340
876
340
875
340
874
340
873
340
872
340
871
340
870
340
86F
340
86E
340
86D
340
86C
340
86B
340
86A
340
869
340
868
340
867
340
866
340
865
340
864
340
863
340
862
340
861
340
860
340
85F
340
85E
340
85D
340
85C
340
85B
340
85A
340
859
340
858
340
857
340
856
340
855
340
854
340
853
340
852
340
851
340
850
340
84F
340
84E
340
84D
340
84C
340
84B
340
84A
340
849
340
848
340
847
340
846
340
845
340
844
340
843
340
842
340
841
340
840
340
83F
340
83E
340
83D
340
83C
340
83B
340
83A
340
839
340
838
340
837
340
836
  0
GROUP
  5
BB1
102
{ACAD_REACTORS
330
D
102
}
330
D
100
AcDbGroup
300

 70
     1
 71
     1
340
B0A
340
B08
340
831
340
B09
340
830
340
A6D
340
A6C
340
A6B
340
A6A
340
A69
340
A68
340
A67
340
A66
340
A65
340
A64
340
A63
340
A62
340
A61
340
A60
340
A5F
340
A5E
340
A5D
340
A5C
340
A5B
340
A5A
340
A59
340
A58
340
A57
340
A56
340
A55
340
A54
340
A53
340
A52
340
A51
340
A50
340
A4F
340
A4E
340
A4D
340
A4C
340
A4B
340
A4A
340
A49
340
A48
340
A47
340
A46
340
A45
340
A44
340
A43
340
A42
340
A41
340
A40
340
A3F
340
A3E
340
A3D
340
A3C
340
A3B
340
A3A
340
A39
340
A38
340
A37
340
A36
340
A35
340
A34
340
A33
340
A32
340
A31
340
A30
340
A2F
340
A2E
340
A2D
340
A2C
340
A2B
340
A2A
340
A29
340
A28
340
A27
340
A26
340
A25
340
A24
340
A23
340
A22
340
A21
340
A20
340
A1F
340
A1E
340
A1D
340
A1C
340
A1B
340
A1A
340
A19
340
A18
340
A17
340
A16
340
A15
340
A14
340
A13
340
A12
340
A11
340
A10
340
A0F
340
A0E
340
A0D
340
A0C
340
A0B
340
A0A
340
A09
340
A08
340
A07
  0
GROUP
  5
BB2
102
{ACAD_REACTORS
330
D
102
}
330
D
100
AcDbGroup
300

 70
     1
 71
     1
340
B07
340
835
340
834
340
82C
340
82B
340
AB0
340
AAF
340
AAE
340
AAD
340
AAC
340
AAB
340
AAA
340
AA9
340
AA8
340
AA7
340
AA4
340
AA3
340
AA2
340
AA1
340
AA0
340
A9F
340
A9E
340
A9D
340
A9C
340
A9B
340
A9A
340
A99
340
A98
340
A97
340
A96
340
A95
340
A94
340
A93
340
A92
340
A91
340
A90
340
A8F
340
A8E
340
A8D
340
A8C
340
A8B
340
A8A
340
A89
340
A88
340
A87
340
A86
340
A85
340
A84
340
A83
340
A82
340
A81
340
A80
340
A7F
340
A7E
340
A7D
340
A7C
340
A7B
340
A7A
340
A79
340
A78
340
A77
340
A76
340
A75
340
A74
340
A73
340
A72
340
A71
340
A70
340
A6F
340
A6E
  0
LAYOUT
  5
1E
102
{ACAD_XDICTIONARY
360
C10
102
}
102
{ACAD_REACTORS
330
1A
102
}
330
1A
100
AcDbPlotSettings
  1

  2
none_device
  4

  6

 40
0.0
 41
0.0
 42
0.0
 43
0.0
 44
0.0
 45
0.0
 46
0.0
 47
0.0
 48
0.0
 49
0.0
140
0.0
141
0.0
142
1.0
143
1.0
 70
   688
 72
     1
 73
     0
 74
     5
  7

 75
    16
147
1.0
148
0.0
149
0.0
100
AcDbLayout
  1
Layout1
 70
     1
 71
     1
 10
0.0
 20
0.0
 11
420.0
 21
297.0
 12
0.0
 22
0.0
 32
0.0
 14
1.000000000000000E+20
 24
1.000000000000000E+20
 34
1.000000000000000E+20
 15
-1.000000000000000E+20
 25
-1.000000000000000E+20
 35
-1.000000000000000E+20
146
0.0
 13
0.0
 23
0.0
 33
0.0
 16
1.0
 26
0.0
 36
0.0
 17
0.0
 27
1.0
 37
0.0
 76
     0
330
1B
  0
LAYOUT
  5
22
102
{ACAD_XDICTIONARY
360
C12
102
}
102
{ACAD_REACTORS
330
1A
102
}
330
1A
100
AcDbPlotSettings
  1

  2
none_device
  4
Letter_(8.50_x_11.00_Inches)
  6

 40
6.349999999999997
 41
6.349999999999997
 42
6.350005079999997
 43
6.350005079999997
 44
215.9
 45
279.4
 46
0.0
 47
0.0
 48
0.0
 49
0.0
140
0.0
141
0.0
142
1.0
143
1.0
 70
  1712
 72
     1
 73
     0
 74
     0
  7

 75
     0
147
1.0
148
0.0
149
0.0
100
AcDbLayout
  1
Model
 70
     1
 71
     0
 10
-749.9648254394533
 20
-822.500496673584
 11
1634.662132263184
 21
829.2268989562986
 12
0.0
 22
0.0
 32
0.0
 14
-749.9648254394533
 24
-822.500496673584
 34
0.0
 15
1634.662132263184
 25
829.2268989562986
 35
0.0
146
0.0
 13
0.0
 23
0.0
 33
0.0
 16
1.0
 26
0.0
 36
0.0
 17
0.0
 27
1.0
 37
0.0
 76
     0
330
1F
331
29
  0
LAYOUT
  5
348
102
{ACAD_XDICTIONARY
360
C49
102
}
102
{ACAD_REACTORS
330
1A
102
}
330
1A
100
AcDbPlotSettings
  1

  2
青梅 FX DocuCentre-V C2275 T2
  4

  6

 40
0.0
 41
0.0
 42
0.0
 43
0.0
 44
0.0
 45
0.0
 46
0.0
 47
0.0
 48
0.0
 49
0.0
140
0.0
141
0.0
142
1.0
143
1.0
 70
   688
 72
     0
 73
     0
 74
     5
  7
AutoCAD_PEN.ctb
 75
    16
147
1.0
148
0.0
149
0.0
100
AcDbLayout
  1
レイアウト1
 70
     1
 71
     2
 10
0.0
 20
0.0
 11
12.0
 21
9.0
 12
0.0
 22
0.0
 32
0.0
 14
0.0
 24
0.0
 34
0.0
 15
0.0
 25
0.0
 35
0.0
146
0.0
 13
0.0
 23
0.0
 33
0.0
 16
1.0
 26
0.0
 36
0.0
 17
0.0
 27
1.0
 37
0.0
 76
     0
330
23
  0
MATERIAL
  5
45
102
{ACAD_XDICTIONARY
360
33A
102
}
102
{ACAD_REACTORS
330
43
102
}
330
43
100
AcDbMaterial
  1
ByBlock
  0
MATERIAL
  5
44
102
{ACAD_XDICTIONARY
360
338
102
}
102
{ACAD_REACTORS
330
43
102
}
330
43
100
AcDbMaterial
  1
ByLayer
  0
MATERIAL
  5
46
102
{ACAD_XDICTIONARY
360
33C
102
}
102
{ACAD_REACTORS
330
43
102
}
330
43
100
AcDbMaterial
  1
Global
  0
MLEADERSTYLE
  5
5C
102
{ACAD_REACTORS
330
5B
102
}
330
5B
100
AcDbMLeaderStyle
170
     2
171
     1
172
     0
 90
        2
 40
0.0
 41
0.0
173
     1
 91
-1056964608
340
14
 92
       -2
290
     1
 42
2.0
291
     1
 43
8.0
  3
Standard
 44
4.0
300

342
11
174
     1
178
     6
175
     1
176
     0
 93
-1056964608
 45
4.0
292
     0
297
     0
 46
4.0
 94
-1056964608
 47
1.0
 49
1.0
140
1.0
293
     1
141
0.0
294
     1
177
     0
142
1.0
295
     0
296
     0
143
3.75
1001
ACAD_MLEADERVER
1070
     2
  0
MLINESTYLE
  5
18
102
{ACAD_REACTORS
330
17
102
}
330
17
100
AcDbMlineStyle
  2
STANDARD
 70
     0
  3

 62
   256
 51
90.0
 52
90.0
 71
     2
 49
0.5
 62
   256
  6
BYLAYER
 49
-0.5
 62
   256
  6
BYLAYER
  0
ACDBPLACEHOLDER
  5
F
102
{ACAD_REACTORS
330
E
102
}
330
E
  0
SCALE
  5
48
102
{ACAD_REACTORS
330
47
102
}
330
47
100
AcDbScale
 70
     0
300
1:1
140
1.0
141
1.0
290
     1
  0
SCALE
  5
49
102
{ACAD_REACTORS
330
47
102
}
330
47
100
AcDbScale
 70
     0
300
1:2
140
1.0
141
2.0
290
     0
  0
SCALE
  5
4A
102
{ACAD_REACTORS
330
47
102
}
330
47
100
AcDbScale
 70
     0
300
1:4
140
1.0
141
4.0
290
     0
  0
SCALE
  5
4B
102
{ACAD_REACTORS
330
47
102
}
330
47
100
AcDbScale
 70
     0
300
1:5
140
1.0
141
5.0
290
     0
  0
SCALE
  5
4C
102
{ACAD_REACTORS
330
47
102
}
330
47
100
AcDbScale
 70
     0
300
1:8
140
1.0
141
8.0
290
     0
  0
SCALE
  5
4D
102
{ACAD_REACTORS
330
47
102
}
330
47
100
AcDbScale
 70
     0
300
1:10
140
1.0
141
10.0
290
     0
  0
SCALE
  5
4E
102
{ACAD_REACTORS
330
47
102
}
330
47
100
AcDbScale
 70
     0
300
1:16
140
1.0
141
16.0
290
     0
  0
SCALE
  5
4F
102
{ACAD_REACTORS
330
47
102
}
330
47
100
AcDbScale
 70
     0
300
1:20
140
1.0
141
20.0
290
     0
  0
SCALE
  5
50
102
{ACAD_REACTORS
330
47
102
}
330
47
100
AcDbScale
 70
     0
300
1:30
140
1.0
141
30.0
290
     0
  0
SCALE
  5
51
102
{ACAD_REACTORS
330
47
102
}
330
47
100
AcDbScale
 70
     0
300
1:40
140
1.0
141
40.0
290
     0
  0
SCALE
  5
52
102
{ACAD_REACTORS
330
47
102
}
330
47
100
AcDbScale
 70
     0
300
1:50
140
1.0
141
50.0
290
     0
  0
SCALE
  5
53
102
{ACAD_REACTORS
330
47
102
}
330
47
100
AcDbScale
 70
     0
300
1:100
140
1.0
141
100.0
290
     0
  0
SCALE
  5
54
102
{ACAD_REACTORS
330
47
102
}
330
47
100
AcDbScale
 70
     0
300
2:1
140
2.0
141
1.0
290
     0
  0
SCALE
  5
55
102
{ACAD_REACTORS
330
47
102
}
330
47
100
AcDbScale
 70
     0
300
4:1
140
4.0
141
1.0
290
     0
  0
SCALE
  5
56
102
{ACAD_REACTORS
330
47
102
}
330
47
100
AcDbScale
 70
     0
300
8:1
140
8.0
141
1.0
290
     0
  0
SCALE
  5
57
102
{ACAD_REACTORS
330
47
102
}
330
47
100
AcDbScale
 70
     0
300
10:1
140
10.0
141
1.0
290
     0
  0
SCALE
  5
58
102
{ACAD_REACTORS
330
47
102
}
330
47
100
AcDbScale
 70
     0
300
100:1
140
100.0
141
1.0
290
     0
  0
ACDBSECTIONVIEWSTYLE
  5
345
102
{ACAD_XDICTIONARY
360
C45
102
}
102
{ACAD_REACTORS
330
344
102
}
330
344
100
AcDbModelDocViewStyle
 70
     0
  3
Metric50
290
     0
100
AcDbSectionViewStyle
 70
     0
 71
     0
 90
      102
 71
     1
340
11
 40
5.0
340
0
340
0
 40
5.0
300
I, O, Q, S, X, Z
 40
10.0
 90
        0
 40
2.5
 90
        0
 71
     2
340
16
 90
       25
340
16
 90
       50
 40
5.0
 40
2.5
 40
5.0
 71
     3
340
11
 40
5.0
 90
        0
 40
15.0
 90
        1
300
%<\AcVar ViewSectionStartId>%-%<\AcVar ViewSectionEndId>% (%<\AcVar ViewScale \f "%sn">%)
 71
     4
300
ANSI31
 40
1.0
 90
        0
290
     0
290
     0
 90
        6
 40
0.0
 40
1.570796326794896
 40
0.2617993877991494
 40
1.308996938995747
 40
-0.2617993877991494
 40
1.832595714594044
  0
TABLESTYLE
  5
5A
102
{ACAD_XDICTIONARY
360
ACA
102
}
102
{ACAD_REACTORS
330
59
102
}
330
59
100
AcDbTableStyle
  3
Standard
 70
     0
 71
     0
 40
1.5
 41
1.5
280
     0
281
     0
  7
Standard
140
4.5
170
     2
 62
     0
 63
     7
283
     0
274
    -2
284
     1
 64
     0
275
    -2
285
     1
 65
     0
276
    -2
286
     1
 66
     0
277
    -2
287
     1
 67
     0
278
    -2
288
     1
 68
     0
279
    -2
289
     1
 69
     0
  7
Standard
140
6.0
170
     5
 62
     0
 63
     7
283
     0
274
    -2
284
     1
 64
     0
275
    -2
285
     1
 65
     0
276
    -2
286
     1
 66
     0
277
    -2
287
     1
 67
     0
278
    -2
288
     1
 68
     0
279
    -2
289
     1
 69
     0
  7
Standard
140
4.5
170
     5
 62
     0
 63
     7
283
     0
274
    -2
284
     1
 64
     0
275
    -2
285
     1
 65
     0
276
    -2
286
     1
 66
     0
277
    -2
287
     1
 67
     0
278
    -2
288
     1
 68
     0
279
    -2
289
     1
 69
     0
  0
VISUALSTYLE
  5
2F
102
{ACAD_XDICTIONARY
360
C1C
102
}
102
{ACAD_REACTORS
330
2A
102
}
330
2A
100
AcDbVisualStyle
  2

 70
     4
 71
     0
 72
     2
 73
     0
 90
        0
 40
-0.6
 41
-30.0
 62
     5
 63
     7
 74
     1
 91
        4
 64
     7
 65
   257
 75
     1
175
     1
 42
1.0
 92
        0
 66
   257
 43
1.0
 76
     1
 77
     6
 78
     2
 67
     7
 79
     5
170
     0
171
     0
290
     0
174
     0
 93
        1
 44
0.0
173
     0
291
     0
 45
0.0
1001
ACAD
1000
AcDbSavedByObjectVersion
1070
     0
  0
VISUALSTYLE
  5
32
102
{ACAD_XDICTIONARY
360
C22
102
}
102
{ACAD_REACTORS
330
2A
102
}
330
2A
100
AcDbVisualStyle
  2

 70
     7
 71
     1
 72
     0
 73
     1
 90
        0
 40
-0.6
 41
-30.0
 62
     5
 63
     7
 74
     0
 91
        4
 64
     7
 65
   257
 75
     1
175
     1
 42
1.0
 92
        8
 66
     7
 43
1.0
 76
     1
 77
     6
 78
     2
 67
     7
 79
     5
170
     0
171
     0
290
     0
174
     0
 93
        1
 44
0.0
173
     0
291
     1
 45
0.0
1001
ACAD
1000
AcDbSavedByObjectVersion
1070
     0
  0
VISUALSTYLE
  5
36
102
{ACAD_XDICTIONARY
360
C2A
102
}
102
{ACAD_REACTORS
330
2A
102
}
330
2A
100
AcDbVisualStyle
  2

 70
    12
 71
     2
 72
     2
 73
     0
 90
        0
 40
-0.6
 41
-30.0
 62
     5
 63
     7
 74
     1
 91
        4
 64
     7
 65
   257
 75
     1
175
     1
 42
1.0
 92
        8
 66
     7
 43
1.0
 76
     1
 77
     6
 78
     2
 67
     7
 79
     5
170
     0
171
     0
290
     0
174
     0
 93
        1
 44
50.0
173
     0
291
     1
 45
0.0
1001
ACAD
1000
AcDbSavedByObjectVersion
1070
     0
  0
VISUALSTYLE
  5
3A
102
{ACAD_XDICTIONARY
360
C32
102
}
102
{ACAD_REACTORS
330
2A
102
}
330
2A
100
AcDbVisualStyle
  2

 70
    16
 71
     2
 72
     2
 73
     3
 90
        0
 40
-0.6
 41
-30.0
 62
     5
 63
     8
 74
     1
 91
        4
 64
     7
 65
   257
 75
     1
175
     1
 42
1.0
 92
        8
 66
     8
 43
1.0
 76
     1
 77
     6
 78
     2
 67
     7
 79
     5
170
     0
171
     0
290
     0
174
     0
 93
        1
 44
0.0
173
     0
291
     1
 45
0.0
1001
ACAD
1000
AcDbSavedByObjectVersion
1070
     0
  0
VISUALSTYLE
  5
34
102
{ACAD_XDICTIONARY
360
C26
102
}
102
{ACAD_REACTORS
330
2A
102
}
330
2A
100
AcDbVisualStyle
  2

 70
     9
 71
     3
 72
     2
 73
     0
 90
        0
 40
-0.6
 41
-30.0
 62
     5
 63
     7
 74
     2
 91
        2
 64
     7
 65
   257
 75
     1
175
     1
 42
179.0
 92
        8
 66
     7
 43
1.0
 76
     1
 77
     6
 78
     2
 67
     7
 79
     3
170
     0
171
     0
290
     0
174
     0
 93
        1
 44
0.0
173
     0
291
     0
 45
0.0
1001
ACAD
1000
AcDbSavedByObjectVersion
1070
     0
  0
VISUALSTYLE
  5
35
102
{ACAD_XDICTIONARY
360
C28
102
}
102
{ACAD_REACTORS
330
2A
102
}
330
2A
100
AcDbVisualStyle
  2

 70
    11
 71
     2
 72
     2
 73
     0
 90
        0
 40
-0.6
 41
-30.0
 62
     5
 63
     7
 74
     1
 91
        4
 64
     7
 65
   257
 75
     1
175
     1
 42
1.0
 92
        8
 66
     7
 43
1.0
 76
     1
 77
     6
 78
     2
 67
     7
 79
     5
170
     0
171
     0
290
     0
174
     0
 93
        1
 44
-50.0
173
     0
291
     1
 45
0.0
1001
ACAD
1000
AcDbSavedByObjectVersion
1070
     0
  0
VISUALSTYLE
  5
3D
102
{ACAD_XDICTIONARY
360
C38
102
}
102
{ACAD_REACTORS
330
2A
102
}
330
2A
100
AcDbVisualStyle
  2

 70
    22
 71
     2
 72
     2
 73
     0
 90
        0
 40
-0.6
 41
-30.0
 62
     5
 63
     7
 74
     1
 91
        4
 64
     7
 65
   257
 75
     1
175
     1
 42
1.0
 92
        8
 66
     7
 43
1.0
 76
     1
 77
     6
 78
     2
 67
     7
 79
     5
170
     0
171
     0
290
     0
174
     0
 93
        1
 44
0.0
173
     0
291
     1
 45
0.0
1001
ACAD
1000
AcDbSavedByObjectVersion
1070
     0
  0
VISUALSTYLE
  5
39
102
{ACAD_XDICTIONARY
360
C30
102
}
102
{ACAD_REACTORS
330
2A
102
}
330
2A
100
AcDbVisualStyle
  2

 70
    15
 71
     2
 72
     2
 73
     0
 90
        0
 40
-0.6
 41
-30.0
 62
     5
 63
     7
 74
     1
 91
        4
 64
     7
 65
   257
 75
     1
175
     1
 42
1.0
 92
        8
 66
     7
 43
1.0
 76
     1
 77
     6
 78
     2
 67
     7
 79
     5
170
     0
171
     0
290
     0
174
     0
 93
        1
 44
0.0
173
     0
291
     1
 45
0.0
1001
ACAD
1000
AcDbSavedByObjectVersion
1070
     0
  0
VISUALSTYLE
  5
2B
102
{ACAD_XDICTIONARY
360
C14
102
}
102
{ACAD_REACTORS
330
2A
102
}
330
2A
100
AcDbVisualStyle
  2

 70
     0
 71
     2
 72
     1
 73
     1
 90
        2
 40
-0.6
 41
30.0
 62
     5
 63
     7
 74
     0
 91
        0
 64
     7
 65
   257
 75
     1
175
     1
 42
1.0
 92
        8
 66
     7
 43
1.0
 76
     1
 77
     6
 78
     2
 67
     7
 79
     5
170
     0
171
     0
290
     0
174
     0
 93
       13
 44
0.0
173
     0
291
     1
 45
0.0
1001
ACAD
1000
AcDbSavedByObjectVersion
1070
     0
  0
VISUALSTYLE
  5
2C
102
{ACAD_XDICTIONARY
360
C16
102
}
102
{ACAD_REACTORS
330
2A
102
}
330
2A
100
AcDbVisualStyle
  2

 70
     1
 71
     2
 72
     1
 73
     1
 90
        2
 40
-0.6
 41
30.0
 62
     5
 63
     7
 74
     1
 91
        0
 64
     7
 65
   257
 75
     1
175
     1
 42
1.0
 92
        0
 66
   257
 43
1.0
 76
     1
 77
     6
 78
     2
 67
     7
 79
     5
170
     0
171
     0
290
     0
174
     0
 93
       13
 44
0.0
173
     0
291
     1
 45
0.0
1001
ACAD
1000
AcDbSavedByObjectVersion
1070
     0
  0
VISUALSTYLE
  5
2D
102
{ACAD_XDICTIONARY
360
C18
102
}
102
{ACAD_REACTORS
330
2A
102
}
330
2A
100
AcDbVisualStyle
  2

 70
     2
 71
     2
 72
     2
 73
     1
 90
        2
 40
-0.6
 41
30.0
 62
     5
 63
     7
 74
     0
 91
        0
 64
     7
 65
   257
 75
     1
175
     1
 42
1.0
 92
        0
 66
     7
 43
1.0
 76
     1
 77
     6
 78
     2
 67
     7
 79
     5
170
     0
171
     0
290
     0
174
     0
 93
       13
 44
0.0
173
     0
291
     1
 45
0.0
1001
ACAD
1000
AcDbSavedByObjectVersion
1070
     0
  0
VISUALSTYLE
  5
2E
102
{ACAD_XDICTIONARY
360
C1A
102
}
102
{ACAD_REACTORS
330
2A
102
}
330
2A
100
AcDbVisualStyle
  2

 70
     3
 71
     2
 72
     2
 73
     1
 90
        2
 40
-0.6
 41
30.0
 62
     5
 63
     7
 74
     1
 91
        0
 64
     7
 65
   257
 75
     1
175
     1
 42
1.0
 92
        0
 66
   257
 43
1.0
 76
     1
 77
     6
 78
     2
 67
     7
 79
     5
170
     0
171
     0
290
     0
174
     0
 93
       13
 44
0.0
173
     0
291
     1
 45
0.0
1001
ACAD
1000
AcDbSavedByObjectVersion
1070
     0
  0
VISUALSTYLE
  5
31
102
{ACAD_XDICTIONARY
360
C20
102
}
102
{ACAD_REACTORS
330
2A
102
}
330
2A
100
AcDbVisualStyle
  2

 70
     6
 71
     1
 72
     2
 73
     2
 90
        0
 40
-0.6
 41
-30.0
 62
     5
 63
     7
 74
     2
 91
        2
 64
     7
 65
   257
 75
     2
175
     1
 42
40.0
 92
        0
 66
   257
 43
1.0
 76
     1
 77
     6
 78
     2
 67
     7
 79
     3
170
     0
171
     0
290
     0
174
     0
 93
        1
 44
0.0
173
     0
291
     0
 45
0.0
1001
ACAD
1000
AcDbSavedByObjectVersion
1070
     0
  0
VISUALSTYLE
  5
3B
102
{ACAD_XDICTIONARY
360
C34
102
}
102
{ACAD_REACTORS
330
2A
102
}
330
2A
100
AcDbVisualStyle
  2

 70
    20
 71
     2
 72
     2
 73
     0
 90
        0
 40
-0.6
 41
-30.0
 62
     5
 63
     7
 74
     1
 91
        4
 64
     7
 65
   257
 75
     1
175
     1
 42
1.0
 92
       10
 66
     7
 43
1.0
 76
     1
 77
     6
 78
     2
 67
     7
 79
     5
170
     0
171
     0
290
     0
174
     0
 93
        1
 44
0.0
173
     0
291
     1
 45
0.0
1001
ACAD
1000
AcDbSavedByObjectVersion
1070
     0
  0
VISUALSTYLE
  5
38
102
{ACAD_XDICTIONARY
360
C2E
102
}
102
{ACAD_REACTORS
330
2A
102
}
330
2A
100
AcDbVisualStyle
  2

 70
    14
 71
     2
 72
     2
 73
     0
 90
        0
 40
-0.6
 41
-30.0
 62
     5
 63
     7
 74
     1
 91
        4
 64
     7
 65
   257
 75
     7
175
     7
 42
1.0
 92
        8
 66
     7
 43
1.0
 76
     1
 77
     6
 78
     2
 67
     7
 79
     5
170
     0
171
     0
290
     0
174
     0
 93
        1
 44
0.0
173
     0
291
     1
 45
0.0
1001
ACAD
1000
AcDbSavedByObjectVersion
1070
     0
  0
VISUALSTYLE
  5
3C
102
{ACAD_XDICTIONARY
360
C36
102
}
102
{ACAD_REACTORS
330
2A
102
}
330
2A
100
AcDbVisualStyle
  2

 70
    21
 71
     2
 72
     2
 73
     0
 90
        0
 40
-0.6
 41
-30.0
 62
     5
 63
     7
 74
     1
 91
        4
 64
     7
 65
   257
 75
     1
175
     1
 42
1.0
 92
        9
 66
     7
 43
1.0
 76
     1
 77
     6
 78
     2
 67
     7
 79
     5
170
     0
171
     0
290
     0
174
     0
 93
        1
 44
0.0
173
     0
291
     1
 45
0.0
1001
ACAD
1000
AcDbSavedByObjectVersion
1070
     0
  0
VISUALSTYLE
  5
33
102
{ACAD_XDICTIONARY
360
C24
102
}
102
{ACAD_REACTORS
330
2A
102
}
330
2A
100
AcDbVisualStyle
  2

 70
     8
 71
     2
 72
     3
 73
     0
 90
        2
 40
-0.6
 41
30.0
 62
     5
 63
     7
 74
     0
 91
        0
 64
     7
 65
   257
 75
     1
175
     1
 42
1.0
 92
        8
 66
   257
 43
1.0
 76
     1
 77
     6
 78
     2
 67
     7
 79
     3
170
     0
171
     0
290
     0
174
     0
 93
       13
 44
0.0
173
     0
291
     0
 45
0.0
1001
ACAD
1000
AcDbSavedByObjectVersion
1070
     0
  0
VISUALSTYLE
  5
42
102
{ACAD_XDICTIONARY
360
C42
102
}
102
{ACAD_REACTORS
330
2A
102
}
330
2A
100
AcDbVisualStyle
  2

 70
    27
 71
     2
 72
     2
 73
     1
 90
        2
 40
-0.6
 41
30.0
 62
     5
 63
     7
 74
     0
 91
        4
 64
     7
 65
   257
 75
     1
175
     1
 42
1.0
 92
        8
 66
   257
 43
1.0
 76
     1
 77
     6
 78
     2
 67
     8
 79
     3
170
     0
171
     0
290
     0
174
     0
 93
        5
 44
0.0
173
     0
291
     0
 45
0.0
1001
ACAD
1000
AcDbSavedByObjectVersion
1070
     0
  0
VISUALSTYLE
  5
41
102
{ACAD_XDICTIONARY
360
C40
102
}
102
{ACAD_REACTORS
330
2A
102
}
330
2A
100
AcDbVisualStyle
  2

 70
    26
 71
     2
 72
     2
 73
     1
 90
        2
 40
-0.6
 41
30.0
 62
     5
 63
     7
 74
     1
 91
       10
 64
     7
 65
   257
 75
     2
175
     1
 42
1.0
 92
        8
 66
   257
 43
1.0
 76
     1
 77
     6
 78
     2
 67
     7
 79
     3
170
     0
171
     0
290
     0
174
     0
 93
        5
 44
0.0
173
     0
291
     0
 45
0.0
1001
ACAD
1000
AcDbSavedByObjectVersion
1070
     0
  0
VISUALSTYLE
  5
3E
102
{ACAD_XDICTIONARY
360
C3A
102
}
102
{ACAD_REACTORS
330
2A
102
}
330
2A
100
AcDbVisualStyle
  2

 70
    23
 71
     2
 72
     2
 73
     3
 90
        0
 40
-0.6
 41
-30.0
 62
     5
 63
     7
 74
     2
 91
        2
 64
     7
 65
     7
 75
     1
175
     1
 42
40.0
 92
        8
 66
     7
 43
1.0
 76
     1
 77
     6
 78
     2
 67
     7
 79
     3
170
     0
171
     0
290
     0
174
     0
 93
        1
 44
0.0
173
     0
291
     0
 45
0.0
1001
ACAD
1000
AcDbSavedByObjectVersion
1070
     0
  0
VISUALSTYLE
  5
3F
102
{ACAD_XDICTIONARY
360
C3C
102
}
102
{ACAD_REACTORS
330
2A
102
}
330
2A
100
AcDbVisualStyle
  2

 70
    24
 71
     1
 72
     2
 73
     2
 90
        0
 40
-0.6
 41
-30.0
 62
     5
 63
     7
 74
     2
 91
        2
 64
     7
 65
     7
 75
     1
175
     1
 42
40.0
 92
       11
 66
     7
 43
1.0
 76
     1
 77
     6
 78
     2
 67
     7
 79
     6
170
     0
171
     0
290
     0
174
     0
 93
        1
 44
0.0
173
     0
291
     0
 45
0.0
1001
ACAD
1000
AcDbSavedByObjectVersion
1070
     0
  0
VISUALSTYLE
  5
37
102
{ACAD_XDICTIONARY
360
C2C
102
}
102
{ACAD_REACTORS
330
2A
102
}
330
2A
100
AcDbVisualStyle
  2

 70
    13
 71
     2
 72
     2
 73
     0
 90
        0
 40
-0.6
 41
-30.0
 62
     5
 63
     7
 74
     1
 91
        4
 64
     7
 65
   257
 75
     1
175
     1
 42
1.0
 92
       12
 66
     7
 43
1.0
 76
     1
 77
     6
 78
     2
 67
     7
 79
     5
170
     0
171
     0
290
     0
174
     0
 93
        1
 44
0.0
173
     0
291
     1
 45
0.0
1001
ACAD
1000
AcDbSavedByObjectVersion
1070
     0
  0
VISUALSTYLE
  5
30
102
{ACAD_XDICTIONARY
360
C1E
102
}
102
{ACAD_REACTORS
330
2A
102
}
330
2A
100
AcDbVisualStyle
  2

 70
     5
 71
     0
 72
     2
 73
     0
 90
        0
 40
-0.6
 41
-30.0
 62
     5
 63
     7
 74
     1
 91
        4
 64
     7
 65
   257
 75
     1
175
     1
 42
1.0
 92
        0
 66
   257
 43
1.0
 76
     1
 77
     6
 78
     2
 67
     7
 79
     3
170
     0
171
     0
290
     0
174
     0
 93
        1
 44
0.0
173
     0
291
     0
 45
0.0
1001
ACAD
1000
AcDbSavedByObjectVersion
1070
     0
  0
VISUALSTYLE
  5
40
102
{ACAD_XDICTIONARY
360
C3E
102
}
102
{ACAD_REACTORS
330
2A
102
}
330
2A
100
AcDbVisualStyle
  2

 70
    25
 71
     2
 72
     2
 73
     1
 90
        1
 40
0.5
 41
-30.0
 62
     5
 63
     7
 74
     1
 91
        0
 64
     7
 65
   257
 75
     1
175
     1
 42
1.0
 92
        8
 66
     7
 43
1.0
 76
     1
 77
     6
 78
     2
 67
     7
 79
     3
170
     0
171
     0
290
     0
174
     0
 93
       13
 44
0.0
173
     0
291
     0
 45
0.0
1001
ACAD
1000
AcDbSavedByObjectVersion
1070
     0
  0
DICTIONARYVAR
  5
306
102
{ACAD_REACTORS
330
2F8
102
}
330
2F8
100
DictionaryVariables
280
     0
  1
1:1
  0
DICTIONARYVAR
  5
2FF
102
{ACAD_REACTORS
330
2F8
102
}
330
2F8
100
DictionaryVariables
280
     0
  1
3.500000
  0
DICTIONARYVAR
  5
300
102
{ACAD_REACTORS
330
2F8
102
}
330
2F8
100
DictionaryVariables
280
     0
  1
acadiso.lin
  0
DICTIONARYVAR
  5
2FA
102
{ACAD_REACTORS
330
2F8
102
}
330
2F8
100
DictionaryVariables
280
     0
  1
STANDARD
  0
DICTIONARYVAR
  5
2F9
102
{ACAD_REACTORS
330
2F8
102
}
330
2F8
100
DictionaryVariables
280
     0
  1
STANDARD
  0
DICTIONARYVAR
  5
AC5
102
{ACAD_REACTORS
330
2F8
102
}
330
2F8
100
DictionaryVariables
280
     0
  1
Metric50
  0
DICTIONARYVAR
  5
AC6
102
{ACAD_REACTORS
330
2F8
102
}
330
2F8
100
DictionaryVariables
280
     0
  1
Metric50
  0
DICTIONARYVAR
  5
301
102
{ACAD_REACTORS
330
2F8
102
}
330
2F8
100
DictionaryVariables
280
     0
  1
2
  0
DICTIONARYVAR
  5
302
102
{ACAD_REACTORS
330
2F8
102
}
330
2F8
100
DictionaryVariables
280
     0
  1
1
  0
DICTIONARYVAR
  5
B1A
102
{ACAD_REACTORS
330
2F8
102
}
330
2F8
100
DictionaryVariables
280
     0
  1
0
  0
DICTIONARYVAR
  5
AC8
102
{ACAD_REACTORS
330
2F8
102
}
330
2F8
100
DictionaryVariables
280
     0
  1
1
  0
DICTIONARYVAR
  5
AC9
102
{ACAD_REACTORS
330
2F8
102
}
330
2F8
100
DictionaryVariables
280
     0
  1
15
  0
DICTIONARYVAR
  5
AC7
102
{ACAD_REACTORS
330
2F8
102
}
330
2F8
100
DictionaryVariables
280
     0
  1
0
  0
DICTIONARYVAR
  5
C0A
102
{ACAD_REACTORS
330
2F8
102
}
330
2F8
100
DictionaryVariables
280
     0
  1
1.570796
  0
DICTIONARYVAR
  5
C0B
102
{ACAD_REACTORS
330
2F8
102
}
330
2F8
100
DictionaryVariables
280
     0
  1
1.570796
  0
DICTIONARYVAR
  5
307
102
{ACAD_REACTORS
330
2F8
102
}
330
2F8
100
DictionaryVariables
280
     0
  1
1
  0
DICTIONARYVAR
  5
C09
102
{ACAD_REACTORS
330
2F8
102
}
330
2F8
100
DictionaryVariables
280
     0
  1
80.000000
  0
DICTIONARYVAR
  5
C08
102
{ACAD_REACTORS
330
2F8
102
}
330
2F8
100
DictionaryVariables
280
     0
  1
5.000000
  0
DICTIONARYVAR
  5
B19
102
{ACAD_REACTORS
330
2F8
102
}
330
2F8
100
DictionaryVariables
280
     0
  1
127
  0
DICTIONARYVAR
  5
C0C
102
{ACAD_REACTORS
330
2F8
102
}
330
2F8
100
DictionaryVariables
280
     0
  1
2
  0
DICTIONARY
  5
C47
330
347
100
AcDbDictionary
280
     1
281
     1
  3
ACAD_XREC_ROUNDTRIP
360
C48
  0
DICTIONARY
  5
C10
330
1E
100
AcDbDictionary
280
     1
281
     1
  3
ACAD_XREC_ROUNDTRIP
360
C11
  0
DICTIONARY
  5
C12
330
22
100
AcDbDictionary
280
     1
281
     1
  3
ACAD_XREC_ROUNDTRIP
360
C13
  0
DICTIONARY
  5
C49
330
348
100
AcDbDictionary
280
     1
281
     1
  3
ACAD_XREC_ROUNDTRIP
360
C4A
  0
DICTIONARY
  5
33A
330
45
100
AcDbDictionary
280
     1
281
     1
  3
ACAD_XREC_ROUNDTRIP
360
33B
  0
DICTIONARY
  5
338
330
44
100
AcDbDictionary
280
     1
281
     1
  3
ACAD_XREC_ROUNDTRIP
360
339
  0
DICTIONARY
  5
33C
330
46
100
AcDbDictionary
280
     1
281
     1
  3
ACAD_XREC_ROUNDTRIP
360
33D
  0
DICTIONARY
  5
C45
330
345
100
AcDbDictionary
280
     1
281
     1
  3
ACAD_XREC_ROUNDTRIP
360
C46
  0
DICTIONARY
  5
ACA
330
5A
100
AcDbDictionary
280
     1
281
     1
  3
ACAD_ROUNDTRIP_2008_TABLESTYLE_CELLSTYLEMAP
360
C0D
  3
ACAD_XREC_ROUNDTRIP
360
C44
  0
DICTIONARY
  5
C1C
330
2F
100
AcDbDictionary
280
     1
281
     1
  3
ACAD_XREC_ROUNDTRIP
360
C1D
  0
DICTIONARY
  5
C22
330
32
100
AcDbDictionary
280
     1
281
     1
  3
ACAD_XREC_ROUNDTRIP
360
C23
  0
DICTIONARY
  5
C2A
330
36
100
AcDbDictionary
280
     1
281
     1
  3
ACAD_XREC_ROUNDTRIP
360
C2B
  0
DICTIONARY
  5
C32
330
3A
100
AcDbDictionary
280
     1
281
     1
  3
ACAD_XREC_ROUNDTRIP
360
C33
  0
DICTIONARY
  5
C26
330
34
100
AcDbDictionary
280
     1
281
     1
  3
ACAD_XREC_ROUNDTRIP
360
C27
  0
DICTIONARY
  5
C28
330
35
100
AcDbDictionary
280
     1
281
     1
  3
ACAD_XREC_ROUNDTRIP
360
C29
  0
DICTIONARY
  5
C38
330
3D
100
AcDbDictionary
280
     1
281
     1
  3
ACAD_XREC_ROUNDTRIP
360
C39
  0
DICTIONARY
  5
C30
330
39
100
AcDbDictionary
280
     1
281
     1
  3
ACAD_XREC_ROUNDTRIP
360
C31
  0
DICTIONARY
  5
C14
330
2B
100
AcDbDictionary
280
     1
281
     1
  3
ACAD_XREC_ROUNDTRIP
360
C15
  0
DICTIONARY
  5
C16
330
2C
100
AcDbDictionary
280
     1
281
     1
  3
ACAD_XREC_ROUNDTRIP
360
C17
  0
DICTIONARY
  5
C18
330
2D
100
AcDbDictionary
280
     1
281
     1
  3
ACAD_XREC_ROUNDTRIP
360
C19
  0
DICTIONARY
  5
C1A
330
2E
100
AcDbDictionary
280
     1
281
     1
  3
ACAD_XREC_ROUNDTRIP
360
C1B
  0
DICTIONARY
  5
C20
330
31
100
AcDbDictionary
280
     1
281
     1
  3
ACAD_XREC_ROUNDTRIP
360
C21
  0
DICTIONARY
  5
C34
330
3B
100
AcDbDictionary
280
     1
281
     1
  3
ACAD_XREC_ROUNDTRIP
360
C35
  0
DICTIONARY
  5
C2E
330
38
100
AcDbDictionary
280
     1
281
     1
  3
ACAD_XREC_ROUNDTRIP
360
C2F
  0
DICTIONARY
  5
C36
330
3C
100
AcDbDictionary
280
     1
281
     1
  3
ACAD_XREC_ROUNDTRIP
360
C37
  0
DICTIONARY
  5
C24
330
33
100
AcDbDictionary
280
     1
281
     1
  3
ACAD_XREC_ROUNDTRIP
360
C25
  0
DICTIONARY
  5
C42
330
42
100
AcDbDictionary
280
     1
281
     1
  3
ACAD_XREC_ROUNDTRIP
360
C43
  0
DICTIONARY
  5
C40
330
41
100
AcDbDictionary
280
     1
281
     1
  3
ACAD_XREC_ROUNDTRIP
360
C41
  0
DICTIONARY
  5
C3A
330
3E
100
AcDbDictionary
280
     1
281
     1
  3
ACAD_XREC_ROUNDTRIP
360
C3B
  0
DICTIONARY
  5
C3C
330
3F
100
AcDbDictionary
280
     1
281
     1
  3
ACAD_XREC_ROUNDTRIP
360
C3D
  0
DICTIONARY
  5
C2C
330
37
100
AcDbDictionary
280
     1
281
     1
  3
ACAD_XREC_ROUNDTRIP
360
C2D
  0
DICTIONARY
  5
C1E
330
30
100
AcDbDictionary
280
     1
281
     1
  3
ACAD_XREC_ROUNDTRIP
360
C1F
  0
DICTIONARY
  5
C3E
330
40
100
AcDbDictionary
280
     1
281
     1
  3
ACAD_XREC_ROUNDTRIP
360
C3F
  0
XRECORD
  5
C48
102
{ACAD_REACTORS
330
C47
102
}
330
C47
100
AcDbXrecord
280
     1
102
DISPLAYNAME
  1
Metric50
102
FLAGS
 90
        0
  0
XRECORD
  5
C11
102
{ACAD_REACTORS
330
C10
102
}
330
C10
100
AcDbXrecord
280
     1
102
SHADEPLOT
 70
     0
102
SHADEPLOTRESLEVEL
 70
     2
102
SHADEPLOTCUSTOMDPI
 70
   300
  0
XRECORD
  5
C13
102
{ACAD_REACTORS
330
C12
102
}
330
C12
100
AcDbXrecord
280
     1
102
SHADEPLOT
 70
     0
102
SHADEPLOTRESLEVEL
 70
     2
102
SHADEPLOTCUSTOMDPI
 70
   300
  0
XRECORD
  5
C4A
102
{ACAD_REACTORS
330
C49
102
}
330
C49
100
AcDbXrecord
280
     1
102
SHADEPLOT
 70
     0
102
SHADEPLOTRESLEVEL
 70
     2
102
SHADEPLOTCUSTOMDPI
 70
   300
  0
XRECORD
  5
33B
102
{ACAD_REACTORS
330
33A
102
}
330
33A
100
AcDbXrecord
280
     1
102
MATERIAL
148
0.0
149
0.0
149
0.0
 93
        0
 94
      127
282
     0
 72
     1
 77
     1
171
     1
175
     1
179
     1
273
     0
  0
XRECORD
  5
339
102
{ACAD_REACTORS
330
338
102
}
330
338
100
AcDbXrecord
280
     1
102
MATERIAL
148
0.0
149
0.0
149
0.0
 93
        0
 94
      127
282
     0
 72
     1
 77
     1
171
     1
175
     1
179
     1
273
     0
  0
XRECORD
  5
33D
102
{ACAD_REACTORS
330
33C
102
}
330
33C
100
AcDbXrecord
280
     1
102
MATERIAL
148
0.0
149
0.0
149
0.0
 93
        0
 94
      127
282
     0
 72
     1
 77
     1
171
     1
175
     1
179
     1
273
     0
  0
XRECORD
  5
C46
102
{ACAD_REACTORS
330
C45
102
}
330
C45
100
AcDbXrecord
280
     1
102
DISPLAYNAME
  1
Metric50
102
FLAGS
 90
        0
  0
CELLSTYLEMAP
  5
C0D
102
{ACAD_REACTORS
330
ACA
102
}
330
ACA
100
AcDbCellStyleMap
 90
        3
300
CELLSTYLE
  1
TABLEFORMAT_BEGIN
 90
        5
170
     1
 91
        0
 92
    32768
 62
   257
 93
        1
300
CONTENTFORMAT
  1
CONTENTFORMAT_BEGIN
 90
        0
 91
        0
 92
        4
 93
        0
300

 40
0.0
140
1.0
 94
        5
 62
     0
340
11
144
6.0
309
CONTENTFORMAT_END
171
     1
301
MARGIN
  1
CELLMARGIN_BEGIN
 40
1.5
 40
1.5
 40
1.5
 40
1.5
 40
0.18
 40
0.18
309
CELLMARGIN_END
 94
        6
 95
        1
302
GRIDFORMAT
  1
GRIDFORMAT_BEGIN
 90
        0
 91
        1
 62
     0
 92
       -2
340
0
 93
        0
 40
0.045
309
GRIDFORMAT_END
 95
        2
302
GRIDFORMAT
  1
GRIDFORMAT_BEGIN
 90
        0
 91
        1
 62
     0
 92
       -2
340
0
 93
        0
 40
0.045
309
GRIDFORMAT_END
 95
        4
302
GRIDFORMAT
  1
GRIDFORMAT_BEGIN
 90
        0
 91
        1
 62
     0
 92
       -2
340
0
 93
        0
 40
0.045
309
GRIDFORMAT_END
 95
        8
302
GRIDFORMAT
  1
GRIDFORMAT_BEGIN
 90
        0
 91
        1
 62
     0
 92
       -2
340
0
 93
        0
 40
0.045
309
GRIDFORMAT_END
 95
       16
302
GRIDFORMAT
  1
GRIDFORMAT_BEGIN
 90
        0
 91
        1
 62
     0
 92
       -2
340
0
 93
        0
 40
0.045
309
GRIDFORMAT_END
 95
       32
302
GRIDFORMAT
  1
GRIDFORMAT_BEGIN
 90
        0
 91
        1
 62
     0
 92
       -2
340
0
 93
        0
 40
0.045
309
GRIDFORMAT_END
309
TABLEFORMAT_END
  1
CELLSTYLE_BEGIN
 90
        1
 91
        1
300
_TITLE
309
CELLSTYLE_END
300
CELLSTYLE
  1
TABLEFORMAT_BEGIN
 90
        5
170
     1
 91
        0
 92
        0
 62
   257
 93
        1
300
CONTENTFORMAT
  1
CONTENTFORMAT_BEGIN
 90
        0
 91
        0
 92
        4
 93
        0
300

 40
0.0
140
1.0
 94
        5
 62
     0
340
11
144
4.5
309
CONTENTFORMAT_END
171
     1
301
MARGIN
  1
CELLMARGIN_BEGIN
 40
1.5
 40
1.5
 40
1.5
 40
1.5
 40
0.18
 40
0.18
309
CELLMARGIN_END
 94
        6
 95
        1
302
GRIDFORMAT
  1
GRIDFORMAT_BEGIN
 90
        0
 91
        1
 62
     0
 92
       -2
340
0
 93
        0
 40
0.045
309
GRIDFORMAT_END
 95
        2
302
GRIDFORMAT
  1
GRIDFORMAT_BEGIN
 90
        0
 91
        1
 62
     0
 92
       -2
340
0
 93
        0
 40
0.045
309
GRIDFORMAT_END
 95
        4
302
GRIDFORMAT
  1
GRIDFORMAT_BEGIN
 90
        0
 91
        1
 62
     0
 92
       -2
340
0
 93
        0
 40
0.045
309
GRIDFORMAT_END
 95
        8
302
GRIDFORMAT
  1
GRIDFORMAT_BEGIN
 90
        0
 91
        1
 62
     0
 92
       -2
340
0
 93
        0
 40
0.045
309
GRIDFORMAT_END
 95
       16
302
GRIDFORMAT
  1
GRIDFORMAT_BEGIN
 90
        0
 91
        1
 62
     0
 92
       -2
340
0
 93
        0
 40
0.045
309
GRIDFORMAT_END
 95
       32
302
GRIDFORMAT
  1
GRIDFORMAT_BEGIN
 90
        0
 91
        1
 62
     0
 92
       -2
340
0
 93
        0
 40
0.045
309
GRIDFORMAT_END
309
TABLEFORMAT_END
  1
CELLSTYLE_BEGIN
 90
        2
 91
        1
300
_HEADER
309
CELLSTYLE_END
300
CELLSTYLE
  1
TABLEFORMAT_BEGIN
 90
        5
170
     1
 91
        0
 92
        0
 62
   257
 93
        1
300
CONTENTFORMAT
  1
CONTENTFORMAT_BEGIN
 90
        0
 91
        0
 92
        4
 93
        0
300

 40
0.0
140
1.0
 94
        2
 62
     0
340
11
144
4.5
309
CONTENTFORMAT_END
171
     1
301
MARGIN
  1
CELLMARGIN_BEGIN
 40
1.5
 40
1.5
 40
1.5
 40
1.5
 40
0.18
 40
0.18
309
CELLMARGIN_END
 94
        6
 95
        1
302
GRIDFORMAT
  1
GRIDFORMAT_BEGIN
 90
        0
 91
        1
 62
     0
 92
       -2
340
0
 93
        0
 40
0.045
309
GRIDFORMAT_END
 95
        2
302
GRIDFORMAT
  1
GRIDFORMAT_BEGIN
 90
        0
 91
        1
 62
     0
 92
       -2
340
0
 93
        0
 40
0.045
309
GRIDFORMAT_END
 95
        4
302
GRIDFORMAT
  1
GRIDFORMAT_BEGIN
 90
        0
 91
        1
 62
     0
 92
       -2
340
0
 93
        0
 40
0.045
309
GRIDFORMAT_END
 95
        8
302
GRIDFORMAT
  1
GRIDFORMAT_BEGIN
 90
        0
 91
        1
 62
     0
 92
       -2
340
0
 93
        0
 40
0.045
309
GRIDFORMAT_END
 95
       16
302
GRIDFORMAT
  1
GRIDFORMAT_BEGIN
 90
        0
 91
        1
 62
     0
 92
       -2
340
0
 93
        0
 40
0.045
309
GRIDFORMAT_END
 95
       32
302
GRIDFORMAT
  1
GRIDFORMAT_BEGIN
 90
        0
 91
        1
 62
     0
 92
       -2
340
0
 93
        0
 40
0.045
309
GRIDFORMAT_END
309
TABLEFORMAT_END
  1
CELLSTYLE_BEGIN
 90
        3
 91
        2
300
_DATA
309
CELLSTYLE_END
  0
XRECORD
  5
C44
102
{ACAD_REACTORS
330
ACA
102
}
330
ACA
100
AcDbXrecord
280
     1
102
ACAD_ROUNDTRIP_PRE2007_TABLESTYLE
 90
        4
 91
        0
  1

 92
        4
 93
        0
  2

 94
        4
 95
        0
  3

  0
XRECORD
  5
C1D
102
{ACAD_REACTORS
330
C1C
102
}
330
C1C
100
AcDbXrecord
280
     1
102
RTVSPost2010Prop28
280
     1
102
RTVSPost2010PropOp28
 70
     1
102
RTVSPost2010Prop29
280
     1
102
RTVSPost2010PropOp29
 70
     1
102
RTVSPost2010Prop30
280
     0
102
RTVSPost2010PropOp30
 70
     1
102
RTVSPost2010Prop31
280
     0
102
RTVSPost2010PropOp31
 70
     1
102
RTVSPost2010Prop32
280
     0
102
RTVSPost2010PropOp32
 70
     1
102
RTVSPost2010Prop33
280
     0
102
RTVSPost2010PropOp33
 70
     1
102
RTVSPost2010Prop34
280
     0
102
RTVSPost2010PropOp34
 70
     1
102
RTVSPost2010Prop35
280
     0
102
RTVSPost2010PropOp35
 70
     1
102
RTVSPost2010Prop36
280
     0
102
RTVSPost2010PropOp36
 70
     1
102
RTVSPost2010Prop37
 90
       50
102
RTVSPost2010PropOp37
 70
     1
102
RTVSPost2010Prop38
140
0.0
102
RTVSPost2010PropOp38
 70
     1
102
RTVSPost2010Prop39
140
1.0
102
RTVSPost2010PropOp39
 70
     1
102
RTVSPost2010Prop40
 90
        0
102
RTVSPost2010PropOp40
 70
     1
102
RTVSPost2010Prop41ColorIndex
 90
       18
102
RTVSPost2010Prop41ColorRGB
 90
        0
102
RTVSPost2010PropOp41
 70
     1
102
RTVSPost2010Prop42
 90
       50
102
RTVSPost2010PropOp42
 70
     1
102
RTVSPost2010Prop43
 90
        3
102
RTVSPost2010PropOp43
 70
     1
102
RTVSPost2010Prop44ColorIndex
 90
        5
102
RTVSPost2010Prop44ColorRGB
 90
      255
102
RTVSPost2010PropOp44
 70
     1
102
RTVSPost2010Prop45
280
     0
102
RTVSPost2010PropOp45
 70
     1
102
RTVSPost2010Prop46
 90
       50
102
RTVSPost2010PropOp46
 70
     1
102
RTVSPost2010Prop47
 90
       50
102
RTVSPost2010PropOp47
 70
     1
102
RTVSPost2010Prop48
 90
       50
102
RTVSPost2010PropOp48
 70
     1
102
RTVSPost2010Prop49
280
     0
102
RTVSPost2010PropOp49
 70
     1
102
RTVSPost2010Prop50
 90
       50
102
RTVSPost2010PropOp50
 70
     1
102
RTVSPost2010Prop51ColorIndex
 90
      256
102
RTVSPost2010Prop51ColorRGB
 90
-16777216
102
RTVSPost2010PropOp51
 70
     0
102
RTVSPost2010Prop52
140
1.0
102
RTVSPost2010PropOp52
 70
     0
102
RTVSPost2010Prop53
 90
        2
102
RTVSPost2010PropOp53
 70
     1
102
RTVSPost2010Prop54
  1
strokes_ogs.tif
102
RTVSPost2010PropOp54
 70
     1
102
RTVSPost2010Prop55
280
     0
102
RTVSPost2010PropOp55
 70
     1
102
RTVSPost2010Prop56
140
1.0
102
RTVSPost2010PropOp56
 70
     1
102
RTVSPost2010Prop57
140
1.0
102
RTVSPost2010PropOp57
 70
     1
102
RTVSPropertyOp0
 70
     1
102
RTVSPropertyOp1
 70
     1
102
RTVSPropertyOp2
 70
     1
102
RTVSPropertyOp3
 70
     1
102
RTVSPropertyOp4
 70
     1
102
RTVSPropertyOp5
 70
     1
102
RTVSPropertyOp6
 70
     1
102
RTVSPropertyOp7
 70
     1
102
RTVSPropertyOp8
 70
     1
102
RTVSPropertyOp9
 70
     1
102
RTVSPropertyOp10
 70
     1
102
RTVSPropertyOp11
 70
     1
102
RTVSPropertyOp12
 70
     1
102
RTVSPropertyOp13
 70
     1
102
RTVSPropertyOp14
 70
     1
102
RTVSPropertyOp15
 70
     1
102
RTVSPropertyOp16
 70
     1
102
RTVSPropertyOp17
 70
     1
102
RTVSPropertyOp18
 70
     1
102
RTVSPropertyOp19
 70
     1
102
RTVSPropertyOp20
 70
     1
102
RTVSPropertyOp21
 70
     1
102
RTVSPropertyOp22
 70
     1
102
RTVSPropertyOp23
 70
     1
102
RTVSPropertyOp24
 70
     1
102
RTVSPropertyOp25
 70
     1
102
RTVSPropertyOp26
 70
     1
102
RTVSPropertyOp27
 70
     1
102
RTVSPropertyOp28
 70
     1
102
RTVSPropertyOp29
 70
     1
102
RTVSPropertyOp30
 70
     1
102
RTVSPropertyOp31
 70
     1
102
RTVSPropertyOp32
 70
     1
102
RTVSPropertyOp33
 70
     1
102
RTVSPropertyOp34
 70
     1
102
RTVSPropertyOp35
 70
     1
102
RTVSPropertyOp36
 70
     1
102
RTVSPropertyOp37
 70
     1
102
RTVSPropertyOp38
 70
     1
102
RTVSPropertyOp39
 70
     1
102
RTVSPropertyOp40
 70
     1
102
RTVSPropertyOp41
 70
     1
102
RTVSPropertyOp42
 70
     1
102
RTVSPropertyOp43
 70
     1
102
RTVSPropertyOp44
 70
     1
102
RTVSPropertyOp45
 70
     1
102
RTVSPropertyOp46
 70
     1
102
RTVSPropertyOp47
 70
     1
102
RTVSPropertyOp48
 70
     1
102
RTVSPropertyOp49
 70
     1
102
RTVSPropertyOp50
 70
     1
102
RTVSPropertyOp51
 70
     0
102
RTVSPropertyOp52
 70
     0
102
RTVSPropertyOp53
 70
     1
102
RTVSPropertyOp54
 70
     1
102
RTVSPropertyOp55
 70
     1
102
RTVSPropertyOp56
 70
     1
102
RTVSPropertyOp57
 70
     1
102
RTVSPropertyOp58
 70
     1
102
RTVSPropertyOp59
 70
     1
102
RTVSPropertyOp60
 70
     1
102
RTVSPropertyOp61
 70
     1
102
RTVSPropertyOp62
 70
     1
  0
XRECORD
  5
C23
102
{ACAD_REACTORS
330
C22
102
}
330
C22
100
AcDbXrecord
280
     1
102
RTVSPost2010Prop28
280
     0
102
RTVSPost2010PropOp28
 70
     1
102
RTVSPost2010Prop29
280
     1
102
RTVSPost2010PropOp29
 70
     1
102
RTVSPost2010Prop30
280
     1
102
RTVSPost2010PropOp30
 70
     1
102
RTVSPost2010Prop31
280
     0
102
RTVSPost2010PropOp31
 70
     1
102
RTVSPost2010Prop32
280
     0
102
RTVSPost2010PropOp32
 70
     1
102
RTVSPost2010Prop33
280
     0
102
RTVSPost2010PropOp33
 70
     1
102
RTVSPost2010Prop34
280
     0
102
RTVSPost2010PropOp34
 70
     1
102
RTVSPost2010Prop35
280
     0
102
RTVSPost2010PropOp35
 70
     1
102
RTVSPost2010Prop36
280
     0
102
RTVSPost2010PropOp36
 70
     1
102
RTVSPost2010Prop37
 90
       50
102
RTVSPost2010PropOp37
 70
     1
102
RTVSPost2010Prop38
140
0.0
102
RTVSPost2010PropOp38
 70
     1
102
RTVSPost2010Prop39
140
1.0
102
RTVSPost2010PropOp39
 70
     1
102
RTVSPost2010Prop40
 90
        0
102
RTVSPost2010PropOp40
 70
     1
102
RTVSPost2010Prop41ColorIndex
 90
       18
102
RTVSPost2010Prop41ColorRGB
 90
        0
102
RTVSPost2010PropOp41
 70
     1
102
RTVSPost2010Prop42
 90
       50
102
RTVSPost2010PropOp42
 70
     1
102
RTVSPost2010Prop43
 90
        3
102
RTVSPost2010PropOp43
 70
     1
102
RTVSPost2010Prop44ColorIndex
 90
        5
102
RTVSPost2010Prop44ColorRGB
 90
      255
102
RTVSPost2010PropOp44
 70
     1
102
RTVSPost2010Prop45
280
     0
102
RTVSPost2010PropOp45
 70
     1
102
RTVSPost2010Prop46
 90
       50
102
RTVSPost2010PropOp46
 70
     1
102
RTVSPost2010Prop47
 90
       50
102
RTVSPost2010PropOp47
 70
     1
102
RTVSPost2010Prop48
 90
       50
102
RTVSPost2010PropOp48
 70
     1
102
RTVSPost2010Prop49
280
     0
102
RTVSPost2010PropOp49
 70
     1
102
RTVSPost2010Prop50
 90
       50
102
RTVSPost2010PropOp50
 70
     1
102
RTVSPost2010Prop51ColorIndex
 90
      256
102
RTVSPost2010Prop51ColorRGB
 90
-16777216
102
RTVSPost2010PropOp51
 70
     0
102
RTVSPost2010Prop52
140
1.0
102
RTVSPost2010PropOp52
 70
     0
102
RTVSPost2010Prop53
 90
        2
102
RTVSPost2010PropOp53
 70
     1
102
RTVSPost2010Prop54
  1
strokes_ogs.tif
102
RTVSPost2010PropOp54
 70
     1
102
RTVSPost2010Prop55
280
     0
102
RTVSPost2010PropOp55
 70
     1
102
RTVSPost2010Prop56
140
1.0
102
RTVSPost2010PropOp56
 70
     1
102
RTVSPost2010Prop57
140
1.0
102
RTVSPost2010PropOp57
 70
     1
102
RTVSPropertyOp0
 70
     1
102
RTVSPropertyOp1
 70
     1
102
RTVSPropertyOp2
 70
     1
102
RTVSPropertyOp3
 70
     1
102
RTVSPropertyOp4
 70
     1
102
RTVSPropertyOp5
 70
     1
102
RTVSPropertyOp6
 70
     1
102
RTVSPropertyOp7
 70
     1
102
RTVSPropertyOp8
 70
     1
102
RTVSPropertyOp9
 70
     1
102
RTVSPropertyOp10
 70
     1
102
RTVSPropertyOp11
 70
     1
102
RTVSPropertyOp12
 70
     1
102
RTVSPropertyOp13
 70
     1
102
RTVSPropertyOp14
 70
     1
102
RTVSPropertyOp15
 70
     1
102
RTVSPropertyOp16
 70
     1
102
RTVSPropertyOp17
 70
     1
102
RTVSPropertyOp18
 70
     1
102
RTVSPropertyOp19
 70
     1
102
RTVSPropertyOp20
 70
     1
102
RTVSPropertyOp21
 70
     1
102
RTVSPropertyOp22
 70
     1
102
RTVSPropertyOp23
 70
     1
102
RTVSPropertyOp24
 70
     1
102
RTVSPropertyOp25
 70
     1
102
RTVSPropertyOp26
 70
     1
102
RTVSPropertyOp27
 70
     1
102
RTVSPropertyOp28
 70
     1
102
RTVSPropertyOp29
 70
     1
102
RTVSPropertyOp30
 70
     1
102
RTVSPropertyOp31
 70
     1
102
RTVSPropertyOp32
 70
     1
102
RTVSPropertyOp33
 70
     1
102
RTVSPropertyOp34
 70
     1
102
RTVSPropertyOp35
 70
     1
102
RTVSPropertyOp36
 70
     1
102
RTVSPropertyOp37
 70
     1
102
RTVSPropertyOp38
 70
     1
102
RTVSPropertyOp39
 70
     1
102
RTVSPropertyOp40
 70
     1
102
RTVSPropertyOp41
 70
     1
102
RTVSPropertyOp42
 70
     1
102
RTVSPropertyOp43
 70
     1
102
RTVSPropertyOp44
 70
     1
102
RTVSPropertyOp45
 70
     1
102
RTVSPropertyOp46
 70
     1
102
RTVSPropertyOp47
 70
     1
102
RTVSPropertyOp48
 70
     1
102
RTVSPropertyOp49
 70
     1
102
RTVSPropertyOp50
 70
     1
102
RTVSPropertyOp51
 70
     0
102
RTVSPropertyOp52
 70
     0
102
RTVSPropertyOp53
 70
     1
102
RTVSPropertyOp54
 70
     1
102
RTVSPropertyOp55
 70
     1
102
RTVSPropertyOp56
 70
     1
102
RTVSPropertyOp57
 70
     1
102
RTVSPropertyOp58
 70
     1
102
RTVSPropertyOp59
 70
     1
102
RTVSPropertyOp60
 70
     1
102
RTVSPropertyOp61
 70
     1
102
RTVSPropertyOp62
 70
     1
  0
XRECORD
  5
C2B
102
{ACAD_REACTORS
330
C2A
102
}
330
C2A
100
AcDbXrecord
280
     1
102
RTVSPost2010Prop28
280
     0
102
RTVSPost2010PropOp28
 70
     1
102
RTVSPost2010Prop29
280
     1
102
RTVSPost2010PropOp29
 70
     1
102
RTVSPost2010Prop30
280
     1
102
RTVSPost2010PropOp30
 70
     1
102
RTVSPost2010Prop31
280
     0
102
RTVSPost2010PropOp31
 70
     1
102
RTVSPost2010Prop32
280
     0
102
RTVSPost2010PropOp32
 70
     1
102
RTVSPost2010Prop33
280
     0
102
RTVSPost2010PropOp33
 70
     1
102
RTVSPost2010Prop34
280
     0
102
RTVSPost2010PropOp34
 70
     1
102
RTVSPost2010Prop35
280
     0
102
RTVSPost2010PropOp35
 70
     1
102
RTVSPost2010Prop36
280
     0
102
RTVSPost2010PropOp36
 70
     1
102
RTVSPost2010Prop37
 90
       50
102
RTVSPost2010PropOp37
 70
     1
102
RTVSPost2010Prop38
140
0.0
102
RTVSPost2010PropOp38
 70
     1
102
RTVSPost2010Prop39
140
1.0
102
RTVSPost2010PropOp39
 70
     1
102
RTVSPost2010Prop40
 90
        0
102
RTVSPost2010PropOp40
 70
     1
102
RTVSPost2010Prop41ColorIndex
 90
       18
102
RTVSPost2010Prop41ColorRGB
 90
        0
102
RTVSPost2010PropOp41
 70
     1
102
RTVSPost2010Prop42
 90
       50
102
RTVSPost2010PropOp42
 70
     1
102
RTVSPost2010Prop43
 90
        3
102
RTVSPost2010PropOp43
 70
     1
102
RTVSPost2010Prop44ColorIndex
 90
        5
102
RTVSPost2010Prop44ColorRGB
 90
      255
102
RTVSPost2010PropOp44
 70
     1
102
RTVSPost2010Prop45
280
     0
102
RTVSPost2010PropOp45
 70
     1
102
RTVSPost2010Prop46
 90
       50
102
RTVSPost2010PropOp46
 70
     1
102
RTVSPost2010Prop47
 90
       50
102
RTVSPost2010PropOp47
 70
     1
102
RTVSPost2010Prop48
 90
       50
102
RTVSPost2010PropOp48
 70
     1
102
RTVSPost2010Prop49
280
     0
102
RTVSPost2010PropOp49
 70
     1
102
RTVSPost2010Prop50
 90
       50
102
RTVSPost2010PropOp50
 70
     1
102
RTVSPost2010Prop51ColorIndex
 90
      256
102
RTVSPost2010Prop51ColorRGB
 90
-16777216
102
RTVSPost2010PropOp51
 70
     0
102
RTVSPost2010Prop52
140
1.0
102
RTVSPost2010PropOp52
 70
     0
102
RTVSPost2010Prop53
 90
        2
102
RTVSPost2010PropOp53
 70
     1
102
RTVSPost2010Prop54
  1
strokes_ogs.tif
102
RTVSPost2010PropOp54
 70
     1
102
RTVSPost2010Prop55
280
     0
102
RTVSPost2010PropOp55
 70
     1
102
RTVSPost2010Prop56
140
1.0
102
RTVSPost2010PropOp56
 70
     1
102
RTVSPost2010Prop57
140
1.0
102
RTVSPost2010PropOp57
 70
     1
102
RTVSPropertyOp0
 70
     1
102
RTVSPropertyOp1
 70
     1
102
RTVSPropertyOp2
 70
     1
102
RTVSPropertyOp3
 70
     1
102
RTVSPropertyOp4
 70
     1
102
RTVSPropertyOp5
 70
     1
102
RTVSPropertyOp6
 70
     1
102
RTVSPropertyOp7
 70
     1
102
RTVSPropertyOp8
 70
     1
102
RTVSPropertyOp9
 70
     1
102
RTVSPropertyOp10
 70
     1
102
RTVSPropertyOp11
 70
     1
102
RTVSPropertyOp12
 70
     1
102
RTVSPropertyOp13
 70
     1
102
RTVSPropertyOp14
 70
     1
102
RTVSPropertyOp15
 70
     1
102
RTVSPropertyOp16
 70
     1
102
RTVSPropertyOp17
 70
     1
102
RTVSPropertyOp18
 70
     1
102
RTVSPropertyOp19
 70
     1
102
RTVSPropertyOp20
 70
     1
102
RTVSPropertyOp21
 70
     1
102
RTVSPropertyOp22
 70
     1
102
RTVSPropertyOp23
 70
     1
102
RTVSPropertyOp24
 70
     1
102
RTVSPropertyOp25
 70
     1
102
RTVSPropertyOp26
 70
     1
102
RTVSPropertyOp27
 70
     1
102
RTVSPropertyOp28
 70
     1
102
RTVSPropertyOp29
 70
     1
102
RTVSPropertyOp30
 70
     1
102
RTVSPropertyOp31
 70
     1
102
RTVSPropertyOp32
 70
     1
102
RTVSPropertyOp33
 70
     1
102
RTVSPropertyOp34
 70
     1
102
RTVSPropertyOp35
 70
     1
102
RTVSPropertyOp36
 70
     1
102
RTVSPropertyOp37
 70
     1
102
RTVSPropertyOp38
 70
     1
102
RTVSPropertyOp39
 70
     1
102
RTVSPropertyOp40
 70
     1
102
RTVSPropertyOp41
 70
     1
102
RTVSPropertyOp42
 70
     1
102
RTVSPropertyOp43
 70
     1
102
RTVSPropertyOp44
 70
     1
102
RTVSPropertyOp45
 70
     1
102
RTVSPropertyOp46
 70
     1
102
RTVSPropertyOp47
 70
     1
102
RTVSPropertyOp48
 70
     1
102
RTVSPropertyOp49
 70
     1
102
RTVSPropertyOp50
 70
     1
102
RTVSPropertyOp51
 70
     0
102
RTVSPropertyOp52
 70
     0
102
RTVSPropertyOp53
 70
     1
102
RTVSPropertyOp54
 70
     1
102
RTVSPropertyOp55
 70
     1
102
RTVSPropertyOp56
 70
     1
102
RTVSPropertyOp57
 70
     1
102
RTVSPropertyOp58
 70
     1
102
RTVSPropertyOp59
 70
     1
102
RTVSPropertyOp60
 70
     1
102
RTVSPropertyOp61
 70
     1
102
RTVSPropertyOp62
 70
     1
  0
XRECORD
  5
C33
102
{ACAD_REACTORS
330
C32
102
}
330
C32
100
AcDbXrecord
280
     1
102
RTVSPost2010Prop28
280
     0
102
RTVSPost2010PropOp28
 70
     1
102
RTVSPost2010Prop29
280
     1
102
RTVSPost2010PropOp29
 70
     1
102
RTVSPost2010Prop30
280
     1
102
RTVSPost2010PropOp30
 70
     1
102
RTVSPost2010Prop31
280
     0
102
RTVSPost2010PropOp31
 70
     1
102
RTVSPost2010Prop32
280
     0
102
RTVSPost2010PropOp32
 70
     1
102
RTVSPost2010Prop33
280
     0
102
RTVSPost2010PropOp33
 70
     1
102
RTVSPost2010Prop34
280
     0
102
RTVSPost2010PropOp34
 70
     1
102
RTVSPost2010Prop35
280
     0
102
RTVSPost2010PropOp35
 70
     1
102
RTVSPost2010Prop36
280
     0
102
RTVSPost2010PropOp36
 70
     1
102
RTVSPost2010Prop37
 90
       50
102
RTVSPost2010PropOp37
 70
     1
102
RTVSPost2010Prop38
140
0.0
102
RTVSPost2010PropOp38
 70
     1
102
RTVSPost2010Prop39
140
1.0
102
RTVSPost2010PropOp39
 70
     1
102
RTVSPost2010Prop40
 90
        0
102
RTVSPost2010PropOp40
 70
     1
102
RTVSPost2010Prop41ColorIndex
 90
       18
102
RTVSPost2010Prop41ColorRGB
 90
        0
102
RTVSPost2010PropOp41
 70
     1
102
RTVSPost2010Prop42
 90
       50
102
RTVSPost2010PropOp42
 70
     1
102
RTVSPost2010Prop43
 90
        3
102
RTVSPost2010PropOp43
 70
     1
102
RTVSPost2010Prop44ColorIndex
 90
        5
102
RTVSPost2010Prop44ColorRGB
 90
      255
102
RTVSPost2010PropOp44
 70
     1
102
RTVSPost2010Prop45
280
     0
102
RTVSPost2010PropOp45
 70
     1
102
RTVSPost2010Prop46
 90
       50
102
RTVSPost2010PropOp46
 70
     1
102
RTVSPost2010Prop47
 90
       50
102
RTVSPost2010PropOp47
 70
     1
102
RTVSPost2010Prop48
 90
       50
102
RTVSPost2010PropOp48
 70
     1
102
RTVSPost2010Prop49
280
     0
102
RTVSPost2010PropOp49
 70
     1
102
RTVSPost2010Prop50
 90
       50
102
RTVSPost2010PropOp50
 70
     1
102
RTVSPost2010Prop51ColorIndex
 90
      256
102
RTVSPost2010Prop51ColorRGB
 90
-16777216
102
RTVSPost2010PropOp51
 70
     0
102
RTVSPost2010Prop52
140
1.0
102
RTVSPost2010PropOp52
 70
     0
102
RTVSPost2010Prop53
 90
        2
102
RTVSPost2010PropOp53
 70
     1
102
RTVSPost2010Prop54
  1
strokes_ogs.tif
102
RTVSPost2010PropOp54
 70
     1
102
RTVSPost2010Prop55
280
     0
102
RTVSPost2010PropOp55
 70
     1
102
RTVSPost2010Prop56
140
1.0
102
RTVSPost2010PropOp56
 70
     1
102
RTVSPost2010Prop57
140
1.0
102
RTVSPost2010PropOp57
 70
     1
102
RTVSPropertyOp0
 70
     1
102
RTVSPropertyOp1
 70
     1
102
RTVSPropertyOp2
 70
     1
102
RTVSPropertyOp3
 70
     1
102
RTVSPropertyOp4
 70
     1
102
RTVSPropertyOp5
 70
     1
102
RTVSPropertyOp6
 70
     1
102
RTVSPropertyOp7
 70
     1
102
RTVSPropertyOp8
 70
     1
102
RTVSPropertyOp9
 70
     1
102
RTVSPropertyOp10
 70
     1
102
RTVSPropertyOp11
 70
     1
102
RTVSPropertyOp12
 70
     1
102
RTVSPropertyOp13
 70
     1
102
RTVSPropertyOp14
 70
     1
102
RTVSPropertyOp15
 70
     1
102
RTVSPropertyOp16
 70
     1
102
RTVSPropertyOp17
 70
     1
102
RTVSPropertyOp18
 70
     1
102
RTVSPropertyOp19
 70
     1
102
RTVSPropertyOp20
 70
     1
102
RTVSPropertyOp21
 70
     1
102
RTVSPropertyOp22
 70
     1
102
RTVSPropertyOp23
 70
     1
102
RTVSPropertyOp24
 70
     1
102
RTVSPropertyOp25
 70
     1
102
RTVSPropertyOp26
 70
     1
102
RTVSPropertyOp27
 70
     1
102
RTVSPropertyOp28
 70
     1
102
RTVSPropertyOp29
 70
     1
102
RTVSPropertyOp30
 70
     1
102
RTVSPropertyOp31
 70
     1
102
RTVSPropertyOp32
 70
     1
102
RTVSPropertyOp33
 70
     1
102
RTVSPropertyOp34
 70
     1
102
RTVSPropertyOp35
 70
     1
102
RTVSPropertyOp36
 70
     1
102
RTVSPropertyOp37
 70
     1
102
RTVSPropertyOp38
 70
     1
102
RTVSPropertyOp39
 70
     1
102
RTVSPropertyOp40
 70
     1
102
RTVSPropertyOp41
 70
     1
102
RTVSPropertyOp42
 70
     1
102
RTVSPropertyOp43
 70
     1
102
RTVSPropertyOp44
 70
     1
102
RTVSPropertyOp45
 70
     1
102
RTVSPropertyOp46
 70
     1
102
RTVSPropertyOp47
 70
     1
102
RTVSPropertyOp48
 70
     1
102
RTVSPropertyOp49
 70
     1
102
RTVSPropertyOp50
 70
     1
102
RTVSPropertyOp51
 70
     0
102
RTVSPropertyOp52
 70
     0
102
RTVSPropertyOp53
 70
     1
102
RTVSPropertyOp54
 70
     1
102
RTVSPropertyOp55
 70
     1
102
RTVSPropertyOp56
 70
     1
102
RTVSPropertyOp57
 70
     1
102
RTVSPropertyOp58
 70
     1
102
RTVSPropertyOp59
 70
     1
102
RTVSPropertyOp60
 70
     1
102
RTVSPropertyOp61
 70
     1
102
RTVSPropertyOp62
 70
     1
  0
XRECORD
  5
C27
102
{ACAD_REACTORS
330
C26
102
}
330
C26
100
AcDbXrecord
280
     1
102
RTVSPost2010Prop28
280
     0
102
RTVSPost2010PropOp28
 70
     1
102
RTVSPost2010Prop29
280
     1
102
RTVSPost2010PropOp29
 70
     1
102
RTVSPost2010Prop30
280
     1
102
RTVSPost2010PropOp30
 70
     1
102
RTVSPost2010Prop31
280
     0
102
RTVSPost2010PropOp31
 70
     1
102
RTVSPost2010Prop32
280
     0
102
RTVSPost2010PropOp32
 70
     1
102
RTVSPost2010Prop33
280
     0
102
RTVSPost2010PropOp33
 70
     1
102
RTVSPost2010Prop34
280
     0
102
RTVSPost2010PropOp34
 70
     1
102
RTVSPost2010Prop35
280
     0
102
RTVSPost2010PropOp35
 70
     1
102
RTVSPost2010Prop36
280
     0
102
RTVSPost2010PropOp36
 70
     1
102
RTVSPost2010Prop37
 90
       50
102
RTVSPost2010PropOp37
 70
     1
102
RTVSPost2010Prop38
140
0.0
102
RTVSPost2010PropOp38
 70
     1
102
RTVSPost2010Prop39
140
1.0
102
RTVSPost2010PropOp39
 70
     1
102
RTVSPost2010Prop40
 90
        0
102
RTVSPost2010PropOp40
 70
     1
102
RTVSPost2010Prop41ColorIndex
 90
       18
102
RTVSPost2010Prop41ColorRGB
 90
        0
102
RTVSPost2010PropOp41
 70
     1
102
RTVSPost2010Prop42
 90
       50
102
RTVSPost2010PropOp42
 70
     1
102
RTVSPost2010Prop43
 90
        3
102
RTVSPost2010PropOp43
 70
     1
102
RTVSPost2010Prop44ColorIndex
 90
        5
102
RTVSPost2010Prop44ColorRGB
 90
      255
102
RTVSPost2010PropOp44
 70
     1
102
RTVSPost2010Prop45
280
     0
102
RTVSPost2010PropOp45
 70
     1
102
RTVSPost2010Prop46
 90
       50
102
RTVSPost2010PropOp46
 70
     1
102
RTVSPost2010Prop47
 90
       50
102
RTVSPost2010PropOp47
 70
     1
102
RTVSPost2010Prop48
 90
       50
102
RTVSPost2010PropOp48
 70
     1
102
RTVSPost2010Prop49
280
     0
102
RTVSPost2010PropOp49
 70
     1
102
RTVSPost2010Prop50
 90
       50
102
RTVSPost2010PropOp50
 70
     1
102
RTVSPost2010Prop51ColorIndex
 90
      256
102
RTVSPost2010Prop51ColorRGB
 90
-16777216
102
RTVSPost2010PropOp51
 70
     0
102
RTVSPost2010Prop52
140
1.0
102
RTVSPost2010PropOp52
 70
     0
102
RTVSPost2010Prop53
 90
        2
102
RTVSPost2010PropOp53
 70
     1
102
RTVSPost2010Prop54
  1
strokes_ogs.tif
102
RTVSPost2010PropOp54
 70
     1
102
RTVSPost2010Prop55
280
     0
102
RTVSPost2010PropOp55
 70
     1
102
RTVSPost2010Prop56
140
1.0
102
RTVSPost2010PropOp56
 70
     1
102
RTVSPost2010Prop57
140
1.0
102
RTVSPost2010PropOp57
 70
     1
102
RTVSPropertyOp0
 70
     1
102
RTVSPropertyOp1
 70
     1
102
RTVSPropertyOp2
 70
     1
102
RTVSPropertyOp3
 70
     1
102
RTVSPropertyOp4
 70
     1
102
RTVSPropertyOp5
 70
     1
102
RTVSPropertyOp6
 70
     1
102
RTVSPropertyOp7
 70
     1
102
RTVSPropertyOp8
 70
     1
102
RTVSPropertyOp9
 70
     1
102
RTVSPropertyOp10
 70
     1
102
RTVSPropertyOp11
 70
     1
102
RTVSPropertyOp12
 70
     1
102
RTVSPropertyOp13
 70
     1
102
RTVSPropertyOp14
 70
     1
102
RTVSPropertyOp15
 70
     1
102
RTVSPropertyOp16
 70
     1
102
RTVSPropertyOp17
 70
     1
102
RTVSPropertyOp18
 70
     1
102
RTVSPropertyOp19
 70
     1
102
RTVSPropertyOp20
 70
     1
102
RTVSPropertyOp21
 70
     1
102
RTVSPropertyOp22
 70
     1
102
RTVSPropertyOp23
 70
     1
102
RTVSPropertyOp24
 70
     1
102
RTVSPropertyOp25
 70
     1
102
RTVSPropertyOp26
 70
     1
102
RTVSPropertyOp27
 70
     1
102
RTVSPropertyOp28
 70
     1
102
RTVSPropertyOp29
 70
     1
102
RTVSPropertyOp30
 70
     1
102
RTVSPropertyOp31
 70
     1
102
RTVSPropertyOp32
 70
     1
102
RTVSPropertyOp33
 70
     1
102
RTVSPropertyOp34
 70
     1
102
RTVSPropertyOp35
 70
     1
102
RTVSPropertyOp36
 70
     1
102
RTVSPropertyOp37
 70
     1
102
RTVSPropertyOp38
 70
     1
102
RTVSPropertyOp39
 70
     1
102
RTVSPropertyOp40
 70
     1
102
RTVSPropertyOp41
 70
     1
102
RTVSPropertyOp42
 70
     1
102
RTVSPropertyOp43
 70
     1
102
RTVSPropertyOp44
 70
     1
102
RTVSPropertyOp45
 70
     1
102
RTVSPropertyOp46
 70
     1
102
RTVSPropertyOp47
 70
     1
102
RTVSPropertyOp48
 70
     1
102
RTVSPropertyOp49
 70
     1
102
RTVSPropertyOp50
 70
     1
102
RTVSPropertyOp51
 70
     0
102
RTVSPropertyOp52
 70
     0
102
RTVSPropertyOp53
 70
     1
102
RTVSPropertyOp54
 70
     1
102
RTVSPropertyOp55
 70
     1
102
RTVSPropertyOp56
 70
     1
102
RTVSPropertyOp57
 70
     1
102
RTVSPropertyOp58
 70
     1
102
RTVSPropertyOp59
 70
     1
102
RTVSPropertyOp60
 70
     1
102
RTVSPropertyOp61
 70
     1
102
RTVSPropertyOp62
 70
     1
  0
XRECORD
  5
C29
102
{ACAD_REACTORS
330
C28
102
}
330
C28
100
AcDbXrecord
280
     1
102
RTVSPost2010Prop28
280
     0
102
RTVSPost2010PropOp28
 70
     1
102
RTVSPost2010Prop29
280
     1
102
RTVSPost2010PropOp29
 70
     1
102
RTVSPost2010Prop30
280
     1
102
RTVSPost2010PropOp30
 70
     1
102
RTVSPost2010Prop31
280
     0
102
RTVSPost2010PropOp31
 70
     1
102
RTVSPost2010Prop32
280
     0
102
RTVSPost2010PropOp32
 70
     1
102
RTVSPost2010Prop33
280
     0
102
RTVSPost2010PropOp33
 70
     1
102
RTVSPost2010Prop34
280
     0
102
RTVSPost2010PropOp34
 70
     1
102
RTVSPost2010Prop35
280
     0
102
RTVSPost2010PropOp35
 70
     1
102
RTVSPost2010Prop36
280
     0
102
RTVSPost2010PropOp36
 70
     1
102
RTVSPost2010Prop37
 90
       50
102
RTVSPost2010PropOp37
 70
     1
102
RTVSPost2010Prop38
140
0.0
102
RTVSPost2010PropOp38
 70
     1
102
RTVSPost2010Prop39
140
1.0
102
RTVSPost2010PropOp39
 70
     1
102
RTVSPost2010Prop40
 90
        0
102
RTVSPost2010PropOp40
 70
     1
102
RTVSPost2010Prop41ColorIndex
 90
       18
102
RTVSPost2010Prop41ColorRGB
 90
        0
102
RTVSPost2010PropOp41
 70
     1
102
RTVSPost2010Prop42
 90
       50
102
RTVSPost2010PropOp42
 70
     1
102
RTVSPost2010Prop43
 90
        3
102
RTVSPost2010PropOp43
 70
     1
102
RTVSPost2010Prop44ColorIndex
 90
        5
102
RTVSPost2010Prop44ColorRGB
 90
      255
102
RTVSPost2010PropOp44
 70
     1
102
RTVSPost2010Prop45
280
     0
102
RTVSPost2010PropOp45
 70
     1
102
RTVSPost2010Prop46
 90
       50
102
RTVSPost2010PropOp46
 70
     1
102
RTVSPost2010Prop47
 90
       50
102
RTVSPost2010PropOp47
 70
     1
102
RTVSPost2010Prop48
 90
       50
102
RTVSPost2010PropOp48
 70
     1
102
RTVSPost2010Prop49
280
     0
102
RTVSPost2010PropOp49
 70
     1
102
RTVSPost2010Prop50
 90
       50
102
RTVSPost2010PropOp50
 70
     1
102
RTVSPost2010Prop51ColorIndex
 90
      256
102
RTVSPost2010Prop51ColorRGB
 90
-16777216
102
RTVSPost2010PropOp51
 70
     0
102
RTVSPost2010Prop52
140
1.0
102
RTVSPost2010PropOp52
 70
     0
102
RTVSPost2010Prop53
 90
        2
102
RTVSPost2010PropOp53
 70
     1
102
RTVSPost2010Prop54
  1
strokes_ogs.tif
102
RTVSPost2010PropOp54
 70
     1
102
RTVSPost2010Prop55
280
     0
102
RTVSPost2010PropOp55
 70
     1
102
RTVSPost2010Prop56
140
1.0
102
RTVSPost2010PropOp56
 70
     1
102
RTVSPost2010Prop57
140
1.0
102
RTVSPost2010PropOp57
 70
     1
102
RTVSPropertyOp0
 70
     1
102
RTVSPropertyOp1
 70
     1
102
RTVSPropertyOp2
 70
     1
102
RTVSPropertyOp3
 70
     1
102
RTVSPropertyOp4
 70
     1
102
RTVSPropertyOp5
 70
     1
102
RTVSPropertyOp6
 70
     1
102
RTVSPropertyOp7
 70
     1
102
RTVSPropertyOp8
 70
     1
102
RTVSPropertyOp9
 70
     1
102
RTVSPropertyOp10
 70
     1
102
RTVSPropertyOp11
 70
     1
102
RTVSPropertyOp12
 70
     1
102
RTVSPropertyOp13
 70
     1
102
RTVSPropertyOp14
 70
     1
102
RTVSPropertyOp15
 70
     1
102
RTVSPropertyOp16
 70
     1
102
RTVSPropertyOp17
 70
     1
102
RTVSPropertyOp18
 70
     1
102
RTVSPropertyOp19
 70
     1
102
RTVSPropertyOp20
 70
     1
102
RTVSPropertyOp21
 70
     1
102
RTVSPropertyOp22
 70
     1
102
RTVSPropertyOp23
 70
     1
102
RTVSPropertyOp24
 70
     1
102
RTVSPropertyOp25
 70
     1
102
RTVSPropertyOp26
 70
     1
102
RTVSPropertyOp27
 70
     1
102
RTVSPropertyOp28
 70
     1
102
RTVSPropertyOp29
 70
     1
102
RTVSPropertyOp30
 70
     1
102
RTVSPropertyOp31
 70
     1
102
RTVSPropertyOp32
 70
     1
102
RTVSPropertyOp33
 70
     1
102
RTVSPropertyOp34
 70
     1
102
RTVSPropertyOp35
 70
     1
102
RTVSPropertyOp36
 70
     1
102
RTVSPropertyOp37
 70
     1
102
RTVSPropertyOp38
 70
     1
102
RTVSPropertyOp39
 70
     1
102
RTVSPropertyOp40
 70
     1
102
RTVSPropertyOp41
 70
     1
102
RTVSPropertyOp42
 70
     1
102
RTVSPropertyOp43
 70
     1
102
RTVSPropertyOp44
 70
     1
102
RTVSPropertyOp45
 70
     1
102
RTVSPropertyOp46
 70
     1
102
RTVSPropertyOp47
 70
     1
102
RTVSPropertyOp48
 70
     1
102
RTVSPropertyOp49
 70
     1
102
RTVSPropertyOp50
 70
     1
102
RTVSPropertyOp51
 70
     0
102
RTVSPropertyOp52
 70
     0
102
RTVSPropertyOp53
 70
     1
102
RTVSPropertyOp54
 70
     1
102
RTVSPropertyOp55
 70
     1
102
RTVSPropertyOp56
 70
     1
102
RTVSPropertyOp57
 70
     1
102
RTVSPropertyOp58
 70
     1
102
RTVSPropertyOp59
 70
     1
102
RTVSPropertyOp60
 70
     1
102
RTVSPropertyOp61
 70
     1
102
RTVSPropertyOp62
 70
     1
  0
XRECORD
  5
C39
102
{ACAD_REACTORS
330
C38
102
}
330
C38
100
AcDbXrecord
280
     1
102
RTVSPost2010Prop28
280
     0
102
RTVSPost2010PropOp28
 70
     0
102
RTVSPost2010Prop29
280
     1
102
RTVSPost2010PropOp29
 70
     0
102
RTVSPost2010Prop30
280
     1
102
RTVSPost2010PropOp30
 70
     0
102
RTVSPost2010Prop31
280
     0
102
RTVSPost2010PropOp31
 70
     0
102
RTVSPost2010Prop32
280
     0
102
RTVSPost2010PropOp32
 70
     0
102
RTVSPost2010Prop33
280
     0
102
RTVSPost2010PropOp33
 70
     0
102
RTVSPost2010Prop34
280
     0
102
RTVSPost2010PropOp34
 70
     0
102
RTVSPost2010Prop35
280
     0
102
RTVSPost2010PropOp35
 70
     0
102
RTVSPost2010Prop36
280
     0
102
RTVSPost2010PropOp36
 70
     0
102
RTVSPost2010Prop37
 90
       50
102
RTVSPost2010PropOp37
 70
     0
102
RTVSPost2010Prop38
140
0.0
102
RTVSPost2010PropOp38
 70
     0
102
RTVSPost2010Prop39
140
1.0
102
RTVSPost2010PropOp39
 70
     0
102
RTVSPost2010Prop40
 90
        0
102
RTVSPost2010PropOp40
 70
     0
102
RTVSPost2010Prop41ColorIndex
 90
       18
102
RTVSPost2010Prop41ColorRGB
 90
        0
102
RTVSPost2010PropOp41
 70
     0
102
RTVSPost2010Prop42
 90
       50
102
RTVSPost2010PropOp42
 70
     0
102
RTVSPost2010Prop43
 90
        3
102
RTVSPost2010PropOp43
 70
     0
102
RTVSPost2010Prop44ColorIndex
 90
        5
102
RTVSPost2010Prop44ColorRGB
 90
      255
102
RTVSPost2010PropOp44
 70
     0
102
RTVSPost2010Prop45
280
     0
102
RTVSPost2010PropOp45
 70
     0
102
RTVSPost2010Prop46
 90
       50
102
RTVSPost2010PropOp46
 70
     0
102
RTVSPost2010Prop47
 90
       50
102
RTVSPost2010PropOp47
 70
     0
102
RTVSPost2010Prop48
 90
       50
102
RTVSPost2010PropOp48
 70
     0
102
RTVSPost2010Prop49
280
     0
102
RTVSPost2010PropOp49
 70
     0
102
RTVSPost2010Prop50
 90
       50
102
RTVSPost2010PropOp50
 70
     0
102
RTVSPost2010Prop51ColorIndex
 90
      256
102
RTVSPost2010Prop51ColorRGB
 90
-16777216
102
RTVSPost2010PropOp51
 70
     0
102
RTVSPost2010Prop52
140
1.0
102
RTVSPost2010PropOp52
 70
     0
102
RTVSPost2010Prop53
 90
        2
102
RTVSPost2010PropOp53
 70
     0
102
RTVSPost2010Prop54
  1
strokes_ogs.tif
102
RTVSPost2010PropOp54
 70
     0
102
RTVSPost2010Prop55
280
     0
102
RTVSPost2010PropOp55
 70
     0
102
RTVSPost2010Prop56
140
1.0
102
RTVSPost2010PropOp56
 70
     0
102
RTVSPost2010Prop57
140
1.0
102
RTVSPost2010PropOp57
 70
     0
102
RTVSPropertyOp0
 70
     0
102
RTVSPropertyOp1
 70
     0
102
RTVSPropertyOp2
 70
     0
102
RTVSPropertyOp3
 70
     0
102
RTVSPropertyOp4
 70
     0
102
RTVSPropertyOp5
 70
     0
102
RTVSPropertyOp6
 70
     0
102
RTVSPropertyOp7
 70
     0
102
RTVSPropertyOp8
 70
     0
102
RTVSPropertyOp9
 70
     0
102
RTVSPropertyOp10
 70
     0
102
RTVSPropertyOp11
 70
     0
102
RTVSPropertyOp12
 70
     0
102
RTVSPropertyOp13
 70
     0
102
RTVSPropertyOp14
 70
     2
102
RTVSPropertyOp15
 70
     0
102
RTVSPropertyOp16
 70
     0
102
RTVSPropertyOp17
 70
     0
102
RTVSPropertyOp18
 70
     0
102
RTVSPropertyOp19
 70
     0
102
RTVSPropertyOp20
 70
     0
102
RTVSPropertyOp21
 70
     0
102
RTVSPropertyOp22
 70
     0
102
RTVSPropertyOp23
 70
     0
102
RTVSPropertyOp24
 70
     0
102
RTVSPropertyOp25
 70
     0
102
RTVSPropertyOp26
 70
     0
102
RTVSPropertyOp27
 70
     0
102
RTVSPropertyOp28
 70
     0
102
RTVSPropertyOp29
 70
     0
102
RTVSPropertyOp30
 70
     0
102
RTVSPropertyOp31
 70
     0
102
RTVSPropertyOp32
 70
     0
102
RTVSPropertyOp33
 70
     0
102
RTVSPropertyOp34
 70
     0
102
RTVSPropertyOp35
 70
     0
102
RTVSPropertyOp36
 70
     0
102
RTVSPropertyOp37
 70
     0
102
RTVSPropertyOp38
 70
     0
102
RTVSPropertyOp39
 70
     0
102
RTVSPropertyOp40
 70
     0
102
RTVSPropertyOp41
 70
     0
102
RTVSPropertyOp42
 70
     0
102
RTVSPropertyOp43
 70
     0
102
RTVSPropertyOp44
 70
     0
102
RTVSPropertyOp45
 70
     0
102
RTVSPropertyOp46
 70
     0
102
RTVSPropertyOp47
 70
     0
102
RTVSPropertyOp48
 70
     0
102
RTVSPropertyOp49
 70
     0
102
RTVSPropertyOp50
 70
     0
102
RTVSPropertyOp51
 70
     0
102
RTVSPropertyOp52
 70
     0
102
RTVSPropertyOp53
 70
     0
102
RTVSPropertyOp54
 70
     0
102
RTVSPropertyOp55
 70
     0
102
RTVSPropertyOp56
 70
     0
102
RTVSPropertyOp57
 70
     0
102
RTVSPropertyOp58
 70
     1
102
RTVSPropertyOp59
 70
     1
102
RTVSPropertyOp60
 70
     1
102
RTVSPropertyOp61
 70
     1
102
RTVSPropertyOp62
 70
     1
  0
XRECORD
  5
C31
102
{ACAD_REACTORS
330
C30
102
}
330
C30
100
AcDbXrecord
280
     1
102
RTVSPost2010Prop28
280
     0
102
RTVSPost2010PropOp28
 70
     1
102
RTVSPost2010Prop29
280
     1
102
RTVSPost2010PropOp29
 70
     1
102
RTVSPost2010Prop30
280
     1
102
RTVSPost2010PropOp30
 70
     1
102
RTVSPost2010Prop31
280
     0
102
RTVSPost2010PropOp31
 70
     1
102
RTVSPost2010Prop32
280
     0
102
RTVSPost2010PropOp32
 70
     1
102
RTVSPost2010Prop33
280
     0
102
RTVSPost2010PropOp33
 70
     1
102
RTVSPost2010Prop34
280
     0
102
RTVSPost2010PropOp34
 70
     1
102
RTVSPost2010Prop35
280
     0
102
RTVSPost2010PropOp35
 70
     1
102
RTVSPost2010Prop36
280
     0
102
RTVSPost2010PropOp36
 70
     1
102
RTVSPost2010Prop37
 90
       50
102
RTVSPost2010PropOp37
 70
     1
102
RTVSPost2010Prop38
140
0.0
102
RTVSPost2010PropOp38
 70
     1
102
RTVSPost2010Prop39
140
1.0
102
RTVSPost2010PropOp39
 70
     1
102
RTVSPost2010Prop40
 90
        0
102
RTVSPost2010PropOp40
 70
     1
102
RTVSPost2010Prop41ColorIndex
 90
       18
102
RTVSPost2010Prop41ColorRGB
 90
        0
102
RTVSPost2010PropOp41
 70
     1
102
RTVSPost2010Prop42
 90
       50
102
RTVSPost2010PropOp42
 70
     1
102
RTVSPost2010Prop43
 90
        3
102
RTVSPost2010PropOp43
 70
     1
102
RTVSPost2010Prop44ColorIndex
 90
        5
102
RTVSPost2010Prop44ColorRGB
 90
      255
102
RTVSPost2010PropOp44
 70
     1
102
RTVSPost2010Prop45
280
     0
102
RTVSPost2010PropOp45
 70
     1
102
RTVSPost2010Prop46
 90
       50
102
RTVSPost2010PropOp46
 70
     1
102
RTVSPost2010Prop47
 90
       50
102
RTVSPost2010PropOp47
 70
     1
102
RTVSPost2010Prop48
 90
       50
102
RTVSPost2010PropOp48
 70
     1
102
RTVSPost2010Prop49
280
     0
102
RTVSPost2010PropOp49
 70
     1
102
RTVSPost2010Prop50
 90
       50
102
RTVSPost2010PropOp50
 70
     1
102
RTVSPost2010Prop51ColorIndex
 90
      256
102
RTVSPost2010Prop51ColorRGB
 90
-16777216
102
RTVSPost2010PropOp51
 70
     0
102
RTVSPost2010Prop52
140
1.0
102
RTVSPost2010PropOp52
 70
     0
102
RTVSPost2010Prop53
 90
        2
102
RTVSPost2010PropOp53
 70
     1
102
RTVSPost2010Prop54
  1
strokes_ogs.tif
102
RTVSPost2010PropOp54
 70
     1
102
RTVSPost2010Prop55
280
     0
102
RTVSPost2010PropOp55
 70
     1
102
RTVSPost2010Prop56
140
1.0
102
RTVSPost2010PropOp56
 70
     1
102
RTVSPost2010Prop57
140
1.0
102
RTVSPost2010PropOp57
 70
     1
102
RTVSPropertyOp0
 70
     1
102
RTVSPropertyOp1
 70
     1
102
RTVSPropertyOp2
 70
     1
102
RTVSPropertyOp3
 70
     1
102
RTVSPropertyOp4
 70
     1
102
RTVSPropertyOp5
 70
     1
102
RTVSPropertyOp6
 70
     1
102
RTVSPropertyOp7
 70
     1
102
RTVSPropertyOp8
 70
     1
102
RTVSPropertyOp9
 70
     1
102
RTVSPropertyOp10
 70
     1
102
RTVSPropertyOp11
 70
     1
102
RTVSPropertyOp12
 70
     1
102
RTVSPropertyOp13
 70
     1
102
RTVSPropertyOp14
 70
     1
102
RTVSPropertyOp15
 70
     1
102
RTVSPropertyOp16
 70
     1
102
RTVSPropertyOp17
 70
     1
102
RTVSPropertyOp18
 70
     1
102
RTVSPropertyOp19
 70
     1
102
RTVSPropertyOp20
 70
     1
102
RTVSPropertyOp21
 70
     1
102
RTVSPropertyOp22
 70
     1
102
RTVSPropertyOp23
 70
     1
102
RTVSPropertyOp24
 70
     1
102
RTVSPropertyOp25
 70
     1
102
RTVSPropertyOp26
 70
     1
102
RTVSPropertyOp27
 70
     1
102
RTVSPropertyOp28
 70
     1
102
RTVSPropertyOp29
 70
     1
102
RTVSPropertyOp30
 70
     1
102
RTVSPropertyOp31
 70
     1
102
RTVSPropertyOp32
 70
     1
102
RTVSPropertyOp33
 70
     1
102
RTVSPropertyOp34
 70
     1
102
RTVSPropertyOp35
 70
     1
102
RTVSPropertyOp36
 70
     1
102
RTVSPropertyOp37
 70
     1
102
RTVSPropertyOp38
 70
     1
102
RTVSPropertyOp39
 70
     1
102
RTVSPropertyOp40
 70
     1
102
RTVSPropertyOp41
 70
     1
102
RTVSPropertyOp42
 70
     1
102
RTVSPropertyOp43
 70
     1
102
RTVSPropertyOp44
 70
     1
102
RTVSPropertyOp45
 70
     1
102
RTVSPropertyOp46
 70
     1
102
RTVSPropertyOp47
 70
     1
102
RTVSPropertyOp48
 70
     1
102
RTVSPropertyOp49
 70
     1
102
RTVSPropertyOp50
 70
     1
102
RTVSPropertyOp51
 70
     0
102
RTVSPropertyOp52
 70
     0
102
RTVSPropertyOp53
 70
     1
102
RTVSPropertyOp54
 70
     1
102
RTVSPropertyOp55
 70
     1
102
RTVSPropertyOp56
 70
     1
102
RTVSPropertyOp57
 70
     1
102
RTVSPropertyOp58
 70
     1
102
RTVSPropertyOp59
 70
     1
102
RTVSPropertyOp60
 70
     1
102
RTVSPropertyOp61
 70
     1
102
RTVSPropertyOp62
 70
     1
  0
XRECORD
  5
C15
102
{ACAD_REACTORS
330
C14
102
}
330
C14
100
AcDbXrecord
280
     1
102
RTVSPost2010Prop28
280
     0
102
RTVSPost2010PropOp28
 70
     1
102
RTVSPost2010Prop29
280
     1
102
RTVSPost2010PropOp29
 70
     1
102
RTVSPost2010Prop30
280
     1
102
RTVSPost2010PropOp30
 70
     1
102
RTVSPost2010Prop31
280
     0
102
RTVSPost2010PropOp31
 70
     1
102
RTVSPost2010Prop32
280
     0
102
RTVSPost2010PropOp32
 70
     1
102
RTVSPost2010Prop33
280
     0
102
RTVSPost2010PropOp33
 70
     1
102
RTVSPost2010Prop34
280
     0
102
RTVSPost2010PropOp34
 70
     1
102
RTVSPost2010Prop35
280
     0
102
RTVSPost2010PropOp35
 70
     1
102
RTVSPost2010Prop36
280
     0
102
RTVSPost2010PropOp36
 70
     1
102
RTVSPost2010Prop37
 90
       50
102
RTVSPost2010PropOp37
 70
     1
102
RTVSPost2010Prop38
140
0.0
102
RTVSPost2010PropOp38
 70
     1
102
RTVSPost2010Prop39
140
1.0
102
RTVSPost2010PropOp39
 70
     1
102
RTVSPost2010Prop40
 90
        0
102
RTVSPost2010PropOp40
 70
     1
102
RTVSPost2010Prop41ColorIndex
 90
       18
102
RTVSPost2010Prop41ColorRGB
 90
        0
102
RTVSPost2010PropOp41
 70
     1
102
RTVSPost2010Prop42
 90
       50
102
RTVSPost2010PropOp42
 70
     1
102
RTVSPost2010Prop43
 90
        3
102
RTVSPost2010PropOp43
 70
     1
102
RTVSPost2010Prop44ColorIndex
 90
        5
102
RTVSPost2010Prop44ColorRGB
 90
      255
102
RTVSPost2010PropOp44
 70
     1
102
RTVSPost2010Prop45
280
     0
102
RTVSPost2010PropOp45
 70
     1
102
RTVSPost2010Prop46
 90
       50
102
RTVSPost2010PropOp46
 70
     1
102
RTVSPost2010Prop47
 90
       50
102
RTVSPost2010PropOp47
 70
     1
102
RTVSPost2010Prop48
 90
       50
102
RTVSPost2010PropOp48
 70
     1
102
RTVSPost2010Prop49
280
     0
102
RTVSPost2010PropOp49
 70
     1
102
RTVSPost2010Prop50
 90
       50
102
RTVSPost2010PropOp50
 70
     1
102
RTVSPost2010Prop51ColorIndex
 90
      256
102
RTVSPost2010Prop51ColorRGB
 90
-16777216
102
RTVSPost2010PropOp51
 70
     0
102
RTVSPost2010Prop52
140
1.0
102
RTVSPost2010PropOp52
 70
     0
102
RTVSPost2010Prop53
 90
        2
102
RTVSPost2010PropOp53
 70
     1
102
RTVSPost2010Prop54
  1
strokes_ogs.tif
102
RTVSPost2010PropOp54
 70
     1
102
RTVSPost2010Prop55
280
     0
102
RTVSPost2010PropOp55
 70
     1
102
RTVSPost2010Prop56
140
1.0
102
RTVSPost2010PropOp56
 70
     1
102
RTVSPost2010Prop57
140
1.0
102
RTVSPost2010PropOp57
 70
     1
102
RTVSPropertyOp0
 70
     1
102
RTVSPropertyOp1
 70
     1
102
RTVSPropertyOp2
 70
     1
102
RTVSPropertyOp3
 70
     1
102
RTVSPropertyOp4
 70
     1
102
RTVSPropertyOp5
 70
     1
102
RTVSPropertyOp6
 70
     1
102
RTVSPropertyOp7
 70
     1
102
RTVSPropertyOp8
 70
     1
102
RTVSPropertyOp9
 70
     1
102
RTVSPropertyOp10
 70
     1
102
RTVSPropertyOp11
 70
     1
102
RTVSPropertyOp12
 70
     1
102
RTVSPropertyOp13
 70
     1
102
RTVSPropertyOp14
 70
     1
102
RTVSPropertyOp15
 70
     1
102
RTVSPropertyOp16
 70
     1
102
RTVSPropertyOp17
 70
     1
102
RTVSPropertyOp18
 70
     1
102
RTVSPropertyOp19
 70
     1
102
RTVSPropertyOp20
 70
     1
102
RTVSPropertyOp21
 70
     1
102
RTVSPropertyOp22
 70
     1
102
RTVSPropertyOp23
 70
     1
102
RTVSPropertyOp24
 70
     1
102
RTVSPropertyOp25
 70
     1
102
RTVSPropertyOp26
 70
     1
102
RTVSPropertyOp27
 70
     1
102
RTVSPropertyOp28
 70
     1
102
RTVSPropertyOp29
 70
     1
102
RTVSPropertyOp30
 70
     1
102
RTVSPropertyOp31
 70
     1
102
RTVSPropertyOp32
 70
     1
102
RTVSPropertyOp33
 70
     1
102
RTVSPropertyOp34
 70
     1
102
RTVSPropertyOp35
 70
     1
102
RTVSPropertyOp36
 70
     1
102
RTVSPropertyOp37
 70
     1
102
RTVSPropertyOp38
 70
     1
102
RTVSPropertyOp39
 70
     1
102
RTVSPropertyOp40
 70
     1
102
RTVSPropertyOp41
 70
     1
102
RTVSPropertyOp42
 70
     1
102
RTVSPropertyOp43
 70
     1
102
RTVSPropertyOp44
 70
     1
102
RTVSPropertyOp45
 70
     1
102
RTVSPropertyOp46
 70
     1
102
RTVSPropertyOp47
 70
     1
102
RTVSPropertyOp48
 70
     1
102
RTVSPropertyOp49
 70
     1
102
RTVSPropertyOp50
 70
     1
102
RTVSPropertyOp51
 70
     0
102
RTVSPropertyOp52
 70
     0
102
RTVSPropertyOp53
 70
     1
102
RTVSPropertyOp54
 70
     1
102
RTVSPropertyOp55
 70
     1
102
RTVSPropertyOp56
 70
     1
102
RTVSPropertyOp57
 70
     1
102
RTVSPropertyOp58
 70
     1
102
RTVSPropertyOp59
 70
     1
102
RTVSPropertyOp60
 70
     1
102
RTVSPropertyOp61
 70
     1
102
RTVSPropertyOp62
 70
     1
  0
XRECORD
  5
C17
102
{ACAD_REACTORS
330
C16
102
}
330
C16
100
AcDbXrecord
280
     1
102
RTVSPost2010Prop28
280
     0
102
RTVSPost2010PropOp28
 70
     1
102
RTVSPost2010Prop29
280
     1
102
RTVSPost2010PropOp29
 70
     1
102
RTVSPost2010Prop30
280
     1
102
RTVSPost2010PropOp30
 70
     1
102
RTVSPost2010Prop31
280
     0
102
RTVSPost2010PropOp31
 70
     1
102
RTVSPost2010Prop32
280
     0
102
RTVSPost2010PropOp32
 70
     1
102
RTVSPost2010Prop33
280
     0
102
RTVSPost2010PropOp33
 70
     1
102
RTVSPost2010Prop34
280
     0
102
RTVSPost2010PropOp34
 70
     1
102
RTVSPost2010Prop35
280
     0
102
RTVSPost2010PropOp35
 70
     1
102
RTVSPost2010Prop36
280
     0
102
RTVSPost2010PropOp36
 70
     1
102
RTVSPost2010Prop37
 90
       50
102
RTVSPost2010PropOp37
 70
     1
102
RTVSPost2010Prop38
140
0.0
102
RTVSPost2010PropOp38
 70
     1
102
RTVSPost2010Prop39
140
1.0
102
RTVSPost2010PropOp39
 70
     1
102
RTVSPost2010Prop40
 90
        0
102
RTVSPost2010PropOp40
 70
     1
102
RTVSPost2010Prop41ColorIndex
 90
       18
102
RTVSPost2010Prop41ColorRGB
 90
        0
102
RTVSPost2010PropOp41
 70
     1
102
RTVSPost2010Prop42
 90
       50
102
RTVSPost2010PropOp42
 70
     1
102
RTVSPost2010Prop43
 90
        3
102
RTVSPost2010PropOp43
 70
     1
102
RTVSPost2010Prop44ColorIndex
 90
        5
102
RTVSPost2010Prop44ColorRGB
 90
      255
102
RTVSPost2010PropOp44
 70
     1
102
RTVSPost2010Prop45
280
     0
102
RTVSPost2010PropOp45
 70
     1
102
RTVSPost2010Prop46
 90
       50
102
RTVSPost2010PropOp46
 70
     1
102
RTVSPost2010Prop47
 90
       50
102
RTVSPost2010PropOp47
 70
     1
102
RTVSPost2010Prop48
 90
       50
102
RTVSPost2010PropOp48
 70
     1
102
RTVSPost2010Prop49
280
     0
102
RTVSPost2010PropOp49
 70
     1
102
RTVSPost2010Prop50
 90
       50
102
RTVSPost2010PropOp50
 70
     1
102
RTVSPost2010Prop51ColorIndex
 90
      256
102
RTVSPost2010Prop51ColorRGB
 90
-16777216
102
RTVSPost2010PropOp51
 70
     0
102
RTVSPost2010Prop52
140
1.0
102
RTVSPost2010PropOp52
 70
     0
102
RTVSPost2010Prop53
 90
        2
102
RTVSPost2010PropOp53
 70
     1
102
RTVSPost2010Prop54
  1
strokes_ogs.tif
102
RTVSPost2010PropOp54
 70
     1
102
RTVSPost2010Prop55
280
     0
102
RTVSPost2010PropOp55
 70
     1
102
RTVSPost2010Prop56
140
1.0
102
RTVSPost2010PropOp56
 70
     1
102
RTVSPost2010Prop57
140
1.0
102
RTVSPost2010PropOp57
 70
     1
102
RTVSPropertyOp0
 70
     1
102
RTVSPropertyOp1
 70
     1
102
RTVSPropertyOp2
 70
     1
102
RTVSPropertyOp3
 70
     1
102
RTVSPropertyOp4
 70
     1
102
RTVSPropertyOp5
 70
     1
102
RTVSPropertyOp6
 70
     1
102
RTVSPropertyOp7
 70
     1
102
RTVSPropertyOp8
 70
     1
102
RTVSPropertyOp9
 70
     1
102
RTVSPropertyOp10
 70
     1
102
RTVSPropertyOp11
 70
     1
102
RTVSPropertyOp12
 70
     1
102
RTVSPropertyOp13
 70
     1
102
RTVSPropertyOp14
 70
     1
102
RTVSPropertyOp15
 70
     1
102
RTVSPropertyOp16
 70
     1
102
RTVSPropertyOp17
 70
     1
102
RTVSPropertyOp18
 70
     1
102
RTVSPropertyOp19
 70
     1
102
RTVSPropertyOp20
 70
     1
102
RTVSPropertyOp21
 70
     1
102
RTVSPropertyOp22
 70
     1
102
RTVSPropertyOp23
 70
     1
102
RTVSPropertyOp24
 70
     1
102
RTVSPropertyOp25
 70
     1
102
RTVSPropertyOp26
 70
     1
102
RTVSPropertyOp27
 70
     1
102
RTVSPropertyOp28
 70
     1
102
RTVSPropertyOp29
 70
     1
102
RTVSPropertyOp30
 70
     1
102
RTVSPropertyOp31
 70
     1
102
RTVSPropertyOp32
 70
     1
102
RTVSPropertyOp33
 70
     1
102
RTVSPropertyOp34
 70
     1
102
RTVSPropertyOp35
 70
     1
102
RTVSPropertyOp36
 70
     1
102
RTVSPropertyOp37
 70
     1
102
RTVSPropertyOp38
 70
     1
102
RTVSPropertyOp39
 70
     1
102
RTVSPropertyOp40
 70
     1
102
RTVSPropertyOp41
 70
     1
102
RTVSPropertyOp42
 70
     1
102
RTVSPropertyOp43
 70
     1
102
RTVSPropertyOp44
 70
     1
102
RTVSPropertyOp45
 70
     1
102
RTVSPropertyOp46
 70
     1
102
RTVSPropertyOp47
 70
     1
102
RTVSPropertyOp48
 70
     1
102
RTVSPropertyOp49
 70
     1
102
RTVSPropertyOp50
 70
     1
102
RTVSPropertyOp51
 70
     0
102
RTVSPropertyOp52
 70
     0
102
RTVSPropertyOp53
 70
     1
102
RTVSPropertyOp54
 70
     1
102
RTVSPropertyOp55
 70
     1
102
RTVSPropertyOp56
 70
     1
102
RTVSPropertyOp57
 70
     1
102
RTVSPropertyOp58
 70
     1
102
RTVSPropertyOp59
 70
     1
102
RTVSPropertyOp60
 70
     1
102
RTVSPropertyOp61
 70
     1
102
RTVSPropertyOp62
 70
     1
  0
XRECORD
  5
C19
102
{ACAD_REACTORS
330
C18
102
}
330
C18
100
AcDbXrecord
280
     1
102
RTVSPost2010Prop28
280
     0
102
RTVSPost2010PropOp28
 70
     1
102
RTVSPost2010Prop29
280
     1
102
RTVSPost2010PropOp29
 70
     1
102
RTVSPost2010Prop30
280
     1
102
RTVSPost2010PropOp30
 70
     1
102
RTVSPost2010Prop31
280
     0
102
RTVSPost2010PropOp31
 70
     1
102
RTVSPost2010Prop32
280
     0
102
RTVSPost2010PropOp32
 70
     1
102
RTVSPost2010Prop33
280
     0
102
RTVSPost2010PropOp33
 70
     1
102
RTVSPost2010Prop34
280
     0
102
RTVSPost2010PropOp34
 70
     1
102
RTVSPost2010Prop35
280
     0
102
RTVSPost2010PropOp35
 70
     1
102
RTVSPost2010Prop36
280
     0
102
RTVSPost2010PropOp36
 70
     1
102
RTVSPost2010Prop37
 90
       50
102
RTVSPost2010PropOp37
 70
     1
102
RTVSPost2010Prop38
140
0.0
102
RTVSPost2010PropOp38
 70
     1
102
RTVSPost2010Prop39
140
1.0
102
RTVSPost2010PropOp39
 70
     1
102
RTVSPost2010Prop40
 90
        0
102
RTVSPost2010PropOp40
 70
     1
102
RTVSPost2010Prop41ColorIndex
 90
       18
102
RTVSPost2010Prop41ColorRGB
 90
        0
102
RTVSPost2010PropOp41
 70
     1
102
RTVSPost2010Prop42
 90
       50
102
RTVSPost2010PropOp42
 70
     1
102
RTVSPost2010Prop43
 90
        3
102
RTVSPost2010PropOp43
 70
     1
102
RTVSPost2010Prop44ColorIndex
 90
        5
102
RTVSPost2010Prop44ColorRGB
 90
      255
102
RTVSPost2010PropOp44
 70
     1
102
RTVSPost2010Prop45
280
     0
102
RTVSPost2010PropOp45
 70
     1
102
RTVSPost2010Prop46
 90
       50
102
RTVSPost2010PropOp46
 70
     1
102
RTVSPost2010Prop47
 90
       50
102
RTVSPost2010PropOp47
 70
     1
102
RTVSPost2010Prop48
 90
       50
102
RTVSPost2010PropOp48
 70
     1
102
RTVSPost2010Prop49
280
     0
102
RTVSPost2010PropOp49
 70
     1
102
RTVSPost2010Prop50
 90
       50
102
RTVSPost2010PropOp50
 70
     1
102
RTVSPost2010Prop51ColorIndex
 90
      256
102
RTVSPost2010Prop51ColorRGB
 90
-16777216
102
RTVSPost2010PropOp51
 70
     0
102
RTVSPost2010Prop52
140
1.0
102
RTVSPost2010PropOp52
 70
     0
102
RTVSPost2010Prop53
 90
        2
102
RTVSPost2010PropOp53
 70
     1
102
RTVSPost2010Prop54
  1
strokes_ogs.tif
102
RTVSPost2010PropOp54
 70
     1
102
RTVSPost2010Prop55
280
     0
102
RTVSPost2010PropOp55
 70
     1
102
RTVSPost2010Prop56
140
1.0
102
RTVSPost2010PropOp56
 70
     1
102
RTVSPost2010Prop57
140
1.0
102
RTVSPost2010PropOp57
 70
     1
102
RTVSPropertyOp0
 70
     1
102
RTVSPropertyOp1
 70
     1
102
RTVSPropertyOp2
 70
     1
102
RTVSPropertyOp3
 70
     1
102
RTVSPropertyOp4
 70
     1
102
RTVSPropertyOp5
 70
     1
102
RTVSPropertyOp6
 70
     1
102
RTVSPropertyOp7
 70
     1
102
RTVSPropertyOp8
 70
     1
102
RTVSPropertyOp9
 70
     1
102
RTVSPropertyOp10
 70
     1
102
RTVSPropertyOp11
 70
     1
102
RTVSPropertyOp12
 70
     1
102
RTVSPropertyOp13
 70
     1
102
RTVSPropertyOp14
 70
     1
102
RTVSPropertyOp15
 70
     1
102
RTVSPropertyOp16
 70
     1
102
RTVSPropertyOp17
 70
     1
102
RTVSPropertyOp18
 70
     1
102
RTVSPropertyOp19
 70
     1
102
RTVSPropertyOp20
 70
     1
102
RTVSPropertyOp21
 70
     1
102
RTVSPropertyOp22
 70
     1
102
RTVSPropertyOp23
 70
     1
102
RTVSPropertyOp24
 70
     1
102
RTVSPropertyOp25
 70
     1
102
RTVSPropertyOp26
 70
     1
102
RTVSPropertyOp27
 70
     1
102
RTVSPropertyOp28
 70
     1
102
RTVSPropertyOp29
 70
     1
102
RTVSPropertyOp30
 70
     1
102
RTVSPropertyOp31
 70
     1
102
RTVSPropertyOp32
 70
     1
102
RTVSPropertyOp33
 70
     1
102
RTVSPropertyOp34
 70
     1
102
RTVSPropertyOp35
 70
     1
102
RTVSPropertyOp36
 70
     1
102
RTVSPropertyOp37
 70
     1
102
RTVSPropertyOp38
 70
     1
102
RTVSPropertyOp39
 70
     1
102
RTVSPropertyOp40
 70
     1
102
RTVSPropertyOp41
 70
     1
102
RTVSPropertyOp42
 70
     1
102
RTVSPropertyOp43
 70
     1
102
RTVSPropertyOp44
 70
     1
102
RTVSPropertyOp45
 70
     1
102
RTVSPropertyOp46
 70
     1
102
RTVSPropertyOp47
 70
     1
102
RTVSPropertyOp48
 70
     1
102
RTVSPropertyOp49
 70
     1
102
RTVSPropertyOp50
 70
     1
102
RTVSPropertyOp51
 70
     0
102
RTVSPropertyOp52
 70
     0
102
RTVSPropertyOp53
 70
     1
102
RTVSPropertyOp54
 70
     1
102
RTVSPropertyOp55
 70
     1
102
RTVSPropertyOp56
 70
     1
102
RTVSPropertyOp57
 70
     1
102
RTVSPropertyOp58
 70
     1
102
RTVSPropertyOp59
 70
     1
102
RTVSPropertyOp60
 70
     1
102
RTVSPropertyOp61
 70
     1
102
RTVSPropertyOp62
 70
     1
  0
XRECORD
  5
C1B
102
{ACAD_REACTORS
330
C1A
102
}
330
C1A
100
AcDbXrecord
280
     1
102
RTVSPost2010Prop28
280
     0
102
RTVSPost2010PropOp28
 70
     1
102
RTVSPost2010Prop29
280
     1
102
RTVSPost2010PropOp29
 70
     1
102
RTVSPost2010Prop30
280
     1
102
RTVSPost2010PropOp30
 70
     1
102
RTVSPost2010Prop31
280
     0
102
RTVSPost2010PropOp31
 70
     1
102
RTVSPost2010Prop32
280
     0
102
RTVSPost2010PropOp32
 70
     1
102
RTVSPost2010Prop33
280
     0
102
RTVSPost2010PropOp33
 70
     1
102
RTVSPost2010Prop34
280
     0
102
RTVSPost2010PropOp34
 70
     1
102
RTVSPost2010Prop35
280
     0
102
RTVSPost2010PropOp35
 70
     1
102
RTVSPost2010Prop36
280
     0
102
RTVSPost2010PropOp36
 70
     1
102
RTVSPost2010Prop37
 90
       50
102
RTVSPost2010PropOp37
 70
     1
102
RTVSPost2010Prop38
140
0.0
102
RTVSPost2010PropOp38
 70
     1
102
RTVSPost2010Prop39
140
1.0
102
RTVSPost2010PropOp39
 70
     1
102
RTVSPost2010Prop40
 90
        0
102
RTVSPost2010PropOp40
 70
     1
102
RTVSPost2010Prop41ColorIndex
 90
       18
102
RTVSPost2010Prop41ColorRGB
 90
        0
102
RTVSPost2010PropOp41
 70
     1
102
RTVSPost2010Prop42
 90
       50
102
RTVSPost2010PropOp42
 70
     1
102
RTVSPost2010Prop43
 90
        3
102
RTVSPost2010PropOp43
 70
     1
102
RTVSPost2010Prop44ColorIndex
 90
        5
102
RTVSPost2010Prop44ColorRGB
 90
      255
102
RTVSPost2010PropOp44
 70
     1
102
RTVSPost2010Prop45
280
     0
102
RTVSPost2010PropOp45
 70
     1
102
RTVSPost2010Prop46
 90
       50
102
RTVSPost2010PropOp46
 70
     1
102
RTVSPost2010Prop47
 90
       50
102
RTVSPost2010PropOp47
 70
     1
102
RTVSPost2010Prop48
 90
       50
102
RTVSPost2010PropOp48
 70
     1
102
RTVSPost2010Prop49
280
     0
102
RTVSPost2010PropOp49
 70
     1
102
RTVSPost2010Prop50
 90
       50
102
RTVSPost2010PropOp50
 70
     1
102
RTVSPost2010Prop51ColorIndex
 90
      256
102
RTVSPost2010Prop51ColorRGB
 90
-16777216
102
RTVSPost2010PropOp51
 70
     0
102
RTVSPost2010Prop52
140
1.0
102
RTVSPost2010PropOp52
 70
     0
102
RTVSPost2010Prop53
 90
        2
102
RTVSPost2010PropOp53
 70
     1
102
RTVSPost2010Prop54
  1
strokes_ogs.tif
102
RTVSPost2010PropOp54
 70
     1
102
RTVSPost2010Prop55
280
     0
102
RTVSPost2010PropOp55
 70
     1
102
RTVSPost2010Prop56
140
1.0
102
RTVSPost2010PropOp56
 70
     1
102
RTVSPost2010Prop57
140
1.0
102
RTVSPost2010PropOp57
 70
     1
102
RTVSPropertyOp0
 70
     1
102
RTVSPropertyOp1
 70
     1
102
RTVSPropertyOp2
 70
     1
102
RTVSPropertyOp3
 70
     1
102
RTVSPropertyOp4
 70
     1
102
RTVSPropertyOp5
 70
     1
102
RTVSPropertyOp6
 70
     1
102
RTVSPropertyOp7
 70
     1
102
RTVSPropertyOp8
 70
     1
102
RTVSPropertyOp9
 70
     1
102
RTVSPropertyOp10
 70
     1
102
RTVSPropertyOp11
 70
     1
102
RTVSPropertyOp12
 70
     1
102
RTVSPropertyOp13
 70
     1
102
RTVSPropertyOp14
 70
     1
102
RTVSPropertyOp15
 70
     1
102
RTVSPropertyOp16
 70
     1
102
RTVSPropertyOp17
 70
     1
102
RTVSPropertyOp18
 70
     1
102
RTVSPropertyOp19
 70
     1
102
RTVSPropertyOp20
 70
     1
102
RTVSPropertyOp21
 70
     1
102
RTVSPropertyOp22
 70
     1
102
RTVSPropertyOp23
 70
     1
102
RTVSPropertyOp24
 70
     1
102
RTVSPropertyOp25
 70
     1
102
RTVSPropertyOp26
 70
     1
102
RTVSPropertyOp27
 70
     1
102
RTVSPropertyOp28
 70
     1
102
RTVSPropertyOp29
 70
     1
102
RTVSPropertyOp30
 70
     1
102
RTVSPropertyOp31
 70
     1
102
RTVSPropertyOp32
 70
     1
102
RTVSPropertyOp33
 70
     1
102
RTVSPropertyOp34
 70
     1
102
RTVSPropertyOp35
 70
     1
102
RTVSPropertyOp36
 70
     1
102
RTVSPropertyOp37
 70
     1
102
RTVSPropertyOp38
 70
     1
102
RTVSPropertyOp39
 70
     1
102
RTVSPropertyOp40
 70
     1
102
RTVSPropertyOp41
 70
     1
102
RTVSPropertyOp42
 70
     1
102
RTVSPropertyOp43
 70
     1
102
RTVSPropertyOp44
 70
     1
102
RTVSPropertyOp45
 70
     1
102
RTVSPropertyOp46
 70
     1
102
RTVSPropertyOp47
 70
     1
102
RTVSPropertyOp48
 70
     1
102
RTVSPropertyOp49
 70
     1
102
RTVSPropertyOp50
 70
     1
102
RTVSPropertyOp51
 70
     0
102
RTVSPropertyOp52
 70
     0
102
RTVSPropertyOp53
 70
     1
102
RTVSPropertyOp54
 70
     1
102
RTVSPropertyOp55
 70
     1
102
RTVSPropertyOp56
 70
     1
102
RTVSPropertyOp57
 70
     1
102
RTVSPropertyOp58
 70
     1
102
RTVSPropertyOp59
 70
     1
102
RTVSPropertyOp60
 70
     1
102
RTVSPropertyOp61
 70
     1
102
RTVSPropertyOp62
 70
     1
  0
XRECORD
  5
C21
102
{ACAD_REACTORS
330
C20
102
}
330
C20
100
AcDbXrecord
280
     1
102
RTVSPost2010Prop28
280
     0
102
RTVSPost2010PropOp28
 70
     1
102
RTVSPost2010Prop29
280
     1
102
RTVSPost2010PropOp29
 70
     1
102
RTVSPost2010Prop30
280
     1
102
RTVSPost2010PropOp30
 70
     1
102
RTVSPost2010Prop31
280
     0
102
RTVSPost2010PropOp31
 70
     1
102
RTVSPost2010Prop32
280
     0
102
RTVSPost2010PropOp32
 70
     1
102
RTVSPost2010Prop33
280
     0
102
RTVSPost2010PropOp33
 70
     1
102
RTVSPost2010Prop34
280
     0
102
RTVSPost2010PropOp34
 70
     1
102
RTVSPost2010Prop35
280
     0
102
RTVSPost2010PropOp35
 70
     1
102
RTVSPost2010Prop36
280
     0
102
RTVSPost2010PropOp36
 70
     1
102
RTVSPost2010Prop37
 90
       50
102
RTVSPost2010PropOp37
 70
     1
102
RTVSPost2010Prop38
140
0.0
102
RTVSPost2010PropOp38
 70
     1
102
RTVSPost2010Prop39
140
1.0
102
RTVSPost2010PropOp39
 70
     1
102
RTVSPost2010Prop40
 90
        0
102
RTVSPost2010PropOp40
 70
     1
102
RTVSPost2010Prop41ColorIndex
 90
       18
102
RTVSPost2010Prop41ColorRGB
 90
        0
102
RTVSPost2010PropOp41
 70
     1
102
RTVSPost2010Prop42
 90
       50
102
RTVSPost2010PropOp42
 70
     1
102
RTVSPost2010Prop43
 90
        3
102
RTVSPost2010PropOp43
 70
     1
102
RTVSPost2010Prop44ColorIndex
 90
        5
102
RTVSPost2010Prop44ColorRGB
 90
      255
102
RTVSPost2010PropOp44
 70
     1
102
RTVSPost2010Prop45
280
     0
102
RTVSPost2010PropOp45
 70
     1
102
RTVSPost2010Prop46
 90
       50
102
RTVSPost2010PropOp46
 70
     1
102
RTVSPost2010Prop47
 90
       50
102
RTVSPost2010PropOp47
 70
     1
102
RTVSPost2010Prop48
 90
       50
102
RTVSPost2010PropOp48
 70
     1
102
RTVSPost2010Prop49
280
     0
102
RTVSPost2010PropOp49
 70
     1
102
RTVSPost2010Prop50
 90
       50
102
RTVSPost2010PropOp50
 70
     1
102
RTVSPost2010Prop51ColorIndex
 90
      256
102
RTVSPost2010Prop51ColorRGB
 90
-16777216
102
RTVSPost2010PropOp51
 70
     0
102
RTVSPost2010Prop52
140
1.0
102
RTVSPost2010PropOp52
 70
     0
102
RTVSPost2010Prop53
 90
        2
102
RTVSPost2010PropOp53
 70
     1
102
RTVSPost2010Prop54
  1
strokes_ogs.tif
102
RTVSPost2010PropOp54
 70
     1
102
RTVSPost2010Prop55
280
     0
102
RTVSPost2010PropOp55
 70
     1
102
RTVSPost2010Prop56
140
1.0
102
RTVSPost2010PropOp56
 70
     1
102
RTVSPost2010Prop57
140
1.0
102
RTVSPost2010PropOp57
 70
     1
102
RTVSPropertyOp0
 70
     1
102
RTVSPropertyOp1
 70
     1
102
RTVSPropertyOp2
 70
     1
102
RTVSPropertyOp3
 70
     1
102
RTVSPropertyOp4
 70
     1
102
RTVSPropertyOp5
 70
     1
102
RTVSPropertyOp6
 70
     1
102
RTVSPropertyOp7
 70
     1
102
RTVSPropertyOp8
 70
     1
102
RTVSPropertyOp9
 70
     1
102
RTVSPropertyOp10
 70
     1
102
RTVSPropertyOp11
 70
     1
102
RTVSPropertyOp12
 70
     1
102
RTVSPropertyOp13
 70
     1
102
RTVSPropertyOp14
 70
     1
102
RTVSPropertyOp15
 70
     1
102
RTVSPropertyOp16
 70
     1
102
RTVSPropertyOp17
 70
     1
102
RTVSPropertyOp18
 70
     1
102
RTVSPropertyOp19
 70
     1
102
RTVSPropertyOp20
 70
     1
102
RTVSPropertyOp21
 70
     1
102
RTVSPropertyOp22
 70
     1
102
RTVSPropertyOp23
 70
     1
102
RTVSPropertyOp24
 70
     1
102
RTVSPropertyOp25
 70
     1
102
RTVSPropertyOp26
 70
     1
102
RTVSPropertyOp27
 70
     1
102
RTVSPropertyOp28
 70
     1
102
RTVSPropertyOp29
 70
     1
102
RTVSPropertyOp30
 70
     1
102
RTVSPropertyOp31
 70
     1
102
RTVSPropertyOp32
 70
     1
102
RTVSPropertyOp33
 70
     1
102
RTVSPropertyOp34
 70
     1
102
RTVSPropertyOp35
 70
     1
102
RTVSPropertyOp36
 70
     1
102
RTVSPropertyOp37
 70
     1
102
RTVSPropertyOp38
 70
     1
102
RTVSPropertyOp39
 70
     1
102
RTVSPropertyOp40
 70
     1
102
RTVSPropertyOp41
 70
     1
102
RTVSPropertyOp42
 70
     1
102
RTVSPropertyOp43
 70
     1
102
RTVSPropertyOp44
 70
     1
102
RTVSPropertyOp45
 70
     1
102
RTVSPropertyOp46
 70
     1
102
RTVSPropertyOp47
 70
     1
102
RTVSPropertyOp48
 70
     1
102
RTVSPropertyOp49
 70
     1
102
RTVSPropertyOp50
 70
     1
102
RTVSPropertyOp51
 70
     0
102
RTVSPropertyOp52
 70
     0
102
RTVSPropertyOp53
 70
     1
102
RTVSPropertyOp54
 70
     1
102
RTVSPropertyOp55
 70
     1
102
RTVSPropertyOp56
 70
     1
102
RTVSPropertyOp57
 70
     1
102
RTVSPropertyOp58
 70
     1
102
RTVSPropertyOp59
 70
     1
102
RTVSPropertyOp60
 70
     1
102
RTVSPropertyOp61
 70
     1
102
RTVSPropertyOp62
 70
     1
  0
XRECORD
  5
C35
102
{ACAD_REACTORS
330
C34
102
}
330
C34
100
AcDbXrecord
280
     1
102
RTVSPost2010Prop28
280
     0
102
RTVSPost2010PropOp28
 70
     0
102
RTVSPost2010Prop29
280
     1
102
RTVSPost2010PropOp29
 70
     0
102
RTVSPost2010Prop30
280
     1
102
RTVSPost2010PropOp30
 70
     0
102
RTVSPost2010Prop31
280
     0
102
RTVSPost2010PropOp31
 70
     0
102
RTVSPost2010Prop32
280
     0
102
RTVSPost2010PropOp32
 70
     0
102
RTVSPost2010Prop33
280
     0
102
RTVSPost2010PropOp33
 70
     0
102
RTVSPost2010Prop34
280
     0
102
RTVSPost2010PropOp34
 70
     0
102
RTVSPost2010Prop35
280
     0
102
RTVSPost2010PropOp35
 70
     0
102
RTVSPost2010Prop36
280
     0
102
RTVSPost2010PropOp36
 70
     0
102
RTVSPost2010Prop37
 90
       50
102
RTVSPost2010PropOp37
 70
     0
102
RTVSPost2010Prop38
140
0.0
102
RTVSPost2010PropOp38
 70
     0
102
RTVSPost2010Prop39
140
1.0
102
RTVSPost2010PropOp39
 70
     0
102
RTVSPost2010Prop40
 90
        0
102
RTVSPost2010PropOp40
 70
     0
102
RTVSPost2010Prop41ColorIndex
 90
       18
102
RTVSPost2010Prop41ColorRGB
 90
        0
102
RTVSPost2010PropOp41
 70
     0
102
RTVSPost2010Prop42
 90
       50
102
RTVSPost2010PropOp42
 70
     0
102
RTVSPost2010Prop43
 90
        3
102
RTVSPost2010PropOp43
 70
     0
102
RTVSPost2010Prop44ColorIndex
 90
        5
102
RTVSPost2010Prop44ColorRGB
 90
      255
102
RTVSPost2010PropOp44
 70
     0
102
RTVSPost2010Prop45
280
     0
102
RTVSPost2010PropOp45
 70
     0
102
RTVSPost2010Prop46
 90
       50
102
RTVSPost2010PropOp46
 70
     0
102
RTVSPost2010Prop47
 90
       50
102
RTVSPost2010PropOp47
 70
     0
102
RTVSPost2010Prop48
 90
       50
102
RTVSPost2010PropOp48
 70
     0
102
RTVSPost2010Prop49
280
     0
102
RTVSPost2010PropOp49
 70
     0
102
RTVSPost2010Prop50
 90
       50
102
RTVSPost2010PropOp50
 70
     0
102
RTVSPost2010Prop51ColorIndex
 90
      256
102
RTVSPost2010Prop51ColorRGB
 90
-16777216
102
RTVSPost2010PropOp51
 70
     0
102
RTVSPost2010Prop52
140
1.0
102
RTVSPost2010PropOp52
 70
     0
102
RTVSPost2010Prop53
 90
        2
102
RTVSPost2010PropOp53
 70
     0
102
RTVSPost2010Prop54
  1
strokes_ogs.tif
102
RTVSPost2010PropOp54
 70
     0
102
RTVSPost2010Prop55
280
     0
102
RTVSPost2010PropOp55
 70
     0
102
RTVSPost2010Prop56
140
1.0
102
RTVSPost2010PropOp56
 70
     0
102
RTVSPost2010Prop57
140
1.0
102
RTVSPost2010PropOp57
 70
     0
102
RTVSPropertyOp0
 70
     0
102
RTVSPropertyOp1
 70
     0
102
RTVSPropertyOp2
 70
     0
102
RTVSPropertyOp3
 70
     0
102
RTVSPropertyOp4
 70
     0
102
RTVSPropertyOp5
 70
     0
102
RTVSPropertyOp6
 70
     0
102
RTVSPropertyOp7
 70
     0
102
RTVSPropertyOp8
 70
     0
102
RTVSPropertyOp9
 70
     0
102
RTVSPropertyOp10
 70
     0
102
RTVSPropertyOp11
 70
     0
102
RTVSPropertyOp12
 70
     0
102
RTVSPropertyOp13
 70
     0
102
RTVSPropertyOp14
 70
     2
102
RTVSPropertyOp15
 70
     0
102
RTVSPropertyOp16
 70
     0
102
RTVSPropertyOp17
 70
     0
102
RTVSPropertyOp18
 70
     0
102
RTVSPropertyOp19
 70
     0
102
RTVSPropertyOp20
 70
     0
102
RTVSPropertyOp21
 70
     0
102
RTVSPropertyOp22
 70
     0
102
RTVSPropertyOp23
 70
     0
102
RTVSPropertyOp24
 70
     0
102
RTVSPropertyOp25
 70
     0
102
RTVSPropertyOp26
 70
     0
102
RTVSPropertyOp27
 70
     0
102
RTVSPropertyOp28
 70
     0
102
RTVSPropertyOp29
 70
     0
102
RTVSPropertyOp30
 70
     0
102
RTVSPropertyOp31
 70
     0
102
RTVSPropertyOp32
 70
     0
102
RTVSPropertyOp33
 70
     0
102
RTVSPropertyOp34
 70
     0
102
RTVSPropertyOp35
 70
     0
102
RTVSPropertyOp36
 70
     0
102
RTVSPropertyOp37
 70
     0
102
RTVSPropertyOp38
 70
     0
102
RTVSPropertyOp39
 70
     0
102
RTVSPropertyOp40
 70
     0
102
RTVSPropertyOp41
 70
     0
102
RTVSPropertyOp42
 70
     0
102
RTVSPropertyOp43
 70
     0
102
RTVSPropertyOp44
 70
     0
102
RTVSPropertyOp45
 70
     0
102
RTVSPropertyOp46
 70
     0
102
RTVSPropertyOp47
 70
     0
102
RTVSPropertyOp48
 70
     0
102
RTVSPropertyOp49
 70
     0
102
RTVSPropertyOp50
 70
     0
102
RTVSPropertyOp51
 70
     0
102
RTVSPropertyOp52
 70
     0
102
RTVSPropertyOp53
 70
     0
102
RTVSPropertyOp54
 70
     0
102
RTVSPropertyOp55
 70
     0
102
RTVSPropertyOp56
 70
     0
102
RTVSPropertyOp57
 70
     0
102
RTVSPropertyOp58
 70
     1
102
RTVSPropertyOp59
 70
     1
102
RTVSPropertyOp60
 70
     1
102
RTVSPropertyOp61
 70
     1
102
RTVSPropertyOp62
 70
     1
  0
XRECORD
  5
C2F
102
{ACAD_REACTORS
330
C2E
102
}
330
C2E
100
AcDbXrecord
280
     1
102
RTVSPost2010Prop28
280
     0
102
RTVSPost2010PropOp28
 70
     1
102
RTVSPost2010Prop29
280
     1
102
RTVSPost2010PropOp29
 70
     1
102
RTVSPost2010Prop30
280
     1
102
RTVSPost2010PropOp30
 70
     1
102
RTVSPost2010Prop31
280
     0
102
RTVSPost2010PropOp31
 70
     1
102
RTVSPost2010Prop32
280
     0
102
RTVSPost2010PropOp32
 70
     1
102
RTVSPost2010Prop33
280
     0
102
RTVSPost2010PropOp33
 70
     1
102
RTVSPost2010Prop34
280
     0
102
RTVSPost2010PropOp34
 70
     1
102
RTVSPost2010Prop35
280
     0
102
RTVSPost2010PropOp35
 70
     1
102
RTVSPost2010Prop36
280
     0
102
RTVSPost2010PropOp36
 70
     1
102
RTVSPost2010Prop37
 90
       50
102
RTVSPost2010PropOp37
 70
     1
102
RTVSPost2010Prop38
140
0.0
102
RTVSPost2010PropOp38
 70
     1
102
RTVSPost2010Prop39
140
1.0
102
RTVSPost2010PropOp39
 70
     1
102
RTVSPost2010Prop40
 90
        0
102
RTVSPost2010PropOp40
 70
     1
102
RTVSPost2010Prop41ColorIndex
 90
       18
102
RTVSPost2010Prop41ColorRGB
 90
        0
102
RTVSPost2010PropOp41
 70
     1
102
RTVSPost2010Prop42
 90
       50
102
RTVSPost2010PropOp42
 70
     1
102
RTVSPost2010Prop43
 90
        3
102
RTVSPost2010PropOp43
 70
     1
102
RTVSPost2010Prop44ColorIndex
 90
        5
102
RTVSPost2010Prop44ColorRGB
 90
      255
102
RTVSPost2010PropOp44
 70
     1
102
RTVSPost2010Prop45
280
     0
102
RTVSPost2010PropOp45
 70
     1
102
RTVSPost2010Prop46
 90
       50
102
RTVSPost2010PropOp46
 70
     1
102
RTVSPost2010Prop47
 90
       50
102
RTVSPost2010PropOp47
 70
     1
102
RTVSPost2010Prop48
 90
       50
102
RTVSPost2010PropOp48
 70
     1
102
RTVSPost2010Prop49
280
     0
102
RTVSPost2010PropOp49
 70
     1
102
RTVSPost2010Prop50
 90
       50
102
RTVSPost2010PropOp50
 70
     1
102
RTVSPost2010Prop51ColorIndex
 90
      256
102
RTVSPost2010Prop51ColorRGB
 90
-16777216
102
RTVSPost2010PropOp51
 70
     0
102
RTVSPost2010Prop52
140
1.0
102
RTVSPost2010PropOp52
 70
     0
102
RTVSPost2010Prop53
 90
        2
102
RTVSPost2010PropOp53
 70
     1
102
RTVSPost2010Prop54
  1
strokes_ogs.tif
102
RTVSPost2010PropOp54
 70
     1
102
RTVSPost2010Prop55
280
     0
102
RTVSPost2010PropOp55
 70
     1
102
RTVSPost2010Prop56
140
1.0
102
RTVSPost2010PropOp56
 70
     1
102
RTVSPost2010Prop57
140
1.0
102
RTVSPost2010PropOp57
 70
     1
102
RTVSPropertyOp0
 70
     1
102
RTVSPropertyOp1
 70
     1
102
RTVSPropertyOp2
 70
     1
102
RTVSPropertyOp3
 70
     1
102
RTVSPropertyOp4
 70
     1
102
RTVSPropertyOp5
 70
     1
102
RTVSPropertyOp6
 70
     1
102
RTVSPropertyOp7
 70
     1
102
RTVSPropertyOp8
 70
     1
102
RTVSPropertyOp9
 70
     1
102
RTVSPropertyOp10
 70
     1
102
RTVSPropertyOp11
 70
     1
102
RTVSPropertyOp12
 70
     1
102
RTVSPropertyOp13
 70
     1
102
RTVSPropertyOp14
 70
     1
102
RTVSPropertyOp15
 70
     1
102
RTVSPropertyOp16
 70
     1
102
RTVSPropertyOp17
 70
     1
102
RTVSPropertyOp18
 70
     1
102
RTVSPropertyOp19
 70
     1
102
RTVSPropertyOp20
 70
     1
102
RTVSPropertyOp21
 70
     1
102
RTVSPropertyOp22
 70
     1
102
RTVSPropertyOp23
 70
     1
102
RTVSPropertyOp24
 70
     1
102
RTVSPropertyOp25
 70
     1
102
RTVSPropertyOp26
 70
     1
102
RTVSPropertyOp27
 70
     1
102
RTVSPropertyOp28
 70
     1
102
RTVSPropertyOp29
 70
     1
102
RTVSPropertyOp30
 70
     1
102
RTVSPropertyOp31
 70
     1
102
RTVSPropertyOp32
 70
     1
102
RTVSPropertyOp33
 70
     1
102
RTVSPropertyOp34
 70
     1
102
RTVSPropertyOp35
 70
     1
102
RTVSPropertyOp36
 70
     1
102
RTVSPropertyOp37
 70
     1
102
RTVSPropertyOp38
 70
     1
102
RTVSPropertyOp39
 70
     1
102
RTVSPropertyOp40
 70
     1
102
RTVSPropertyOp41
 70
     1
102
RTVSPropertyOp42
 70
     1
102
RTVSPropertyOp43
 70
     1
102
RTVSPropertyOp44
 70
     1
102
RTVSPropertyOp45
 70
     1
102
RTVSPropertyOp46
 70
     1
102
RTVSPropertyOp47
 70
     1
102
RTVSPropertyOp48
 70
     1
102
RTVSPropertyOp49
 70
     1
102
RTVSPropertyOp50
 70
     1
102
RTVSPropertyOp51
 70
     0
102
RTVSPropertyOp52
 70
     0
102
RTVSPropertyOp53
 70
     1
102
RTVSPropertyOp54
 70
     1
102
RTVSPropertyOp55
 70
     1
102
RTVSPropertyOp56
 70
     1
102
RTVSPropertyOp57
 70
     1
102
RTVSPropertyOp58
 70
     1
102
RTVSPropertyOp59
 70
     1
102
RTVSPropertyOp60
 70
     1
102
RTVSPropertyOp61
 70
     1
102
RTVSPropertyOp62
 70
     1
  0
XRECORD
  5
C37
102
{ACAD_REACTORS
330
C36
102
}
330
C36
100
AcDbXrecord
280
     1
102
RTVSPost2010Prop28
280
     0
102
RTVSPost2010PropOp28
 70
     0
102
RTVSPost2010Prop29
280
     1
102
RTVSPost2010PropOp29
 70
     0
102
RTVSPost2010Prop30
280
     1
102
RTVSPost2010PropOp30
 70
     0
102
RTVSPost2010Prop31
280
     0
102
RTVSPost2010PropOp31
 70
     0
102
RTVSPost2010Prop32
280
     0
102
RTVSPost2010PropOp32
 70
     0
102
RTVSPost2010Prop33
280
     0
102
RTVSPost2010PropOp33
 70
     0
102
RTVSPost2010Prop34
280
     0
102
RTVSPost2010PropOp34
 70
     0
102
RTVSPost2010Prop35
280
     0
102
RTVSPost2010PropOp35
 70
     0
102
RTVSPost2010Prop36
280
     0
102
RTVSPost2010PropOp36
 70
     0
102
RTVSPost2010Prop37
 90
       50
102
RTVSPost2010PropOp37
 70
     0
102
RTVSPost2010Prop38
140
0.0
102
RTVSPost2010PropOp38
 70
     0
102
RTVSPost2010Prop39
140
1.0
102
RTVSPost2010PropOp39
 70
     0
102
RTVSPost2010Prop40
 90
        0
102
RTVSPost2010PropOp40
 70
     0
102
RTVSPost2010Prop41ColorIndex
 90
       18
102
RTVSPost2010Prop41ColorRGB
 90
        0
102
RTVSPost2010PropOp41
 70
     0
102
RTVSPost2010Prop42
 90
       50
102
RTVSPost2010PropOp42
 70
     0
102
RTVSPost2010Prop43
 90
        3
102
RTVSPost2010PropOp43
 70
     0
102
RTVSPost2010Prop44ColorIndex
 90
        5
102
RTVSPost2010Prop44ColorRGB
 90
      255
102
RTVSPost2010PropOp44
 70
     0
102
RTVSPost2010Prop45
280
     0
102
RTVSPost2010PropOp45
 70
     0
102
RTVSPost2010Prop46
 90
       50
102
RTVSPost2010PropOp46
 70
     0
102
RTVSPost2010Prop47
 90
       50
102
RTVSPost2010PropOp47
 70
     0
102
RTVSPost2010Prop48
 90
       50
102
RTVSPost2010PropOp48
 70
     0
102
RTVSPost2010Prop49
280
     0
102
RTVSPost2010PropOp49
 70
     0
102
RTVSPost2010Prop50
 90
       50
102
RTVSPost2010PropOp50
 70
     0
102
RTVSPost2010Prop51ColorIndex
 90
      256
102
RTVSPost2010Prop51ColorRGB
 90
-16777216
102
RTVSPost2010PropOp51
 70
     0
102
RTVSPost2010Prop52
140
1.0
102
RTVSPost2010PropOp52
 70
     0
102
RTVSPost2010Prop53
 90
        2
102
RTVSPost2010PropOp53
 70
     0
102
RTVSPost2010Prop54
  1
strokes_ogs.tif
102
RTVSPost2010PropOp54
 70
     0
102
RTVSPost2010Prop55
280
     0
102
RTVSPost2010PropOp55
 70
     0
102
RTVSPost2010Prop56
140
1.0
102
RTVSPost2010PropOp56
 70
     0
102
RTVSPost2010Prop57
140
1.0
102
RTVSPost2010PropOp57
 70
     0
102
RTVSPropertyOp0
 70
     0
102
RTVSPropertyOp1
 70
     0
102
RTVSPropertyOp2
 70
     0
102
RTVSPropertyOp3
 70
     0
102
RTVSPropertyOp4
 70
     0
102
RTVSPropertyOp5
 70
     0
102
RTVSPropertyOp6
 70
     0
102
RTVSPropertyOp7
 70
     0
102
RTVSPropertyOp8
 70
     0
102
RTVSPropertyOp9
 70
     0
102
RTVSPropertyOp10
 70
     0
102
RTVSPropertyOp11
 70
     0
102
RTVSPropertyOp12
 70
     0
102
RTVSPropertyOp13
 70
     0
102
RTVSPropertyOp14
 70
     2
102
RTVSPropertyOp15
 70
     0
102
RTVSPropertyOp16
 70
     0
102
RTVSPropertyOp17
 70
     0
102
RTVSPropertyOp18
 70
     0
102
RTVSPropertyOp19
 70
     0
102
RTVSPropertyOp20
 70
     0
102
RTVSPropertyOp21
 70
     0
102
RTVSPropertyOp22
 70
     0
102
RTVSPropertyOp23
 70
     0
102
RTVSPropertyOp24
 70
     0
102
RTVSPropertyOp25
 70
     0
102
RTVSPropertyOp26
 70
     0
102
RTVSPropertyOp27
 70
     0
102
RTVSPropertyOp28
 70
     0
102
RTVSPropertyOp29
 70
     0
102
RTVSPropertyOp30
 70
     0
102
RTVSPropertyOp31
 70
     0
102
RTVSPropertyOp32
 70
     0
102
RTVSPropertyOp33
 70
     0
102
RTVSPropertyOp34
 70
     0
102
RTVSPropertyOp35
 70
     0
102
RTVSPropertyOp36
 70
     0
102
RTVSPropertyOp37
 70
     0
102
RTVSPropertyOp38
 70
     0
102
RTVSPropertyOp39
 70
     0
102
RTVSPropertyOp40
 70
     0
102
RTVSPropertyOp41
 70
     0
102
RTVSPropertyOp42
 70
     0
102
RTVSPropertyOp43
 70
     0
102
RTVSPropertyOp44
 70
     0
102
RTVSPropertyOp45
 70
     0
102
RTVSPropertyOp46
 70
     0
102
RTVSPropertyOp47
 70
     0
102
RTVSPropertyOp48
 70
     0
102
RTVSPropertyOp49
 70
     0
102
RTVSPropertyOp50
 70
     0
102
RTVSPropertyOp51
 70
     0
102
RTVSPropertyOp52
 70
     0
102
RTVSPropertyOp53
 70
     0
102
RTVSPropertyOp54
 70
     0
102
RTVSPropertyOp55
 70
     0
102
RTVSPropertyOp56
 70
     0
102
RTVSPropertyOp57
 70
     0
102
RTVSPropertyOp58
 70
     1
102
RTVSPropertyOp59
 70
     1
102
RTVSPropertyOp60
 70
     1
102
RTVSPropertyOp61
 70
     1
102
RTVSPropertyOp62
 70
     1
  0
XRECORD
  5
C25
102
{ACAD_REACTORS
330
C24
102
}
330
C24
100
AcDbXrecord
280
     1
102
RTVSPost2010Prop28
280
     0
102
RTVSPost2010PropOp28
 70
     1
102
RTVSPost2010Prop29
280
     1
102
RTVSPost2010PropOp29
 70
     1
102
RTVSPost2010Prop30
280
     1
102
RTVSPost2010PropOp30
 70
     1
102
RTVSPost2010Prop31
280
     0
102
RTVSPost2010PropOp31
 70
     1
102
RTVSPost2010Prop32
280
     0
102
RTVSPost2010PropOp32
 70
     1
102
RTVSPost2010Prop33
280
     0
102
RTVSPost2010PropOp33
 70
     1
102
RTVSPost2010Prop34
280
     0
102
RTVSPost2010PropOp34
 70
     1
102
RTVSPost2010Prop35
280
     0
102
RTVSPost2010PropOp35
 70
     1
102
RTVSPost2010Prop36
280
     0
102
RTVSPost2010PropOp36
 70
     1
102
RTVSPost2010Prop37
 90
       50
102
RTVSPost2010PropOp37
 70
     1
102
RTVSPost2010Prop38
140
0.0
102
RTVSPost2010PropOp38
 70
     1
102
RTVSPost2010Prop39
140
1.0
102
RTVSPost2010PropOp39
 70
     1
102
RTVSPost2010Prop40
 90
        0
102
RTVSPost2010PropOp40
 70
     1
102
RTVSPost2010Prop41ColorIndex
 90
       18
102
RTVSPost2010Prop41ColorRGB
 90
        0
102
RTVSPost2010PropOp41
 70
     1
102
RTVSPost2010Prop42
 90
       50
102
RTVSPost2010PropOp42
 70
     1
102
RTVSPost2010Prop43
 90
        3
102
RTVSPost2010PropOp43
 70
     1
102
RTVSPost2010Prop44ColorIndex
 90
        5
102
RTVSPost2010Prop44ColorRGB
 90
      255
102
RTVSPost2010PropOp44
 70
     1
102
RTVSPost2010Prop45
280
     0
102
RTVSPost2010PropOp45
 70
     1
102
RTVSPost2010Prop46
 90
       50
102
RTVSPost2010PropOp46
 70
     1
102
RTVSPost2010Prop47
 90
       50
102
RTVSPost2010PropOp47
 70
     1
102
RTVSPost2010Prop48
 90
       50
102
RTVSPost2010PropOp48
 70
     1
102
RTVSPost2010Prop49
280
     0
102
RTVSPost2010PropOp49
 70
     1
102
RTVSPost2010Prop50
 90
       50
102
RTVSPost2010PropOp50
 70
     1
102
RTVSPost2010Prop51ColorIndex
 90
      256
102
RTVSPost2010Prop51ColorRGB
 90
-16777216
102
RTVSPost2010PropOp51
 70
     0
102
RTVSPost2010Prop52
140
1.0
102
RTVSPost2010PropOp52
 70
     0
102
RTVSPost2010Prop53
 90
        2
102
RTVSPost2010PropOp53
 70
     1
102
RTVSPost2010Prop54
  1
strokes_ogs.tif
102
RTVSPost2010PropOp54
 70
     1
102
RTVSPost2010Prop55
280
     0
102
RTVSPost2010PropOp55
 70
     1
102
RTVSPost2010Prop56
140
1.0
102
RTVSPost2010PropOp56
 70
     1
102
RTVSPost2010Prop57
140
1.0
102
RTVSPost2010PropOp57
 70
     1
102
RTVSPropertyOp0
 70
     1
102
RTVSPropertyOp1
 70
     1
102
RTVSPropertyOp2
 70
     1
102
RTVSPropertyOp3
 70
     1
102
RTVSPropertyOp4
 70
     1
102
RTVSPropertyOp5
 70
     1
102
RTVSPropertyOp6
 70
     1
102
RTVSPropertyOp7
 70
     1
102
RTVSPropertyOp8
 70
     1
102
RTVSPropertyOp9
 70
     1
102
RTVSPropertyOp10
 70
     1
102
RTVSPropertyOp11
 70
     1
102
RTVSPropertyOp12
 70
     1
102
RTVSPropertyOp13
 70
     1
102
RTVSPropertyOp14
 70
     1
102
RTVSPropertyOp15
 70
     1
102
RTVSPropertyOp16
 70
     1
102
RTVSPropertyOp17
 70
     1
102
RTVSPropertyOp18
 70
     1
102
RTVSPropertyOp19
 70
     1
102
RTVSPropertyOp20
 70
     1
102
RTVSPropertyOp21
 70
     1
102
RTVSPropertyOp22
 70
     1
102
RTVSPropertyOp23
 70
     1
102
RTVSPropertyOp24
 70
     1
102
RTVSPropertyOp25
 70
     1
102
RTVSPropertyOp26
 70
     1
102
RTVSPropertyOp27
 70
     1
102
RTVSPropertyOp28
 70
     1
102
RTVSPropertyOp29
 70
     1
102
RTVSPropertyOp30
 70
     1
102
RTVSPropertyOp31
 70
     1
102
RTVSPropertyOp32
 70
     1
102
RTVSPropertyOp33
 70
     1
102
RTVSPropertyOp34
 70
     1
102
RTVSPropertyOp35
 70
     1
102
RTVSPropertyOp36
 70
     1
102
RTVSPropertyOp37
 70
     1
102
RTVSPropertyOp38
 70
     1
102
RTVSPropertyOp39
 70
     1
102
RTVSPropertyOp40
 70
     1
102
RTVSPropertyOp41
 70
     1
102
RTVSPropertyOp42
 70
     1
102
RTVSPropertyOp43
 70
     1
102
RTVSPropertyOp44
 70
     1
102
RTVSPropertyOp45
 70
     1
102
RTVSPropertyOp46
 70
     1
102
RTVSPropertyOp47
 70
     1
102
RTVSPropertyOp48
 70
     1
102
RTVSPropertyOp49
 70
     1
102
RTVSPropertyOp50
 70
     1
102
RTVSPropertyOp51
 70
     0
102
RTVSPropertyOp52
 70
     0
102
RTVSPropertyOp53
 70
     1
102
RTVSPropertyOp54
 70
     1
102
RTVSPropertyOp55
 70
     1
102
RTVSPropertyOp56
 70
     1
102
RTVSPropertyOp57
 70
     1
102
RTVSPropertyOp58
 70
     1
102
RTVSPropertyOp59
 70
     1
102
RTVSPropertyOp60
 70
     1
102
RTVSPropertyOp61
 70
     1
102
RTVSPropertyOp62
 70
     1
  0
XRECORD
  5
C43
102
{ACAD_REACTORS
330
C42
102
}
330
C42
100
AcDbXrecord
280
     1
102
RTVSPost2010Prop28
280
     0
102
RTVSPost2010PropOp28
 70
     1
102
RTVSPost2010Prop29
280
     1
102
RTVSPost2010PropOp29
 70
     1
102
RTVSPost2010Prop30
280
     1
102
RTVSPost2010PropOp30
 70
     1
102
RTVSPost2010Prop31
280
     0
102
RTVSPost2010PropOp31
 70
     1
102
RTVSPost2010Prop32
280
     0
102
RTVSPost2010PropOp32
 70
     1
102
RTVSPost2010Prop33
280
     0
102
RTVSPost2010PropOp33
 70
     1
102
RTVSPost2010Prop34
280
     0
102
RTVSPost2010PropOp34
 70
     1
102
RTVSPost2010Prop35
280
     0
102
RTVSPost2010PropOp35
 70
     1
102
RTVSPost2010Prop36
280
     0
102
RTVSPost2010PropOp36
 70
     1
102
RTVSPost2010Prop37
 90
       50
102
RTVSPost2010PropOp37
 70
     1
102
RTVSPost2010Prop38
140
0.0
102
RTVSPost2010PropOp38
 70
     1
102
RTVSPost2010Prop39
140
1.0
102
RTVSPost2010PropOp39
 70
     1
102
RTVSPost2010Prop40
 90
        0
102
RTVSPost2010PropOp40
 70
     1
102
RTVSPost2010Prop41ColorIndex
 90
       18
102
RTVSPost2010Prop41ColorRGB
 90
        0
102
RTVSPost2010PropOp41
 70
     1
102
RTVSPost2010Prop42
 90
       50
102
RTVSPost2010PropOp42
 70
     1
102
RTVSPost2010Prop43
 90
        3
102
RTVSPost2010PropOp43
 70
     1
102
RTVSPost2010Prop44ColorIndex
 90
        5
102
RTVSPost2010Prop44ColorRGB
 90
      255
102
RTVSPost2010PropOp44
 70
     1
102
RTVSPost2010Prop45
280
     0
102
RTVSPost2010PropOp45
 70
     1
102
RTVSPost2010Prop46
 90
       50
102
RTVSPost2010PropOp46
 70
     1
102
RTVSPost2010Prop47
 90
       50
102
RTVSPost2010PropOp47
 70
     1
102
RTVSPost2010Prop48
 90
       50
102
RTVSPost2010PropOp48
 70
     1
102
RTVSPost2010Prop49
280
     0
102
RTVSPost2010PropOp49
 70
     1
102
RTVSPost2010Prop50
 90
       50
102
RTVSPost2010PropOp50
 70
     1
102
RTVSPost2010Prop51ColorIndex
 90
      256
102
RTVSPost2010Prop51ColorRGB
 90
-16777216
102
RTVSPost2010PropOp51
 70
     0
102
RTVSPost2010Prop52
140
1.0
102
RTVSPost2010PropOp52
 70
     0
102
RTVSPost2010Prop53
 90
        2
102
RTVSPost2010PropOp53
 70
     1
102
RTVSPost2010Prop54
  1
strokes_ogs.tif
102
RTVSPost2010PropOp54
 70
     1
102
RTVSPost2010Prop55
280
     0
102
RTVSPost2010PropOp55
 70
     1
102
RTVSPost2010Prop56
140
1.0
102
RTVSPost2010PropOp56
 70
     1
102
RTVSPost2010Prop57
140
1.0
102
RTVSPost2010PropOp57
 70
     1
102
RTVSPropertyOp0
 70
     1
102
RTVSPropertyOp1
 70
     1
102
RTVSPropertyOp2
 70
     1
102
RTVSPropertyOp3
 70
     1
102
RTVSPropertyOp4
 70
     1
102
RTVSPropertyOp5
 70
     1
102
RTVSPropertyOp6
 70
     1
102
RTVSPropertyOp7
 70
     1
102
RTVSPropertyOp8
 70
     1
102
RTVSPropertyOp9
 70
     1
102
RTVSPropertyOp10
 70
     1
102
RTVSPropertyOp11
 70
     1
102
RTVSPropertyOp12
 70
     1
102
RTVSPropertyOp13
 70
     1
102
RTVSPropertyOp14
 70
     1
102
RTVSPropertyOp15
 70
     1
102
RTVSPropertyOp16
 70
     1
102
RTVSPropertyOp17
 70
     1
102
RTVSPropertyOp18
 70
     1
102
RTVSPropertyOp19
 70
     1
102
RTVSPropertyOp20
 70
     1
102
RTVSPropertyOp21
 70
     1
102
RTVSPropertyOp22
 70
     1
102
RTVSPropertyOp23
 70
     1
102
RTVSPropertyOp24
 70
     1
102
RTVSPropertyOp25
 70
     1
102
RTVSPropertyOp26
 70
     1
102
RTVSPropertyOp27
 70
     1
102
RTVSPropertyOp28
 70
     1
102
RTVSPropertyOp29
 70
     1
102
RTVSPropertyOp30
 70
     1
102
RTVSPropertyOp31
 70
     1
102
RTVSPropertyOp32
 70
     1
102
RTVSPropertyOp33
 70
     1
102
RTVSPropertyOp34
 70
     1
102
RTVSPropertyOp35
 70
     1
102
RTVSPropertyOp36
 70
     1
102
RTVSPropertyOp37
 70
     1
102
RTVSPropertyOp38
 70
     1
102
RTVSPropertyOp39
 70
     1
102
RTVSPropertyOp40
 70
     1
102
RTVSPropertyOp41
 70
     1
102
RTVSPropertyOp42
 70
     1
102
RTVSPropertyOp43
 70
     1
102
RTVSPropertyOp44
 70
     1
102
RTVSPropertyOp45
 70
     1
102
RTVSPropertyOp46
 70
     1
102
RTVSPropertyOp47
 70
     1
102
RTVSPropertyOp48
 70
     1
102
RTVSPropertyOp49
 70
     1
102
RTVSPropertyOp50
 70
     1
102
RTVSPropertyOp51
 70
     0
102
RTVSPropertyOp52
 70
     0
102
RTVSPropertyOp53
 70
     1
102
RTVSPropertyOp54
 70
     1
102
RTVSPropertyOp55
 70
     1
102
RTVSPropertyOp56
 70
     1
102
RTVSPropertyOp57
 70
     1
102
RTVSPropertyOp58
 70
     1
102
RTVSPropertyOp59
 70
     1
102
RTVSPropertyOp60
 70
     1
102
RTVSPropertyOp61
 70
     1
102
RTVSPropertyOp62
 70
     1
  0
XRECORD
  5
C41
102
{ACAD_REACTORS
330
C40
102
}
330
C40
100
AcDbXrecord
280
     1
102
RTVSPost2010Prop28
280
     0
102
RTVSPost2010PropOp28
 70
     1
102
RTVSPost2010Prop29
280
     1
102
RTVSPost2010PropOp29
 70
     1
102
RTVSPost2010Prop30
280
     1
102
RTVSPost2010PropOp30
 70
     1
102
RTVSPost2010Prop31
280
     0
102
RTVSPost2010PropOp31
 70
     1
102
RTVSPost2010Prop32
280
     0
102
RTVSPost2010PropOp32
 70
     1
102
RTVSPost2010Prop33
280
     0
102
RTVSPost2010PropOp33
 70
     1
102
RTVSPost2010Prop34
280
     0
102
RTVSPost2010PropOp34
 70
     1
102
RTVSPost2010Prop35
280
     0
102
RTVSPost2010PropOp35
 70
     1
102
RTVSPost2010Prop36
280
     0
102
RTVSPost2010PropOp36
 70
     1
102
RTVSPost2010Prop37
 90
       50
102
RTVSPost2010PropOp37
 70
     1
102
RTVSPost2010Prop38
140
0.0
102
RTVSPost2010PropOp38
 70
     1
102
RTVSPost2010Prop39
140
1.0
102
RTVSPost2010PropOp39
 70
     1
102
RTVSPost2010Prop40
 90
        0
102
RTVSPost2010PropOp40
 70
     1
102
RTVSPost2010Prop41ColorIndex
 90
       18
102
RTVSPost2010Prop41ColorRGB
 90
        0
102
RTVSPost2010PropOp41
 70
     1
102
RTVSPost2010Prop42
 90
       50
102
RTVSPost2010PropOp42
 70
     1
102
RTVSPost2010Prop43
 90
        3
102
RTVSPost2010PropOp43
 70
     1
102
RTVSPost2010Prop44ColorIndex
 90
        5
102
RTVSPost2010Prop44ColorRGB
 90
      255
102
RTVSPost2010PropOp44
 70
     1
102
RTVSPost2010Prop45
280
     0
102
RTVSPost2010PropOp45
 70
     1
102
RTVSPost2010Prop46
 90
       50
102
RTVSPost2010PropOp46
 70
     1
102
RTVSPost2010Prop47
 90
       50
102
RTVSPost2010PropOp47
 70
     1
102
RTVSPost2010Prop48
 90
       50
102
RTVSPost2010PropOp48
 70
     1
102
RTVSPost2010Prop49
280
     0
102
RTVSPost2010PropOp49
 70
     1
102
RTVSPost2010Prop50
 90
       50
102
RTVSPost2010PropOp50
 70
     1
102
RTVSPost2010Prop51ColorIndex
 90
      256
102
RTVSPost2010Prop51ColorRGB
 90
-16777216
102
RTVSPost2010PropOp51
 70
     0
102
RTVSPost2010Prop52
140
1.0
102
RTVSPost2010PropOp52
 70
     0
102
RTVSPost2010Prop53
 90
        2
102
RTVSPost2010PropOp53
 70
     1
102
RTVSPost2010Prop54
  1
strokes_ogs.tif
102
RTVSPost2010PropOp54
 70
     1
102
RTVSPost2010Prop55
280
     0
102
RTVSPost2010PropOp55
 70
     1
102
RTVSPost2010Prop56
140
1.0
102
RTVSPost2010PropOp56
 70
     1
102
RTVSPost2010Prop57
140
1.0
102
RTVSPost2010PropOp57
 70
     1
102
RTVSPropertyOp0
 70
     1
102
RTVSPropertyOp1
 70
     1
102
RTVSPropertyOp2
 70
     1
102
RTVSPropertyOp3
 70
     1
102
RTVSPropertyOp4
 70
     1
102
RTVSPropertyOp5
 70
     1
102
RTVSPropertyOp6
 70
     1
102
RTVSPropertyOp7
 70
     1
102
RTVSPropertyOp8
 70
     1
102
RTVSPropertyOp9
 70
     1
102
RTVSPropertyOp10
 70
     1
102
RTVSPropertyOp11
 70
     1
102
RTVSPropertyOp12
 70
     1
102
RTVSPropertyOp13
 70
     1
102
RTVSPropertyOp14
 70
     1
102
RTVSPropertyOp15
 70
     1
102
RTVSPropertyOp16
 70
     1
102
RTVSPropertyOp17
 70
     1
102
RTVSPropertyOp18
 70
     1
102
RTVSPropertyOp19
 70
     1
102
RTVSPropertyOp20
 70
     1
102
RTVSPropertyOp21
 70
     1
102
RTVSPropertyOp22
 70
     1
102
RTVSPropertyOp23
 70
     1
102
RTVSPropertyOp24
 70
     1
102
RTVSPropertyOp25
 70
     1
102
RTVSPropertyOp26
 70
     1
102
RTVSPropertyOp27
 70
     1
102
RTVSPropertyOp28
 70
     1
102
RTVSPropertyOp29
 70
     1
102
RTVSPropertyOp30
 70
     1
102
RTVSPropertyOp31
 70
     1
102
RTVSPropertyOp32
 70
     1
102
RTVSPropertyOp33
 70
     1
102
RTVSPropertyOp34
 70
     1
102
RTVSPropertyOp35
 70
     1
102
RTVSPropertyOp36
 70
     1
102
RTVSPropertyOp37
 70
     1
102
RTVSPropertyOp38
 70
     1
102
RTVSPropertyOp39
 70
     1
102
RTVSPropertyOp40
 70
     1
102
RTVSPropertyOp41
 70
     1
102
RTVSPropertyOp42
 70
     1
102
RTVSPropertyOp43
 70
     1
102
RTVSPropertyOp44
 70
     1
102
RTVSPropertyOp45
 70
     1
102
RTVSPropertyOp46
 70
     1
102
RTVSPropertyOp47
 70
     1
102
RTVSPropertyOp48
 70
     1
102
RTVSPropertyOp49
 70
     1
102
RTVSPropertyOp50
 70
     1
102
RTVSPropertyOp51
 70
     0
102
RTVSPropertyOp52
 70
     0
102
RTVSPropertyOp53
 70
     1
102
RTVSPropertyOp54
 70
     1
102
RTVSPropertyOp55
 70
     1
102
RTVSPropertyOp56
 70
     1
102
RTVSPropertyOp57
 70
     1
102
RTVSPropertyOp58
 70
     1
102
RTVSPropertyOp59
 70
     1
102
RTVSPropertyOp60
 70
     1
102
RTVSPropertyOp61
 70
     1
102
RTVSPropertyOp62
 70
     1
  0
XRECORD
  5
C3B
102
{ACAD_REACTORS
330
C3A
102
}
330
C3A
100
AcDbXrecord
280
     1
102
RTVSPost2010Prop28
280
     0
102
RTVSPost2010PropOp28
 70
     1
102
RTVSPost2010Prop29
280
     1
102
RTVSPost2010PropOp29
 70
     1
102
RTVSPost2010Prop30
280
     1
102
RTVSPost2010PropOp30
 70
     1
102
RTVSPost2010Prop31
280
     0
102
RTVSPost2010PropOp31
 70
     1
102
RTVSPost2010Prop32
280
     0
102
RTVSPost2010PropOp32
 70
     1
102
RTVSPost2010Prop33
280
     0
102
RTVSPost2010PropOp33
 70
     1
102
RTVSPost2010Prop34
280
     0
102
RTVSPost2010PropOp34
 70
     1
102
RTVSPost2010Prop35
280
     0
102
RTVSPost2010PropOp35
 70
     1
102
RTVSPost2010Prop36
280
     0
102
RTVSPost2010PropOp36
 70
     1
102
RTVSPost2010Prop37
 90
       50
102
RTVSPost2010PropOp37
 70
     1
102
RTVSPost2010Prop38
140
0.0
102
RTVSPost2010PropOp38
 70
     1
102
RTVSPost2010Prop39
140
1.0
102
RTVSPost2010PropOp39
 70
     1
102
RTVSPost2010Prop40
 90
        0
102
RTVSPost2010PropOp40
 70
     1
102
RTVSPost2010Prop41ColorIndex
 90
       18
102
RTVSPost2010Prop41ColorRGB
 90
        0
102
RTVSPost2010PropOp41
 70
     1
102
RTVSPost2010Prop42
 90
       50
102
RTVSPost2010PropOp42
 70
     1
102
RTVSPost2010Prop43
 90
        3
102
RTVSPost2010PropOp43
 70
     1
102
RTVSPost2010Prop44ColorIndex
 90
        5
102
RTVSPost2010Prop44ColorRGB
 90
      255
102
RTVSPost2010PropOp44
 70
     1
102
RTVSPost2010Prop45
280
     0
102
RTVSPost2010PropOp45
 70
     1
102
RTVSPost2010Prop46
 90
       50
102
RTVSPost2010PropOp46
 70
     1
102
RTVSPost2010Prop47
 90
       50
102
RTVSPost2010PropOp47
 70
     1
102
RTVSPost2010Prop48
 90
       50
102
RTVSPost2010PropOp48
 70
     1
102
RTVSPost2010Prop49
280
     0
102
RTVSPost2010PropOp49
 70
     1
102
RTVSPost2010Prop50
 90
       50
102
RTVSPost2010PropOp50
 70
     1
102
RTVSPost2010Prop51ColorIndex
 90
      256
102
RTVSPost2010Prop51ColorRGB
 90
-16777216
102
RTVSPost2010PropOp51
 70
     0
102
RTVSPost2010Prop52
140
1.0
102
RTVSPost2010PropOp52
 70
     0
102
RTVSPost2010Prop53
 90
        2
102
RTVSPost2010PropOp53
 70
     1
102
RTVSPost2010Prop54
  1
strokes_ogs.tif
102
RTVSPost2010PropOp54
 70
     1
102
RTVSPost2010Prop55
280
     0
102
RTVSPost2010PropOp55
 70
     1
102
RTVSPost2010Prop56
140
1.0
102
RTVSPost2010PropOp56
 70
     1
102
RTVSPost2010Prop57
140
1.0
102
RTVSPost2010PropOp57
 70
     1
102
RTVSPropertyOp0
 70
     1
102
RTVSPropertyOp1
 70
     1
102
RTVSPropertyOp2
 70
     1
102
RTVSPropertyOp3
 70
     1
102
RTVSPropertyOp4
 70
     1
102
RTVSPropertyOp5
 70
     1
102
RTVSPropertyOp6
 70
     1
102
RTVSPropertyOp7
 70
     1
102
RTVSPropertyOp8
 70
     1
102
RTVSPropertyOp9
 70
     1
102
RTVSPropertyOp10
 70
     1
102
RTVSPropertyOp11
 70
     1
102
RTVSPropertyOp12
 70
     1
102
RTVSPropertyOp13
 70
     1
102
RTVSPropertyOp14
 70
     1
102
RTVSPropertyOp15
 70
     1
102
RTVSPropertyOp16
 70
     1
102
RTVSPropertyOp17
 70
     1
102
RTVSPropertyOp18
 70
     1
102
RTVSPropertyOp19
 70
     1
102
RTVSPropertyOp20
 70
     1
102
RTVSPropertyOp21
 70
     1
102
RTVSPropertyOp22
 70
     1
102
RTVSPropertyOp23
 70
     1
102
RTVSPropertyOp24
 70
     1
102
RTVSPropertyOp25
 70
     1
102
RTVSPropertyOp26
 70
     1
102
RTVSPropertyOp27
 70
     1
102
RTVSPropertyOp28
 70
     1
102
RTVSPropertyOp29
 70
     1
102
RTVSPropertyOp30
 70
     1
102
RTVSPropertyOp31
 70
     1
102
RTVSPropertyOp32
 70
     1
102
RTVSPropertyOp33
 70
     1
102
RTVSPropertyOp34
 70
     1
102
RTVSPropertyOp35
 70
     1
102
RTVSPropertyOp36
 70
     1
102
RTVSPropertyOp37
 70
     1
102
RTVSPropertyOp38
 70
     1
102
RTVSPropertyOp39
 70
     1
102
RTVSPropertyOp40
 70
     1
102
RTVSPropertyOp41
 70
     1
102
RTVSPropertyOp42
 70
     1
102
RTVSPropertyOp43
 70
     1
102
RTVSPropertyOp44
 70
     1
102
RTVSPropertyOp45
 70
     1
102
RTVSPropertyOp46
 70
     1
102
RTVSPropertyOp47
 70
     1
102
RTVSPropertyOp48
 70
     1
102
RTVSPropertyOp49
 70
     1
102
RTVSPropertyOp50
 70
     1
102
RTVSPropertyOp51
 70
     0
102
RTVSPropertyOp52
 70
     0
102
RTVSPropertyOp53
 70
     1
102
RTVSPropertyOp54
 70
     1
102
RTVSPropertyOp55
 70
     1
102
RTVSPropertyOp56
 70
     1
102
RTVSPropertyOp57
 70
     1
102
RTVSPropertyOp58
 70
     1
102
RTVSPropertyOp59
 70
     1
102
RTVSPropertyOp60
 70
     1
102
RTVSPropertyOp61
 70
     1
102
RTVSPropertyOp62
 70
     1
  0
XRECORD
  5
C3D
102
{ACAD_REACTORS
330
C3C
102
}
330
C3C
100
AcDbXrecord
280
     1
102
RTVSPost2010Prop28
280
     0
102
RTVSPost2010PropOp28
 70
     1
102
RTVSPost2010Prop29
280
     1
102
RTVSPost2010PropOp29
 70
     1
102
RTVSPost2010Prop30
280
     1
102
RTVSPost2010PropOp30
 70
     1
102
RTVSPost2010Prop31
280
     0
102
RTVSPost2010PropOp31
 70
     1
102
RTVSPost2010Prop32
280
     0
102
RTVSPost2010PropOp32
 70
     1
102
RTVSPost2010Prop33
280
     0
102
RTVSPost2010PropOp33
 70
     1
102
RTVSPost2010Prop34
280
     0
102
RTVSPost2010PropOp34
 70
     1
102
RTVSPost2010Prop35
280
     0
102
RTVSPost2010PropOp35
 70
     1
102
RTVSPost2010Prop36
280
     0
102
RTVSPost2010PropOp36
 70
     1
102
RTVSPost2010Prop37
 90
       50
102
RTVSPost2010PropOp37
 70
     1
102
RTVSPost2010Prop38
140
0.0
102
RTVSPost2010PropOp38
 70
     1
102
RTVSPost2010Prop39
140
1.0
102
RTVSPost2010PropOp39
 70
     1
102
RTVSPost2010Prop40
 90
        0
102
RTVSPost2010PropOp40
 70
     1
102
RTVSPost2010Prop41ColorIndex
 90
       18
102
RTVSPost2010Prop41ColorRGB
 90
        0
102
RTVSPost2010PropOp41
 70
     1
102
RTVSPost2010Prop42
 90
       50
102
RTVSPost2010PropOp42
 70
     1
102
RTVSPost2010Prop43
 90
        3
102
RTVSPost2010PropOp43
 70
     1
102
RTVSPost2010Prop44ColorIndex
 90
        5
102
RTVSPost2010Prop44ColorRGB
 90
      255
102
RTVSPost2010PropOp44
 70
     1
102
RTVSPost2010Prop45
280
     0
102
RTVSPost2010PropOp45
 70
     1
102
RTVSPost2010Prop46
 90
       50
102
RTVSPost2010PropOp46
 70
     1
102
RTVSPost2010Prop47
 90
       50
102
RTVSPost2010PropOp47
 70
     1
102
RTVSPost2010Prop48
 90
       50
102
RTVSPost2010PropOp48
 70
     1
102
RTVSPost2010Prop49
280
     0
102
RTVSPost2010PropOp49
 70
     1
102
RTVSPost2010Prop50
 90
       50
102
RTVSPost2010PropOp50
 70
     1
102
RTVSPost2010Prop51ColorIndex
 90
      256
102
RTVSPost2010Prop51ColorRGB
 90
-16777216
102
RTVSPost2010PropOp51
 70
     0
102
RTVSPost2010Prop52
140
1.0
102
RTVSPost2010PropOp52
 70
     0
102
RTVSPost2010Prop53
 90
        2
102
RTVSPost2010PropOp53
 70
     1
102
RTVSPost2010Prop54
  1
strokes_ogs.tif
102
RTVSPost2010PropOp54
 70
     1
102
RTVSPost2010Prop55
280
     0
102
RTVSPost2010PropOp55
 70
     1
102
RTVSPost2010Prop56
140
1.0
102
RTVSPost2010PropOp56
 70
     1
102
RTVSPost2010Prop57
140
1.0
102
RTVSPost2010PropOp57
 70
     1
102
RTVSPropertyOp0
 70
     1
102
RTVSPropertyOp1
 70
     1
102
RTVSPropertyOp2
 70
     1
102
RTVSPropertyOp3
 70
     1
102
RTVSPropertyOp4
 70
     1
102
RTVSPropertyOp5
 70
     1
102
RTVSPropertyOp6
 70
     1
102
RTVSPropertyOp7
 70
     1
102
RTVSPropertyOp8
 70
     1
102
RTVSPropertyOp9
 70
     1
102
RTVSPropertyOp10
 70
     1
102
RTVSPropertyOp11
 70
     1
102
RTVSPropertyOp12
 70
     1
102
RTVSPropertyOp13
 70
     1
102
RTVSPropertyOp14
 70
     1
102
RTVSPropertyOp15
 70
     1
102
RTVSPropertyOp16
 70
     1
102
RTVSPropertyOp17
 70
     1
102
RTVSPropertyOp18
 70
     1
102
RTVSPropertyOp19
 70
     1
102
RTVSPropertyOp20
 70
     1
102
RTVSPropertyOp21
 70
     1
102
RTVSPropertyOp22
 70
     1
102
RTVSPropertyOp23
 70
     1
102
RTVSPropertyOp24
 70
     1
102
RTVSPropertyOp25
 70
     1
102
RTVSPropertyOp26
 70
     1
102
RTVSPropertyOp27
 70
     1
102
RTVSPropertyOp28
 70
     1
102
RTVSPropertyOp29
 70
     1
102
RTVSPropertyOp30
 70
     1
102
RTVSPropertyOp31
 70
     1
102
RTVSPropertyOp32
 70
     1
102
RTVSPropertyOp33
 70
     1
102
RTVSPropertyOp34
 70
     1
102
RTVSPropertyOp35
 70
     1
102
RTVSPropertyOp36
 70
     1
102
RTVSPropertyOp37
 70
     1
102
RTVSPropertyOp38
 70
     1
102
RTVSPropertyOp39
 70
     1
102
RTVSPropertyOp40
 70
     1
102
RTVSPropertyOp41
 70
     1
102
RTVSPropertyOp42
 70
     1
102
RTVSPropertyOp43
 70
     1
102
RTVSPropertyOp44
 70
     1
102
RTVSPropertyOp45
 70
     1
102
RTVSPropertyOp46
 70
     1
102
RTVSPropertyOp47
 70
     1
102
RTVSPropertyOp48
 70
     1
102
RTVSPropertyOp49
 70
     1
102
RTVSPropertyOp50
 70
     1
102
RTVSPropertyOp51
 70
     0
102
RTVSPropertyOp52
 70
     0
102
RTVSPropertyOp53
 70
     1
102
RTVSPropertyOp54
 70
     1
102
RTVSPropertyOp55
 70
     1
102
RTVSPropertyOp56
 70
     1
102
RTVSPropertyOp57
 70
     1
102
RTVSPropertyOp58
 70
     1
102
RTVSPropertyOp59
 70
     1
102
RTVSPropertyOp60
 70
     1
102
RTVSPropertyOp61
 70
     1
102
RTVSPropertyOp62
 70
     1
  0
XRECORD
  5
C2D
102
{ACAD_REACTORS
330
C2C
102
}
330
C2C
100
AcDbXrecord
280
     1
102
RTVSPost2010Prop28
280
     0
102
RTVSPost2010PropOp28
 70
     1
102
RTVSPost2010Prop29
280
     1
102
RTVSPost2010PropOp29
 70
     1
102
RTVSPost2010Prop30
280
     1
102
RTVSPost2010PropOp30
 70
     1
102
RTVSPost2010Prop31
280
     0
102
RTVSPost2010PropOp31
 70
     1
102
RTVSPost2010Prop32
280
     0
102
RTVSPost2010PropOp32
 70
     1
102
RTVSPost2010Prop33
280
     0
102
RTVSPost2010PropOp33
 70
     1
102
RTVSPost2010Prop34
280
     0
102
RTVSPost2010PropOp34
 70
     1
102
RTVSPost2010Prop35
280
     0
102
RTVSPost2010PropOp35
 70
     1
102
RTVSPost2010Prop36
280
     0
102
RTVSPost2010PropOp36
 70
     1
102
RTVSPost2010Prop37
 90
       50
102
RTVSPost2010PropOp37
 70
     1
102
RTVSPost2010Prop38
140
0.0
102
RTVSPost2010PropOp38
 70
     1
102
RTVSPost2010Prop39
140
1.0
102
RTVSPost2010PropOp39
 70
     1
102
RTVSPost2010Prop40
 90
        0
102
RTVSPost2010PropOp40
 70
     1
102
RTVSPost2010Prop41ColorIndex
 90
       18
102
RTVSPost2010Prop41ColorRGB
 90
        0
102
RTVSPost2010PropOp41
 70
     1
102
RTVSPost2010Prop42
 90
       50
102
RTVSPost2010PropOp42
 70
     1
102
RTVSPost2010Prop43
 90
        3
102
RTVSPost2010PropOp43
 70
     1
102
RTVSPost2010Prop44ColorIndex
 90
        5
102
RTVSPost2010Prop44ColorRGB
 90
      255
102
RTVSPost2010PropOp44
 70
     1
102
RTVSPost2010Prop45
280
     0
102
RTVSPost2010PropOp45
 70
     1
102
RTVSPost2010Prop46
 90
       50
102
RTVSPost2010PropOp46
 70
     1
102
RTVSPost2010Prop47
 90
       50
102
RTVSPost2010PropOp47
 70
     1
102
RTVSPost2010Prop48
 90
       50
102
RTVSPost2010PropOp48
 70
     1
102
RTVSPost2010Prop49
280
     0
102
RTVSPost2010PropOp49
 70
     1
102
RTVSPost2010Prop50
 90
       50
102
RTVSPost2010PropOp50
 70
     1
102
RTVSPost2010Prop51ColorIndex
 90
      256
102
RTVSPost2010Prop51ColorRGB
 90
-16777216
102
RTVSPost2010PropOp51
 70
     0
102
RTVSPost2010Prop52
140
1.0
102
RTVSPost2010PropOp52
 70
     0
102
RTVSPost2010Prop53
 90
        2
102
RTVSPost2010PropOp53
 70
     1
102
RTVSPost2010Prop54
  1
strokes_ogs.tif
102
RTVSPost2010PropOp54
 70
     1
102
RTVSPost2010Prop55
280
     0
102
RTVSPost2010PropOp55
 70
     1
102
RTVSPost2010Prop56
140
1.0
102
RTVSPost2010PropOp56
 70
     1
102
RTVSPost2010Prop57
140
1.0
102
RTVSPost2010PropOp57
 70
     1
102
RTVSPropertyOp0
 70
     1
102
RTVSPropertyOp1
 70
     1
102
RTVSPropertyOp2
 70
     1
102
RTVSPropertyOp3
 70
     1
102
RTVSPropertyOp4
 70
     1
102
RTVSPropertyOp5
 70
     1
102
RTVSPropertyOp6
 70
     1
102
RTVSPropertyOp7
 70
     1
102
RTVSPropertyOp8
 70
     1
102
RTVSPropertyOp9
 70
     1
102
RTVSPropertyOp10
 70
     1
102
RTVSPropertyOp11
 70
     1
102
RTVSPropertyOp12
 70
     1
102
RTVSPropertyOp13
 70
     1
102
RTVSPropertyOp14
 70
     1
102
RTVSPropertyOp15
 70
     1
102
RTVSPropertyOp16
 70
     1
102
RTVSPropertyOp17
 70
     1
102
RTVSPropertyOp18
 70
     1
102
RTVSPropertyOp19
 70
     1
102
RTVSPropertyOp20
 70
     1
102
RTVSPropertyOp21
 70
     1
102
RTVSPropertyOp22
 70
     1
102
RTVSPropertyOp23
 70
     1
102
RTVSPropertyOp24
 70
     1
102
RTVSPropertyOp25
 70
     1
102
RTVSPropertyOp26
 70
     1
102
RTVSPropertyOp27
 70
     1
102
RTVSPropertyOp28
 70
     1
102
RTVSPropertyOp29
 70
     1
102
RTVSPropertyOp30
 70
     1
102
RTVSPropertyOp31
 70
     1
102
RTVSPropertyOp32
 70
     1
102
RTVSPropertyOp33
 70
     1
102
RTVSPropertyOp34
 70
     1
102
RTVSPropertyOp35
 70
     1
102
RTVSPropertyOp36
 70
     1
102
RTVSPropertyOp37
 70
     1
102
RTVSPropertyOp38
 70
     1
102
RTVSPropertyOp39
 70
     1
102
RTVSPropertyOp40
 70
     1
102
RTVSPropertyOp41
 70
     1
102
RTVSPropertyOp42
 70
     1
102
RTVSPropertyOp43
 70
     1
102
RTVSPropertyOp44
 70
     1
102
RTVSPropertyOp45
 70
     1
102
RTVSPropertyOp46
 70
     1
102
RTVSPropertyOp47
 70
     1
102
RTVSPropertyOp48
 70
     1
102
RTVSPropertyOp49
 70
     1
102
RTVSPropertyOp50
 70
     1
102
RTVSPropertyOp51
 70
     0
102
RTVSPropertyOp52
 70
     0
102
RTVSPropertyOp53
 70
     1
102
RTVSPropertyOp54
 70
     1
102
RTVSPropertyOp55
 70
     1
102
RTVSPropertyOp56
 70
     1
102
RTVSPropertyOp57
 70
     1
102
RTVSPropertyOp58
 70
     1
102
RTVSPropertyOp59
 70
     1
102
RTVSPropertyOp60
 70
     1
102
RTVSPropertyOp61
 70
     1
102
RTVSPropertyOp62
 70
     1
  0
XRECORD
  5
C1F
102
{ACAD_REACTORS
330
C1E
102
}
330
C1E
100
AcDbXrecord
280
     1
102
RTVSPost2010Prop28
280
     0
102
RTVSPost2010PropOp28
 70
     1
102
RTVSPost2010Prop29
280
     1
102
RTVSPost2010PropOp29
 70
     1
102
RTVSPost2010Prop30
280
     1
102
RTVSPost2010PropOp30
 70
     1
102
RTVSPost2010Prop31
280
     0
102
RTVSPost2010PropOp31
 70
     1
102
RTVSPost2010Prop32
280
     0
102
RTVSPost2010PropOp32
 70
     1
102
RTVSPost2010Prop33
280
     0
102
RTVSPost2010PropOp33
 70
     1
102
RTVSPost2010Prop34
280
     0
102
RTVSPost2010PropOp34
 70
     1
102
RTVSPost2010Prop35
280
     0
102
RTVSPost2010PropOp35
 70
     1
102
RTVSPost2010Prop36
280
     0
102
RTVSPost2010PropOp36
 70
     1
102
RTVSPost2010Prop37
 90
       50
102
RTVSPost2010PropOp37
 70
     1
102
RTVSPost2010Prop38
140
0.0
102
RTVSPost2010PropOp38
 70
     1
102
RTVSPost2010Prop39
140
1.0
102
RTVSPost2010PropOp39
 70
     1
102
RTVSPost2010Prop40
 90
        0
102
RTVSPost2010PropOp40
 70
     1
102
RTVSPost2010Prop41ColorIndex
 90
       18
102
RTVSPost2010Prop41ColorRGB
 90
        0
102
RTVSPost2010PropOp41
 70
     1
102
RTVSPost2010Prop42
 90
       50
102
RTVSPost2010PropOp42
 70
     1
102
RTVSPost2010Prop43
 90
        3
102
RTVSPost2010PropOp43
 70
     1
102
RTVSPost2010Prop44ColorIndex
 90
        5
102
RTVSPost2010Prop44ColorRGB
 90
      255
102
RTVSPost2010PropOp44
 70
     1
102
RTVSPost2010Prop45
280
     0
102
RTVSPost2010PropOp45
 70
     1
102
RTVSPost2010Prop46
 90
       50
102
RTVSPost2010PropOp46
 70
     1
102
RTVSPost2010Prop47
 90
       50
102
RTVSPost2010PropOp47
 70
     1
102
RTVSPost2010Prop48
 90
       50
102
RTVSPost2010PropOp48
 70
     1
102
RTVSPost2010Prop49
280
     0
102
RTVSPost2010PropOp49
 70
     1
102
RTVSPost2010Prop50
 90
       50
102
RTVSPost2010PropOp50
 70
     1
102
RTVSPost2010Prop51ColorIndex
 90
      256
102
RTVSPost2010Prop51ColorRGB
 90
-16777216
102
RTVSPost2010PropOp51
 70
     0
102
RTVSPost2010Prop52
140
1.0
102
RTVSPost2010PropOp52
 70
     0
102
RTVSPost2010Prop53
 90
        2
102
RTVSPost2010PropOp53
 70
     1
102
RTVSPost2010Prop54
  1
strokes_ogs.tif
102
RTVSPost2010PropOp54
 70
     1
102
RTVSPost2010Prop55
280
     0
102
RTVSPost2010PropOp55
 70
     1
102
RTVSPost2010Prop56
140
1.0
102
RTVSPost2010PropOp56
 70
     1
102
RTVSPost2010Prop57
140
1.0
102
RTVSPost2010PropOp57
 70
     1
102
RTVSPropertyOp0
 70
     1
102
RTVSPropertyOp1
 70
     1
102
RTVSPropertyOp2
 70
     1
102
RTVSPropertyOp3
 70
     1
102
RTVSPropertyOp4
 70
     1
102
RTVSPropertyOp5
 70
     1
102
RTVSPropertyOp6
 70
     1
102
RTVSPropertyOp7
 70
     1
102
RTVSPropertyOp8
 70
     1
102
RTVSPropertyOp9
 70
     1
102
RTVSPropertyOp10
 70
     1
102
RTVSPropertyOp11
 70
     1
102
RTVSPropertyOp12
 70
     1
102
RTVSPropertyOp13
 70
     1
102
RTVSPropertyOp14
 70
     1
102
RTVSPropertyOp15
 70
     1
102
RTVSPropertyOp16
 70
     1
102
RTVSPropertyOp17
 70
     1
102
RTVSPropertyOp18
 70
     1
102
RTVSPropertyOp19
 70
     1
102
RTVSPropertyOp20
 70
     1
102
RTVSPropertyOp21
 70
     1
102
RTVSPropertyOp22
 70
     1
102
RTVSPropertyOp23
 70
     1
102
RTVSPropertyOp24
 70
     1
102
RTVSPropertyOp25
 70
     1
102
RTVSPropertyOp26
 70
     1
102
RTVSPropertyOp27
 70
     1
102
RTVSPropertyOp28
 70
     1
102
RTVSPropertyOp29
 70
     1
102
RTVSPropertyOp30
 70
     1
102
RTVSPropertyOp31
 70
     1
102
RTVSPropertyOp32
 70
     1
102
RTVSPropertyOp33
 70
     1
102
RTVSPropertyOp34
 70
     1
102
RTVSPropertyOp35
 70
     1
102
RTVSPropertyOp36
 70
     1
102
RTVSPropertyOp37
 70
     1
102
RTVSPropertyOp38
 70
     1
102
RTVSPropertyOp39
 70
     1
102
RTVSPropertyOp40
 70
     1
102
RTVSPropertyOp41
 70
     1
102
RTVSPropertyOp42
 70
     1
102
RTVSPropertyOp43
 70
     1
102
RTVSPropertyOp44
 70
     1
102
RTVSPropertyOp45
 70
     1
102
RTVSPropertyOp46
 70
     1
102
RTVSPropertyOp47
 70
     1
102
RTVSPropertyOp48
 70
     1
102
RTVSPropertyOp49
 70
     1
102
RTVSPropertyOp50
 70
     1
102
RTVSPropertyOp51
 70
     0
102
RTVSPropertyOp52
 70
     0
102
RTVSPropertyOp53
 70
     1
102
RTVSPropertyOp54
 70
     1
102
RTVSPropertyOp55
 70
     1
102
RTVSPropertyOp56
 70
     1
102
RTVSPropertyOp57
 70
     1
102
RTVSPropertyOp58
 70
     1
102
RTVSPropertyOp59
 70
     1
102
RTVSPropertyOp60
 70
     1
102
RTVSPropertyOp61
 70
     1
102
RTVSPropertyOp62
 70
     1
  0
XRECORD
  5
C3F
102
{ACAD_REACTORS
330
C3E
102
}
330
C3E
100
AcDbXrecord
280
     1
102
RTVSPost2010Prop28
280
     0
102
RTVSPost2010PropOp28
 70
     1
102
RTVSPost2010Prop29
280
     1
102
RTVSPost2010PropOp29
 70
     1
102
RTVSPost2010Prop30
280
     1
102
RTVSPost2010PropOp30
 70
     1
102
RTVSPost2010Prop31
280
     0
102
RTVSPost2010PropOp31
 70
     1
102
RTVSPost2010Prop32
280
     0
102
RTVSPost2010PropOp32
 70
     1
102
RTVSPost2010Prop33
280
     0
102
RTVSPost2010PropOp33
 70
     1
102
RTVSPost2010Prop34
280
     0
102
RTVSPost2010PropOp34
 70
     1
102
RTVSPost2010Prop35
280
     0
102
RTVSPost2010PropOp35
 70
     1
102
RTVSPost2010Prop36
280
     0
102
RTVSPost2010PropOp36
 70
     1
102
RTVSPost2010Prop37
 90
       50
102
RTVSPost2010PropOp37
 70
     1
102
RTVSPost2010Prop38
140
0.0
102
RTVSPost2010PropOp38
 70
     1
102
RTVSPost2010Prop39
140
1.0
102
RTVSPost2010PropOp39
 70
     1
102
RTVSPost2010Prop40
 90
        0
102
RTVSPost2010PropOp40
 70
     1
102
RTVSPost2010Prop41ColorIndex
 90
       18
102
RTVSPost2010Prop41ColorRGB
 90
        0
102
RTVSPost2010PropOp41
 70
     1
102
RTVSPost2010Prop42
 90
       50
102
RTVSPost2010PropOp42
 70
     1
102
RTVSPost2010Prop43
 90
        3
102
RTVSPost2010PropOp43
 70
     1
102
RTVSPost2010Prop44ColorIndex
 90
        5
102
RTVSPost2010Prop44ColorRGB
 90
      255
102
RTVSPost2010PropOp44
 70
     1
102
RTVSPost2010Prop45
280
     0
102
RTVSPost2010PropOp45
 70
     1
102
RTVSPost2010Prop46
 90
       50
102
RTVSPost2010PropOp46
 70
     1
102
RTVSPost2010Prop47
 90
       50
102
RTVSPost2010PropOp47
 70
     1
102
RTVSPost2010Prop48
 90
       50
102
RTVSPost2010PropOp48
 70
     1
102
RTVSPost2010Prop49
280
     0
102
RTVSPost2010PropOp49
 70
     1
102
RTVSPost2010Prop50
 90
       50
102
RTVSPost2010PropOp50
 70
     1
102
RTVSPost2010Prop51ColorIndex
 90
      256
102
RTVSPost2010Prop51ColorRGB
 90
-16777216
102
RTVSPost2010PropOp51
 70
     0
102
RTVSPost2010Prop52
140
1.0
102
RTVSPost2010PropOp52
 70
     0
102
RTVSPost2010Prop53
 90
        2
102
RTVSPost2010PropOp53
 70
     1
102
RTVSPost2010Prop54
  1
strokes_ogs.tif
102
RTVSPost2010PropOp54
 70
     1
102
RTVSPost2010Prop55
280
     0
102
RTVSPost2010PropOp55
 70
     1
102
RTVSPost2010Prop56
140
1.0
102
RTVSPost2010PropOp56
 70
     1
102
RTVSPost2010Prop57
140
1.0
102
RTVSPost2010PropOp57
 70
     1
102
RTVSPropertyOp0
 70
     1
102
RTVSPropertyOp1
 70
     1
102
RTVSPropertyOp2
 70
     1
102
RTVSPropertyOp3
 70
     1
102
RTVSPropertyOp4
 70
     1
102
RTVSPropertyOp5
 70
     1
102
RTVSPropertyOp6
 70
     1
102
RTVSPropertyOp7
 70
     1
102
RTVSPropertyOp8
 70
     1
102
RTVSPropertyOp9
 70
     1
102
RTVSPropertyOp10
 70
     1
102
RTVSPropertyOp11
 70
     1
102
RTVSPropertyOp12
 70
     1
102
RTVSPropertyOp13
 70
     1
102
RTVSPropertyOp14
 70
     1
102
RTVSPropertyOp15
 70
     1
102
RTVSPropertyOp16
 70
     1
102
RTVSPropertyOp17
 70
     1
102
RTVSPropertyOp18
 70
     1
102
RTVSPropertyOp19
 70
     1
102
RTVSPropertyOp20
 70
     1
102
RTVSPropertyOp21
 70
     1
102
RTVSPropertyOp22
 70
     1
102
RTVSPropertyOp23
 70
     1
102
RTVSPropertyOp24
 70
     1
102
RTVSPropertyOp25
 70
     1
102
RTVSPropertyOp26
 70
     1
102
RTVSPropertyOp27
 70
     1
102
RTVSPropertyOp28
 70
     1
102
RTVSPropertyOp29
 70
     1
102
RTVSPropertyOp30
 70
     1
102
RTVSPropertyOp31
 70
     1
102
RTVSPropertyOp32
 70
     1
102
RTVSPropertyOp33
 70
     1
102
RTVSPropertyOp34
 70
     1
102
RTVSPropertyOp35
 70
     1
102
RTVSPropertyOp36
 70
     1
102
RTVSPropertyOp37
 70
     1
102
RTVSPropertyOp38
 70
     1
102
RTVSPropertyOp39
 70
     1
102
RTVSPropertyOp40
 70
     1
102
RTVSPropertyOp41
 70
     1
102
RTVSPropertyOp42
 70
     1
102
RTVSPropertyOp43
 70
     1
102
RTVSPropertyOp44
 70
     1
102
RTVSPropertyOp45
 70
     1
102
RTVSPropertyOp46
 70
     1
102
RTVSPropertyOp47
 70
     1
102
RTVSPropertyOp48
 70
     1
102
RTVSPropertyOp49
 70
     1
102
RTVSPropertyOp50
 70
     1
102
RTVSPropertyOp51
 70
     0
102
RTVSPropertyOp52
 70
     0
102
RTVSPropertyOp53
 70
     1
102
RTVSPropertyOp54
 70
     1
102
RTVSPropertyOp55
 70
     1
102
RTVSPropertyOp56
 70
     1
102
RTVSPropertyOp57
 70
     1
102
RTVSPropertyOp58
 70
     1
102
RTVSPropertyOp59
 70
     1
102
RTVSPropertyOp60
 70
     1
102
RTVSPropertyOp61
 70
     1
102
RTVSPropertyOp62
 70
     1
  0
ENDSEC
  0
EOF
