  0
SECTION
  2
HEADER
  9
$ACADVER
  1
AC1015
  9
$ACADMAINTVER
 70
    20
  9
$DWGCODEPAGE
  3
ANSI_932
  9
$INSBASE
 10
0.0
 20
0.0
 30
0.0
  9
$EXTMIN
 10
28.105553316037
 20
19.93789085319986
 30
-0.0015258207003583
  9
$EXTMAX
 10
1364.92070523034
 20
950.6479781818752
 30
0.0000000349246037
  9
$LIMMIN
 10
-467.2301433563233
 20
-530.391617822647
  9
$LIMMAX
 10
1112.416854858398
 20
522.0906568050385
  9
$ORTHOMODE
 70
     1
  9
$REGENMODE
 70
     1
  9
$FILLMODE
 70
     1
  9
$QTEXTMODE
 70
     0
  9
$MIRRTEXT
 70
     1
  9
$LTSCALE
 40
0.6840990937150372
  9
$ATTMODE
 70
     1
  9
$TEXTSIZE
 40
2.5
  9
$TRACEWID
 40
1.0
  9
$TEXTSTYLE
  7
Standard
  9
$CLAYER
  8
0
  9
$CELTYPE
  6
ByLayer
  9
$CECOLOR
 62
   256
  9
$CELTSCALE
 40
1.0
  9
$DISPSILH
 70
     0
  9
$DIMSCALE
 40
1.0
  9
$DIMASZ
 40
2.5
  9
$DIMEXO
 40
0.625
  9
$DIMDLI
 40
3.75
  9
$DIMRND
 40
0.0
  9
$DIMDLE
 40
0.0
  9
$DIMEXE
 40
1.25
  9
$DIMTP
 40
0.0
  9
$DIMTM
 40
0.0
  9
$DIMTXT
 40
2.5
  9
$DIMCEN
 40
2.5
  9
$DIMTSZ
 40
0.0
  9
$DIMTOL
 70
     0
  9
$DIMLIM
 70
     0
  9
$DIMTIH
 70
     0
  9
$DIMTOH
 70
     0
  9
$DIMSE1
 70
     0
  9
$DIMSE2
 70
     0
  9
$DIMTAD
 70
     1
  9
$DIMZIN
 70
     0
  9
$DIMBLK
  1

  9
$DIMASO
 70
     1
  9
$DIMSHO
 70
     1
  9
$DIMPOST
  1

  9
$DIMAPOST
  1

  9
$DIMALT
 70
     0
  9
$DIMALTD
 70
     3
  9
$DIMALTF
 40
0.03937007874016
  9
$DIMLFAC
 40
1.0
  9
$DIMTOFL
 70
     1
  9
$DIMTVP
 40
0.0
  9
$DIMTIX
 70
     0
  9
$DIMSOXD
 70
     0
  9
$DIMSAH
 70
     0
  9
$DIMBLK1
  1

  9
$DIMBLK2
  1

  9
$DIMSTYLE
  2
Standard
  9
$DIMCLRD
 70
     0
  9
$DIMCLRE
 70
     0
  9
$DIMCLRT
 70
     0
  9
$DIMTFAC
 40
0.75
  9
$DIMGAP
 40
0.625
  9
$DIMJUST
 70
     0
  9
$DIMSD1
 70
     0
  9
$DIMSD2
 70
     0
  9
$DIMTOLJ
 70
     0
  9
$DIMTZIN
 70
     8
  9
$DIMALTZ
 70
     0
  9
$DIMALTTZ
 70
     0
  9
$DIMUPT
 70
     0
  9
$DIMDEC
 70
     2
  9
$DIMTDEC
 70
     2
  9
$DIMALTU
 70
     2
  9
$DIMALTTD
 70
     3
  9
$DIMTXSTY
  7
Standard
  9
$DIMAUNIT
 70
     0
  9
$DIMADEC
 70
     0
  9
$DIMALTRND
 40
0.0
  9
$DIMAZIN
 70
     0
  9
$DIMDSEP
 70
    46
  9
$DIMATFIT
 70
     3
  9
$DIMFRAC
 70
     0
  9
$DIMLDRBLK
  1

  9
$DIMLUNIT
 70
     2
  9
$DIMLWD
 70
    -2
  9
$DIMLWE
 70
    -2
  9
$DIMTMOVE
 70
     0
  9
$LUNITS
 70
     2
  9
$LUPREC
 70
     4
  9
$SKETCHINC
 40
1.0
  9
$FILLETRAD
 40
0.0
  9
$AUNITS
 70
     0
  9
$AUPREC
 70
     0
  9
$MENU
  1
.
  9
$ELEVATION
 40
0.0
  9
$PELEVATION
 40
0.0
  9
$THICKNESS
 40
0.0
  9
$LIMCHECK
 70
     0
  9
$CHAMFERA
 40
10.0
  9
$CHAMFERB
 40
10.0
  9
$CHAMFERC
 40
20.0
  9
$CHAMFERD
 40
0.0
  9
$SKPOLY
 70
     0
  9
$TDCREATE
 40
2455188.750000000
  9
$TDUCREATE
 40
2455188.375000000
  9
$TDUPDATE
 40
2459753.592730197
  9
$TDUUPDATE
 40
2459753.217730197
  9
$TDINDWG
 40
0.0460674884
  9
$TDUSRTIMER
 40
0.0460672338
  9
$USRTIMER
 70
     1
  9
$ANGBASE
 50
0.0
  9
$ANGDIR
 70
     0
  9
$PDMODE
 70
     0
  9
$PDSIZE
 40
0.0
  9
$PLINEWID
 40
0.0
  9
$SPLFRAME
 70
     0
  9
$SPLINETYPE
 70
     6
  9
$SPLINESEGS
 70
     8
  9
$HANDSEED
  5
C55
  9
$SURFTAB1
 70
     6
  9
$SURFTAB2
 70
     6
  9
$SURFTYPE
 70
     6
  9
$SURFU
 70
     6
  9
$SURFV
 70
     6
  9
$UCSBASE
  2

  9
$UCSNAME
  2

  9
$UCSORG
 10
0.0
 20
0.0
 30
0.0
  9
$UCSXDIR
 10
1.0
 20
0.0
 30
0.0
  9
$UCSYDIR
 10
0.0
 20
1.0
 30
0.0
  9
$UCSORTHOREF
  2

  9
$UCSORTHOVIEW
 70
     0
  9
$UCSORGTOP
 10
0.0
 20
0.0
 30
0.0
  9
$UCSORGBOTTOM
 10
0.0
 20
0.0
 30
0.0
  9
$UCSORGLEFT
 10
0.0
 20
0.0
 30
0.0
  9
$UCSORGRIGHT
 10
0.0
 20
0.0
 30
0.0
  9
$UCSORGFRONT
 10
0.0
 20
0.0
 30
0.0
  9
$UCSORGBACK
 10
0.0
 20
0.0
 30
0.0
  9
$PUCSBASE
  2

  9
$PUCSNAME
  2

  9
$PUCSORG
 10
0.0
 20
0.0
 30
0.0
  9
$PUCSXDIR
 10
1.0
 20
0.0
 30
0.0
  9
$PUCSYDIR
 10
0.0
 20
1.0
 30
0.0
  9
$PUCSORTHOREF
  2

  9
$PUCSORTHOVIEW
 70
     0
  9
$PUCSORGTOP
 10
0.0
 20
0.0
 30
0.0
  9
$PUCSORGBOTTOM
 10
0.0
 20
0.0
 30
0.0
  9
$PUCSORGLEFT
 10
0.0
 20
0.0
 30
0.0
  9
$PUCSORGRIGHT
 10
0.0
 20
0.0
 30
0.0
  9
$PUCSORGFRONT
 10
0.0
 20
0.0
 30
0.0
  9
$PUCSORGBACK
 10
0.0
 20
0.0
 30
0.0
  9
$USERI1
 70
     0
  9
$USERI2
 70
     0
  9
$USERI3
 70
     0
  9
$USERI4
 70
     0
  9
$USERI5
 70
     0
  9
$USERR1
 40
0.0
  9
$USERR2
 40
0.0
  9
$USERR3
 40
0.0
  9
$USERR4
 40
0.0
  9
$USERR5
 40
0.0
  9
$WORLDVIEW
 70
     1
  9
$SHADEDGE
 70
     3
  9
$SHADEDIF
 70
    70
  9
$TILEMODE
 70
     1
  9
$MAXACTVP
 70
    64
  9
$PINSBASE
 10
0.0
 20
0.0
 30
0.0
  9
$PLIMCHECK
 70
     0
  9
$PEXTMIN
 10
1.000000000000000E+20
 20
1.000000000000000E+20
 30
1.000000000000000E+20
  9
$PEXTMAX
 10
-1.000000000000000E+20
 20
-1.000000000000000E+20
 30
-1.000000000000000E+20
  9
$PLIMMIN
 10
0.0
 20
0.0
  9
$PLIMMAX
 10
420.0
 20
297.0
  9
$UNITMODE
 70
     0
  9
$VISRETAIN
 70
     1
  9
$PLINEGEN
 70
     0
  9
$PSLTSCALE
 70
     1
  9
$TREEDEPTH
 70
  3020
  9
$CMLSTYLE
  2
Standard
  9
$CMLJUST
 70
     0
  9
$CMLSCALE
 40
20.0
  9
$PROXYGRAPHICS
 70
     1
  9
$MEASUREMENT
 70
     1
  9
$CELWEIGHT
370
    -1
  9
$ENDCAPS
280
     0
  9
$JOINSTYLE
280
     0
  9
$LWDISPLAY
290
     0
  9
$INSUNITS
 70
     4
  9
$HYPERLINKBASE
  1

  9
$STYLESHEET
  1

  9
$XEDIT
290
     1
  9
$CEPSNTYPE
380
     0
  9
$PSTYLEMODE
290
     1
  9
$FINGERPRINTGUID
  2
{FD272D6C-6CD1-4FB5-BD6B-77E525286DBE}
  9
$VERSIONGUID
  2
{1C6A540B-4556-4250-BB1F-D2443D76E392}
  9
$EXTNAMES
290
     1
  9
$PSVPSCALE
 40
0.0
  9
$OLESTARTUP
290
     0
  0
ENDSEC
  0
SECTION
  2
CLASSES
  0
CLASS
  1
ACDBDICTIONARYWDFLT
  2
AcDbDictionaryWithDefault
  3
ObjectDBX Classes
 90
        0
280
     0
281
     0
  0
CLASS
  1
VISUALSTYLE
  2
AcDbVisualStyle
  3
ObjectDBX Classes
 90
     4095
280
     0
281
     0
  0
CLASS
  1
MATERIAL
  2
AcDbMaterial
  3
ObjectDBX Classes
 90
     1153
280
     0
281
     0
  0
CLASS
  1
SCALE
  2
AcDbScale
  3
ObjectDBX Classes
 90
     1153
280
     0
281
     0
  0
CLASS
  1
TABLESTYLE
  2
AcDbTableStyle
  3
ObjectDBX Classes
 90
     4095
280
     0
281
     0
  0
CLASS
  1
MLEADERSTYLE
  2
AcDbMLeaderStyle
  3
ACDB_MLEADERSTYLE_CLASS
 90
     4095
280
     0
281
     0
  0
CLASS
  1
SUN
  2
AcDbSun
  3
SCENEOE
 90
    33921
280
     0
281
     0
  0
CLASS
  1
DICTIONARYVAR
  2
AcDbDictionaryVar
  3
ObjectDBX Classes
 90
        0
280
     0
281
     0
  0
CLASS
  1
ACDBSECTIONVIEWSTYLE
  2
AcDbSectionViewStyle
  3
ObjectDBX Classes
 90
     1025
280
     0
281
     0
  0
CLASS
  1
ACDBDETAILVIEWSTYLE
  2
AcDbDetailViewStyle
  3
ObjectDBX Classes
 90
     1025
280
     0
281
     0
  0
CLASS
  1
SORTENTSTABLE
  2
AcDbSortentsTable
  3
ObjectDBX Classes
 90
        0
280
     0
281
     0
  0
CLASS
  1
CELLSTYLEMAP
  2
AcDbCellStyleMap
  3
ObjectDBX Classes
 90
     1152
280
     0
281
     0
  0
CLASS
  1
ACDBPLACEHOLDER
  2
AcDbPlaceHolder
  3
ObjectDBX Classes
 90
        0
280
     0
281
     0
  0
CLASS
  1
LAYOUT
  2
AcDbLayout
  3
ObjectDBX Classes
 90
        0
280
     0
281
     0
  0
CLASS
  1
DIMASSOC
  2
AcDbDimAssoc
  3
"AcDbDimAssoc|Product Desc:     AcDim ARX App For Dimension|Company:          Autodesk, Inc.|WEB Address:      www.autodesk.com"
 90
        0
280
     0
281
     0
  0
ENDSEC
  0
SECTION
  2
TABLES
  0
TABLE
  2
VPORT
  5
8
330
0
100
AcDbSymbolTable
 70
     1
  0
VPORT
  5
29
330
8
100
AcDbSymbolTableRecord
100
AcDbViewportTableRecord
  2
*Active
 70
     0
 10
0.0
 20
0.0
 11
1.0
 21
1.0
 12
696.5131292731882
 22
485.2929345175375
 13
0.0
 23
0.0
 14
10.0
 24
10.0
 15
10.0
 25
10.0
 16
0.0
 26
0.0
 36
1.0
 17
0.0
 27
0.0
 37
0.0
 40
937.3738827033436
 41
1.918757467144564
 42
50.0
 43
0.0
 44
0.0
 50
0.0
 51
0.0
 71
     0
 72
 20000
 73
     1
 74
     3
 75
     0
 76
     0
 77
     0
 78
     0
281
     0
 65
     1
110
0.0
120
0.0
130
0.0
111
1.0
121
0.0
131
0.0
112
0.0
122
1.0
132
0.0
 79
     0
146
0.0
1001
ACAD_NAV_VCDISPLAY
1070
     3
  0
ENDTAB
  0
TABLE
  2
LTYPE
  5
5
330
0
100
AcDbSymbolTable
 70
     3
  0
LTYPE
  5
14
330
5
100
AcDbSymbolTableRecord
100
AcDbLinetypeTableRecord
  2
ByBlock
 70
     0
  3

 72
    65
 73
     0
 40
0.0
  0
LTYPE
  5
15
330
5
100
AcDbSymbolTableRecord
100
AcDbLinetypeTableRecord
  2
ByLayer
 70
     0
  3

 72
    65
 73
     0
 40
0.0
  0
LTYPE
  5
16
330
5
100
AcDbSymbolTableRecord
100
AcDbLinetypeTableRecord
  2
Continuous
 70
     0
  3
Solid line
 72
    65
 73
     0
 40
0.0
  0
LTYPE
  5
378
330
5
100
AcDbSymbolTableRecord
100
AcDbLinetypeTableRecord
  2
CENTER2
 70
     0
  3
Center (.5x) ___ _ ___ _ ___ _ ___ _ ___ _ ___
 72
    65
 73
     4
 40
28.575
 49
19.05
 74
     0
 49
-3.174999999999998
 74
     0
 49
3.174999999999998
 74
     0
 49
-3.174999999999998
 74
     0
  0
ENDTAB
  0
TABLE
  2
LAYER
  5
2
102
{ACAD_XDICTIONARY
360
37E
102
}
330
0
100
AcDbSymbolTable
 70
     4
  0
LAYER
  5
10
102
{ACAD_XDICTIONARY
360
B1C
102
}
330
2
100
AcDbSymbolTableRecord
100
AcDbLayerTableRecord
  2
0
 70
     0
 62
     7
  6
Continuous
370
    -3
390
F
  0
LAYER
  5
66
330
2
100
AcDbSymbolTableRecord
100
AcDbLayerTableRecord
  2
Defpoints
 70
     0
 62
     7
  6
Continuous
290
     0
370
    -3
390
F
  0
LAYER
  5
379
102
{ACAD_XDICTIONARY
360
37A
102
}
330
2
100
AcDbSymbolTableRecord
100
AcDbLayerTableRecord
  2
中心線
 70
     0
 62
     3
  6
CENTER2
370
    -3
390
F
  0
LAYER
  5
37B
102
{ACAD_XDICTIONARY
360
37C
102
}
330
2
100
AcDbSymbolTableRecord
100
AcDbLayerTableRecord
  2
実線
 70
     0
 62
     7
  6
Continuous
370
    -3
390
F
  0
ENDTAB
  0
TABLE
  2
STYLE
  5
3
330
0
100
AcDbSymbolTable
 70
     1
  0
STYLE
  5
11
330
3
100
AcDbSymbolTableRecord
100
AcDbTextStyleTableRecord
  2
Standard
 70
     0
 40
0.0
 41
1.0
 50
0.0
 71
     0
 42
2.5
  3
txt
  4
extfont2
  0
ENDTAB
  0
TABLE
  2
VIEW
  5
6
330
0
100
AcDbSymbolTable
 70
     0
  0
ENDTAB
  0
TABLE
  2
UCS
  5
7
330
0
100
AcDbSymbolTable
 70
     0
  0
ENDTAB
  0
TABLE
  2
APPID
  5
9
330
0
100
AcDbSymbolTable
 70
     4
  0
APPID
  5
12
330
9
100
AcDbSymbolTableRecord
100
AcDbRegAppTableRecord
  2
ACAD
 70
     0
  0
APPID
  5
368
330
9
100
AcDbSymbolTableRecord
100
AcDbRegAppTableRecord
  2
ACAD_MLEADERVER
 70
     0
  0
APPID
  5
37D
330
9
100
AcDbSymbolTableRecord
100
AcDbRegAppTableRecord
  2
ACAD_NAV_VCDISPLAY
 70
     0
  0
APPID
  5
B05
330
9
100
AcDbSymbolTableRecord
100
AcDbRegAppTableRecord
  2
ACAD_EXEMPT_FROM_CAD_STANDARDS
 70
     0
  0
ENDTAB
  0
TABLE
  2
DIMSTYLE
  5
A
330
0
100
AcDbSymbolTable
 70
     2
100
AcDbDimStyleTable
 71
     1
340
27
  0
DIMSTYLE
105
27
330
A
100
AcDbSymbolTableRecord
100
AcDbDimStyleTableRecord
  2
Standard
 70
     0
 41
2.5
 42
0.625
 43
3.75
 44
1.25
 73
     0
 74
     0
 77
     1
140
2.5
141
2.5
143
0.03937007874016
146
0.75
147
0.625
171
     3
172
     1
271
     2
272
     2
274
     3
283
     0
284
     8
340
11
  0
ENDTAB
  0
TABLE
  2
BLOCK_RECORD
  5
1
330
0
100
AcDbSymbolTable
 70
     3
  0
BLOCK_RECORD
  5
1F
102
{ACAD_XDICTIONARY
360
8F1
102
}
330
1
100
AcDbSymbolTableRecord
100
AcDbBlockTableRecord
  2
*Model_Space
340
22
  0
BLOCK_RECORD
  5
1B
330
1
100
AcDbSymbolTableRecord
100
AcDbBlockTableRecord
  2
*Paper_Space
340
1E
  0
BLOCK_RECORD
  5
23
330
1
100
AcDbSymbolTableRecord
100
AcDbBlockTableRecord
  2
*Paper_Space0
340
372
  0
BLOCK_RECORD
  5
BE5
330
1
100
AcDbSymbolTableRecord
100
AcDbBlockTableRecord
  2
*D1
340
0
  0
ENDTAB
  0
ENDSEC
  0
SECTION
  2
BLOCKS
  0
BLOCK
  5
20
330
1F
100
AcDbEntity
  8
0
100
AcDbBlockBegin
  2
*Model_Space
 70
     0
 10
0.0
 20
0.0
 30
0.0
  3
*Model_Space
  1

  0
ENDBLK
  5
21
330
1F
100
AcDbEntity
  8
0
100
AcDbBlockEnd
  0
BLOCK
  5
1C
330
1B
100
AcDbEntity
 67
     1
  8
0
100
AcDbBlockBegin
  2
*Paper_Space
 70
     0
 10
0.0
 20
0.0
 30
0.0
  3
*Paper_Space
  1

  0
ENDBLK
  5
1D
330
1B
100
AcDbEntity
 67
     1
  8
0
100
AcDbBlockEnd
  0
BLOCK
  5
24
330
23
100
AcDbEntity
 67
     1
  8
0
100
AcDbBlockBegin
  2
*Paper_Space0
 70
     0
 10
0.0
 20
0.0
 30
0.0
  3
*Paper_Space0
  1

  0
ENDBLK
  5
25
330
23
100
AcDbEntity
 67
     1
  8
0
100
AcDbBlockEnd
  0
BLOCK
  5
BE6
330
BE5
100
AcDbEntity
  8
0
100
AcDbBlockBegin
  2
*D1
 70
     1
 10
0.0
 20
0.0
 30
0.0
  3
*D1
  1

  0
LINE
  5
BFC
330
BE5
100
AcDbEntity
  8
0
 62
     0
370
    -2
100
AcDbLine
 10
546.7324318740188
 20
944.3545814803425
 30
0.0
 11
433.0366402859172
 21
944.3545814803425
 31
0.0
  0
LINE
  5
BFD
330
BE5
100
AcDbEntity
  8
0
 62
     0
370
    -2
100
AcDbLine
 10
677.232431874019
 20
702.5545814803421
 30
0.0
 11
433.0366402859172
 21
702.5545814803421
 31
0.0
  0
LINE
  5
BFE
330
BE5
100
AcDbEntity
  8
0
 62
     0
370
    -2
100
AcDbLine
 10
434.2866402859172
 20
941.8545814803424
 30
0.0
 11
434.2866402859171
 21
705.054581480342
 31
0.0
  0
SOLID
  5
BFF
330
BE5
100
AcDbEntity
  8
0
 62
     0
100
AcDbTrace
 10
433.8699736192506
 20
941.8545814803424
 30
0.0
 11
434.7033069525839
 21
941.8545814803424
 31
0.0
 12
434.2866402859172
 22
944.3545814803425
 32
0.0
 13
434.2866402859172
 23
944.3545814803425
 33
0.0
  0
SOLID
  5
C00
330
BE5
100
AcDbEntity
  8
0
 62
     0
100
AcDbTrace
 10
433.8699736192505
 20
705.054581480342
 30
0.0
 11
434.7033069525839
 21
705.054581480342
 31
0.0
 12
434.2866402859171
 22
702.5545814803421
 32
0.0
 13
434.2866402859171
 23
702.5545814803421
 33
0.0
  0
MTEXT
  5
C01
330
BE5
100
AcDbEntity
  8
0
 62
     0
100
AcDbMText
 10
432.411640285917
 20
823.4545814803423
 30
0.0
 40
2.5
 41
0.0
 71
     5
 72
     1
  1
241.80
 11
0.0000000000000001
 21
1.0
 31
0.0
 73
     1
 44
1.0
1001
ACAD
1000
MTEXTBEGIN
1070
    73
1070
     1
1070
    44
1040
1.0
1070
    74
1070
     0
1000
MTEXTEND
  0
POINT
  5
C02
330
BE5
100
AcDbEntity
  8
Defpoints
 62
     0
100
AcDbPoint
 10
547.3574318740189
 20
944.3545814803425
 30
0.0
  0
POINT
  5
C03
330
BE5
100
AcDbEntity
  8
Defpoints
 62
     0
100
AcDbPoint
 10
677.8574318740189
 20
702.5545814803421
 30
0.0
  0
POINT
  5
C04
330
BE5
100
AcDbEntity
  8
Defpoints
 62
     0
100
AcDbPoint
 10
434.2866402859171
 20
702.5545814803421
 30
0.0
  0
ENDBLK
  5
BE7
330
BE5
100
AcDbEntity
  8
0
100
AcDbBlockEnd
  0
ENDSEC
  0
SECTION
  2
ENTITIES
  0
LINE
  5
84E
102
{ACAD_REACTORS
330
B85
102
}
330
1F
100
AcDbEntity
  8
中心線
100
AcDbLine
 10
478.8574318740186
 20
303.5545814803422
 30
0.0
 11
609.8574318740162
 21
303.5545814803422
 31
0.0
  0
LINE
  5
84F
102
{ACAD_REACTORS
330
B85
102
}
330
1F
100
AcDbEntity
  8
中心線
100
AcDbLine
 10
554.857431874019
 20
19.9784272102479
 30
0.0
 11
554.8574318740187
 21
333.554581480342
 31
0.0
  0
LINE
  5
850
102
{ACAD_REACTORS
330
B85
102
}
330
1F
100
AcDbEntity
  8
中心線
100
AcDbLine
 10
554.8574318740187
 20
264.5545814803422
 30
0.0
 11
677.8574318740189
 21
264.5545814803421
 31
0.0
  0
LINE
  5
851
102
{ACAD_REACTORS
330
B97
102
}
330
1F
100
AcDbEntity
  8
中心線
100
AcDbLine
 10
1288.857431874015
 20
538.5545814803419
 30
0.0
 11
1288.857431874015
 21
428.5545814803421
 31
0.0
  0
LINE
  5
852
102
{ACAD_REACTORS
330
B97
102
}
330
1F
100
AcDbEntity
  8
中心線
100
AcDbLine
 10
1233.857431874015
 20
483.554581480342
 30
0.0
 11
1364.857431874014
 21
483.5545814803421
 31
0.0
  0
LINE
  5
853
102
{ACAD_REACTORS
330
B8F
102
}
330
1F
100
AcDbEntity
  8
中心線
100
AcDbLine
 10
870.8574318740147
 20
500.0545814803423
 30
0.0
 11
870.8574318740147
 21
440.0545814803423
 31
0.0
  0
LINE
  5
854
102
{ACAD_REACTORS
330
B8F
102
}
330
1F
100
AcDbEntity
  8
中心線
100
AcDbLine
 10
840.8574318740166
 20
470.0545814803423
 30
0.0
 11
900.8574318740166
 21
470.0545814803423
 31
0.0
  0
LINE
  5
855
102
{ACAD_REACTORS
330
B7E
102
}
330
1F
100
AcDbEntity
  8
中心線
100
AcDbLine
 10
591.8574318740163
 20
566.7545814803422
 30
0.0
 11
591.8574318740162
 21
436.7545814803421
 31
0.0
  0
LINE
  5
856
102
{ACAD_REACTORS
330
B7E
102
}
330
1F
100
AcDbEntity
  8
中心線
100
AcDbLine
 10
526.8574318740188
 20
501.7545814803423
 30
0.0
 11
656.8574318740188
 21
501.7545814803423
 31
0.0
  0
LINE
  5
857
102
{ACAD_REACTORS
330
B80
102
}
330
1F
100
AcDbEntity
  8
中心線
100
AcDbLine
 10
478.8574318740186
 20
663.5545814803418
 30
0.0
 11
609.8574318740165
 21
663.5545814803421
 31
0.0
  0
LINE
  5
858
102
{ACAD_REACTORS
330
B80
102
}
330
1F
100
AcDbEntity
  8
中心線
100
AcDbLine
 10
554.8574318740187
 20
633.554581480342
 30
0.0
 11
554.857431874019
 21
950.5197639058323
 31
0.0
  0
LINE
  5
859
102
{ACAD_REACTORS
330
B80
102
}
330
1F
100
AcDbEntity
  8
中心線
100
AcDbLine
 10
554.8574318740187
 20
702.5545814803421
 30
0.0
 11
677.8574318740189
 21
702.5545814803421
 31
0.0
  0
LINE
  5
85A
102
{ACAD_REACTORS
330
B77
102
}
330
1F
100
AcDbEntity
  8
中心線
100
AcDbLine
 10
314.8574318740188
 20
513.5545814803419
 30
0.0
 11
314.8574318740188
 21
453.5545814803421
 31
0.0
  0
LINE
  5
85B
102
{ACAD_REACTORS
330
B77
102
}
330
1F
100
AcDbEntity
  8
中心線
100
AcDbLine
 10
28.17316724754528
 20
483.554581480342
 30
0.0
 11
344.8574318740189
 21
483.554581480342
 31
0.0
  0
LINE
  5
85C
102
{ACAD_REACTORS
330
B8F
102
}
330
1F
100
AcDbEntity
  8
中心線
100
AcDbLine
 10
801.8574318740165
 20
483.554581480342
 30
0.0
 11
1116.831223282361
 21
483.554581480342
 31
0.0
  0
LINE
  5
85D
102
{ACAD_REACTORS
330
B97
102
}
330
1F
100
AcDbEntity
  8
中心線
100
AcDbLine
 10
1165.857431874015
 20
470.0545814803423
 30
0.0
 11
1288.857431874015
 21
470.0545814803423
 31
0.0
  0
LINE
  5
85E
102
{ACAD_REACTORS
330
B7E
102
}
330
1F
100
AcDbEntity
  8
中心線
100
AcDbLine
 10
554.8574318740187
 20
470.0545814803423
 30
0.0
 11
677.8574318740188
 21
470.0545814803423
 31
0.0
  0
LINE
  5
85F
102
{ACAD_REACTORS
330
B7E
102
}
330
1F
100
AcDbEntity
  8
中心線
100
AcDbLine
 10
478.8574318740186
 20
483.554581480342
 30
0.0
 11
609.8574318740189
 21
483.554581480342
 31
0.0
  0
LINE
  5
860
102
{ACAD_REACTORS
330
B80
102
}
330
1F
100
AcDbEntity
  8
実線
100
AcDbLine
 10
530.6626209643718
 20
617.1545814803421
 30
0.0
 11
548.6626209643718
 21
617.1545814803421
 31
0.0
  0
LINE
  5
861
102
{ACAD_REACTORS
330
B80
102
}
330
1F
100
AcDbEntity
  8
実線
100
AcDbLine
 10
548.6626209643718
 20
617.1545814803421
 30
0.0
 11
548.6626209643718
 21
628.7545814803421
 31
0.0
  0
LINE
  5
862
102
{ACAD_REACTORS
330
B80
102
}
330
1F
100
AcDbEntity
  8
実線
100
AcDbLine
 10
530.6626209643718
 20
628.754581480342
 30
0.0
 11
530.6626209643718
 21
617.1545814803421
 31
0.0
  0
LINE
  5
863
102
{ACAD_REACTORS
330
B80
102
}
330
1F
100
AcDbEntity
  8
実線
100
AcDbLine
 10
635.052242783666
 20
617.1545814803421
 30
0.0
 11
653.0522427836659
 21
617.1545814803421
 31
0.0
  0
LINE
  5
864
102
{ACAD_REACTORS
330
B80
102
}
330
1F
100
AcDbEntity
  8
実線
100
AcDbLine
 10
653.0522427836659
 20
617.1545814803421
 30
0.0
 11
653.0522427836659
 21
628.7545814803421
 31
0.0
  0
LINE
  5
865
102
{ACAD_REACTORS
330
B80
102
}
330
1F
100
AcDbEntity
  8
実線
100
AcDbLine
 10
635.052242783666
 20
628.754581480342
 30
0.0
 11
635.052242783666
 21
617.1545814803421
 31
0.0
  0
LINE
  5
866
102
{ACAD_REACTORS
330
B80
102
}
330
1F
100
AcDbEntity
  8
実線
100
AcDbLine
 10
573.6540784576715
 20
617.1545814803421
 30
0.0
 11
591.6540784576717
 21
617.1545814803421
 31
0.0
  0
LINE
  5
867
102
{ACAD_REACTORS
330
B80
102
}
330
1F
100
AcDbEntity
  8
実線
100
AcDbLine
 10
591.6540784576717
 20
617.1545814803421
 30
0.0
 11
591.6540784576717
 21
628.7545814803421
 31
0.0
  0
LINE
  5
868
102
{ACAD_REACTORS
330
B80
102
}
330
1F
100
AcDbEntity
  8
実線
100
AcDbLine
 10
573.6540784576715
 20
628.754581480342
 30
0.0
 11
573.6540784576715
 21
617.1545814803421
 31
0.0
  0
LINE
  5
869
102
{ACAD_REACTORS
330
B80
102
}
330
1F
100
AcDbEntity
  8
実線
100
AcDbLine
 10
592.0607852903663
 20
617.1545814803421
 30
0.0
 11
610.0607852903663
 21
617.1545814803421
 31
0.0
  0
LINE
  5
86A
102
{ACAD_REACTORS
330
B80
102
}
330
1F
100
AcDbEntity
  8
実線
100
AcDbLine
 10
610.0607852903663
 20
617.1545814803421
 30
0.0
 11
610.0607852903663
 21
628.7545814803421
 31
0.0
  0
LINE
  5
86B
102
{ACAD_REACTORS
330
B80
102
}
330
1F
100
AcDbEntity
  8
実線
100
AcDbLine
 10
592.0607852903663
 20
628.754581480342
 30
0.0
 11
592.0607852903663
 21
617.1545814803421
 31
0.0
  0
LINE
  5
86C
102
{ACAD_REACTORS
330
B80
102
}
330
1F
100
AcDbEntity
  8
実線
100
AcDbLine
 10
532.4126209643717
 20
611.2545814803421
 30
0.0
 11
546.9126209643717
 21
611.2545814803421
 31
0.0
  0
LINE
  5
86D
102
{ACAD_REACTORS
330
B80
102
}
330
1F
100
AcDbEntity
  8
実線
100
AcDbLine
 10
546.9126209643717
 20
611.2545814803421
 30
0.0
 11
546.9126209643717
 21
617.1545814803421
 31
0.0
  0
LINE
  5
86E
102
{ACAD_REACTORS
330
B80
102
}
330
1F
100
AcDbEntity
  8
実線
100
AcDbLine
 10
532.4126209643717
 20
617.1545814803421
 30
0.0
 11
532.4126209643717
 21
611.2545814803421
 31
0.0
  0
LINE
  5
86F
102
{ACAD_REACTORS
330
B80
102
}
330
1F
100
AcDbEntity
  8
実線
100
AcDbLine
 10
575.4040784576717
 20
611.2545814803421
 30
0.0
 11
589.9040784576717
 21
611.2545814803421
 31
0.0
  0
LINE
  5
870
102
{ACAD_REACTORS
330
B80
102
}
330
1F
100
AcDbEntity
  8
実線
100
AcDbLine
 10
589.9040784576717
 20
611.2545814803421
 30
0.0
 11
589.9040784576717
 21
617.1545814803421
 31
0.0
  0
LINE
  5
871
102
{ACAD_REACTORS
330
B80
102
}
330
1F
100
AcDbEntity
  8
実線
100
AcDbLine
 10
575.4040784576717
 20
617.1545814803421
 30
0.0
 11
575.4040784576717
 21
611.2545814803421
 31
0.0
  0
LINE
  5
872
102
{ACAD_REACTORS
330
B80
102
}
330
1F
100
AcDbEntity
  8
実線
100
AcDbLine
 10
593.8107852903661
 20
611.2545814803421
 30
0.0
 11
608.3107852903663
 21
611.2545814803421
 31
0.0
  0
LINE
  5
873
102
{ACAD_REACTORS
330
B80
102
}
330
1F
100
AcDbEntity
  8
実線
100
AcDbLine
 10
608.3107852903663
 20
611.2545814803421
 30
0.0
 11
608.3107852903663
 21
617.1545814803421
 31
0.0
  0
LINE
  5
874
102
{ACAD_REACTORS
330
B80
102
}
330
1F
100
AcDbEntity
  8
実線
100
AcDbLine
 10
593.8107852903661
 20
617.1545814803421
 30
0.0
 11
593.8107852903661
 21
611.2545814803421
 31
0.0
  0
LINE
  5
875
102
{ACAD_REACTORS
330
B80
102
}
330
1F
100
AcDbEntity
  8
実線
100
AcDbLine
 10
636.8022427836661
 20
611.2545814803421
 30
0.0
 11
651.3022427836659
 21
611.2545814803421
 31
0.0
  0
LINE
  5
876
102
{ACAD_REACTORS
330
B80
102
}
330
1F
100
AcDbEntity
  8
実線
100
AcDbLine
 10
651.3022427836659
 20
611.2545814803421
 30
0.0
 11
651.3022427836659
 21
617.1545814803421
 31
0.0
  0
LINE
  5
877
102
{ACAD_REACTORS
330
B80
102
}
330
1F
100
AcDbEntity
  8
実線
100
AcDbLine
 10
636.802242783666
 20
617.1545814803421
 30
0.0
 11
636.802242783666
 21
611.2545814803421
 31
0.0
  0
ELLIPSE
  5
878
102
{ACAD_REACTORS
330
B80
102
}
330
1F
100
AcDbEntity
  8
実線
100
AcDbEllipse
 10
631.0426141607933
 20
670.0545814803421
 30
0.0
 11
0.0
 21
6.0
 31
0.0
210
0.0
220
0.0
230
1.0
 40
0.3420201433256689
 41
1.570796326794897
 42
3.141592653589792
  0
LINE
  5
879
102
{ACAD_REACTORS
330
B80
102
}
330
1F
100
AcDbEntity
  8
実線
100
AcDbLine
 10
636.8880616748895
 20
676.0545814803421
 30
0.0
 11
631.0426141607933
 21
676.0545814803421
 31
0.0
  0
LINE
  5
87A
102
{ACAD_REACTORS
330
B80
102
}
330
1F
100
AcDbEntity
  8
実線
100
AcDbLine
 10
689.3035566495196
 20
676.0545814803421
 30
0.0
 11
645.1380034725818
 21
676.0545814803421
 31
0.0
  0
LINE
  5
87B
102
{ACAD_REACTORS
330
B80
102
}
330
1F
100
AcDbEntity
  8
実線
100
AcDbLine
 10
645.1380034725818
 20
664.0545814803421
 30
0.0
 11
689.3035566495196
 21
664.0545814803421
 31
0.0
  0
LINE
  5
87C
102
{ACAD_REACTORS
330
B80
102
}
330
1F
100
AcDbEntity
  8
実線
100
AcDbLine
 10
631.0426141607933
 20
664.0545814803421
 30
0.0
 11
636.8880616748895
 21
664.0545814803421
 31
0.0
  0
ELLIPSE
  5
87D
102
{ACAD_REACTORS
330
B80
102
}
330
1F
100
AcDbEntity
  8
実線
100
AcDbEllipse
 10
631.0426141607933
 20
670.0545814803421
 30
0.0
 11
0.0
 21
6.0
 31
0.0
210
0.0
220
0.0
230
1.0
 40
0.3420201433256689
 41
0.0
 42
1.570796326794897
  0
ELLIPSE
  5
87E
102
{ACAD_REACTORS
330
B80
102
}
330
1F
100
AcDbEntity
  8
実線
100
AcDbEllipse
 10
689.3035566495196
 20
670.0545814803421
 30
0.0
 11
0.0
 21
6.0
 31
0.0
210
0.0
220
0.0
230
1.0
 40
0.3420201433256689
 41
0.0
 42
3.141592653589792
  0
ELLIPSE
  5
87F
102
{ACAD_REACTORS
330
B80
102
}
330
1F
100
AcDbEntity
  8
実線
100
AcDbEllipse
 10
689.3035566495196
 20
670.0545814803421
 30
0.0
 11
0.0
 21
6.0
 31
0.0
210
0.0
220
0.0
230
1.0
 40
0.3420201433256689
 41
4.71238898038469
 42
6.283185307179584
  0
ELLIPSE
  5
880
102
{ACAD_REACTORS
330
B80
102
}
330
1F
100
AcDbEntity
  8
実線
100
AcDbEllipse
 10
689.3035566495196
 20
670.0545814803421
 30
0.0
 11
0.0
 21
6.0
 31
0.0
210
0.0
220
0.0
230
1.0
 40
0.3420201433256689
 41
3.141592653589792
 42
4.71238898038469
  0
LINE
  5
881
102
{ACAD_REACTORS
330
B80
102
}
330
1F
100
AcDbEntity
  8
実線
100
AcDbLine
 10
601.8346016429027
 20
720.5545814803421
 30
0.0
 11
507.880262105135
 21
720.5545814803421
 31
0.0
  0
LINE
  5
882
102
{ACAD_REACTORS
330
B80
102
}
330
1F
100
AcDbEntity
  8
実線
100
AcDbLine
 10
601.8346016429027
 20
730.5545814803421
 30
0.0
 11
507.880262105135
 21
730.5545814803421
 31
0.0
  0
LINE
  5
883
102
{ACAD_REACTORS
330
B80
102
}
330
1F
100
AcDbEntity
  8
実線
100
AcDbLine
 10
507.880262105135
 20
730.5545814803421
 30
0.0
 11
507.880262105135
 21
720.5545814803421
 31
0.0
  0
LINE
  5
884
102
{ACAD_REACTORS
330
B80
102
}
330
1F
100
AcDbEntity
  8
実線
100
AcDbLine
 10
601.8346016429027
 20
720.5545814803421
 30
0.0
 11
601.8346016429027
 21
730.5545814803421
 31
0.0
  0
LINE
  5
885
102
{ACAD_REACTORS
330
B80
102
}
330
1F
100
AcDbEntity
  8
実線
100
AcDbLine
 10
572.886328684443
 20
730.5545814803421
 30
0.0
 11
572.886328684443
 21
720.5545814803421
 31
0.0
  0
LINE
  5
886
102
{ACAD_REACTORS
330
B80
102
}
330
1F
100
AcDbEntity
  8
実線
100
AcDbLine
 10
536.8285350635948
 20
730.5545814803421
 30
0.0
 11
536.8285350635948
 21
720.5545814803421
 31
0.0
  0
LINE
  5
887
102
{ACAD_REACTORS
330
B80
102
}
330
1F
100
AcDbEntity
  8
実線
100
AcDbLine
 10
574.3574318740188
 20
665.5545814803421
 30
0.0
 11
574.3574318740188
 21
700.5545814803419
 31
0.0
  0
LINE
  5
888
102
{ACAD_REACTORS
330
B80
102
}
330
1F
100
AcDbEntity
  8
実線
100
AcDbLine
 10
609.3574318740187
 20
700.5545814803419
 30
0.0
 11
574.3574318740188
 21
700.5545814803419
 31
0.0
  0
LINE
  5
889
102
{ACAD_REACTORS
330
B80
102
}
330
1F
100
AcDbEntity
  8
実線
100
AcDbLine
 10
609.3574318740187
 20
665.5545814803421
 30
0.0
 11
609.3574318740187
 21
700.5545814803419
 31
0.0
  0
LINE
  5
88A
102
{ACAD_REACTORS
330
B80
102
}
330
1F
100
AcDbEntity
  8
実線
100
AcDbLine
 10
574.3574318740188
 20
665.5545814803421
 30
0.0
 11
609.3574318740187
 21
665.5545814803421
 31
0.0
  0
LINE
  5
88B
102
{ACAD_REACTORS
330
B80
102
}
330
1F
100
AcDbEntity
  8
実線
100
AcDbLine
 10
574.3574318740188
 20
684.0545814803419
 30
0.0
 11
555.4706667989234
 21
684.0545814803419
 31
0.0
  0
LINE
  5
88C
102
{ACAD_REACTORS
330
B80
102
}
330
1F
100
AcDbEntity
  8
実線
100
AcDbLine
 10
631.0074318740188
 20
684.0545814803419
 30
0.0
 11
609.3574318740187
 21
684.0545814803419
 31
0.0
  0
LINE
  5
88D
102
{ACAD_REACTORS
330
B80
102
}
330
1F
100
AcDbEntity
  8
実線
100
AcDbLine
 10
631.0074318740188
 20
676.0536996288997
 30
0.0
 11
631.0074318740188
 21
684.0545814803419
 31
0.0
  0
LINE
  5
88E
102
{ACAD_REACTORS
330
B80
102
}
330
1F
100
AcDbEntity
  8
実線
100
AcDbLine
 10
631.0074318740188
 20
654.554581480342
 30
0.0
 11
631.0074318740188
 21
664.0554633317847
 31
0.0
  0
LINE
  5
88F
102
{ACAD_REACTORS
330
B80
102
}
330
1F
100
AcDbEntity
  8
実線
100
AcDbLine
 10
552.7074318740188
 20
653.3819466200907
 30
0.0
 11
552.7074318740188
 21
653.0545814803421
 31
0.0
  0
LINE
  5
890
102
{ACAD_REACTORS
330
B80
102
}
330
1F
100
AcDbEntity
  8
実線
100
AcDbLine
 10
552.7074318740188
 20
674.4045814803421
 30
0.0
 11
552.7074318740188
 21
673.7272163405934
 31
0.0
  0
LINE
  5
891
102
{ACAD_REACTORS
330
B80
102
}
330
1F
100
AcDbEntity
  8
実線
100
AcDbLine
 10
670.757431874019
 20
723.4045814803421
 30
0.0
 11
601.8346016429027
 21
723.4045814803421
 31
0.0
  0
LINE
  5
892
102
{ACAD_REACTORS
330
B80
102
}
330
1F
100
AcDbEntity
  8
実線
100
AcDbLine
 10
651.9784063390952
 20
681.7045814803422
 30
0.0
 11
670.757431874019
 21
681.7045814803422
 31
0.0
  0
LINE
  5
893
102
{ACAD_REACTORS
330
B80
102
}
330
1F
100
AcDbEntity
  8
実線
100
AcDbLine
 10
631.0074318740188
 20
681.7045814803422
 30
0.0
 11
636.8880616748895
 21
681.7045814803422
 31
0.0
  0
LINE
  5
894
102
{ACAD_REACTORS
330
B80
102
}
330
1F
100
AcDbEntity
  8
実線
100
AcDbLine
 10
670.757431874019
 20
681.7045814803422
 30
0.0
 11
673.107431874019
 21
677.304581480342
 31
0.0
  0
LINE
  5
895
102
{ACAD_REACTORS
330
B80
102
}
330
1F
100
AcDbEntity
  8
実線
100
AcDbLine
 10
673.107431874019
 20
727.8045814803419
 30
0.0
 11
670.757431874019
 21
723.4045814803421
 31
0.0
  0
LINE
  5
896
102
{ACAD_REACTORS
330
B80
102
}
330
1F
100
AcDbEntity
  8
実線
100
AcDbLine
 10
670.757431874019
 20
681.7045814803422
 30
0.0
 11
670.757431874019
 21
723.4045814803421
 31
0.0
  0
LINE
  5
897
102
{ACAD_REACTORS
330
B80
102
}
330
1F
100
AcDbEntity
  8
実線
100
AcDbLine
 10
675.857431874019
 20
727.8045814803419
 30
0.0
 11
673.107431874019
 21
727.8045814803419
 31
0.0
  0
LINE
  5
898
102
{ACAD_REACTORS
330
B80
102
}
330
1F
100
AcDbEntity
  8
実線
100
AcDbLine
 10
673.107431874019
 20
677.304581480342
 30
0.0
 11
675.857431874019
 21
677.304581480342
 31
0.0
  0
LINE
  5
899
102
{ACAD_REACTORS
330
B80
102
}
330
1F
100
AcDbEntity
  8
実線
100
AcDbLine
 10
675.857431874019
 20
727.8045814803419
 30
0.0
 11
675.857431874019
 21
677.304581480342
 31
0.0
  0
LINE
  5
89A
102
{ACAD_REACTORS
330
B80
102
}
330
1F
100
AcDbEntity
  8
実線
100
AcDbLine
 10
673.107431874019
 20
727.8045814803419
 30
0.0
 11
673.107431874019
 21
677.304581480342
 31
0.0
  0
LINE
  5
89B
102
{ACAD_REACTORS
330
B80
102
}
330
1F
100
AcDbEntity
  8
実線
100
AcDbLine
 10
485.9574318740189
 20
642.704581480342
 30
0.0
 11
529.3574318740187
 21
642.704581480342
 31
0.0
  0
LINE
  5
89C
102
{ACAD_REACTORS
330
B80
102
}
330
1F
100
AcDbEntity
  8
実線
100
AcDbLine
 10
522.0756663095093
 20
684.4045814803421
 30
0.0
 11
485.9574318740189
 21
684.4045814803421
 31
0.0
  0
LINE
  5
89D
102
{ACAD_REACTORS
330
B80
102
}
330
1F
100
AcDbEntity
  8
実線
100
AcDbLine
 10
480.8574318740189
 20
638.3045814803422
 30
0.0
 11
483.6074318740188
 21
638.3045814803422
 31
0.0
  0
LINE
  5
89E
102
{ACAD_REACTORS
330
B80
102
}
330
1F
100
AcDbEntity
  8
実線
100
AcDbLine
 10
483.6074318740188
 20
688.8045814803421
 30
0.0
 11
480.8574318740189
 21
688.8045814803421
 31
0.0
  0
LINE
  5
89F
102
{ACAD_REACTORS
330
B80
102
}
330
1F
100
AcDbEntity
  8
実線
100
AcDbLine
 10
480.8574318740189
 20
688.8045814803421
 30
0.0
 11
480.8574318740189
 21
638.3045814803422
 31
0.0
  0
LINE
  5
8A0
102
{ACAD_REACTORS
330
B80
102
}
330
1F
100
AcDbEntity
  8
実線
100
AcDbLine
 10
485.9574318740189
 20
684.4045814803421
 30
0.0
 11
483.6074318740188
 21
688.8045814803421
 31
0.0
  0
LINE
  5
8A1
102
{ACAD_REACTORS
330
B80
102
}
330
1F
100
AcDbEntity
  8
実線
100
AcDbLine
 10
483.6074318740188
 20
638.3045814803422
 30
0.0
 11
485.9574318740189
 21
642.704581480342
 31
0.0
  0
LINE
  5
8A2
102
{ACAD_REACTORS
330
B80
102
}
330
1F
100
AcDbEntity
  8
実線
100
AcDbLine
 10
483.6074318740188
 20
688.8045814803421
 30
0.0
 11
483.6074318740188
 21
638.3045814803422
 31
0.0
  0
LINE
  5
8A3
102
{ACAD_REACTORS
330
B80
102
}
330
1F
100
AcDbEntity
  8
実線
100
AcDbLine
 10
485.9574318740189
 20
684.4045814803421
 30
0.0
 11
485.9574318740189
 21
642.704581480342
 31
0.0
  0
LINE
  5
8A4
102
{ACAD_REACTORS
330
B80
102
}
330
1F
100
AcDbEntity
  8
実線
100
AcDbLine
 10
604.8574318740187
 20
890.5545814803415
 30
0.0
 11
504.8574318740188
 21
890.5545814803415
 31
0.0
  0
LINE
  5
8A5
102
{ACAD_REACTORS
330
B80
102
}
330
1F
100
AcDbEntity
  8
実線
100
AcDbLine
 10
504.8574318740188
 20
814.5545814803424
 30
0.0
 11
604.8574318740187
 21
814.5545814803424
 31
0.0
  0
LINE
  5
8A6
102
{ACAD_REACTORS
330
B80
102
}
330
1F
100
AcDbEntity
  8
実線
100
AcDbLine
 10
604.8574318740187
 20
814.5545814803424
 30
0.0
 11
604.8574318740187
 21
890.5545814803415
 31
0.0
  0
LINE
  5
8A7
102
{ACAD_REACTORS
330
B80
102
}
330
1F
100
AcDbEntity
  8
実線
100
AcDbLine
 10
504.8574318740188
 20
890.5545814803415
 30
0.0
 11
504.8574318740188
 21
814.5545814803424
 31
0.0
  0
LINE
  5
8A8
102
{ACAD_REACTORS
330
B80
102
}
330
1F
100
AcDbEntity
  8
実線
100
AcDbLine
 10
601.8346016429027
 20
744.0545814803421
 30
0.0
 11
507.880262105135
 21
744.0545814803421
 31
0.0
  0
LINE
  5
8A9
102
{ACAD_REACTORS
330
B80
102
}
330
1F
100
AcDbEntity
  8
実線
100
AcDbLine
 10
507.880262105135
 20
744.0545814803421
 30
0.0
 11
507.880262105135
 21
730.5545814803421
 31
0.0
  0
LINE
  5
8AA
102
{ACAD_REACTORS
330
B80
102
}
330
1F
100
AcDbEntity
  8
実線
100
AcDbLine
 10
601.8346016429027
 20
730.5545814803421
 30
0.0
 11
601.8346016429027
 21
744.0545814803421
 31
0.0
  0
LINE
  5
8AB
102
{ACAD_REACTORS
330
B80
102
}
330
1F
100
AcDbEntity
  8
実線
100
AcDbLine
 10
572.886328684443
 20
744.0545814803421
 30
0.0
 11
572.886328684443
 21
730.5545814803421
 31
0.0
  0
LINE
  5
8AC
102
{ACAD_REACTORS
330
B80
102
}
330
1F
100
AcDbEntity
  8
実線
100
AcDbLine
 10
536.8285350635948
 20
744.0545814803421
 30
0.0
 11
536.8285350635948
 21
730.5545814803421
 31
0.0
  0
LINE
  5
8AD
102
{ACAD_REACTORS
330
B80
102
}
330
1F
100
AcDbEntity
  8
実線
100
AcDbLine
 10
560.8574318740188
 20
744.0545814803421
 30
0.0
 11
560.8574318740188
 21
771.054581480342
 31
0.0
  0
LINE
  5
8AE
102
{ACAD_REACTORS
330
B80
102
}
330
1F
100
AcDbEntity
  8
実線
100
AcDbLine
 10
548.8574318740188
 20
771.054581480342
 30
0.0
 11
548.8574318740188
 21
744.0545814803421
 31
0.0
  0
LINE
  5
8AF
102
{ACAD_REACTORS
330
B80
102
}
330
1F
100
AcDbEntity
  8
実線
100
AcDbLine
 10
542.3574318740187
 20
934.0545814803416
 30
0.0
 11
567.3574318740187
 21
934.0545814803416
 31
0.0
  0
LINE
  5
8B0
102
{ACAD_REACTORS
330
B80
102
}
330
1F
100
AcDbEntity
  8
実線
100
AcDbLine
 10
567.3574318740187
 20
939.0545814803417
 30
0.0
 11
542.3574318740187
 21
939.0545814803417
 31
0.0
  0
LINE
  5
8B1
102
{ACAD_REACTORS
330
B80
102
}
330
1F
100
AcDbEntity
  8
実線
100
AcDbLine
 10
567.3574318740187
 20
934.0545814803416
 30
0.0
 11
567.3574318740187
 21
939.0545814803417
 31
0.0
  0
LINE
  5
8B2
102
{ACAD_REACTORS
330
B80
102
}
330
1F
100
AcDbEntity
  8
実線
100
AcDbLine
 10
542.3574318740187
 20
939.0545814803417
 30
0.0
 11
542.3574318740187
 21
934.0545814803416
 31
0.0
  0
LINE
  5
8B3
102
{ACAD_REACTORS
330
B80
102
}
330
1F
100
AcDbEntity
  8
実線
100
AcDbLine
 10
567.957431874019
 20
921.1045814803425
 30
0.0
 11
567.957431874019
 21
929.0045814803416
 31
0.0
  0
LINE
  5
8B4
102
{ACAD_REACTORS
330
B80
102
}
330
1F
100
AcDbEntity
  8
実線
100
AcDbLine
 10
567.957431874019
 20
929.0045814803416
 30
0.0
 11
575.857431874019
 21
929.0045814803416
 31
0.0
  0
LINE
  5
8B5
102
{ACAD_REACTORS
330
B80
102
}
330
1F
100
AcDbEntity
  8
実線
100
AcDbLine
 10
575.857431874019
 20
921.1045814803425
 30
0.0
 11
567.957431874019
 21
921.1045814803425
 31
0.0
  0
LINE
  5
8B6
102
{ACAD_REACTORS
330
B80
102
}
330
1F
100
AcDbEntity
  8
実線
100
AcDbLine
 10
567.957431874019
 20
940.5045814803427
 30
0.0
 11
575.857431874019
 21
940.5045814803427
 31
0.0
  0
LINE
  5
8B7
102
{ACAD_REACTORS
330
B80
102
}
330
1F
100
AcDbEntity
  8
実線
100
AcDbLine
 10
567.957431874019
 20
932.6045814803427
 30
0.0
 11
567.957431874019
 21
940.5045814803427
 31
0.0
  0
LINE
  5
8B8
102
{ACAD_REACTORS
330
B80
102
}
330
1F
100
AcDbEntity
  8
実線
100
AcDbLine
 10
575.857431874019
 20
932.6045814803427
 30
0.0
 11
567.957431874019
 21
932.6045814803427
 31
0.0
  0
LINE
  5
8B9
102
{ACAD_REACTORS
330
B80
102
}
330
1F
100
AcDbEntity
  8
実線
100
AcDbLine
 10
562.3574318740187
 20
944.3545814803425
 30
0.0
 11
547.3574318740189
 21
944.3545814803425
 31
0.0
  0
LINE
  5
8BA
102
{ACAD_REACTORS
330
B80
102
}
330
1F
100
AcDbEntity
  8
実線
100
AcDbLine
 10
562.3574318740187
 20
939.0545814803417
 30
0.0
 11
562.3574318740187
 21
944.3545814803425
 31
0.0
  0
LINE
  5
8BB
102
{ACAD_REACTORS
330
B80
102
}
330
1F
100
AcDbEntity
  8
実線
100
AcDbLine
 10
547.3574318740189
 20
944.3545814803425
 30
0.0
 11
547.3574318740189
 21
939.0545814803417
 31
0.0
  0
LINE
  5
8BC
102
{ACAD_REACTORS
330
B80
102
}
330
1F
100
AcDbEntity
  8
実線
100
AcDbLine
 10
529.8574318740187
 20
910.5545814803427
 30
0.0
 11
579.8574318740187
 21
910.5545814803427
 31
0.0
  0
LINE
  5
8BD
102
{ACAD_REACTORS
330
B80
102
}
330
1F
100
AcDbEntity
  8
実線
100
AcDbLine
 10
579.8574318740187
 20
905.5545814803416
 30
0.0
 11
579.8574318740187
 21
910.5545814803427
 31
0.0
  0
LINE
  5
8BE
102
{ACAD_REACTORS
330
B80
102
}
330
1F
100
AcDbEntity
  8
実線
100
AcDbLine
 10
529.8574318740187
 20
910.5545814803427
 30
0.0
 11
529.8574318740187
 21
905.5545814803416
 31
0.0
  0
LINE
  5
8BF
102
{ACAD_REACTORS
330
B80
102
}
330
1F
100
AcDbEntity
  8
実線
100
AcDbLine
 10
560.8574318740188
 20
912.5545814803412
 30
0.0
 11
560.8574318740188
 21
934.0545814803416
 31
0.0
  0
LINE
  5
8C0
102
{ACAD_REACTORS
330
B80
102
}
330
1F
100
AcDbEntity
  8
実線
100
AcDbLine
 10
548.8574318740188
 20
934.0545814803416
 30
0.0
 11
548.8574318740188
 21
912.5545814803412
 31
0.0
  0
LINE
  5
8C1
102
{ACAD_REACTORS
330
B80
102
}
330
1F
100
AcDbEntity
  8
実線
100
AcDbLine
 10
589.8574318740187
 20
905.5545814803416
 30
0.0
 11
519.8574318740188
 21
905.5545814803416
 31
0.0
  0
LINE
  5
8C2
102
{ACAD_REACTORS
330
B80
102
}
330
1F
100
AcDbEntity
  8
実線
100
AcDbLine
 10
589.8574318740187
 20
895.0545814803415
 30
0.0
 11
589.8574318740187
 21
905.5545814803416
 31
0.0
  0
LINE
  5
8C3
102
{ACAD_REACTORS
330
B80
102
}
330
1F
100
AcDbEntity
  8
実線
100
AcDbLine
 10
519.8574318740188
 20
905.5545814803416
 30
0.0
 11
519.8574318740188
 21
895.0545814803415
 31
0.0
  0
LINE
  5
8C4
102
{ACAD_REACTORS
330
B80
102
}
330
1F
100
AcDbEntity
  8
実線
100
AcDbLine
 10
507.8574318740188
 20
895.0545814803415
 30
0.0
 11
601.8574318696752
 21
895.0545814803415
 31
0.0
  0
ARC
  5
8C5
102
{ACAD_REACTORS
330
B80
102
}
330
1F
100
AcDbEntity
  8
実線
100
AcDbCircle
 10
601.8574318740188
 20
892.0545814803416
 30
0.0
 40
3.0
100
AcDbArc
 50
0.0
 51
90.0
  0
ARC
  5
8C6
102
{ACAD_REACTORS
330
B80
102
}
330
1F
100
AcDbEntity
  8
実線
100
AcDbCircle
 10
507.8574318740188
 20
892.0545814803416
 30
0.0
 40
3.0
100
AcDbArc
 50
90.0
 51
180.0
  0
LINE
  5
8C7
102
{ACAD_REACTORS
330
B80
102
}
330
1F
100
AcDbEntity
  8
実線
100
AcDbLine
 10
604.8574318740187
 20
890.5545814803415
 30
0.0
 11
604.8574318740187
 21
892.0545814803416
 31
0.0
  0
LINE
  5
8C8
102
{ACAD_REACTORS
330
B80
102
}
330
1F
100
AcDbEntity
  8
実線
100
AcDbLine
 10
504.8574318740188
 20
892.0545814803416
 30
0.0
 11
504.8574318740188
 21
890.5545814803415
 31
0.0
  0
ARC
  5
8C9
102
{ACAD_REACTORS
330
B80
102
}
330
1F
100
AcDbEntity
  8
実線
100
AcDbCircle
 10
529.1574318740186
 20
785.0545814803415
 30
0.0
 40
70.00000000000003
100
AcDbArc
 50
324.1465329365346
 51
0.0
  0
LINE
  5
8CA
102
{ACAD_REACTORS
330
B80
102
}
330
1F
100
AcDbEntity
  8
実線
100
AcDbLine
 10
599.1574318740187
 20
814.5545814803424
 30
0.0
 11
599.1574318740187
 21
785.0545814803415
 31
0.0
  0
ARC
  5
8CB
102
{ACAD_REACTORS
330
B80
102
}
330
1F
100
AcDbEntity
  8
実線
100
AcDbCircle
 10
531.157431874019
 20
785.0545814803415
 30
0.0
 40
57.99999999999997
100
AcDbArc
 50
315.0170320400964
 51
346.0320373253457
  0
LINE
  5
8CC
102
{ACAD_REACTORS
330
B80
102
}
330
1F
100
AcDbEntity
  8
実線
100
AcDbLine
 10
510.557431874019
 20
814.5545814803424
 30
0.0
 11
510.557431874019
 21
785.0545814803415
 31
0.0
  0
ARC
  5
8CD
102
{ACAD_REACTORS
330
B80
102
}
330
1F
100
AcDbEntity
  8
実線
100
AcDbCircle
 10
578.5574318740189
 20
785.0545814803415
 30
0.0
 40
57.99999999999997
100
AcDbArc
 50
193.9679626746542
 51
224.9829679599036
  0
ARC
  5
8CE
102
{ACAD_REACTORS
330
B80
102
}
330
1F
100
AcDbEntity
  8
実線
100
AcDbCircle
 10
580.5574318740191
 20
785.0545814803415
 30
0.0
 40
70.00000000000003
100
AcDbArc
 50
180.0
 51
215.8534670634663
  0
LINE
  5
8CF
102
{ACAD_REACTORS
330
B80
102
}
330
1F
100
AcDbEntity
  8
実線
100
AcDbLine
 10
516.4720505420587
 20
814.5545814803424
 30
0.0
 11
516.4720505420587
 21
771.054581480342
 31
0.0
  0
LINE
  5
8D0
102
{ACAD_REACTORS
330
B80
102
}
330
1F
100
AcDbEntity
  8
実線
100
AcDbLine
 10
516.4720505420587
 20
771.054581480342
 30
0.0
 11
593.2428132059791
 21
771.054581480342
 31
0.0
  0
LINE
  5
8D1
102
{ACAD_REACTORS
330
B80
102
}
330
1F
100
AcDbEntity
  8
実線
100
AcDbLine
 10
593.2428132059791
 20
814.5545814803424
 30
0.0
 11
593.2428132059791
 21
771.054581480342
 31
0.0
  0
LINE
  5
8D2
102
{ACAD_REACTORS
330
B80
102
}
330
1F
100
AcDbEntity
  8
実線
100
AcDbLine
 10
654.357431874019
 20
641.0545814803422
 30
0.0
 11
529.3574318740187
 21
641.0545814803422
 31
0.0
  0
LINE
  5
8D3
102
{ACAD_REACTORS
330
B80
102
}
330
1F
100
AcDbEntity
  8
実線
100
AcDbLine
 10
529.3574318740187
 20
653.0545814803421
 30
0.0
 11
654.357431874019
 21
653.0545814803421
 31
0.0
  0
LINE
  5
8D4
102
{ACAD_REACTORS
330
B80
102
}
330
1F
100
AcDbEntity
  8
実線
100
AcDbLine
 10
529.3574318740187
 20
653.0545814803421
 30
0.0
 11
529.3574318740187
 21
641.0545814803422
 31
0.0
  0
LINE
  5
8D5
102
{ACAD_REACTORS
330
B80
102
}
330
1F
100
AcDbEntity
  8
実線
100
AcDbLine
 10
654.357431874019
 20
641.0545814803422
 30
0.0
 11
654.357431874019
 21
653.0545814803421
 31
0.0
  0
LINE
  5
8D6
102
{ACAD_REACTORS
330
B80
102
}
330
1F
100
AcDbEntity
  8
実線
100
AcDbLine
 10
559.3574318740187
 20
641.0545814803422
 30
0.0
 11
559.3574318740187
 21
653.0545814803421
 31
0.0
  0
LINE
  5
8D7
102
{ACAD_REACTORS
330
B80
102
}
330
1F
100
AcDbEntity
  8
実線
100
AcDbLine
 10
624.3574318740188
 20
653.0545814803421
 30
0.0
 11
624.3574318740188
 21
641.0545814803422
 31
0.0
  0
LINE
  5
8D8
102
{ACAD_REACTORS
330
B80
102
}
330
1F
100
AcDbEntity
  8
実線
100
AcDbLine
 10
636.8880616748895
 20
683.0545814803421
 30
0.0
 11
651.9784063390952
 21
683.0545814803421
 31
0.0
  0
LINE
  5
8D9
102
{ACAD_REACTORS
330
B80
102
}
330
1F
100
AcDbEntity
  8
実線
100
AcDbLine
 10
636.8880616748895
 20
654.554581480342
 30
0.0
 11
636.8880616748895
 21
683.0545814803421
 31
0.0
  0
LINE
  5
8DA
102
{ACAD_REACTORS
330
B80
102
}
330
1F
100
AcDbEntity
  8
実線
100
AcDbLine
 10
636.8880616748895
 20
654.554581480342
 30
0.0
 11
624.2022112942797
 21
654.554581480342
 31
0.0
  0
LINE
  5
8DB
102
{ACAD_REACTORS
330
B80
102
}
330
1F
100
AcDbEntity
  8
実線
100
AcDbLine
 10
624.2022112942797
 20
653.0545814803422
 30
0.0
 11
624.2022112942797
 21
654.554581480342
 31
0.0
  0
LINE
  5
8DC
102
{ACAD_REACTORS
330
B80
102
}
330
1F
100
AcDbEntity
  8
実線
100
AcDbLine
 10
651.9784063390952
 20
676.0545814803421
 30
0.0
 11
651.9784063390952
 21
683.0545814803421
 31
0.0
  0
LINE
  5
8DD
102
{ACAD_REACTORS
330
B80
102
}
330
1F
100
AcDbEntity
  8
実線
100
AcDbLine
 10
651.9784063390952
 20
653.0545814803422
 30
0.0
 11
651.9784063390952
 21
664.0545814803421
 31
0.0
  0
LINE
  5
8DE
102
{ACAD_REACTORS
330
B80
102
}
330
1F
100
AcDbEntity
  8
実線
100
AcDbLine
 10
638.2976006060682
 20
653.0545814803422
 30
0.0
 11
638.2976006060682
 21
683.0545814803421
 31
0.0
  0
LINE
  5
8DF
102
{ACAD_REACTORS
330
B80
102
}
330
1F
100
AcDbEntity
  8
実線
100
AcDbLine
 10
629.8574318740187
 20
684.0545814803419
 30
0.0
 11
629.8574318740187
 21
713.0545814803419
 31
0.0
  0
LINE
  5
8E0
102
{ACAD_REACTORS
330
B80
102
}
330
1F
100
AcDbEntity
  8
実線
100
AcDbLine
 10
629.8574318740187
 20
713.0545814803419
 30
0.0
 11
582.6110921878126
 21
713.0545814803419
 31
0.0
  0
LINE
  5
8E1
102
{ACAD_REACTORS
330
B80
102
}
330
1F
100
AcDbEntity
  8
実線
100
AcDbLine
 10
552.7074318740188
 20
674.4045814803421
 30
0.0
 11
549.3405664298404
 21
674.4045814803421
 31
0.0
  0
ARC
  5
8E2
102
{ACAD_REACTORS
330
B80
102
}
330
1F
100
AcDbEntity
  8
実線
100
AcDbCircle
 10
536.2178019332402
 20
689.4045814803421
 30
0.0
 40
15.0
100
AcDbArc
 50
191.7092572469085
 51
199.4712206344914
  0
LINE
  5
8E3
102
{ACAD_REACTORS
330
B80
102
}
330
1F
100
AcDbEntity
  8
実線
100
AcDbLine
 10
594.8345056065343
 20
718.4439647282848
 30
0.0
 11
594.8574318740188
 21
718.5545814803421
 31
0.0
  0
LINE
  5
8E4
102
{ACAD_REACTORS
330
B80
102
}
330
1F
100
AcDbEntity
  8
実線
100
AcDbLine
 10
514.8574318740188
 20
718.5545814803421
 30
0.0
 11
521.5299514290697
 21
686.3603989025168
 31
0.0
  0
LINE
  5
8E5
102
{ACAD_REACTORS
330
B80
102
}
330
1F
100
AcDbEntity
  8
実線
100
AcDbLine
 10
594.8574318740188
 20
718.5545814803421
 30
0.0
 11
594.8574318740188
 21
720.5545814803421
 31
0.0
  0
LINE
  5
8E6
102
{ACAD_REACTORS
330
B80
102
}
330
1F
100
AcDbEntity
  8
実線
100
AcDbLine
 10
514.8574318740188
 20
720.5545814803421
 30
0.0
 11
514.8574318740188
 21
718.5545814803421
 31
0.0
  0
LINE
  5
8E7
102
{ACAD_REACTORS
330
B80
102
}
330
1F
100
AcDbEntity
  8
実線
100
AcDbLine
 10
594.8574318740188
 20
718.5545814803421
 30
0.0
 11
514.8574318740188
 21
718.5545814803421
 31
0.0
  0
LINE
  5
8E8
102
{ACAD_REACTORS
330
B80
102
}
330
1F
100
AcDbEntity
  8
実線
100
AcDbLine
 10
654.357431874019
 20
628.7545814803422
 30
0.0
 11
654.357431874019
 21
641.0545814803422
 31
0.0
  0
LINE
  5
8E9
102
{ACAD_REACTORS
330
B80
102
}
330
1F
100
AcDbEntity
  8
実線
100
AcDbLine
 10
529.3574318740187
 20
641.0545814803422
 30
0.0
 11
529.3574318740187
 21
628.7545814803422
 31
0.0
  0
LINE
  5
8EA
102
{ACAD_REACTORS
330
B80
102
}
330
1F
100
AcDbEntity
  8
実線
100
AcDbLine
 10
654.357431874019
 20
628.7545814803422
 30
0.0
 11
529.3574318740187
 21
628.7545814803422
 31
0.0
  0
LINE
  5
8EB
102
{ACAD_REACTORS
330
B80
102
}
330
1F
100
AcDbEntity
  8
実線
100
AcDbLine
 10
575.857431874019
 20
912.5545814802944
 30
0.0
 11
529.8574318740187
 21
912.5545814802944
 31
0.0
  0
LINE
  5
8EC
102
{ACAD_REACTORS
330
B80
102
}
330
1F
100
AcDbEntity
  8
実線
100
AcDbLine
 10
577.8574318740188
 20
910.5545814803427
 30
0.0
 11
577.8574318740188
 21
941.5545814803417
 31
0.0
  0
LINE
  5
8ED
102
{ACAD_REACTORS
330
B80
102
}
330
1F
100
AcDbEntity
  8
実線
100
AcDbLine
 10
577.8574318740188
 20
941.5545814803417
 30
0.0
 11
575.857431874019
 21
941.5545814803417
 31
0.0
  0
LINE
  5
8EE
102
{ACAD_REACTORS
330
B80
102
}
330
1F
100
AcDbEntity
  8
実線
100
AcDbLine
 10
575.857431874019
 20
941.5545814803417
 30
0.0
 11
575.857431874019
 21
912.5545814802944
 31
0.0
  0
LINE
  5
8EF
102
{ACAD_REACTORS
330
B80
102
}
330
1F
100
AcDbEntity
  8
実線
100
AcDbLine
 10
574.8574318740188
 20
912.5545814803412
 30
0.0
 11
574.8574318740188
 21
910.5545814803427
 31
0.0
  0
LINE
  5
8F0
102
{ACAD_REACTORS
330
B80
102
}
330
1F
100
AcDbEntity
  8
実線
100
AcDbLine
 10
529.8574318740187
 20
912.5545814803412
 30
0.0
 11
529.8574318740187
 21
910.5545814803427
 31
0.0
  0
LINE
  5
8F3
102
{ACAD_REACTORS
330
B85
102
}
330
1F
100
AcDbEntity
  8
実線
100
AcDbLine
 10
530.6626209643718
 20
349.954581480342
 30
0.0
 11
530.6626209643718
 21
338.354581480342
 31
0.0
  0
LINE
  5
8F4
102
{ACAD_REACTORS
330
B85
102
}
330
1F
100
AcDbEntity
  8
実線
100
AcDbLine
 10
548.6626209643718
 20
338.354581480342
 30
0.0
 11
548.6626209643718
 21
349.954581480342
 31
0.0
  0
LINE
  5
8F5
102
{ACAD_REACTORS
330
B85
102
}
330
1F
100
AcDbEntity
  8
実線
100
AcDbLine
 10
548.6626209643718
 20
349.954581480342
 30
0.0
 11
530.6626209643718
 21
349.954581480342
 31
0.0
  0
LINE
  5
8F6
102
{ACAD_REACTORS
330
B85
102
}
330
1F
100
AcDbEntity
  8
実線
100
AcDbLine
 10
635.052242783666
 20
349.954581480342
 30
0.0
 11
635.052242783666
 21
338.354581480342
 31
0.0
  0
LINE
  5
8F7
102
{ACAD_REACTORS
330
B85
102
}
330
1F
100
AcDbEntity
  8
実線
100
AcDbLine
 10
653.0522427836659
 20
338.354581480342
 30
0.0
 11
653.0522427836659
 21
349.954581480342
 31
0.0
  0
LINE
  5
8F8
102
{ACAD_REACTORS
330
B85
102
}
330
1F
100
AcDbEntity
  8
実線
100
AcDbLine
 10
635.052242783666
 20
349.954581480342
 30
0.0
 11
653.0522427836659
 21
349.954581480342
 31
0.0
  0
LINE
  5
8F9
102
{ACAD_REACTORS
330
B85
102
}
330
1F
100
AcDbEntity
  8
実線
100
AcDbLine
 10
573.6540784576715
 20
349.954581480342
 30
0.0
 11
573.6540784576715
 21
338.354581480342
 31
0.0
  0
LINE
  5
8FA
102
{ACAD_REACTORS
330
B85
102
}
330
1F
100
AcDbEntity
  8
実線
100
AcDbLine
 10
591.6540784576717
 20
338.354581480342
 30
0.0
 11
591.6540784576717
 21
349.954581480342
 31
0.0
  0
LINE
  5
8FB
102
{ACAD_REACTORS
330
B85
102
}
330
1F
100
AcDbEntity
  8
実線
100
AcDbLine
 10
591.6540784576717
 20
349.954581480342
 30
0.0
 11
573.6540784576715
 21
349.954581480342
 31
0.0
  0
LINE
  5
8FC
102
{ACAD_REACTORS
330
B85
102
}
330
1F
100
AcDbEntity
  8
実線
100
AcDbLine
 10
592.0607852903663
 20
349.954581480342
 30
0.0
 11
592.0607852903663
 21
338.354581480342
 31
0.0
  0
LINE
  5
8FD
102
{ACAD_REACTORS
330
B85
102
}
330
1F
100
AcDbEntity
  8
実線
100
AcDbLine
 10
610.0607852903663
 20
338.354581480342
 30
0.0
 11
610.0607852903663
 21
349.954581480342
 31
0.0
  0
LINE
  5
8FE
102
{ACAD_REACTORS
330
B85
102
}
330
1F
100
AcDbEntity
  8
実線
100
AcDbLine
 10
610.0607852903663
 20
349.954581480342
 30
0.0
 11
592.0607852903663
 21
349.954581480342
 31
0.0
  0
LINE
  5
8FF
102
{ACAD_REACTORS
330
B85
102
}
330
1F
100
AcDbEntity
  8
実線
100
AcDbLine
 10
532.4126209643717
 20
355.8545814803421
 30
0.0
 11
532.4126209643717
 21
349.9545814803422
 31
0.0
  0
LINE
  5
900
102
{ACAD_REACTORS
330
B85
102
}
330
1F
100
AcDbEntity
  8
実線
100
AcDbLine
 10
546.9126209643717
 20
349.954581480342
 30
0.0
 11
546.9126209643717
 21
355.8545814803421
 31
0.0
  0
LINE
  5
901
102
{ACAD_REACTORS
330
B85
102
}
330
1F
100
AcDbEntity
  8
実線
100
AcDbLine
 10
546.9126209643717
 20
355.8545814803421
 30
0.0
 11
532.4126209643717
 21
355.8545814803421
 31
0.0
  0
LINE
  5
902
102
{ACAD_REACTORS
330
B85
102
}
330
1F
100
AcDbEntity
  8
実線
100
AcDbLine
 10
575.4040784576717
 20
355.8545814803421
 30
0.0
 11
575.4040784576717
 21
349.9545814803422
 31
0.0
  0
LINE
  5
903
102
{ACAD_REACTORS
330
B85
102
}
330
1F
100
AcDbEntity
  8
実線
100
AcDbLine
 10
589.9040784576717
 20
349.954581480342
 30
0.0
 11
589.9040784576717
 21
355.8545814803421
 31
0.0
  0
LINE
  5
904
102
{ACAD_REACTORS
330
B85
102
}
330
1F
100
AcDbEntity
  8
実線
100
AcDbLine
 10
589.9040784576717
 20
355.8545814803421
 30
0.0
 11
575.4040784576717
 21
355.8545814803421
 31
0.0
  0
LINE
  5
905
102
{ACAD_REACTORS
330
B85
102
}
330
1F
100
AcDbEntity
  8
実線
100
AcDbLine
 10
593.8107852903661
 20
355.8545814803421
 30
0.0
 11
593.8107852903661
 21
349.9545814803422
 31
0.0
  0
LINE
  5
906
102
{ACAD_REACTORS
330
B85
102
}
330
1F
100
AcDbEntity
  8
実線
100
AcDbLine
 10
608.3107852903663
 20
349.954581480342
 30
0.0
 11
608.3107852903663
 21
355.8545814803421
 31
0.0
  0
LINE
  5
907
102
{ACAD_REACTORS
330
B85
102
}
330
1F
100
AcDbEntity
  8
実線
100
AcDbLine
 10
608.3107852903663
 20
355.8545814803421
 30
0.0
 11
593.8107852903661
 21
355.8545814803421
 31
0.0
  0
LINE
  5
908
102
{ACAD_REACTORS
330
B85
102
}
330
1F
100
AcDbEntity
  8
実線
100
AcDbLine
 10
636.802242783666
 20
355.8545814803421
 30
0.0
 11
636.802242783666
 21
349.9545814803422
 31
0.0
  0
LINE
  5
909
102
{ACAD_REACTORS
330
B85
102
}
330
1F
100
AcDbEntity
  8
実線
100
AcDbLine
 10
651.3022427836659
 20
349.954581480342
 30
0.0
 11
651.3022427836659
 21
355.8545814803421
 31
0.0
  0
LINE
  5
90A
102
{ACAD_REACTORS
330
B85
102
}
330
1F
100
AcDbEntity
  8
実線
100
AcDbLine
 10
636.8022427836661
 20
355.8545814803421
 30
0.0
 11
651.3022427836659
 21
355.8545814803421
 31
0.0
  0
ELLIPSE
  5
90B
102
{ACAD_REACTORS
330
B85
102
}
330
1F
100
AcDbEntity
  8
実線
100
AcDbEllipse
 10
631.0426141607933
 20
297.0545814803422
 30
0.0
 11
0.0
 21
6.0
 31
0.0
210
0.0
220
0.0
230
1.0
 40
0.3420201433256689
 41
0.0
 42
0.0171451941276242
  0
ELLIPSE
  5
90C
102
{ACAD_REACTORS
330
B85
102
}
330
1F
100
AcDbEntity
  8
実線
100
AcDbEllipse
 10
689.3035566495196
 20
297.0545814803422
 30
0.0
 11
0.0
 21
6.0
 31
0.0
210
0.0
220
0.0
230
1.0
 40
0.3420201433256689
 41
4.71238898038469
 42
6.283185307179584
  0
LINE
  5
90D
102
{ACAD_REACTORS
330
B85
102
}
330
1F
100
AcDbEntity
  8
実線
100
AcDbLine
 10
643.7284645414028
 20
303.054581480342
 30
0.0
 11
631.0426141607933
 21
303.054581480342
 31
0.0
  0
LINE
  5
90E
102
{ACAD_REACTORS
330
B85
102
}
330
1F
100
AcDbEntity
  8
実線
100
AcDbLine
 10
689.3035566495196
 20
303.054581480342
 30
0.0
 11
651.9784063390952
 21
303.054581480342
 31
0.0
  0
LINE
  5
90F
102
{ACAD_REACTORS
330
B85
102
}
330
1F
100
AcDbEntity
  8
実線
100
AcDbLine
 10
651.9784063390952
 20
291.054581480342
 30
0.0
 11
689.3035566495196
 21
291.054581480342
 31
0.0
  0
LINE
  5
910
102
{ACAD_REACTORS
330
B85
102
}
330
1F
100
AcDbEntity
  8
実線
100
AcDbLine
 10
631.0426141607933
 20
291.054581480342
 30
0.0
 11
643.7284645414028
 21
291.054581480342
 31
0.0
  0
ELLIPSE
  5
911
102
{ACAD_REACTORS
330
B85
102
}
330
1F
100
AcDbEntity
  8
実線
100
AcDbEllipse
 10
631.0426141607933
 20
297.0545814803422
 30
0.0
 11
0.0
 21
6.0
 31
0.0
210
0.0
220
0.0
230
1.0
 40
0.3420201433256689
 41
3.141592653589792
 42
6.283185307179584
  0
ELLIPSE
  5
912
102
{ACAD_REACTORS
330
B85
102
}
330
1F
100
AcDbEntity
  8
実線
100
AcDbEllipse
 10
631.0426141607933
 20
297.0545814803422
 30
0.0
 11
0.0
 21
6.0
 31
0.0
210
0.0
220
0.0
230
1.0
 40
0.3420201433256689
 41
3.12444745946217
 42
3.141592653589792
  0
ELLIPSE
  5
913
102
{ACAD_REACTORS
330
B85
102
}
330
1F
100
AcDbEntity
  8
実線
100
AcDbEllipse
 10
689.3035566495196
 20
297.0545814803422
 30
0.0
 11
0.0
 21
6.0
 31
0.0
210
0.0
220
0.0
230
1.0
 40
0.3420201433256689
 41
3.141592653589792
 42
4.71238898038469
  0
LINE
  5
914
102
{ACAD_REACTORS
330
B85
102
}
330
1F
100
AcDbEntity
  8
実線
100
AcDbLine
 10
534.8574318740189
 20
303.5545814803422
 30
0.0
 11
534.8574318740189
 21
273.5545814803421
 31
0.0
  0
LINE
  5
915
102
{ACAD_REACTORS
330
B85
102
}
330
1F
100
AcDbEntity
  8
実線
100
AcDbLine
 10
534.8574318740189
 20
273.5545814803421
 30
0.0
 11
559.8574318740189
 21
273.5545814803421
 31
0.0
  0
LINE
  5
916
102
{ACAD_REACTORS
330
B85
102
}
330
1F
100
AcDbEntity
  8
実線
100
AcDbLine
 10
559.8574318740189
 20
303.5545814803422
 30
0.0
 11
559.8574318740189
 21
273.5545814803421
 31
0.0
  0
LINE
  5
917
102
{ACAD_REACTORS
330
B85
102
}
330
1F
100
AcDbEntity
  8
実線
100
AcDbLine
 10
559.8574318740189
 20
303.5545814803422
 30
0.0
 11
534.8574318740189
 21
303.5545814803422
 31
0.0
  0
LINE
  5
918
102
{ACAD_REACTORS
330
B85
102
}
330
1F
100
AcDbEntity
  8
実線
100
AcDbLine
 10
601.8346016429027
 20
236.5545814803421
 30
0.0
 11
507.880262105135
 21
236.5545814803421
 31
0.0
  0
LINE
  5
919
102
{ACAD_REACTORS
330
B85
102
}
330
1F
100
AcDbEntity
  8
実線
100
AcDbLine
 10
601.8346016429027
 20
246.5545814803421
 30
0.0
 11
507.880262105135
 21
246.5545814803421
 31
0.0
  0
LINE
  5
91A
102
{ACAD_REACTORS
330
B85
102
}
330
1F
100
AcDbEntity
  8
実線
100
AcDbLine
 10
507.880262105135
 20
246.5545814803421
 30
0.0
 11
507.880262105135
 21
236.5545814803421
 31
0.0
  0
LINE
  5
91B
102
{ACAD_REACTORS
330
B85
102
}
330
1F
100
AcDbEntity
  8
実線
100
AcDbLine
 10
601.8346016429027
 20
236.5545814803421
 30
0.0
 11
601.8346016429027
 21
246.5545814803421
 31
0.0
  0
LINE
  5
91C
102
{ACAD_REACTORS
330
B85
102
}
330
1F
100
AcDbEntity
  8
実線
100
AcDbLine
 10
572.886328684443
 20
236.5545814803421
 30
0.0
 11
572.886328684443
 21
246.5545814803421
 31
0.0
  0
LINE
  5
91D
102
{ACAD_REACTORS
330
B85
102
}
330
1F
100
AcDbEntity
  8
実線
100
AcDbLine
 10
536.8285350635948
 20
236.5545814803421
 30
0.0
 11
536.8285350635948
 21
246.5545814803421
 31
0.0
  0
LINE
  5
91E
102
{ACAD_REACTORS
330
B85
102
}
330
1F
100
AcDbEntity
  8
実線
100
AcDbLine
 10
631.0074318740188
 20
285.404581480342
 30
0.0
 11
631.0074318740188
 21
314.054581480342
 31
0.0
  0
LINE
  5
91F
102
{ACAD_REACTORS
330
B85
102
}
330
1F
100
AcDbEntity
  8
実線
100
AcDbLine
 10
670.757431874019
 20
285.4045814803421
 30
0.0
 11
629.8574318740187
 21
285.4045814803421
 31
0.0
  0
LINE
  5
920
102
{ACAD_REACTORS
330
B85
102
}
330
1F
100
AcDbEntity
  8
実線
100
AcDbLine
 10
601.8346016429027
 20
243.7045814803419
 30
0.0
 11
670.757431874019
 21
243.7045814803419
 31
0.0
  0
LINE
  5
921
102
{ACAD_REACTORS
330
B85
102
}
330
1F
100
AcDbEntity
  8
実線
100
AcDbLine
 10
670.757431874019
 20
285.4045814803421
 30
0.0
 11
670.757431874019
 21
243.7045814803421
 31
0.0
  0
LINE
  5
922
102
{ACAD_REACTORS
330
B85
102
}
330
1F
100
AcDbEntity
  8
実線
100
AcDbLine
 10
670.757431874019
 20
243.7045814803419
 30
0.0
 11
673.107431874019
 21
239.3045814803421
 31
0.0
  0
LINE
  5
923
102
{ACAD_REACTORS
330
B85
102
}
330
1F
100
AcDbEntity
  8
実線
100
AcDbLine
 10
673.107431874019
 20
289.804581480342
 30
0.0
 11
670.757431874019
 21
285.404581480342
 31
0.0
  0
LINE
  5
924
102
{ACAD_REACTORS
330
B85
102
}
330
1F
100
AcDbEntity
  8
実線
100
AcDbLine
 10
675.857431874019
 20
289.804581480342
 30
0.0
 11
675.857431874019
 21
239.3045814803421
 31
0.0
  0
LINE
  5
925
102
{ACAD_REACTORS
330
B85
102
}
330
1F
100
AcDbEntity
  8
実線
100
AcDbLine
 10
673.107431874019
 20
289.804581480342
 30
0.0
 11
673.107431874019
 21
239.3045814803421
 31
0.0
  0
LINE
  5
926
102
{ACAD_REACTORS
330
B85
102
}
330
1F
100
AcDbEntity
  8
実線
100
AcDbLine
 10
675.857431874019
 20
289.804581480342
 30
0.0
 11
673.107431874019
 21
289.804581480342
 31
0.0
  0
LINE
  5
927
102
{ACAD_REACTORS
330
B85
102
}
330
1F
100
AcDbEntity
  8
実線
100
AcDbLine
 10
673.107431874019
 20
239.3045814803421
 30
0.0
 11
675.857431874019
 21
239.3045814803421
 31
0.0
  0
LINE
  5
928
102
{ACAD_REACTORS
330
B85
102
}
330
1F
100
AcDbEntity
  8
実線
100
AcDbLine
 10
485.9574318740189
 20
282.7045814803419
 30
0.0
 11
522.0756663095093
 21
282.7045814803419
 31
0.0
  0
LINE
  5
929
102
{ACAD_REACTORS
330
B85
102
}
330
1F
100
AcDbEntity
  8
実線
100
AcDbLine
 10
532.0660445343695
 20
324.404581480342
 30
0.0
 11
485.9574318740189
 21
324.404581480342
 31
0.0
  0
LINE
  5
92A
102
{ACAD_REACTORS
330
B85
102
}
330
1F
100
AcDbEntity
  8
実線
100
AcDbLine
 10
485.9574318740189
 20
282.7045814803419
 30
0.0
 11
485.9574318740189
 21
324.4045814803418
 31
0.0
  0
LINE
  5
92B
102
{ACAD_REACTORS
330
B85
102
}
330
1F
100
AcDbEntity
  8
実線
100
AcDbLine
 10
485.9574318740189
 20
324.404581480342
 30
0.0
 11
483.6074318740188
 21
328.804581480342
 31
0.0
  0
LINE
  5
92C
102
{ACAD_REACTORS
330
B85
102
}
330
1F
100
AcDbEntity
  8
実線
100
AcDbLine
 10
483.6074318740188
 20
278.3045814803421
 30
0.0
 11
485.9574318740189
 21
282.7045814803419
 31
0.0
  0
LINE
  5
92D
102
{ACAD_REACTORS
330
B85
102
}
330
1F
100
AcDbEntity
  8
実線
100
AcDbLine
 10
480.8574318740189
 20
278.3045814803421
 30
0.0
 11
480.8574318740189
 21
328.804581480342
 31
0.0
  0
LINE
  5
92E
102
{ACAD_REACTORS
330
B85
102
}
330
1F
100
AcDbEntity
  8
実線
100
AcDbLine
 10
483.6074318740188
 20
278.3045814803421
 30
0.0
 11
483.6074318740188
 21
328.804581480342
 31
0.0
  0
LINE
  5
92F
102
{ACAD_REACTORS
330
B85
102
}
330
1F
100
AcDbEntity
  8
実線
100
AcDbLine
 10
480.8574318740189
 20
278.3045814803421
 30
0.0
 11
483.6074318740188
 21
278.3045814803421
 31
0.0
  0
LINE
  5
930
102
{ACAD_REACTORS
330
B85
102
}
330
1F
100
AcDbEntity
  8
実線
100
AcDbLine
 10
483.6074318740188
 20
328.804581480342
 30
0.0
 11
480.8574318740189
 21
328.804581480342
 31
0.0
  0
LINE
  5
931
102
{ACAD_REACTORS
330
B85
102
}
330
1F
100
AcDbEntity
  8
実線
100
AcDbLine
 10
504.8574318740188
 20
152.554581480342
 30
0.0
 11
504.8574318740188
 21
76.55458148034202
 31
0.0
  0
LINE
  5
932
102
{ACAD_REACTORS
330
B85
102
}
330
1F
100
AcDbEntity
  8
実線
100
AcDbLine
 10
604.8574318740187
 20
76.55458148034202
 30
0.0
 11
604.8574318740187
 21
152.554581480342
 31
0.0
  0
LINE
  5
933
102
{ACAD_REACTORS
330
B85
102
}
330
1F
100
AcDbEntity
  8
実線
100
AcDbLine
 10
504.8574318740188
 20
152.554581480342
 30
0.0
 11
604.8574318740187
 21
152.554581480342
 31
0.0
  0
LINE
  5
934
102
{ACAD_REACTORS
330
B85
102
}
330
1F
100
AcDbEntity
  8
実線
100
AcDbLine
 10
601.8346016429027
 20
223.0545814803421
 30
0.0
 11
507.880262105135
 21
223.0545814803421
 31
0.0
  0
LINE
  5
935
102
{ACAD_REACTORS
330
B85
102
}
330
1F
100
AcDbEntity
  8
実線
100
AcDbLine
 10
507.880262105135
 20
236.5545814803421
 30
0.0
 11
507.880262105135
 21
223.0545814803421
 31
0.0
  0
LINE
  5
936
102
{ACAD_REACTORS
330
B85
102
}
330
1F
100
AcDbEntity
  8
実線
100
AcDbLine
 10
601.8346016429027
 20
223.0545814803421
 30
0.0
 11
601.8346016429027
 21
236.5545814803421
 31
0.0
  0
LINE
  5
937
102
{ACAD_REACTORS
330
B85
102
}
330
1F
100
AcDbEntity
  8
実線
100
AcDbLine
 10
572.886328684443
 20
223.0545814803421
 30
0.0
 11
572.886328684443
 21
236.5545814803421
 31
0.0
  0
LINE
  5
938
102
{ACAD_REACTORS
330
B85
102
}
330
1F
100
AcDbEntity
  8
実線
100
AcDbLine
 10
536.8285350635948
 20
223.0545814803421
 30
0.0
 11
536.8285350635948
 21
236.5545814803421
 31
0.0
  0
LINE
  5
939
102
{ACAD_REACTORS
330
B85
102
}
330
1F
100
AcDbEntity
  8
実線
100
AcDbLine
 10
548.8574318740188
 20
223.0545814803421
 30
0.0
 11
548.8574318740188
 21
196.0545814803421
 31
0.0
  0
LINE
  5
93A
102
{ACAD_REACTORS
330
B85
102
}
330
1F
100
AcDbEntity
  8
実線
100
AcDbLine
 10
560.8574318740188
 20
196.0545814803421
 30
0.0
 11
560.8574318740188
 21
223.0545814803421
 31
0.0
  0
LINE
  5
93B
102
{ACAD_REACTORS
330
B85
102
}
330
1F
100
AcDbEntity
  8
実線
100
AcDbLine
 10
542.3574318740187
 20
33.054581480342
 30
0.0
 11
542.3574318740187
 21
28.054581480342
 31
0.0
  0
LINE
  5
93C
102
{ACAD_REACTORS
330
B85
102
}
330
1F
100
AcDbEntity
  8
実線
100
AcDbLine
 10
567.3574318740187
 20
28.054581480342
 30
0.0
 11
567.3574318740187
 21
33.054581480342
 31
0.0
  0
LINE
  5
93D
102
{ACAD_REACTORS
330
B85
102
}
330
1F
100
AcDbEntity
  8
実線
100
AcDbLine
 10
542.3574318740187
 20
28.054581480342
 30
0.0
 11
567.3574318740187
 21
28.054581480342
 31
0.0
  0
LINE
  5
93E
102
{ACAD_REACTORS
330
B85
102
}
330
1F
100
AcDbEntity
  8
実線
100
AcDbLine
 10
542.3574318740187
 20
33.054581480342
 30
0.0
 11
567.3574318740187
 21
33.054581480342
 31
0.0
  0
CIRCLE
  5
93F
102
{ACAD_REACTORS
330
B85
102
}
330
1F
100
AcDbEntity
  8
実線
100
AcDbCircle
 10
571.907431874019
 20
30.554581480342
 30
0.0
 40
1.5
  0
LINE
  5
940
102
{ACAD_REACTORS
330
B85
102
}
330
1F
100
AcDbEntity
  8
実線
100
AcDbLine
 10
567.957431874019
 20
46.00458148034191
 30
0.0
 11
575.857431874019
 21
46.00458148034191
 31
0.0
  0
LINE
  5
941
102
{ACAD_REACTORS
330
B85
102
}
330
1F
100
AcDbEntity
  8
実線
100
AcDbLine
 10
567.957431874019
 20
38.10458148034189
 30
0.0
 11
567.957431874019
 21
46.00458148034191
 31
0.0
  0
LINE
  5
942
102
{ACAD_REACTORS
330
B85
102
}
330
1F
100
AcDbEntity
  8
実線
100
AcDbLine
 10
575.857431874019
 20
38.10458148034189
 30
0.0
 11
567.957431874019
 21
38.10458148034189
 31
0.0
  0
LINE
  5
943
102
{ACAD_REACTORS
330
B85
102
}
330
1F
100
AcDbEntity
  8
実線
100
AcDbLine
 10
575.857431874019
 20
46.00458148034191
 30
0.0
 11
575.857431874019
 21
38.10458148034189
 31
0.0
  0
CIRCLE
  5
944
102
{ACAD_REACTORS
330
B85
102
}
330
1F
100
AcDbEntity
  8
実線
100
AcDbCircle
 10
571.907431874019
 20
42.05458148034199
 30
0.0
 40
1.5
  0
LINE
  5
945
102
{ACAD_REACTORS
330
B85
102
}
330
1F
100
AcDbEntity
  8
実線
100
AcDbLine
 10
567.957431874019
 20
26.6045814803419
 30
0.0
 11
567.957431874019
 21
34.50458148034201
 31
0.0
  0
LINE
  5
946
102
{ACAD_REACTORS
330
B85
102
}
330
1F
100
AcDbEntity
  8
実線
100
AcDbLine
 10
575.857431874019
 20
26.6045814803419
 30
0.0
 11
567.957431874019
 21
26.6045814803419
 31
0.0
  0
LINE
  5
947
102
{ACAD_REACTORS
330
B85
102
}
330
1F
100
AcDbEntity
  8
実線
100
AcDbLine
 10
575.857431874019
 20
34.50458148034201
 30
0.0
 11
575.857431874019
 21
26.6045814803419
 31
0.0
  0
LINE
  5
948
102
{ACAD_REACTORS
330
B85
102
}
330
1F
100
AcDbEntity
  8
実線
100
AcDbLine
 10
567.957431874019
 20
34.50458148034201
 30
0.0
 11
575.857431874019
 21
34.50458148034201
 31
0.0
  0
LINE
  5
949
102
{ACAD_REACTORS
330
B85
102
}
330
1F
100
AcDbEntity
  8
実線
100
AcDbLine
 10
547.3574318740189
 20
28.054581480342
 30
0.0
 11
547.3574318740189
 21
22.75458148034193
 31
0.0
  0
LINE
  5
94A
102
{ACAD_REACTORS
330
B85
102
}
330
1F
100
AcDbEntity
  8
実線
100
AcDbLine
 10
562.3574318740187
 20
22.75458148034193
 30
0.0
 11
562.3574318740187
 21
28.054581480342
 31
0.0
  0
LINE
  5
94B
102
{ACAD_REACTORS
330
B85
102
}
330
1F
100
AcDbEntity
  8
実線
100
AcDbLine
 10
547.3574318740189
 20
22.75458148034193
 30
0.0
 11
562.3574318740187
 21
22.75458148034193
 31
0.0
  0
LINE
  5
94C
102
{ACAD_REACTORS
330
B85
102
}
330
1F
100
AcDbEntity
  8
実線
100
AcDbLine
 10
529.8574318740187
 20
61.55458148034202
 30
0.0
 11
529.8574318740187
 21
56.55458148034202
 31
0.0
  0
LINE
  5
94D
102
{ACAD_REACTORS
330
B85
102
}
330
1F
100
AcDbEntity
  8
実線
100
AcDbLine
 10
579.8574318740187
 20
56.55458148034202
 30
0.0
 11
579.8574318740187
 21
61.55458148034202
 31
0.0
  0
LINE
  5
94E
102
{ACAD_REACTORS
330
B85
102
}
330
1F
100
AcDbEntity
  8
実線
100
AcDbLine
 10
577.8574318740188
 20
56.55458148034202
 30
0.0
 11
579.8574318740187
 21
56.55458148034202
 31
0.0
  0
LINE
  5
94F
102
{ACAD_REACTORS
330
B85
102
}
330
1F
100
AcDbEntity
  8
実線
100
AcDbLine
 10
548.8574318740188
 20
54.55458148034202
 30
0.0
 11
548.8574318740188
 21
33.05458148034211
 31
0.0
  0
LINE
  5
950
102
{ACAD_REACTORS
330
B85
102
}
330
1F
100
AcDbEntity
  8
実線
100
AcDbLine
 10
560.8574318740188
 20
33.05458148034211
 30
0.0
 11
560.8574318740188
 21
54.55458148034202
 31
0.0
  0
LINE
  5
951
102
{ACAD_REACTORS
330
B85
102
}
330
1F
100
AcDbEntity
  8
実線
100
AcDbLine
 10
519.8574318740188
 20
72.05458148034202
 30
0.0
 11
519.8574318740188
 21
61.55458148034202
 31
0.0
  0
LINE
  5
952
102
{ACAD_REACTORS
330
B85
102
}
330
1F
100
AcDbEntity
  8
実線
100
AcDbLine
 10
589.8574318740187
 20
61.55458148034202
 30
0.0
 11
589.8574318740187
 21
72.05458148034202
 31
0.0
  0
LINE
  5
953
102
{ACAD_REACTORS
330
B85
102
}
330
1F
100
AcDbEntity
  8
実線
100
AcDbLine
 10
519.8574318740188
 20
61.55458148034202
 30
0.0
 11
589.8574318740187
 21
61.55458148034202
 31
0.0
  0
LINE
  5
954
102
{ACAD_REACTORS
330
B85
102
}
330
1F
100
AcDbEntity
  8
実線
100
AcDbLine
 10
504.8574318740188
 20
76.55458148034202
 30
0.0
 11
504.8574318740188
 21
75.05458148034202
 31
0.0
  0
LINE
  5
955
102
{ACAD_REACTORS
330
B85
102
}
330
1F
100
AcDbEntity
  8
実線
100
AcDbLine
 10
604.8574318740187
 20
75.05458148034202
 30
0.0
 11
604.8574318740187
 21
76.55458148034202
 31
0.0
  0
LINE
  5
956
102
{ACAD_REACTORS
330
B85
102
}
330
1F
100
AcDbEntity
  8
実線
100
AcDbLine
 10
504.8574318740188
 20
76.55458148034202
 30
0.0
 11
604.8574318740187
 21
76.55458148034202
 31
0.0
  0
LINE
  5
957
102
{ACAD_REACTORS
330
B85
102
}
330
1F
100
AcDbEntity
  8
実線
100
AcDbLine
 10
507.8574318740188
 20
72.05458148034202
 30
0.0
 11
601.8574318740188
 21
72.05458148034202
 31
0.0
  0
ARC
  5
958
102
{ACAD_REACTORS
330
B85
102
}
330
1F
100
AcDbEntity
  8
実線
100
AcDbCircle
 10
507.8574318740188
 20
75.05458148034202
 30
0.0
 40
3.0
100
AcDbArc
 50
180.0
 51
270.0
  0
ARC
  5
959
102
{ACAD_REACTORS
330
B85
102
}
330
1F
100
AcDbEntity
  8
実線
100
AcDbCircle
 10
601.8574318740188
 20
75.05458148034202
 30
0.0
 40
3.0
100
AcDbArc
 50
270.0
 51
0.0
  0
ARC
  5
95A
102
{ACAD_REACTORS
330
B85
102
}
330
1F
100
AcDbEntity
  8
実線
100
AcDbCircle
 10
529.1574318740186
 20
182.0545814803421
 30
0.0
 40
70.00000000000003
100
AcDbArc
 50
0.0
 51
35.85346706346538
  0
LINE
  5
95B
102
{ACAD_REACTORS
330
B85
102
}
330
1F
100
AcDbEntity
  8
実線
100
AcDbLine
 10
599.1574318740187
 20
152.554581480342
 30
0.0
 11
599.1574318740187
 21
182.0545814803421
 31
0.0
  0
ARC
  5
95C
102
{ACAD_REACTORS
330
B85
102
}
330
1F
100
AcDbEntity
  8
実線
100
AcDbCircle
 10
531.157431874019
 20
182.0545814803421
 30
0.0
 40
57.99999999999997
100
AcDbArc
 50
13.96796267465428
 51
44.98296795990361
  0
ARC
  5
95D
102
{ACAD_REACTORS
330
B85
102
}
330
1F
100
AcDbEntity
  8
実線
100
AcDbCircle
 10
580.5574318740191
 20
182.0545814803421
 30
0.0
 40
70.00000000000003
100
AcDbArc
 50
144.1465329365346
 51
180.0
  0
ARC
  5
95E
102
{ACAD_REACTORS
330
B85
102
}
330
1F
100
AcDbEntity
  8
実線
100
AcDbCircle
 10
578.5574318740189
 20
182.0545814803421
 30
0.0
 40
57.99999999999997
100
AcDbArc
 50
135.0170320400964
 51
166.0320373253457
  0
LINE
  5
95F
102
{ACAD_REACTORS
330
B85
102
}
330
1F
100
AcDbEntity
  8
実線
100
AcDbLine
 10
510.557431874019
 20
152.554581480342
 30
0.0
 11
510.557431874019
 21
182.0545814803421
 31
0.0
  0
LINE
  5
960
102
{ACAD_REACTORS
330
B85
102
}
330
1F
100
AcDbEntity
  8
実線
100
AcDbLine
 10
516.4720505420587
 20
152.554581480342
 30
0.0
 11
516.4720505420587
 21
196.0545814803421
 31
0.0
  0
LINE
  5
961
102
{ACAD_REACTORS
330
B85
102
}
330
1F
100
AcDbEntity
  8
実線
100
AcDbLine
 10
593.2428132059791
 20
152.554581480342
 30
0.0
 11
593.2428132059791
 21
196.0545814803421
 31
0.0
  0
LINE
  5
962
102
{ACAD_REACTORS
330
B85
102
}
330
1F
100
AcDbEntity
  8
実線
100
AcDbLine
 10
593.2428132059791
 20
196.0545814803421
 30
0.0
 11
516.4720505420587
 21
196.0545814803421
 31
0.0
  0
LINE
  5
963
102
{ACAD_REACTORS
330
B85
102
}
330
1F
100
AcDbEntity
  8
実線
100
AcDbLine
 10
654.357431874019
 20
314.054581480342
 30
0.0
 11
654.357431874019
 21
326.054581480342
 31
0.0
  0
LINE
  5
964
102
{ACAD_REACTORS
330
B85
102
}
330
1F
100
AcDbEntity
  8
実線
100
AcDbLine
 10
529.3574318740187
 20
326.054581480342
 30
0.0
 11
529.3574318740187
 21
324.404581480342
 31
0.0
  0
LINE
  5
965
102
{ACAD_REACTORS
330
B85
102
}
330
1F
100
AcDbEntity
  8
実線
100
AcDbLine
 10
540.9176642650792
 20
314.054581480342
 30
0.0
 11
654.357431874019
 21
314.054581480342
 31
0.0
  0
LINE
  5
966
102
{ACAD_REACTORS
330
B85
102
}
330
1F
100
AcDbEntity
  8
実線
100
AcDbLine
 10
654.357431874019
 20
326.054581480342
 30
0.0
 11
529.3574318740187
 21
326.054581480342
 31
0.0
  0
LINE
  5
967
102
{ACAD_REACTORS
330
B85
102
}
330
1F
100
AcDbEntity
  8
実線
100
AcDbLine
 10
636.8880616748895
 20
291.0545814803419
 30
0.0
 11
636.8880616748895
 21
285.404581480342
 31
0.0
  0
LINE
  5
968
102
{ACAD_REACTORS
330
B85
102
}
330
1F
100
AcDbEntity
  8
実線
100
AcDbLine
 10
636.8880616748895
 20
312.554581480342
 30
0.0
 11
636.8880616748895
 21
303.0545814803419
 31
0.0
  0
LINE
  5
969
102
{ACAD_REACTORS
330
B85
102
}
330
1F
100
AcDbEntity
  8
実線
100
AcDbLine
 10
631.0074318740188
 20
312.554581480342
 30
0.0
 11
650.5688674079163
 21
312.554581480342
 31
0.0
  0
LINE
  5
96A
102
{ACAD_REACTORS
330
B85
102
}
330
1F
100
AcDbEntity
  8
実線
100
AcDbLine
 10
650.5688674079163
 20
312.554581480342
 30
0.0
 11
650.5688674079163
 21
285.404581480342
 31
0.0
  0
LINE
  5
96B
102
{ACAD_REACTORS
330
B85
102
}
330
1F
100
AcDbEntity
  8
実線
100
AcDbLine
 10
651.9784063390952
 20
314.0545814803419
 30
0.0
 11
651.9784063390952
 21
285.404581480342
 31
0.0
  0
LINE
  5
96C
102
{ACAD_REACTORS
330
B85
102
}
330
1F
100
AcDbEntity
  8
実線
100
AcDbLine
 10
637.8830170273065
 20
314.0545814803419
 30
0.0
 11
637.8830170273065
 21
312.554581480342
 31
0.0
  0
LINE
  5
96D
102
{ACAD_REACTORS
330
B85
102
}
330
1F
100
AcDbEntity
  8
実線
100
AcDbLine
 10
629.8574318740187
 20
303.5545814803422
 30
0.0
 11
629.8574318740187
 21
273.5545814803421
 31
0.0
  0
LINE
  5
96E
102
{ACAD_REACTORS
330
B85
102
}
330
1F
100
AcDbEntity
  8
実線
100
AcDbLine
 10
604.8574318740187
 20
273.5545814803421
 30
0.0
 11
629.8574318740187
 21
273.5545814803421
 31
0.0
  0
LINE
  5
96F
102
{ACAD_REACTORS
330
B85
102
}
330
1F
100
AcDbEntity
  8
実線
100
AcDbLine
 10
604.8574318740187
 20
303.5545814803422
 30
0.0
 11
604.8574318740187
 21
273.5545814803421
 31
0.0
  0
LINE
  5
970
102
{ACAD_REACTORS
330
B85
102
}
330
1F
100
AcDbEntity
  8
実線
100
AcDbLine
 10
629.8574318740187
 20
303.5545814803422
 30
0.0
 11
604.8574318740187
 21
303.5545814803422
 31
0.0
  0
LINE
  5
971
102
{ACAD_REACTORS
330
B85
102
}
330
1F
100
AcDbEntity
  8
実線
100
AcDbLine
 10
559.8574318740189
 20
292.7045814803421
 30
0.0
 11
560.3742973181973
 21
292.7045814803421
 31
0.0
  0
ARC
  5
972
102
{ACAD_REACTORS
330
B85
102
}
330
1F
100
AcDbEntity
  8
実線
100
AcDbCircle
 10
536.2178019332402
 20
277.7045814803421
 30
0.0
 40
15.0
100
AcDbArc
 50
160.5287793655055
 51
168.2907427530915
  0
LINE
  5
973
102
{ACAD_REACTORS
330
B85
102
}
330
1F
100
AcDbEntity
  8
実線
100
AcDbLine
 10
514.8574318740188
 20
248.5545814803421
 30
0.0
 11
514.8574318740188
 21
246.5545814803421
 31
0.0
  0
LINE
  5
974
102
{ACAD_REACTORS
330
B85
102
}
330
1F
100
AcDbEntity
  8
実線
100
AcDbLine
 10
584.4897155550213
 20
248.5545814803421
 30
0.0
 11
514.8574318740188
 21
248.5545814803421
 31
0.0
  0
LINE
  5
975
102
{ACAD_REACTORS
330
B85
102
}
330
1F
100
AcDbEntity
  8
実線
100
AcDbLine
 10
521.5299514290697
 20
280.7487640581673
 30
0.0
 11
514.8574318740188
 21
248.5545814803421
 31
0.0
  0
LINE
  5
976
102
{ACAD_REACTORS
330
B85
102
}
330
1F
100
AcDbEntity
  8
実線
100
AcDbLine
 10
654.357431874019
 20
338.354581480342
 30
0.0
 11
529.3574318740187
 21
338.354581480342
 31
0.0
  0
LINE
  5
977
102
{ACAD_REACTORS
330
B85
102
}
330
1F
100
AcDbEntity
  8
実線
100
AcDbLine
 10
529.3574318740187
 20
338.354581480342
 30
0.0
 11
529.3574318740187
 21
326.054581480342
 31
0.0
  0
LINE
  5
978
102
{ACAD_REACTORS
330
B85
102
}
330
1F
100
AcDbEntity
  8
実線
100
AcDbLine
 10
654.357431874019
 20
326.054581480342
 30
0.0
 11
654.357431874019
 21
338.354581480342
 31
0.0
  0
LINE
  5
979
102
{ACAD_REACTORS
330
B85
102
}
330
1F
100
AcDbEntity
  8
実線
100
AcDbLine
 10
577.8574318740188
 20
56.55458148034202
 30
0.0
 11
529.8574318740187
 21
56.55458148034202
 31
0.0
  0
LINE
  5
97A
102
{ACAD_REACTORS
330
B85
102
}
330
1F
100
AcDbEntity
  8
実線
100
AcDbLine
 10
575.857431874019
 20
54.5545814803892
 30
0.0
 11
529.8574318740187
 21
54.5545814803892
 31
0.0
  0
LINE
  5
97B
102
{ACAD_REACTORS
330
B85
102
}
330
1F
100
AcDbEntity
  8
実線
100
AcDbLine
 10
575.857431874019
 20
26.6045814803419
 30
0.0
 11
575.857431874019
 21
25.554581480342
 31
0.0
  0
LINE
  5
97C
102
{ACAD_REACTORS
330
B85
102
}
330
1F
100
AcDbEntity
  8
実線
100
AcDbLine
 10
575.857431874019
 20
38.10458148034189
 30
0.0
 11
575.857431874019
 21
34.50458148034201
 31
0.0
  0
LINE
  5
97D
102
{ACAD_REACTORS
330
B85
102
}
330
1F
100
AcDbEntity
  8
実線
100
AcDbLine
 10
575.857431874019
 20
54.5545814803892
 30
0.0
 11
575.857431874019
 21
46.00458148034191
 31
0.0
  0
LINE
  5
97E
102
{ACAD_REACTORS
330
B85
102
}
330
1F
100
AcDbEntity
  8
実線
100
AcDbLine
 10
575.857431874019
 20
25.554581480342
 30
0.0
 11
577.8574318740188
 21
25.554581480342
 31
0.0
  0
LINE
  5
97F
102
{ACAD_REACTORS
330
B85
102
}
330
1F
100
AcDbEntity
  8
実線
100
AcDbLine
 10
577.8574318740188
 20
56.55458148034202
 30
0.0
 11
577.8574318740188
 21
25.554581480342
 31
0.0
  0
LINE
  5
980
102
{ACAD_REACTORS
330
B85
102
}
330
1F
100
AcDbEntity
  8
実線
100
AcDbLine
 10
574.8574318740006
 20
56.55458148034202
 30
0.0
 11
574.8574318740006
 21
54.5545814803892
 31
0.0
  0
LINE
  5
981
102
{ACAD_REACTORS
330
B85
102
}
330
1F
100
AcDbEntity
  8
実線
100
AcDbLine
 10
529.8574318740187
 20
56.55458148034202
 30
0.0
 11
529.8574318740187
 21
54.55458148034202
 31
0.0
  0
LINE
  5
982
102
{ACAD_REACTORS
330
B97
102
}
330
1F
100
AcDbEntity
  8
実線
100
AcDbLine
 10
1197.934278346677
 20
514.9959376672041
 30
0.0
 11
1210.620128727287
 21
510.3786657323078
 31
0.0
  0
LINE
  5
983
102
{ACAD_REACTORS
330
B97
102
}
330
1F
100
AcDbEntity
  8
実線
100
AcDbLine
 10
1152.35918623856
 20
531.5839146184993
 30
0.0
 11
1196.524739415497
 21
515.5089678821926
 31
0.0
  0
LINE
  5
984
102
{ACAD_REACTORS
330
B97
102
}
330
1F
100
AcDbEntity
  8
実線
100
AcDbLine
 10
1200.628981135406
 20
526.7852793316238
 30
0.0
 11
1156.463427958468
 21
542.8602260679301
 31
0.0
  0
LINE
  5
985
102
{ACAD_REACTORS
330
B97
102
}
330
1F
100
AcDbEntity
  8
実線
100
AcDbLine
 10
1214.724370447195
 20
521.6549771817388
 30
0.0
 11
1202.038520066584
 21
526.2722491166353
 31
0.0
  0
LINE
  5
986
102
{ACAD_REACTORS
330
B97
102
}
330
1F
100
AcDbEntity
  8
実線
100
AcDbLine
 10
1210.620128727287
 20
510.3786657323078
 30
0.0
 11
1214.724370447195
 21
521.6549771817388
 31
0.0
  0
LINE
  5
987
102
{ACAD_REACTORS
330
B97
102
}
330
1F
100
AcDbEntity
  8
実線
100
AcDbLine
 10
1152.35918623856
 20
531.5839146184993
 30
0.0
 11
1156.463427958468
 21
542.8602260679301
 31
0.0
  0
LINE
  5
988
102
{ACAD_REACTORS
330
B97
102
}
330
1F
100
AcDbEntity
  8
実線
100
AcDbLine
 10
1283.857431874015
 20
431.5545814803423
 30
0.0
 11
1283.857431874015
 21
433.8052096250112
 31
0.0
  0
LINE
  5
989
102
{ACAD_REACTORS
330
B97
102
}
330
1F
100
AcDbEntity
  8
実線
100
AcDbLine
 10
1308.857431874015
 20
431.5545814803423
 30
0.0
 11
1283.857431874015
 21
431.5545814803423
 31
0.0
  0
LINE
  5
98A
102
{ACAD_REACTORS
330
B97
102
}
330
1F
100
AcDbEntity
  8
実線
100
AcDbLine
 10
1308.857431874015
 20
437.7288245307838
 30
0.0
 11
1308.857431874015
 21
431.5545814803423
 31
0.0
  0
LINE
  5
98B
102
{ACAD_REACTORS
330
B97
102
}
330
1F
100
AcDbEntity
  8
実線
100
AcDbLine
 10
1234.357431874015
 20
510.7545814803422
 30
0.0
 11
1234.357431874015
 21
546.5545814803419
 31
0.0
  0
LINE
  5
98C
102
{ACAD_REACTORS
330
B97
102
}
330
1F
100
AcDbEntity
  8
実線
100
AcDbLine
 10
1269.357431874015
 20
546.5545814803419
 30
0.0
 11
1269.357431874015
 21
529.5953243066693
 31
0.0
  0
LINE
  5
98D
102
{ACAD_REACTORS
330
B97
102
}
330
1F
100
AcDbEntity
  8
実線
100
AcDbLine
 10
1234.357431874015
 20
546.5545814803419
 30
0.0
 11
1269.357431874015
 21
546.5545814803419
 31
0.0
  0
ARC
  5
98E
102
{ACAD_REACTORS
330
B97
102
}
330
1F
100
AcDbEntity
  8
実線
100
AcDbCircle
 10
1251.857431874015
 20
501.7545814803423
 30
0.0
 40
39.15
100
AcDbArc
 50
116.5512875568688
 51
193.9216120380485
  0
ARC
  5
98F
102
{ACAD_REACTORS
330
B97
102
}
330
1F
100
AcDbEntity
  8
実線
100
AcDbCircle
 10
1251.857431874015
 20
501.7545814803423
 30
0.0
 40
39.15
100
AcDbArc
 50
50.68608784481257
 51
63.44871244313117
  0
LINE
  5
990
102
{ACAD_REACTORS
330
B97
102
}
330
1F
100
AcDbEntity
  8
実線
100
AcDbLine
 10
1172.957431874015
 20
449.2045814803423
 30
0.0
 11
1242.217230121547
 21
449.2045814803423
 31
0.0
  0
LINE
  5
991
102
{ACAD_REACTORS
330
B97
102
}
330
1F
100
AcDbEntity
  8
実線
100
AcDbLine
 10
1213.857431874014
 20
490.9045814803421
 30
0.0
 11
1172.957431874015
 21
490.9045814803421
 31
0.0
  0
LINE
  5
992
102
{ACAD_REACTORS
330
B97
102
}
330
1F
100
AcDbEntity
  8
実線
100
AcDbLine
 10
1172.957431874015
 20
490.9045814803421
 30
0.0
 11
1170.607431874015
 21
495.3045814803421
 31
0.0
  0
LINE
  5
993
102
{ACAD_REACTORS
330
B97
102
}
330
1F
100
AcDbEntity
  8
実線
100
AcDbLine
 10
1170.607431874015
 20
444.804581480342
 30
0.0
 11
1172.957431874015
 21
449.2045814803423
 31
0.0
  0
LINE
  5
994
102
{ACAD_REACTORS
330
B97
102
}
330
1F
100
AcDbEntity
  8
実線
100
AcDbLine
 10
1172.957431874015
 20
449.2045814803423
 30
0.0
 11
1172.957431874015
 21
490.9045814803421
 31
0.0
  0
LINE
  5
995
102
{ACAD_REACTORS
330
B97
102
}
330
1F
100
AcDbEntity
  8
実線
100
AcDbLine
 10
1167.857431874015
 20
444.804581480342
 30
0.0
 11
1170.607431874015
 21
444.804581480342
 31
0.0
  0
LINE
  5
996
102
{ACAD_REACTORS
330
B97
102
}
330
1F
100
AcDbEntity
  8
実線
100
AcDbLine
 10
1170.607431874015
 20
495.3045814803421
 30
0.0
 11
1167.857431874015
 21
495.3045814803421
 31
0.0
  0
LINE
  5
997
102
{ACAD_REACTORS
330
B97
102
}
330
1F
100
AcDbEntity
  8
実線
100
AcDbLine
 10
1167.857431874015
 20
495.3045814803421
 30
0.0
 11
1167.857431874015
 21
444.804581480342
 31
0.0
  0
LINE
  5
998
102
{ACAD_REACTORS
330
B97
102
}
330
1F
100
AcDbEntity
  8
実線
100
AcDbLine
 10
1170.607431874015
 20
495.3045814803421
 30
0.0
 11
1170.607431874015
 21
444.804581480342
 31
0.0
  0
LINE
  5
999
102
{ACAD_REACTORS
330
B97
102
}
330
1F
100
AcDbEntity
  8
実線
100
AcDbLine
 10
1357.757431874015
 20
504.4045814803423
 30
0.0
 11
1334.302756165959
 21
504.4045814803423
 31
0.0
  0
LINE
  5
99A
102
{ACAD_REACTORS
330
B97
102
}
330
1F
100
AcDbEntity
  8
実線
100
AcDbLine
 10
1334.302756165959
 20
462.7045814803421
 30
0.0
 11
1357.757431874015
 21
462.7045814803421
 31
0.0
  0
LINE
  5
99B
102
{ACAD_REACTORS
330
B97
102
}
330
1F
100
AcDbEntity
  8
実線
100
AcDbLine
 10
1362.857431874014
 20
508.8045814803423
 30
0.0
 11
1362.857431874014
 21
458.3045814803423
 31
0.0
  0
LINE
  5
99C
102
{ACAD_REACTORS
330
B97
102
}
330
1F
100
AcDbEntity
  8
実線
100
AcDbLine
 10
1362.857431874014
 20
508.8045814803423
 30
0.0
 11
1360.107431874015
 21
508.8045814803423
 31
0.0
  0
LINE
  5
99D
102
{ACAD_REACTORS
330
B97
102
}
330
1F
100
AcDbEntity
  8
実線
100
AcDbLine
 10
1360.107431874015
 20
458.3045814803423
 30
0.0
 11
1362.857431874014
 21
458.3045814803423
 31
0.0
  0
LINE
  5
99E
102
{ACAD_REACTORS
330
B97
102
}
330
1F
100
AcDbEntity
  8
実線
100
AcDbLine
 10
1360.107431874015
 20
508.8045814803423
 30
0.0
 11
1360.107431874015
 21
458.3045814803423
 31
0.0
  0
LINE
  5
99F
102
{ACAD_REACTORS
330
B97
102
}
330
1F
100
AcDbEntity
  8
実線
100
AcDbLine
 10
1357.757431874015
 20
504.4045814803423
 30
0.0
 11
1357.757431874015
 21
462.7045814803421
 31
0.0
  0
LINE
  5
9A0
102
{ACAD_REACTORS
330
B97
102
}
330
1F
100
AcDbEntity
  8
実線
100
AcDbLine
 10
1357.757431874015
 20
462.7045814803421
 30
0.0
 11
1360.107431874015
 21
458.3045814803423
 31
0.0
  0
LINE
  5
9A1
102
{ACAD_REACTORS
330
B97
102
}
330
1F
100
AcDbEntity
  8
実線
100
AcDbLine
 10
1360.107431874015
 20
508.8045814803423
 30
0.0
 11
1357.757431874015
 21
504.4045814803423
 31
0.0
  0
LINE
  5
9A2
102
{ACAD_REACTORS
330
B97
102
}
330
1F
100
AcDbEntity
  8
実線
100
AcDbLine
 10
1315.928207548194
 20
441.5168234002743
 30
0.0
 11
1320.916197326279
 21
438.0241953571462
 31
0.0
  0
ARC
  5
9A3
102
{ACAD_REACTORS
330
B97
102
}
330
1F
100
AcDbEntity
  8
実線
100
AcDbCircle
 10
1325.504808817086
 20
444.5774117114582
 30
0.0
 40
8.000000000000008
100
AcDbArc
 50
235.0000000000026
 51
313.235426257111
  0
LINE
  5
9A4
102
{ACAD_REACTORS
330
B97
102
}
330
1F
100
AcDbEntity
  8
実線
100
AcDbLine
 10
1330.895189954083
 20
510.6253571545208
 30
0.0
 11
1334.387817997211
 21
515.6133469326058
 31
0.0
  0
ARC
  5
9A5
102
{ACAD_REACTORS
330
B97
102
}
330
1F
100
AcDbEntity
  8
実線
100
AcDbCircle
 10
1327.834601642899
 20
520.2019584234141
 30
0.0
 40
7.999999999999996
100
AcDbArc
 50
325.0000000000026
 51
43.23542625711104
  0
ARC
  5
9A6
102
{ACAD_REACTORS
330
B97
102
}
330
1F
100
AcDbEntity
  8
実線
100
AcDbCircle
 10
1288.857431874015
 20
483.5545814803423
 30
0.0
 40
61.50000000000008
100
AcDbArc
 50
43.23542625711104
 51
46.76457374288895
  0
ARC
  5
9A7
102
{ACAD_REACTORS
330
B97
102
}
330
1F
100
AcDbEntity
  8
実線
100
AcDbCircle
 10
1325.504808817086
 20
522.5317512492259
 30
0.0
 40
8.000000000000021
100
AcDbArc
 50
46.76457374288434
 51
124.9999999999974
  0
LINE
  5
9A8
102
{ACAD_REACTORS
330
B97
102
}
330
1F
100
AcDbEntity
  8
実線
100
AcDbLine
 10
1320.916197326279
 20
529.0849676035378
 30
0.0
 11
1315.928207548194
 21
525.5923395604098
 31
0.0
  0
LINE
  5
9A9
102
{ACAD_REACTORS
330
B97
102
}
330
1F
100
AcDbEntity
  8
実線
100
AcDbLine
 10
1261.786656199837
 20
525.5923395604098
 30
0.0
 11
1256.79866642175
 21
529.0849676035378
 31
0.0
  0
ARC
  5
9AA
102
{ACAD_REACTORS
330
B97
102
}
330
1F
100
AcDbEntity
  8
実線
100
AcDbCircle
 10
1252.210054930943
 20
522.5317512492259
 30
0.0
 40
7.999999999999986
100
AcDbArc
 50
55.00000000000264
 51
133.235426257111
  0
ARC
  5
9AB
102
{ACAD_REACTORS
330
B97
102
}
330
1F
100
AcDbEntity
  8
実線
100
AcDbCircle
 10
1288.857431874014
 20
483.5545814803428
 30
0.0
 40
61.49999999999885
100
AcDbArc
 50
133.235426257111
 51
136.7645737428889
  0
ARC
  5
9AC
102
{ACAD_REACTORS
330
B97
102
}
330
1F
100
AcDbEntity
  8
実線
100
AcDbCircle
 10
1249.880262105131
 20
520.2019584234141
 30
0.0
 40
8.000000000000023
100
AcDbArc
 50
136.7645737428889
 51
214.9999999999974
  0
LINE
  5
9AD
102
{ACAD_REACTORS
330
B97
102
}
330
1F
100
AcDbEntity
  8
実線
100
AcDbLine
 10
1243.327045750818
 20
515.6133469326058
 30
0.0
 11
1246.819673793946
 21
510.6253571545208
 31
0.0
  0
LINE
  5
9AE
102
{ACAD_REACTORS
330
B97
102
}
330
1F
100
AcDbEntity
  8
実線
100
AcDbLine
 10
1246.819673793946
 20
456.4838058061635
 30
0.0
 11
1243.327045750818
 21
451.4958160280785
 31
0.0
  0
ARC
  5
9AF
102
{ACAD_REACTORS
330
B97
102
}
330
1F
100
AcDbEntity
  8
実線
100
AcDbCircle
 10
1249.880262105131
 20
446.9072045372702
 30
0.0
 40
7.999999999999995
100
AcDbArc
 50
145.0000000000026
 51
223.2354262571111
  0
ARC
  5
9B0
102
{ACAD_REACTORS
330
B97
102
}
330
1F
100
AcDbEntity
  8
実線
100
AcDbCircle
 10
1288.857431874015
 20
483.5545814803423
 30
0.0
 40
61.50000000000009
100
AcDbArc
 50
223.2354262571111
 51
226.7645737428889
  0
ARC
  5
9B1
102
{ACAD_REACTORS
330
B97
102
}
330
1F
100
AcDbEntity
  8
実線
100
AcDbCircle
 10
1252.210054930943
 20
444.5774117114582
 30
0.0
 40
8.000000000000008
100
AcDbArc
 50
226.7645737428889
 51
304.9999999999974
  0
LINE
  5
9B2
102
{ACAD_REACTORS
330
B97
102
}
330
1F
100
AcDbEntity
  8
実線
100
AcDbLine
 10
1256.79866642175
 20
438.0241953571462
 30
0.0
 11
1261.786656199837
 21
441.5168234002743
 31
0.0
  0
ARC
  5
9B3
102
{ACAD_REACTORS
330
B97
102
}
330
1F
100
AcDbEntity
  8
実線
100
AcDbCircle
 10
1288.857431874014
 20
483.5545814803428
 30
0.0
 40
61.50000000000114
100
AcDbArc
 50
313.235426257111
 51
316.764573742889
  0
ARC
  5
9B4
102
{ACAD_REACTORS
330
B97
102
}
330
1F
100
AcDbEntity
  8
実線
100
AcDbCircle
 10
1327.834601642899
 20
446.9072045372702
 30
0.0
 40
8.000000000000008
100
AcDbArc
 50
316.764573742889
 51
34.99999999999737
  0
LINE
  5
9B5
102
{ACAD_REACTORS
330
B97
102
}
330
1F
100
AcDbEntity
  8
実線
100
AcDbLine
 10
1334.387817997211
 20
451.4958160280785
 30
0.0
 11
1330.895189954083
 21
456.4838058061635
 31
0.0
  0
CIRCLE
  5
9B6
102
{ACAD_REACTORS
330
B97
102
}
330
1F
100
AcDbEntity
  8
実線
100
AcDbCircle
 10
1288.857431874015
 20
483.554581480342
 30
0.0
 40
12.5
  0
LINE
  5
9B7
102
{ACAD_REACTORS
330
B97
102
}
330
1F
100
AcDbEntity
  8
実線
100
AcDbLine
 10
1270.307431874014
 20
463.5545814803418
 30
0.0
 11
1270.307431874014
 21
457.0545814803421
 31
0.0
  0
LINE
  5
9B8
102
{ACAD_REACTORS
330
B97
102
}
330
1F
100
AcDbEntity
  8
実線
100
AcDbLine
 10
1273.307431874014
 20
457.0545814803421
 30
0.0
 11
1273.307431874014
 21
463.5545814803418
 31
0.0
  0
LINE
  5
9B9
102
{ACAD_REACTORS
330
B97
102
}
330
1F
100
AcDbEntity
  8
実線
100
AcDbLine
 10
1270.307431874014
 20
457.0545814803421
 30
0.0
 11
1273.307431874014
 21
457.0545814803421
 31
0.0
  0
LINE
  5
9BA
102
{ACAD_REACTORS
330
B97
102
}
330
1F
100
AcDbEntity
  8
実線
100
AcDbLine
 10
1275.757431874015
 20
488.554581480342
 30
0.0
 11
1267.857431874015
 21
488.554581480342
 31
0.0
  0
LINE
  5
9BB
102
{ACAD_REACTORS
330
B97
102
}
330
1F
100
AcDbEntity
  8
実線
100
AcDbLine
 10
1267.857431874015
 20
468.5545814803423
 30
0.0
 11
1267.857431874015
 21
463.554581480342
 31
0.0
  0
LINE
  5
9BC
102
{ACAD_REACTORS
330
B97
102
}
330
1F
100
AcDbEntity
  8
実線
100
AcDbLine
 10
1267.857431874015
 20
463.554581480342
 30
0.0
 11
1275.757431874015
 21
463.554581480342
 31
0.0
  0
LINE
  5
9BD
102
{ACAD_REACTORS
330
B97
102
}
330
1F
100
AcDbEntity
  8
実線
100
AcDbLine
 10
1275.757431874015
 20
488.554581480342
 30
0.0
 11
1275.757431874015
 21
463.554581480342
 31
0.0
  0
CIRCLE
  5
9BE
102
{ACAD_REACTORS
330
B97
102
}
330
1F
100
AcDbEntity
  8
実線
100
AcDbCircle
 10
1288.857431874015
 20
483.554581480342
 30
0.0
 40
7.5
  0
ARC
  5
9BF
102
{ACAD_REACTORS
330
B97
102
}
330
1F
100
AcDbEntity
  8
実線
100
AcDbCircle
 10
1288.857431874015
 20
483.554581480342
 30
0.0
 40
25.0
100
AcDbArc
 50
143.1301023541543
 51
203.0739180656353
  0
CIRCLE
  5
9C0
102
{ACAD_REACTORS
330
B97
102
}
330
1F
100
AcDbEntity
  8
実線
100
AcDbCircle
 10
1288.857431874015
 20
483.554581480342
 30
0.0
 40
35.0
  0
CIRCLE
  5
9C1
102
{ACAD_REACTORS
330
B97
102
}
330
1F
100
AcDbEntity
  8
実線
100
AcDbCircle
 10
1288.857431874015
 20
483.554581480342
 30
0.0
 40
50.0
  0
LINE
  5
9C2
102
{ACAD_REACTORS
330
B97
102
}
330
1F
100
AcDbEntity
  8
実線
100
AcDbLine
 10
1219.357431874015
 20
555.1399727404988
 30
0.0
 11
1219.357431874015
 21
565.2545814803421
 31
0.0
  0
ARC
  5
9C3
102
{ACAD_REACTORS
330
B97
102
}
330
1F
100
AcDbEntity
  8
実線
100
AcDbCircle
 10
1251.857431874015
 20
501.7545814803423
 30
0.0
 40
62.5
100
AcDbArc
 50
121.3322514975931
 51
154.4911213287962
  0
ARC
  5
9C4
102
{ACAD_REACTORS
330
B97
102
}
330
1F
100
AcDbEntity
  8
実線
100
AcDbCircle
 10
1251.857431874015
 20
501.7545814803423
 30
0.0
 40
62.5
100
AcDbArc
 50
165.5088786712003
 51
189.9971970518396
  0
ARC
  5
9C5
102
{ACAD_REACTORS
330
B97
102
}
330
1F
100
AcDbEntity
  8
実線
100
AcDbCircle
 10
1251.857431874015
 20
501.7545814803423
 30
0.0
 40
62.5
100
AcDbArc
 50
257.9948271692481
 51
264.5356554950303
  0
ARC
  5
9C6
102
{ACAD_REACTORS
330
B97
102
}
330
1F
100
AcDbEntity
  8
実線
100
AcDbCircle
 10
1251.857431874015
 20
501.7545814803423
 30
0.0
 40
62.5
100
AcDbArc
 50
276.7178281907368
 51
280.8716805507373
  0
ARC
  5
9C7
102
{ACAD_REACTORS
330
B97
102
}
330
1F
100
AcDbEntity
  8
実線
100
AcDbCircle
 10
1251.857431874015
 20
501.7545814803423
 30
0.0
 40
62.5
100
AcDbArc
 50
26.74392170333732
 51
58.66774850240692
  0
LINE
  5
9C8
102
{ACAD_REACTORS
330
B97
102
}
330
1F
100
AcDbEntity
  8
実線
100
AcDbLine
 10
1284.357431874014
 20
555.1399727404986
 30
0.0
 11
1284.357431874014
 21
565.2545814803421
 31
0.0
  0
LINE
  5
9C9
102
{ACAD_REACTORS
330
B97
102
}
330
1F
100
AcDbEntity
  8
実線
100
AcDbLine
 10
1284.357431874014
 20
565.2545814803421
 30
0.0
 11
1219.357431874015
 21
565.2545814803421
 31
0.0
  0
LINE
  5
9CA
102
{ACAD_REACTORS
330
B97
102
}
330
1F
100
AcDbEntity
  8
実線
100
AcDbLine
 10
1205.831846720727
 20
497.2229690413051
 30
0.0
 11
1191.736457408939
 21
502.3532711911902
 31
0.0
  0
LINE
  5
9CB
102
{ACAD_REACTORS
330
B97
102
}
330
1F
100
AcDbEntity
  8
実線
100
AcDbLine
 10
1219.512652453754
 20
534.8106738727413
 30
0.0
 11
1205.417263141966
 21
539.9409760226261
 31
0.0
  0
LINE
  5
9CC
102
{ACAD_REACTORS
330
B97
102
}
330
1F
100
AcDbEntity
  8
実線
100
AcDbLine
 10
1210.620128727287
 20
510.3786657323078
 30
0.0
 11
1205.831846720727
 21
497.2229690413051
 31
0.0
  0
LINE
  5
9CD
102
{ACAD_REACTORS
330
B97
102
}
330
1F
100
AcDbEntity
  8
実線
100
AcDbLine
 10
1219.512652453754
 20
534.8106738727413
 30
0.0
 11
1214.724370447195
 21
521.6549771817388
 31
0.0
  0
LINE
  5
9CE
102
{ACAD_REACTORS
330
B97
102
}
330
1F
100
AcDbEntity
  8
実線
100
AcDbLine
 10
1191.736457408939
 20
502.3532711911902
 30
0.0
 11
1205.417263141966
 21
539.9409760226261
 31
0.0
  0
LINE
  5
9CF
102
{ACAD_REACTORS
330
B97
102
}
330
1F
100
AcDbEntity
  8
実線
100
AcDbLine
 10
1206.826802073144
 20
539.4279458076376
 30
0.0
 11
1193.145996340117
 21
501.8402409762017
 31
0.0
  0
LINE
  5
9D0
102
{ACAD_REACTORS
330
B97
102
}
330
1F
100
AcDbEntity
  8
実線
100
AcDbLine
 10
1213.857431874014
 20
431.5545814803423
 30
0.0
 11
1213.857431874014
 21
449.2045814803423
 31
0.0
  0
LINE
  5
9D1
102
{ACAD_REACTORS
330
B97
102
}
330
1F
100
AcDbEntity
  8
実線
100
AcDbLine
 10
1238.857431874015
 20
449.2045814803423
 30
0.0
 11
1238.857431874015
 21
431.5545814803423
 31
0.0
  0
LINE
  5
9D2
102
{ACAD_REACTORS
330
B97
102
}
330
1F
100
AcDbEntity
  8
実線
100
AcDbLine
 10
1238.857431874015
 20
431.5545814803423
 30
0.0
 11
1213.857431874014
 21
431.5545814803423
 31
0.0
  0
LINE
  5
9D3
102
{ACAD_REACTORS
330
B97
102
}
330
1F
100
AcDbEntity
  8
実線
100
AcDbLine
 10
1213.857431874014
 20
510.7545814803422
 30
0.0
 11
1246.729189946887
 21
510.7545814803422
 31
0.0
  0
LINE
  5
9D4
102
{ACAD_REACTORS
330
B97
102
}
330
1F
100
AcDbEntity
  8
実線
100
AcDbLine
 10
1213.857431874014
 20
488.0677016986719
 30
0.0
 11
1213.857431874014
 21
510.7545814803422
 31
0.0
  0
ARC
  5
9D5
102
{ACAD_REACTORS
330
B97
102
}
330
1F
100
AcDbEntity
  8
実線
100
AcDbCircle
 10
1288.857431874015
 20
483.554581480342
 30
0.0
 40
25.0
100
AcDbArc
 50
233.1301023541544
 51
143.1301023541543
  0
LINE
  5
9D6
102
{ACAD_REACTORS
330
B97
102
}
330
1F
100
AcDbEntity
  8
実線
100
AcDbLine
 10
1268.857431874015
 20
498.554581480342
 30
0.0
 11
1268.857431874015
 21
488.554581480342
 31
0.0
  0
LINE
  5
9D7
102
{ACAD_REACTORS
330
B97
102
}
330
1F
100
AcDbEntity
  8
実線
100
AcDbLine
 10
1267.857431874015
 20
488.554581480342
 30
0.0
 11
1267.857431874015
 21
468.5545814803423
 31
0.0
  0
LINE
  5
9D8
102
{ACAD_REACTORS
330
B97
102
}
330
1F
100
AcDbEntity
  8
実線
100
AcDbLine
 10
1265.857431874015
 20
468.5545814803423
 30
0.0
 11
1265.857431874015
 21
488.554581480342
 31
0.0
  0
LINE
  5
9D9
102
{ACAD_REACTORS
330
B97
102
}
330
1F
100
AcDbEntity
  8
実線
100
AcDbLine
 10
1267.857431874015
 20
468.5545814803423
 30
0.0
 11
1265.857431874015
 21
468.5545814803423
 31
0.0
  0
LINE
  5
9DA
102
{ACAD_REACTORS
330
B97
102
}
330
1F
100
AcDbEntity
  8
実線
100
AcDbLine
 10
1265.857431874015
 20
488.554581480342
 30
0.0
 11
1267.857431874015
 21
488.554581480342
 31
0.0
  0
LINE
  5
9DB
102
{ACAD_REACTORS
330
B8F
102
}
330
1F
100
AcDbEntity
  8
実線
100
AcDbLine
 10
785.4574318740167
 20
501.9579348966892
 30
0.0
 11
797.0574318740164
 21
501.9579348966892
 31
0.0
  0
LINE
  5
9DC
102
{ACAD_REACTORS
330
B8F
102
}
330
1F
100
AcDbEntity
  8
実線
100
AcDbLine
 10
797.0574318740164
 20
519.9579348966892
 30
0.0
 11
785.4574318740167
 21
519.9579348966892
 31
0.0
  0
LINE
  5
9DD
102
{ACAD_REACTORS
330
B8F
102
}
330
1F
100
AcDbEntity
  8
実線
100
AcDbLine
 10
785.4574318740167
 20
519.9579348966892
 30
0.0
 11
785.4574318740167
 21
501.9579348966892
 31
0.0
  0
LINE
  5
9DE
102
{ACAD_REACTORS
330
B8F
102
}
330
1F
100
AcDbEntity
  8
実線
100
AcDbLine
 10
785.4574318740167
 20
483.5512280639949
 30
0.0
 11
797.0574318740164
 21
483.5512280639949
 31
0.0
  0
LINE
  5
9DF
102
{ACAD_REACTORS
330
B8F
102
}
330
1F
100
AcDbEntity
  8
実線
100
AcDbLine
 10
797.0574318740164
 20
501.5512280639947
 30
0.0
 11
785.4574318740167
 21
501.5512280639947
 31
0.0
  0
LINE
  5
9E0
102
{ACAD_REACTORS
330
B8F
102
}
330
1F
100
AcDbEntity
  8
実線
100
AcDbLine
 10
785.4574318740167
 20
501.5512280639947
 30
0.0
 11
785.4574318740167
 21
483.5512280639949
 31
0.0
  0
LINE
  5
9E1
102
{ACAD_REACTORS
330
B8F
102
}
330
1F
100
AcDbEntity
  8
実線
100
AcDbLine
 10
785.4574318740167
 20
440.559770570695
 30
0.0
 11
797.0574318740164
 21
440.559770570695
 31
0.0
  0
LINE
  5
9E2
102
{ACAD_REACTORS
330
B8F
102
}
330
1F
100
AcDbEntity
  8
実線
100
AcDbLine
 10
797.0574318740164
 20
458.5597705706951
 30
0.0
 11
785.4574318740167
 21
458.5597705706951
 31
0.0
  0
LINE
  5
9E3
102
{ACAD_REACTORS
330
B8F
102
}
330
1F
100
AcDbEntity
  8
実線
100
AcDbLine
 10
785.4574318740167
 20
458.5597705706951
 30
0.0
 11
785.4574318740167
 21
440.559770570695
 31
0.0
  0
LINE
  5
9E4
102
{ACAD_REACTORS
330
B8F
102
}
330
1F
100
AcDbEntity
  8
実線
100
AcDbLine
 10
785.4574318740167
 20
544.9493923899892
 30
0.0
 11
797.0574318740164
 21
544.9493923899892
 31
0.0
  0
LINE
  5
9E5
102
{ACAD_REACTORS
330
B8F
102
}
330
1F
100
AcDbEntity
  8
実線
100
AcDbLine
 10
797.0574318740164
 20
562.9493923899891
 30
0.0
 11
785.4574318740167
 21
562.9493923899891
 31
0.0
  0
LINE
  5
9E6
102
{ACAD_REACTORS
330
B8F
102
}
330
1F
100
AcDbEntity
  8
実線
100
AcDbLine
 10
785.4574318740167
 20
562.9493923899891
 30
0.0
 11
785.4574318740167
 21
544.9493923899892
 31
0.0
  0
LINE
  5
9E7
102
{ACAD_REACTORS
330
B8F
102
}
330
1F
100
AcDbEntity
  8
実線
100
AcDbLine
 10
779.5574318740177
 20
503.7079348966893
 30
0.0
 11
785.4574318740167
 21
503.7079348966893
 31
0.0
  0
LINE
  5
9E8
102
{ACAD_REACTORS
330
B8F
102
}
330
1F
100
AcDbEntity
  8
実線
100
AcDbLine
 10
785.4574318740167
 20
518.2079348966892
 30
0.0
 11
779.5574318740177
 21
518.2079348966892
 31
0.0
  0
LINE
  5
9E9
102
{ACAD_REACTORS
330
B8F
102
}
330
1F
100
AcDbEntity
  8
実線
100
AcDbLine
 10
779.5574318740177
 20
518.2079348966892
 30
0.0
 11
779.5574318740177
 21
503.7079348966893
 31
0.0
  0
LINE
  5
9EA
102
{ACAD_REACTORS
330
B8F
102
}
330
1F
100
AcDbEntity
  8
実線
100
AcDbLine
 10
779.5574318740177
 20
442.309770570695
 30
0.0
 11
785.4574318740167
 21
442.309770570695
 31
0.0
  0
LINE
  5
9EB
102
{ACAD_REACTORS
330
B8F
102
}
330
1F
100
AcDbEntity
  8
実線
100
AcDbLine
 10
785.4574318740167
 20
456.8097705706951
 30
0.0
 11
779.5574318740177
 21
456.8097705706951
 31
0.0
  0
LINE
  5
9EC
102
{ACAD_REACTORS
330
B8F
102
}
330
1F
100
AcDbEntity
  8
実線
100
AcDbLine
 10
779.5574318740177
 20
456.8097705706951
 30
0.0
 11
779.5574318740177
 21
442.309770570695
 31
0.0
  0
LINE
  5
9ED
102
{ACAD_REACTORS
330
B8F
102
}
330
1F
100
AcDbEntity
  8
実線
100
AcDbLine
 10
779.5574318740177
 20
546.6993923899893
 30
0.0
 11
785.4574318740167
 21
546.6993923899893
 31
0.0
  0
LINE
  5
9EE
102
{ACAD_REACTORS
330
B8F
102
}
330
1F
100
AcDbEntity
  8
実線
100
AcDbLine
 10
785.4574318740167
 20
561.1993923899891
 30
0.0
 11
779.5574318740177
 21
561.1993923899891
 31
0.0
  0
LINE
  5
9EF
102
{ACAD_REACTORS
330
B8F
102
}
330
1F
100
AcDbEntity
  8
実線
100
AcDbLine
 10
779.5574318740177
 20
561.1993923899891
 30
0.0
 11
779.5574318740177
 21
546.6993923899893
 31
0.0
  0
LINE
  5
9F0
102
{ACAD_REACTORS
330
B8F
102
}
330
1F
100
AcDbEntity
  8
実線
100
AcDbLine
 10
779.5574318740177
 20
485.3012280639949
 30
0.0
 11
785.4574318740167
 21
485.3012280639949
 31
0.0
  0
LINE
  5
9F1
102
{ACAD_REACTORS
330
B8F
102
}
330
1F
100
AcDbEntity
  8
実線
100
AcDbLine
 10
785.4574318740167
 20
499.8012280639946
 30
0.0
 11
779.5574318740177
 21
499.8012280639946
 31
0.0
  0
LINE
  5
9F2
102
{ACAD_REACTORS
330
B8F
102
}
330
1F
100
AcDbEntity
  8
実線
100
AcDbLine
 10
779.5574318740177
 20
499.8012280639946
 30
0.0
 11
779.5574318740177
 21
485.3012280639949
 31
0.0
  0
LINE
  5
9F3
102
{ACAD_REACTORS
330
B8F
102
}
330
1F
100
AcDbEntity
  8
実線
100
AcDbLine
 10
832.3574318740165
 20
537.2220703432146
 30
0.0
 11
832.3574318740165
 21
521.1471236069082
 31
0.0
  0
LINE
  5
9F4
102
{ACAD_REACTORS
330
B8F
102
}
330
1F
100
AcDbEntity
  8
実線
100
AcDbLine
 10
844.3574318740166
 20
521.1471236069082
 30
0.0
 11
844.3574318740166
 21
537.2220703432146
 31
0.0
  0
ELLIPSE
  5
9F5
102
{ACAD_REACTORS
330
B8F
102
}
330
1F
100
AcDbEntity
  8
実線
100
AcDbEllipse
 10
838.3574318740166
 20
537.2220703432146
 30
0.0
 11
6.0
 21
0.0
 31
0.0
210
0.0
220
0.0
230
1.0
 40
0.9396926207859085
 41
0.0
 42
3.141592653589792
  0
ELLIPSE
  5
9F6
102
{ACAD_REACTORS
330
B8F
102
}
330
1F
100
AcDbEntity
  8
実線
100
AcDbEllipse
 10
838.3574318740166
 20
537.2220703432146
 30
0.0
 11
6.0
 21
0.0
 31
0.0
210
0.0
220
0.0
230
1.0
 40
0.9396926207859085
 41
4.71238898038469
 42
6.283185307179584
  0
ELLIPSE
  5
9F7
102
{ACAD_REACTORS
330
B8F
102
}
330
1F
100
AcDbEntity
  8
実線
100
AcDbEllipse
 10
838.3574318740166
 20
537.2220703432146
 30
0.0
 11
6.0
 21
0.0
 31
0.0
210
0.0
220
0.0
230
1.0
 40
0.9396926207859085
 41
3.141592653589792
 42
4.71238898038469
  0
LINE
  5
9F8
102
{ACAD_REACTORS
330
B8F
102
}
330
1F
100
AcDbEntity
  8
実線
100
AcDbLine
 10
888.8574318740166
 20
487.7622775473069
 30
0.0
 11
888.8574318740166
 21
530.5317512492259
 31
0.0
  0
LINE
  5
9F9
102
{ACAD_REACTORS
330
B8F
102
}
330
1F
100
AcDbEntity
  8
実線
100
AcDbLine
 10
898.8574318740166
 20
436.5774117114582
 30
0.0
 11
898.8574318740166
 21
530.5317512492259
 31
0.0
  0
LINE
  5
9FA
102
{ACAD_REACTORS
330
B8F
102
}
330
1F
100
AcDbEntity
  8
実線
100
AcDbLine
 10
898.8574318740166
 20
530.5317512492259
 30
0.0
 11
888.8574318740166
 21
530.5317512492259
 31
0.0
  0
LINE
  5
9FB
102
{ACAD_REACTORS
330
B8F
102
}
330
1F
100
AcDbEntity
  8
実線
100
AcDbLine
 10
888.8574318740166
 20
436.5774117114582
 30
0.0
 11
888.8574318740166
 21
452.3468854133773
 31
0.0
  0
LINE
  5
9FC
102
{ACAD_REACTORS
330
B8F
102
}
330
1F
100
AcDbEntity
  8
実線
100
AcDbLine
 10
888.8574318740166
 20
436.5774117114582
 30
0.0
 11
898.8574318740166
 21
436.5774117114582
 31
0.0
  0
LINE
  5
9FD
102
{ACAD_REACTORS
330
B8F
102
}
330
1F
100
AcDbEntity
  8
実線
100
AcDbLine
 10
898.8574318740166
 20
501.5834782907663
 30
0.0
 11
888.8574318740166
 21
501.5834782907663
 31
0.0
  0
LINE
  5
9FE
102
{ACAD_REACTORS
330
B8F
102
}
330
1F
100
AcDbEntity
  8
実線
100
AcDbLine
 10
898.8574318740166
 20
465.5256846699183
 30
0.0
 11
895.6979550907396
 21
465.5256846699183
 31
0.0
  0
LINE
  5
9FF
102
{ACAD_REACTORS
330
B8F
102
}
330
1F
100
AcDbEntity
  8
実線
100
AcDbLine
 10
833.8574318740166
 20
546.5545814803419
 30
0.0
 11
868.8574318740165
 21
546.5545814803419
 31
0.0
  0
LINE
  5
A00
102
{ACAD_REACTORS
330
B8F
102
}
330
1F
100
AcDbEntity
  8
実線
100
AcDbLine
 10
833.8574318740166
 20
546.5545814803419
 30
0.0
 11
833.8574318740166
 21
540.9513598183776
 31
0.0
  0
LINE
  5
A01
102
{ACAD_REACTORS
330
B8F
102
}
330
1F
100
AcDbEntity
  8
実線
100
AcDbLine
 10
868.8574318740165
 20
510.7545814803422
 30
0.0
 11
868.8574318740165
 21
546.5545814803419
 31
0.0
  0
LINE
  5
A02
102
{ACAD_REACTORS
330
B8F
102
}
330
1F
100
AcDbEntity
  8
実線
100
AcDbLine
 10
852.3574318740166
 20
536.7756108769774
 30
0.0
 11
852.3574318740166
 21
492.3353193011691
 31
0.0
  0
LINE
  5
A03
102
{ACAD_REACTORS
330
B8F
102
}
330
1F
100
AcDbEntity
  8
実線
100
AcDbLine
 10
821.3574318740166
 20
462.6045814803421
 30
0.0
 11
831.8574318740166
 21
462.6045814803421
 31
0.0
  0
LINE
  5
A04
102
{ACAD_REACTORS
330
B8F
102
}
330
1F
100
AcDbEntity
  8
実線
100
AcDbLine
 10
833.8140144248857
 20
540.9045814803421
 30
0.0
 11
821.3574318740166
 21
540.9045814803421
 31
0.0
  0
CIRCLE
  5
A05
102
{ACAD_REACTORS
330
B8F
102
}
330
1F
100
AcDbEntity
  8
実線
100
AcDbCircle
 10
870.8574318740165
 20
470.0545814803423
 30
0.0
 40
25.25
  0
ARC
  5
A06
102
{ACAD_REACTORS
330
B8F
102
}
330
1F
100
AcDbEntity
  8
実線
100
AcDbCircle
 10
831.8574318740166
 20
483.554581480342
 30
0.0
 40
25.25
100
AcDbArc
 50
245.4276737683572
 51
270.0
  0
LINE
  5
A07
102
{ACAD_REACTORS
330
B8F
102
}
330
1F
100
AcDbEntity
  8
実線
100
AcDbLine
 10
1058.857431874016
 20
533.554581480342
 30
0.0
 11
1058.857431874016
 21
433.554581480342
 31
0.0
  0
LINE
  5
A08
102
{ACAD_REACTORS
330
B8F
102
}
330
1F
100
AcDbEntity
  8
実線
100
AcDbLine
 10
982.8574318740166
 20
433.554581480342
 30
0.0
 11
1058.857431874016
 21
433.554581480342
 31
0.0
  0
LINE
  5
A09
102
{ACAD_REACTORS
330
B8F
102
}
330
1F
100
AcDbEntity
  8
実線
100
AcDbLine
 10
1058.857431874016
 20
533.554581480342
 30
0.0
 11
982.8574318740166
 21
533.554581480342
 31
0.0
  0
LINE
  5
A0A
102
{ACAD_REACTORS
330
B8F
102
}
330
1F
100
AcDbEntity
  8
実線
100
AcDbLine
 10
982.8574318740166
 20
533.554581480342
 30
0.0
 11
982.8574318740166
 21
433.554581480342
 31
0.0
  0
LINE
  5
A0B
102
{ACAD_REACTORS
330
B8F
102
}
330
1F
100
AcDbEntity
  8
実線
100
AcDbLine
 10
912.3574318740166
 20
436.5774117114582
 30
0.0
 11
912.3574318740166
 21
530.5317512492259
 31
0.0
  0
LINE
  5
A0C
102
{ACAD_REACTORS
330
B8F
102
}
330
1F
100
AcDbEntity
  8
実線
100
AcDbLine
 10
912.3574318740166
 20
530.5317512492259
 30
0.0
 11
898.8574318740166
 21
530.5317512492259
 31
0.0
  0
LINE
  5
A0D
102
{ACAD_REACTORS
330
B8F
102
}
330
1F
100
AcDbEntity
  8
実線
100
AcDbLine
 10
898.8574318740166
 20
436.5774117114582
 30
0.0
 11
912.3574318740166
 21
436.5774117114582
 31
0.0
  0
LINE
  5
A0E
102
{ACAD_REACTORS
330
B8F
102
}
330
1F
100
AcDbEntity
  8
実線
100
AcDbLine
 10
912.3574318740166
 20
501.5834782907663
 30
0.0
 11
898.8574318740166
 21
501.5834782907663
 31
0.0
  0
LINE
  5
A0F
102
{ACAD_REACTORS
330
B8F
102
}
330
1F
100
AcDbEntity
  8
実線
100
AcDbLine
 10
912.3574318740166
 20
465.5256846699183
 30
0.0
 11
898.8574318740166
 21
465.5256846699183
 31
0.0
  0
LINE
  5
A10
102
{ACAD_REACTORS
330
B8F
102
}
330
1F
100
AcDbEntity
  8
実線
100
AcDbLine
 10
1107.357431874016
 20
488.554581480342
 30
0.0
 11
1107.357431874016
 21
496.054581480342
 31
0.0
  0
LINE
  5
A11
102
{ACAD_REACTORS
330
B8F
102
}
330
1F
100
AcDbEntity
  8
実線
100
AcDbLine
 10
1107.357431874016
 20
496.054581480342
 30
0.0
 11
1102.357431874017
 21
496.054581480342
 31
0.0
  0
LINE
  5
A12
102
{ACAD_REACTORS
330
B8F
102
}
330
1F
100
AcDbEntity
  8
実線
100
AcDbLine
 10
1102.357431874017
 20
496.054581480342
 30
0.0
 11
1102.357431874017
 21
488.554581480342
 31
0.0
  0
LINE
  5
A13
102
{ACAD_REACTORS
330
B8F
102
}
330
1F
100
AcDbEntity
  8
実線
100
AcDbLine
 10
1103.357431874016
 20
463.5545814803418
 30
0.0
 11
1103.357431874016
 21
457.0545814803421
 31
0.0
  0
LINE
  5
A14
102
{ACAD_REACTORS
330
B8F
102
}
330
1F
100
AcDbEntity
  8
実線
100
AcDbLine
 10
1106.357431874016
 20
457.0545814803421
 30
0.0
 11
1106.357431874016
 21
463.5545814803418
 31
0.0
  0
LINE
  5
A15
102
{ACAD_REACTORS
330
B8F
102
}
330
1F
100
AcDbEntity
  8
実線
100
AcDbLine
 10
1103.357431874016
 20
457.0545814803421
 30
0.0
 11
1106.357431874016
 21
457.0545814803421
 31
0.0
  0
LINE
  5
A16
102
{ACAD_REACTORS
330
B8F
102
}
330
1F
100
AcDbEntity
  8
実線
100
AcDbLine
 10
1089.407431874017
 20
468.5545814803423
 30
0.0
 11
1089.407431874017
 21
463.554581480342
 31
0.0
  0
LINE
  5
A17
102
{ACAD_REACTORS
330
B8F
102
}
330
1F
100
AcDbEntity
  8
実線
100
AcDbLine
 10
1089.407431874017
 20
463.554581480342
 30
0.0
 11
1097.307431874017
 21
463.554581480342
 31
0.0
  0
LINE
  5
A18
102
{ACAD_REACTORS
330
B8F
102
}
330
1F
100
AcDbEntity
  8
実線
100
AcDbLine
 10
1097.307431874017
 20
468.5545814803423
 30
0.0
 11
1097.307431874017
 21
463.554581480342
 31
0.0
  0
LINE
  5
A19
102
{ACAD_REACTORS
330
B8F
102
}
330
1F
100
AcDbEntity
  8
実線
100
AcDbLine
 10
1091.857431874016
 20
463.5545814803418
 30
0.0
 11
1091.857431874016
 21
457.0545814803421
 31
0.0
  0
LINE
  5
A1A
102
{ACAD_REACTORS
330
B8F
102
}
330
1F
100
AcDbEntity
  8
実線
100
AcDbLine
 10
1094.857431874016
 20
457.0545814803421
 30
0.0
 11
1094.857431874016
 21
463.5545814803418
 31
0.0
  0
LINE
  5
A1B
102
{ACAD_REACTORS
330
B8F
102
}
330
1F
100
AcDbEntity
  8
実線
100
AcDbLine
 10
1091.857431874016
 20
457.0545814803421
 30
0.0
 11
1094.857431874016
 21
457.0545814803421
 31
0.0
  0
LINE
  5
A1C
102
{ACAD_REACTORS
330
B8F
102
}
330
1F
100
AcDbEntity
  8
実線
100
AcDbLine
 10
1100.907431874017
 20
468.5545814803423
 30
0.0
 11
1100.907431874017
 21
463.554581480342
 31
0.0
  0
LINE
  5
A1D
102
{ACAD_REACTORS
330
B8F
102
}
330
1F
100
AcDbEntity
  8
実線
100
AcDbLine
 10
1100.907431874017
 20
463.554581480342
 30
0.0
 11
1108.807431874017
 21
463.554581480342
 31
0.0
  0
LINE
  5
A1E
102
{ACAD_REACTORS
330
B8F
102
}
330
1F
100
AcDbEntity
  8
実線
100
AcDbLine
 10
1108.807431874017
 20
468.5545814803423
 30
0.0
 11
1108.807431874017
 21
463.554581480342
 31
0.0
  0
LINE
  5
A1F
102
{ACAD_REACTORS
330
B8F
102
}
330
1F
100
AcDbEntity
  8
実線
100
AcDbLine
 10
1112.657431874017
 20
491.0545814803421
 30
0.0
 11
1112.657431874017
 21
476.054581480342
 31
0.0
  0
LINE
  5
A20
102
{ACAD_REACTORS
330
B8F
102
}
330
1F
100
AcDbEntity
  8
実線
100
AcDbLine
 10
1109.857431874016
 20
476.054581480342
 30
0.0
 11
1112.657431874017
 21
476.054581480342
 31
0.0
  0
LINE
  5
A21
102
{ACAD_REACTORS
330
B8F
102
}
330
1F
100
AcDbEntity
  8
実線
100
AcDbLine
 10
1112.657431874017
 20
491.0545814803421
 30
0.0
 11
1107.357431874016
 21
491.0545814803421
 31
0.0
  0
LINE
  5
A22
102
{ACAD_REACTORS
330
B8F
102
}
330
1F
100
AcDbEntity
  8
実線
100
AcDbLine
 10
1078.857431874016
 20
508.554581480342
 30
0.0
 11
1078.857431874016
 21
473.7566225092093
 31
0.0
  0
LINE
  5
A23
102
{ACAD_REACTORS
330
B8F
102
}
330
1F
100
AcDbEntity
  8
実線
100
AcDbLine
 10
1073.857431874017
 20
458.554581480342
 30
0.0
 11
1078.857431874016
 21
458.554581480342
 31
0.0
  0
LINE
  5
A24
102
{ACAD_REACTORS
330
B8F
102
}
330
1F
100
AcDbEntity
  8
実線
100
AcDbLine
 10
1078.857431874016
 20
508.554581480342
 30
0.0
 11
1073.857431874017
 21
508.554581480342
 31
0.0
  0
LINE
  5
A25
102
{ACAD_REACTORS
330
B8F
102
}
330
1F
100
AcDbEntity
  8
実線
100
AcDbLine
 10
1102.357431874017
 20
489.5545814803423
 30
0.0
 11
1080.857431874016
 21
489.5545814803423
 31
0.0
  0
LINE
  5
A26
102
{ACAD_REACTORS
330
B8F
102
}
330
1F
100
AcDbEntity
  8
実線
100
AcDbLine
 10
1073.857431874017
 20
518.5545814803423
 30
0.0
 11
1073.857431874017
 21
448.5545814803423
 31
0.0
  0
LINE
  5
A27
102
{ACAD_REACTORS
330
B8F
102
}
330
1F
100
AcDbEntity
  8
実線
100
AcDbLine
 10
1063.357431874016
 20
448.5545814803423
 30
0.0
 11
1073.857431874017
 21
448.5545814803423
 31
0.0
  0
LINE
  5
A28
102
{ACAD_REACTORS
330
B8F
102
}
330
1F
100
AcDbEntity
  8
実線
100
AcDbLine
 10
1073.857431874017
 20
518.5545814803423
 30
0.0
 11
1063.357431874016
 21
518.5545814803423
 31
0.0
  0
LINE
  5
A29
102
{ACAD_REACTORS
330
B8F
102
}
330
1F
100
AcDbEntity
  8
実線
100
AcDbLine
 10
1058.857431874016
 20
433.554581480342
 30
0.0
 11
1060.357431874016
 21
433.554581480342
 31
0.0
  0
LINE
  5
A2A
102
{ACAD_REACTORS
330
B8F
102
}
330
1F
100
AcDbEntity
  8
実線
100
AcDbLine
 10
1060.357431874016
 20
533.554581480342
 30
0.0
 11
1058.857431874016
 21
533.554581480342
 31
0.0
  0
LINE
  5
A2B
102
{ACAD_REACTORS
330
B8F
102
}
330
1F
100
AcDbEntity
  8
実線
100
AcDbLine
 10
1063.357431874016
 20
530.5545814803421
 30
0.0
 11
1063.357431874016
 21
436.5545814803423
 31
0.0
  0
ARC
  5
A2C
102
{ACAD_REACTORS
330
B8F
102
}
330
1F
100
AcDbEntity
  8
実線
100
AcDbCircle
 10
1060.357431874016
 20
436.5545814803423
 30
0.0
 40
3.0
100
AcDbArc
 50
270.0
 51
0.0
  0
ARC
  5
A2D
102
{ACAD_REACTORS
330
B8F
102
}
330
1F
100
AcDbEntity
  8
実線
100
AcDbCircle
 10
1060.357431874016
 20
530.5545814803421
 30
0.0
 40
3.0
100
AcDbArc
 50
0.0
 51
90.0
  0
LINE
  5
A2E
102
{ACAD_REACTORS
330
B8F
102
}
330
1F
100
AcDbEntity
  8
実線
100
AcDbLine
 10
982.8574318740166
 20
523.5545814803423
 30
0.0
 11
939.3574318740164
 21
523.5545814803423
 31
0.0
  0
LINE
  5
A2F
102
{ACAD_REACTORS
330
B8F
102
}
330
1F
100
AcDbEntity
  8
実線
100
AcDbLine
 10
939.3574318740164
 20
494.804581480342
 30
0.0
 11
939.3574318740164
 21
523.5545814803423
 31
0.0
  0
LINE
  5
A30
102
{ACAD_REACTORS
330
B8F
102
}
330
1F
100
AcDbEntity
  8
実線
100
AcDbLine
 10
939.3574318740164
 20
472.3045814803421
 30
0.0
 11
939.3574318740164
 21
443.5545814803423
 31
0.0
  0
LINE
  5
A31
102
{ACAD_REACTORS
330
B8F
102
}
330
1F
100
AcDbEntity
  8
実線
100
AcDbLine
 10
939.3574318740164
 20
443.5545814803423
 30
0.0
 11
982.8574318740166
 21
443.5545814803423
 31
0.0
  0
LINE
  5
A32
102
{ACAD_REACTORS
330
B8F
102
}
330
1F
100
AcDbEntity
  8
実線
100
AcDbLine
 10
982.8574318740166
 20
472.3045814803421
 30
0.0
 11
912.3574318740166
 21
472.3045814803421
 31
0.0
  0
LINE
  5
A33
102
{ACAD_REACTORS
330
B8F
102
}
330
1F
100
AcDbEntity
  8
実線
100
AcDbLine
 10
982.8574318740166
 20
494.804581480342
 30
0.0
 11
912.3574318740166
 21
494.804581480342
 31
0.0
  0
LINE
  5
A34
102
{ACAD_REACTORS
330
B8F
102
}
330
1F
100
AcDbEntity
  8
実線
100
AcDbLine
 10
809.3574318740165
 20
565.2545814803421
 30
0.0
 11
809.3574318740165
 21
439.2545814803423
 31
0.0
  0
LINE
  5
A35
102
{ACAD_REACTORS
330
B8F
102
}
330
1F
100
AcDbEntity
  8
実線
100
AcDbLine
 10
821.3574318740166
 20
565.2545814803421
 30
0.0
 11
821.3574318740166
 21
439.2545814803423
 31
0.0
  0
LINE
  5
A36
102
{ACAD_REACTORS
330
B8F
102
}
330
1F
100
AcDbEntity
  8
実線
100
AcDbLine
 10
821.3574318740166
 20
565.2545814803421
 30
0.0
 11
809.3574318740165
 21
565.2545814803421
 31
0.0
  0
LINE
  5
A37
102
{ACAD_REACTORS
330
B8F
102
}
330
1F
100
AcDbEntity
  8
実線
100
AcDbLine
 10
809.3574318740165
 20
555.1399727404988
 30
0.0
 11
821.3574318740166
 21
555.1399727404988
 31
0.0
  0
LINE
  5
A38
102
{ACAD_REACTORS
330
B8F
102
}
330
1F
100
AcDbEntity
  8
実線
100
AcDbLine
 10
809.3574318740165
 20
439.2545814803423
 30
0.0
 11
821.3574318740166
 21
439.2545814803423
 31
0.0
  0
LINE
  5
A39
102
{ACAD_REACTORS
330
B8F
102
}
330
1F
100
AcDbEntity
  8
実線
100
AcDbLine
 10
822.8574318740179
 20
497.2229690413051
 30
0.0
 11
822.8574318740179
 21
501.8402409762017
 31
0.0
  0
LINE
  5
A3A
102
{ACAD_REACTORS
330
B8F
102
}
330
1F
100
AcDbEntity
  8
実線
100
AcDbLine
 10
822.8574318740179
 20
501.8402409762017
 30
0.0
 11
851.3574318740179
 21
501.8402409762017
 31
0.0
  0
LINE
  5
A3B
102
{ACAD_REACTORS
330
B8F
102
}
330
1F
100
AcDbEntity
  8
実線
100
AcDbLine
 10
851.3574318740179
 20
501.8402409762016
 30
0.0
 11
851.3574318740179
 21
539.9409760226261
 31
0.0
  0
LINE
  5
A3C
102
{ACAD_REACTORS
330
B8F
102
}
330
1F
100
AcDbEntity
  8
実線
100
AcDbLine
 10
821.3574318740176
 20
497.2229690413051
 30
0.0
 11
822.8574318740179
 21
497.2229690413051
 31
0.0
  0
LINE
  5
A3D
102
{ACAD_REACTORS
330
B8F
102
}
330
1F
100
AcDbEntity
  8
実線
100
AcDbLine
 10
821.3574318740176
 20
502.3532711911902
 30
0.0
 11
851.3574318740179
 21
502.3532711911902
 31
0.0
  0
LINE
  5
A3E
102
{ACAD_REACTORS
330
B8F
102
}
330
1F
100
AcDbEntity
  8
実線
100
AcDbLine
 10
843.6136893151655
 20
539.9409760226263
 30
0.0
 11
851.3574318740179
 21
539.9409760226263
 31
0.0
  0
LINE
  5
A3F
102
{ACAD_REACTORS
330
B8F
102
}
330
1F
100
AcDbEntity
  8
実線
100
AcDbLine
 10
821.3574318740176
 20
539.9409760226263
 30
0.0
 11
833.1011744328687
 21
539.9409760226263
 31
0.0
  0
LINE
  5
A40
102
{ACAD_REACTORS
330
B8F
102
}
330
1F
100
AcDbEntity
  8
実線
100
AcDbLine
 10
831.8574318740166
 20
492.3353193011693
 30
0.0
 11
831.8574318740166
 21
431.5545814803423
 31
0.0
  0
LINE
  5
A41
102
{ACAD_REACTORS
330
B8F
102
}
330
1F
100
AcDbEntity
  8
実線
100
AcDbLine
 10
861.8574318740165
 20
431.5545814803423
 30
0.0
 11
861.8574318740165
 21
446.4630045936647
 31
0.0
  0
LINE
  5
A42
102
{ACAD_REACTORS
330
B8F
102
}
330
1F
100
AcDbEntity
  8
実線
100
AcDbLine
 10
852.3574318740166
 20
510.7545814803422
 30
0.0
 11
881.3574318740165
 21
510.7545814803422
 31
0.0
  0
LINE
  5
A43
102
{ACAD_REACTORS
330
B8F
102
}
330
1F
100
AcDbEntity
  8
実線
100
AcDbLine
 10
881.3574318740165
 20
493.0178673950364
 30
0.0
 11
881.3574318740165
 21
510.7545814803422
 31
0.0
  0
LINE
  5
A44
102
{ACAD_REACTORS
330
B8F
102
}
330
1F
100
AcDbEntity
  8
実線
100
AcDbLine
 10
831.8574318740166
 20
431.5545814803423
 30
0.0
 11
861.8574318740165
 21
431.5545814803423
 31
0.0
  0
LINE
  5
A45
102
{ACAD_REACTORS
330
B8F
102
}
330
1F
100
AcDbEntity
  8
実線
100
AcDbLine
 10
877.0750323183506
 20
445.5820674142593
 30
0.0
 11
886.8574318740165
 21
443.5545814803423
 31
0.0
  0
LINE
  5
A46
102
{ACAD_REACTORS
330
B8F
102
}
330
1F
100
AcDbEntity
  8
実線
100
AcDbLine
 10
886.8574318740165
 20
523.5545814803423
 30
0.0
 11
868.8574318740165
 21
519.8239276052024
 31
0.0
  0
LINE
  5
A47
102
{ACAD_REACTORS
330
B8F
102
}
330
1F
100
AcDbEntity
  8
実線
100
AcDbLine
 10
886.8574318740165
 20
450.5209566247246
 30
0.0
 11
886.8574318740165
 21
443.5545814803423
 31
0.0
  0
LINE
  5
A48
102
{ACAD_REACTORS
330
B8F
102
}
330
1F
100
AcDbEntity
  8
実線
100
AcDbLine
 10
886.8574318740165
 20
443.5545814803423
 30
0.0
 11
888.8574318740166
 21
443.5545814803423
 31
0.0
  0
LINE
  5
A49
102
{ACAD_REACTORS
330
B8F
102
}
330
1F
100
AcDbEntity
  8
実線
100
AcDbLine
 10
888.8574318740166
 20
523.5545814803423
 30
0.0
 11
886.8574318740165
 21
523.5545814803423
 31
0.0
  0
LINE
  5
A4A
102
{ACAD_REACTORS
330
B8F
102
}
330
1F
100
AcDbEntity
  8
実線
100
AcDbLine
 10
886.8574318740165
 20
489.5882063359596
 30
0.0
 11
886.8574318740165
 21
523.5545814803423
 31
0.0
  0
LINE
  5
A4B
102
{ACAD_REACTORS
330
B8F
102
}
330
1F
100
AcDbEntity
  8
実線
100
AcDbLine
 10
797.0574318740164
 20
439.2545814803423
 30
0.0
 11
797.0574318740164
 21
564.2545814803423
 31
0.0
  0
LINE
  5
A4C
102
{ACAD_REACTORS
330
B8F
102
}
330
1F
100
AcDbEntity
  8
実線
100
AcDbLine
 10
797.0574318740164
 20
439.2545814803423
 30
0.0
 11
809.3574318740165
 21
439.2545814803423
 31
0.0
  0
LINE
  5
A4D
102
{ACAD_REACTORS
330
B8F
102
}
330
1F
100
AcDbEntity
  8
実線
100
AcDbLine
 10
809.3574318740165
 20
564.2545814803423
 30
0.0
 11
797.0574318740164
 21
564.2545814803423
 31
0.0
  0
LINE
  5
A4E
102
{ACAD_REACTORS
330
B8F
102
}
330
1F
100
AcDbEntity
  8
実線
100
AcDbLine
 10
1078.857431874016
 20
458.554581480342
 30
0.0
 11
1078.857431874016
 21
473.7566225092093
 31
0.0
  0
LINE
  5
A4F
102
{ACAD_REACTORS
330
B8F
102
}
330
1F
100
AcDbEntity
  8
実線
100
AcDbLine
 10
1080.857431874016
 20
508.554581480342
 30
0.0
 11
1080.857431874016
 21
488.554581480342
 31
0.0
  0
LINE
  5
A50
102
{ACAD_REACTORS
330
B8F
102
}
330
1F
100
AcDbEntity
  8
実線
100
AcDbLine
 10
1078.857431874016
 20
458.554581480342
 30
0.0
 11
1080.857431874016
 21
458.554581480342
 31
0.0
  0
LINE
  5
A51
102
{ACAD_REACTORS
330
B8F
102
}
330
1F
100
AcDbEntity
  8
実線
100
AcDbLine
 10
1080.857431874016
 20
508.554581480342
 30
0.0
 11
1078.857431874016
 21
508.554581480342
 31
0.0
  0
LINE
  5
A52
102
{ACAD_REACTORS
330
B8F
102
}
330
1F
100
AcDbEntity
  8
実線
100
AcDbLine
 10
1080.857431874016
 20
458.554581480342
 30
0.0
 11
1080.85743187397
 21
468.5545814803423
 31
0.0
  0
LINE
  5
A53
102
{ACAD_REACTORS
330
B8F
102
}
330
1F
100
AcDbEntity
  8
実線
100
AcDbLine
 10
1080.857431874016
 20
498.554581480342
 30
0.0
 11
1078.857431874016
 21
498.554581480342
 31
0.0
  0
LINE
  5
A54
102
{ACAD_REACTORS
330
B8F
102
}
330
1F
100
AcDbEntity
  8
実線
100
AcDbLine
 10
1109.857431874016
 20
468.5545814803423
 30
0.0
 11
1109.857431874016
 21
488.554581480342
 31
0.0
  0
LINE
  5
A55
102
{ACAD_REACTORS
330
B8F
102
}
330
1F
100
AcDbEntity
  8
実線
100
AcDbLine
 10
1078.857431874016
 20
468.5545814803423
 30
0.0
 11
1109.857431874016
 21
468.5545814803423
 31
0.0
  0
LINE
  5
A56
102
{ACAD_REACTORS
330
B8F
102
}
330
1F
100
AcDbEntity
  8
実線
100
AcDbLine
 10
1078.857431874016
 20
488.554581480342
 30
0.0
 11
1109.857431874016
 21
488.554581480342
 31
0.0
  0
LINE
  5
A57
102
{ACAD_REACTORS
330
B77
102
}
330
1F
100
AcDbEntity
  8
実線
100
AcDbLine
 10
361.257431874019
 20
519.9579348966892
 30
0.0
 11
361.257431874019
 21
501.9579348966892
 31
0.0
  0
LINE
  5
A58
102
{ACAD_REACTORS
330
B77
102
}
330
1F
100
AcDbEntity
  8
実線
100
AcDbLine
 10
361.257431874019
 20
519.9579348966892
 30
0.0
 11
349.6574318740189
 21
519.9579348966892
 31
0.0
  0
LINE
  5
A59
102
{ACAD_REACTORS
330
B77
102
}
330
1F
100
AcDbEntity
  8
実線
100
AcDbLine
 10
349.6574318740189
 20
501.9579348966892
 30
0.0
 11
361.257431874019
 21
501.9579348966892
 31
0.0
  0
LINE
  5
A5A
102
{ACAD_REACTORS
330
B77
102
}
330
1F
100
AcDbEntity
  8
実線
100
AcDbLine
 10
361.257431874019
 20
501.5512280639947
 30
0.0
 11
361.257431874019
 21
483.5512280639949
 31
0.0
  0
LINE
  5
A5B
102
{ACAD_REACTORS
330
B77
102
}
330
1F
100
AcDbEntity
  8
実線
100
AcDbLine
 10
361.257431874019
 20
501.5512280639947
 30
0.0
 11
349.6574318740189
 21
501.5512280639947
 31
0.0
  0
LINE
  5
A5C
102
{ACAD_REACTORS
330
B77
102
}
330
1F
100
AcDbEntity
  8
実線
100
AcDbLine
 10
349.6574318740189
 20
483.5512280639949
 30
0.0
 11
361.257431874019
 21
483.5512280639949
 31
0.0
  0
LINE
  5
A5D
102
{ACAD_REACTORS
330
B77
102
}
330
1F
100
AcDbEntity
  8
実線
100
AcDbLine
 10
361.257431874019
 20
458.5597705706951
 30
0.0
 11
361.257431874019
 21
440.559770570695
 31
0.0
  0
LINE
  5
A5E
102
{ACAD_REACTORS
330
B77
102
}
330
1F
100
AcDbEntity
  8
実線
100
AcDbLine
 10
361.257431874019
 20
458.5597705706951
 30
0.0
 11
349.6574318740189
 21
458.5597705706951
 31
0.0
  0
LINE
  5
A5F
102
{ACAD_REACTORS
330
B77
102
}
330
1F
100
AcDbEntity
  8
実線
100
AcDbLine
 10
349.6574318740189
 20
440.559770570695
 30
0.0
 11
361.257431874019
 21
440.559770570695
 31
0.0
  0
LINE
  5
A60
102
{ACAD_REACTORS
330
B77
102
}
330
1F
100
AcDbEntity
  8
実線
100
AcDbLine
 10
361.257431874019
 20
562.9493923899891
 30
0.0
 11
361.257431874019
 21
544.9493923899892
 31
0.0
  0
LINE
  5
A61
102
{ACAD_REACTORS
330
B77
102
}
330
1F
100
AcDbEntity
  8
実線
100
AcDbLine
 10
361.257431874019
 20
562.9493923899891
 30
0.0
 11
349.6574318740189
 21
562.9493923899891
 31
0.0
  0
LINE
  5
A62
102
{ACAD_REACTORS
330
B77
102
}
330
1F
100
AcDbEntity
  8
実線
100
AcDbLine
 10
349.6574318740189
 20
544.9493923899892
 30
0.0
 11
361.257431874019
 21
544.9493923899892
 31
0.0
  0
LINE
  5
A63
102
{ACAD_REACTORS
330
B77
102
}
330
1F
100
AcDbEntity
  8
実線
100
AcDbLine
 10
367.1574318740189
 20
518.2079348966892
 30
0.0
 11
367.1574318740189
 21
503.7079348966893
 31
0.0
  0
LINE
  5
A64
102
{ACAD_REACTORS
330
B77
102
}
330
1F
100
AcDbEntity
  8
実線
100
AcDbLine
 10
367.1574318740189
 20
518.2079348966892
 30
0.0
 11
361.257431874019
 21
518.2079348966892
 31
0.0
  0
LINE
  5
A65
102
{ACAD_REACTORS
330
B77
102
}
330
1F
100
AcDbEntity
  8
実線
100
AcDbLine
 10
361.257431874019
 20
503.7079348966893
 30
0.0
 11
367.1574318740189
 21
503.7079348966893
 31
0.0
  0
LINE
  5
A66
102
{ACAD_REACTORS
330
B77
102
}
330
1F
100
AcDbEntity
  8
実線
100
AcDbLine
 10
367.1574318740189
 20
456.8097705706951
 30
0.0
 11
367.1574318740189
 21
442.309770570695
 31
0.0
  0
LINE
  5
A67
102
{ACAD_REACTORS
330
B77
102
}
330
1F
100
AcDbEntity
  8
実線
100
AcDbLine
 10
367.1574318740189
 20
456.8097705706951
 30
0.0
 11
361.257431874019
 21
456.8097705706951
 31
0.0
  0
LINE
  5
A68
102
{ACAD_REACTORS
330
B77
102
}
330
1F
100
AcDbEntity
  8
実線
100
AcDbLine
 10
361.257431874019
 20
442.309770570695
 30
0.0
 11
367.1574318740189
 21
442.309770570695
 31
0.0
  0
LINE
  5
A69
102
{ACAD_REACTORS
330
B77
102
}
330
1F
100
AcDbEntity
  8
実線
100
AcDbLine
 10
367.1574318740189
 20
561.1993923899891
 30
0.0
 11
367.1574318740189
 21
546.6993923899893
 31
0.0
  0
LINE
  5
A6A
102
{ACAD_REACTORS
330
B77
102
}
330
1F
100
AcDbEntity
  8
実線
100
AcDbLine
 10
367.1574318740189
 20
561.1993923899891
 30
0.0
 11
361.257431874019
 21
561.1993923899891
 31
0.0
  0
LINE
  5
A6B
102
{ACAD_REACTORS
330
B77
102
}
330
1F
100
AcDbEntity
  8
実線
100
AcDbLine
 10
361.257431874019
 20
546.6993923899893
 30
0.0
 11
367.1574318740189
 21
546.6993923899893
 31
0.0
  0
LINE
  5
A6C
102
{ACAD_REACTORS
330
B77
102
}
330
1F
100
AcDbEntity
  8
実線
100
AcDbLine
 10
367.1574318740189
 20
499.8012280639946
 30
0.0
 11
367.1574318740189
 21
485.3012280639949
 31
0.0
  0
LINE
  5
A6D
102
{ACAD_REACTORS
330
B77
102
}
330
1F
100
AcDbEntity
  8
実線
100
AcDbLine
 10
367.1574318740189
 20
499.8012280639946
 30
0.0
 11
361.257431874019
 21
499.8012280639946
 31
0.0
  0
LINE
  5
A6E
102
{ACAD_REACTORS
330
B77
102
}
330
1F
100
AcDbEntity
  8
実線
100
AcDbLine
 10
361.257431874019
 20
485.3012280639949
 30
0.0
 11
367.1574318740189
 21
485.3012280639949
 31
0.0
  0
ELLIPSE
  5
A6F
102
{ACAD_REACTORS
330
B77
102
}
330
1F
100
AcDbEntity
  8
実線
100
AcDbEllipse
 10
308.3574318740188
 20
537.2220703432146
 30
0.0
 11
6.0
 21
0.0
 31
0.0
210
0.0
220
0.0
230
1.0
 40
0.9396926207859085
 41
0.7117251431103507
 42
0.722734247813394
  0
LINE
  5
A70
102
{ACAD_REACTORS
330
B77
102
}
330
1F
100
AcDbEntity
  8
実線
100
AcDbLine
 10
314.8574318740188
 20
431.5545814803423
 30
0.0
 11
314.8574318740188
 21
458.3045814803423
 31
0.0
  0
LINE
  5
A71
102
{ACAD_REACTORS
330
B77
102
}
330
1F
100
AcDbEntity
  8
実線
100
AcDbLine
 10
314.8574318740188
 20
431.5545814803423
 30
0.0
 11
284.8574318740189
 21
431.5545814803423
 31
0.0
  0
LINE
  5
A72
102
{ACAD_REACTORS
330
B77
102
}
330
1F
100
AcDbEntity
  8
実線
100
AcDbLine
 10
284.8574318740189
 20
455.0531697785155
 30
0.0
 11
284.8574318740189
 21
431.5545814803423
 31
0.0
  0
LINE
  5
A73
102
{ACAD_REACTORS
330
B77
102
}
330
1F
100
AcDbEntity
  8
実線
100
AcDbLine
 10
257.8574318740189
 20
530.5317512492259
 30
0.0
 11
257.8574318740189
 21
436.5774117114582
 31
0.0
  0
LINE
  5
A74
102
{ACAD_REACTORS
330
B77
102
}
330
1F
100
AcDbEntity
  8
実線
100
AcDbLine
 10
247.8574318740189
 20
436.5774117114582
 30
0.0
 11
257.8574318740189
 21
436.5774117114582
 31
0.0
  0
LINE
  5
A75
102
{ACAD_REACTORS
330
B77
102
}
330
1F
100
AcDbEntity
  8
実線
100
AcDbLine
 10
257.8574318740189
 20
530.5317512492259
 30
0.0
 11
247.8574318740189
 21
530.5317512492259
 31
0.0
  0
LINE
  5
A76
102
{ACAD_REACTORS
330
B77
102
}
330
1F
100
AcDbEntity
  8
実線
100
AcDbLine
 10
247.8574318740189
 20
465.5256846699181
 30
0.0
 11
257.8574318740189
 21
465.5256846699181
 31
0.0
  0
LINE
  5
A77
102
{ACAD_REACTORS
330
B77
102
}
330
1F
100
AcDbEntity
  8
実線
100
AcDbLine
 10
247.8574318740189
 20
501.5834782907661
 30
0.0
 11
257.8574318740189
 21
501.5834782907661
 31
0.0
  0
LINE
  5
A78
102
{ACAD_REACTORS
330
B77
102
}
330
1F
100
AcDbEntity
  8
実線
100
AcDbLine
 10
277.8574318740189
 20
546.5545814803419
 30
0.0
 11
277.8574318740189
 21
519.8239276052027
 31
0.0
  0
LINE
  5
A79
102
{ACAD_REACTORS
330
B77
102
}
330
1F
100
AcDbEntity
  8
実線
100
AcDbLine
 10
312.8574318740188
 20
546.5545814803419
 30
0.0
 11
277.8574318740189
 21
546.5545814803419
 31
0.0
  0
LINE
  5
A7A
102
{ACAD_REACTORS
330
B77
102
}
330
1F
100
AcDbEntity
  8
実線
100
AcDbLine
 10
312.8574318740188
 20
536.7756108769774
 30
0.0
 11
312.8574318740188
 21
546.5545814803419
 31
0.0
  0
LINE
  5
A7B
102
{ACAD_REACTORS
330
B77
102
}
330
1F
100
AcDbEntity
  8
実線
100
AcDbLine
 10
325.3574318740188
 20
540.9045814803421
 30
0.0
 11
312.8574318740188
 21
540.9045814803421
 31
0.0
  0
LINE
  5
A7C
102
{ACAD_REACTORS
330
B77
102
}
330
1F
100
AcDbEntity
  8
実線
100
AcDbLine
 10
294.3574318740189
 20
536.7756108769774
 30
0.0
 11
294.3574318740189
 21
516.2076870785012
 31
0.0
  0
ARC
  5
A7D
102
{ACAD_REACTORS
330
B77
102
}
330
1F
100
AcDbEntity
  8
実線
100
AcDbCircle
 10
275.857431874019
 20
470.0545814803423
 30
0.0
 40
25.25
100
AcDbArc
 50
255.7447795970656
 51
290.881457337149
  0
CIRCLE
  5
A7E
102
{ACAD_REACTORS
330
B77
102
}
330
1F
100
AcDbEntity
  8
実線
100
AcDbCircle
 10
314.8574318740188
 20
483.554581480342
 30
0.0
 40
25.25
  0
LINE
  5
A7F
102
{ACAD_REACTORS
330
B77
102
}
330
1F
100
AcDbEntity
  8
実線
100
AcDbLine
 10
163.8574318740189
 20
533.554581480342
 30
0.0
 11
163.8574318740189
 21
433.554581480342
 31
0.0
  0
LINE
  5
A80
102
{ACAD_REACTORS
330
B77
102
}
330
1F
100
AcDbEntity
  8
実線
100
AcDbLine
 10
163.8574318740189
 20
533.554581480342
 30
0.0
 11
87.8574318740188
 21
533.554581480342
 31
0.0
  0
LINE
  5
A81
102
{ACAD_REACTORS
330
B77
102
}
330
1F
100
AcDbEntity
  8
実線
100
AcDbLine
 10
87.8574318740188
 20
433.554581480342
 30
0.0
 11
163.8574318740189
 21
433.554581480342
 31
0.0
  0
LINE
  5
A82
102
{ACAD_REACTORS
330
B77
102
}
330
1F
100
AcDbEntity
  8
実線
100
AcDbLine
 10
234.357431874019
 20
530.5317512492259
 30
0.0
 11
234.357431874019
 21
436.5774117114582
 31
0.0
  0
LINE
  5
A83
102
{ACAD_REACTORS
330
B77
102
}
330
1F
100
AcDbEntity
  8
実線
100
AcDbLine
 10
247.8574318740189
 20
530.5317512492259
 30
0.0
 11
247.8574318740189
 21
436.5774117114582
 31
0.0
  0
LINE
  5
A84
102
{ACAD_REACTORS
330
B77
102
}
330
1F
100
AcDbEntity
  8
実線
100
AcDbLine
 10
234.357431874019
 20
436.5774117114582
 30
0.0
 11
247.8574318740189
 21
436.5774117114582
 31
0.0
  0
LINE
  5
A85
102
{ACAD_REACTORS
330
B77
102
}
330
1F
100
AcDbEntity
  8
実線
100
AcDbLine
 10
247.8574318740189
 20
530.5317512492259
 30
0.0
 11
234.357431874019
 21
530.5317512492259
 31
0.0
  0
LINE
  5
A86
102
{ACAD_REACTORS
330
B77
102
}
330
1F
100
AcDbEntity
  8
実線
100
AcDbLine
 10
234.357431874019
 20
465.5256846699181
 30
0.0
 11
247.8574318740189
 21
465.5256846699181
 31
0.0
  0
LINE
  5
A87
102
{ACAD_REACTORS
330
B77
102
}
330
1F
100
AcDbEntity
  8
実線
100
AcDbLine
 10
234.357431874019
 20
501.5834782907661
 30
0.0
 11
247.8574318740189
 21
501.5834782907661
 31
0.0
  0
LINE
  5
A88
102
{ACAD_REACTORS
330
B77
102
}
330
1F
100
AcDbEntity
  8
実線
100
AcDbLine
 10
44.35743187401879
 20
496.054581480342
 30
0.0
 11
44.35743187401879
 21
471.054581480342
 31
0.0
  0
LINE
  5
A89
102
{ACAD_REACTORS
330
B77
102
}
330
1F
100
AcDbEntity
  8
実線
100
AcDbLine
 10
44.35743187401879
 20
496.054581480342
 30
0.0
 11
39.3574318740188
 21
496.054581480342
 31
0.0
  0
LINE
  5
A8A
102
{ACAD_REACTORS
330
B77
102
}
330
1F
100
AcDbEntity
  8
実線
100
AcDbLine
 10
39.3574318740188
 20
471.054581480342
 30
0.0
 11
44.35743187401879
 21
471.054581480342
 31
0.0
  0
LINE
  5
A8B
102
{ACAD_REACTORS
330
B77
102
}
330
1F
100
AcDbEntity
  8
実線
100
AcDbLine
 10
39.3574318740188
 20
496.054581480342
 30
0.0
 11
39.3574318740188
 21
471.054581480342
 31
0.0
  0
LINE
  5
A8C
102
{ACAD_REACTORS
330
B77
102
}
330
1F
100
AcDbEntity
  8
実線
100
AcDbLine
 10
43.35743187401879
 20
457.0545814803421
 30
0.0
 11
40.35743187401878
 21
457.0545814803421
 31
0.0
  0
LINE
  5
A8D
102
{ACAD_REACTORS
330
B77
102
}
330
1F
100
AcDbEntity
  8
実線
100
AcDbLine
 10
40.35743187401878
 20
463.5545814803418
 30
0.0
 11
40.35743187401878
 21
457.0545814803421
 31
0.0
  0
LINE
  5
A8E
102
{ACAD_REACTORS
330
B77
102
}
330
1F
100
AcDbEntity
  8
実線
100
AcDbLine
 10
43.35743187401879
 20
457.0545814803421
 30
0.0
 11
43.35743187401879
 21
463.5545814803418
 31
0.0
  0
LINE
  5
A8F
102
{ACAD_REACTORS
330
B77
102
}
330
1F
100
AcDbEntity
  8
実線
100
AcDbLine
 10
49.40743187401881
 20
477.5545814803423
 30
0.0
 11
49.40743187401881
 21
463.554581480342
 31
0.0
  0
LINE
  5
A90
102
{ACAD_REACTORS
330
B77
102
}
330
1F
100
AcDbEntity
  8
実線
100
AcDbLine
 10
57.30743187401884
 20
477.5545814803423
 30
0.0
 11
57.30743187401884
 21
463.554581480342
 31
0.0
  0
LINE
  5
A91
102
{ACAD_REACTORS
330
B77
102
}
330
1F
100
AcDbEntity
  8
実線
100
AcDbLine
 10
49.40743187401881
 20
463.554581480342
 30
0.0
 11
57.30743187401884
 21
463.554581480342
 31
0.0
  0
LINE
  5
A92
102
{ACAD_REACTORS
330
B77
102
}
330
1F
100
AcDbEntity
  8
実線
100
AcDbLine
 10
54.8574318740188
 20
457.0545814803421
 30
0.0
 11
51.85743187401879
 21
457.0545814803421
 31
0.0
  0
LINE
  5
A93
102
{ACAD_REACTORS
330
B77
102
}
330
1F
100
AcDbEntity
  8
実線
100
AcDbLine
 10
51.85743187401879
 20
463.5545814803418
 30
0.0
 11
51.85743187401879
 21
457.0545814803421
 31
0.0
  0
LINE
  5
A94
102
{ACAD_REACTORS
330
B77
102
}
330
1F
100
AcDbEntity
  8
実線
100
AcDbLine
 10
54.8574318740188
 20
457.0545814803421
 30
0.0
 11
54.8574318740188
 21
463.5545814803418
 31
0.0
  0
LINE
  5
A95
102
{ACAD_REACTORS
330
B77
102
}
330
1F
100
AcDbEntity
  8
実線
100
AcDbLine
 10
45.80743187401885
 20
477.5545814803423
 30
0.0
 11
45.80743187401885
 21
463.554581480342
 31
0.0
  0
LINE
  5
A96
102
{ACAD_REACTORS
330
B77
102
}
330
1F
100
AcDbEntity
  8
実線
100
AcDbLine
 10
37.90743187401881
 20
463.554581480342
 30
0.0
 11
45.80743187401885
 21
463.554581480342
 31
0.0
  0
LINE
  5
A97
102
{ACAD_REACTORS
330
B77
102
}
330
1F
100
AcDbEntity
  8
実線
100
AcDbLine
 10
37.90743187401881
 20
476.054581480342
 30
0.0
 11
37.90743187401881
 21
463.554581480342
 31
0.0
  0
LINE
  5
A98
102
{ACAD_REACTORS
330
B77
102
}
330
1F
100
AcDbEntity
  8
実線
100
AcDbLine
 10
39.3574318740188
 20
491.0545814803421
 30
0.0
 11
34.05743187401879
 21
491.0545814803421
 31
0.0
  0
LINE
  5
A99
102
{ACAD_REACTORS
330
B77
102
}
330
1F
100
AcDbEntity
  8
実線
100
AcDbLine
 10
34.05743187401879
 20
476.054581480342
 30
0.0
 11
39.3574318740188
 21
476.054581480342
 31
0.0
  0
LINE
  5
A9A
102
{ACAD_REACTORS
330
B77
102
}
330
1F
100
AcDbEntity
  8
実線
100
AcDbLine
 10
34.05743187401879
 20
491.0545814803421
 30
0.0
 11
34.05743187401879
 21
476.054581480342
 31
0.0
  0
LINE
  5
A9B
102
{ACAD_REACTORS
330
B77
102
}
330
1F
100
AcDbEntity
  8
実線
100
AcDbLine
 10
72.85743187401891
 20
508.554581480342
 30
0.0
 11
67.85743187401891
 21
508.554581480342
 31
0.0
  0
LINE
  5
A9C
102
{ACAD_REACTORS
330
B77
102
}
330
1F
100
AcDbEntity
  8
実線
100
AcDbLine
 10
67.85743187401891
 20
458.554581480342
 30
0.0
 11
72.85743187401891
 21
458.554581480342
 31
0.0
  0
LINE
  5
A9D
102
{ACAD_REACTORS
330
B77
102
}
330
1F
100
AcDbEntity
  8
実線
100
AcDbLine
 10
67.85743187401891
 20
508.554581480342
 30
0.0
 11
67.85743187401891
 21
458.554581480342
 31
0.0
  0
LINE
  5
A9E
102
{ACAD_REACTORS
330
B77
102
}
330
1F
100
AcDbEntity
  8
実線
100
AcDbLine
 10
65.85743187401893
 20
489.5545814803423
 30
0.0
 11
44.3574318740189
 21
489.5545814803423
 31
0.0
  0
LINE
  5
A9F
102
{ACAD_REACTORS
330
B77
102
}
330
1F
100
AcDbEntity
  8
実線
100
AcDbLine
 10
44.3574318740189
 20
477.5545814803423
 30
0.0
 11
65.85743187401893
 21
477.5545814803423
 31
0.0
  0
LINE
  5
AA0
102
{ACAD_REACTORS
330
B77
102
}
330
1F
100
AcDbEntity
  8
実線
100
AcDbLine
 10
83.35743187401879
 20
518.5545814803423
 30
0.0
 11
72.85743187401891
 21
518.5545814803423
 31
0.0
  0
LINE
  5
AA1
102
{ACAD_REACTORS
330
B77
102
}
330
1F
100
AcDbEntity
  8
実線
100
AcDbLine
 10
72.85743187401878
 20
448.5545814803423
 30
0.0
 11
83.35743187401879
 21
448.5545814803423
 31
0.0
  0
LINE
  5
AA2
102
{ACAD_REACTORS
330
B77
102
}
330
1F
100
AcDbEntity
  8
実線
100
AcDbLine
 10
72.85743187401878
 20
518.5545814803423
 30
0.0
 11
72.85743187401878
 21
448.5545814803423
 31
0.0
  0
LINE
  5
AA3
102
{ACAD_REACTORS
330
B77
102
}
330
1F
100
AcDbEntity
  8
実線
100
AcDbLine
 10
83.35743187401879
 20
530.5545814803421
 30
0.0
 11
83.35743187401879
 21
436.5545814803423
 31
0.0
  0
ARC
  5
AA4
102
{ACAD_REACTORS
330
B77
102
}
330
1F
100
AcDbEntity
  8
実線
100
AcDbCircle
 10
86.3574318740188
 20
530.5545814803421
 30
0.0
 40
3.0
100
AcDbArc
 50
90.0
 51
180.0
  0
ARC
  5
AA5
102
{ACAD_REACTORS
330
B77
102
}
330
1F
100
AcDbEntity
  8
実線
100
AcDbCircle
 10
86.3574318740188
 20
436.5545814803423
 30
0.0
 40
3.0
100
AcDbArc
 50
180.0
 51
270.0
  0
LINE
  5
AA6
102
{ACAD_REACTORS
330
B77
102
}
330
1F
100
AcDbEntity
  8
実線
100
AcDbLine
 10
87.8574318740188
 20
533.554581480342
 30
0.0
 11
87.8574318740188
 21
433.554581480342
 31
0.0
  0
LINE
  5
AA7
102
{ACAD_REACTORS
330
B77
102
}
330
1F
100
AcDbEntity
  8
実線
100
AcDbLine
 10
87.8574318740188
 20
533.554581480342
 30
0.0
 11
86.3574318740188
 21
533.554581480342
 31
0.0
  0
LINE
  5
AA8
102
{ACAD_REACTORS
330
B77
102
}
330
1F
100
AcDbEntity
  8
実線
100
AcDbLine
 10
86.3574318740188
 20
433.554581480342
 30
0.0
 11
87.8574318740188
 21
433.554581480342
 31
0.0
  0
LINE
  5
AA9
102
{ACAD_REACTORS
330
B77
102
}
330
1F
100
AcDbEntity
  8
実線
100
AcDbLine
 10
163.8574318740189
 20
443.5545814803423
 30
0.0
 11
207.3574318740189
 21
443.5545814803423
 31
0.0
  0
LINE
  5
AAA
102
{ACAD_REACTORS
330
B77
102
}
330
1F
100
AcDbEntity
  8
実線
100
AcDbLine
 10
207.3574318740189
 20
443.5545814803423
 30
0.0
 11
207.3574318740189
 21
472.3045814803421
 31
0.0
  0
LINE
  5
AAB
102
{ACAD_REACTORS
330
B77
102
}
330
1F
100
AcDbEntity
  8
実線
100
AcDbLine
 10
207.3574318740189
 20
494.804581480342
 30
0.0
 11
207.3574318740189
 21
523.5545814803423
 31
0.0
  0
LINE
  5
AAC
102
{ACAD_REACTORS
330
B77
102
}
330
1F
100
AcDbEntity
  8
実線
100
AcDbLine
 10
207.3574318740189
 20
523.5545814803423
 30
0.0
 11
163.8574318740189
 21
523.5545814803423
 31
0.0
  0
LINE
  5
AAD
102
{ACAD_REACTORS
330
B77
102
}
330
1F
100
AcDbEntity
  8
実線
100
AcDbLine
 10
163.8574318740189
 20
472.3045814803421
 30
0.0
 11
234.357431874019
 21
472.3045814803421
 31
0.0
  0
LINE
  5
AAE
102
{ACAD_REACTORS
330
B77
102
}
330
1F
100
AcDbEntity
  8
実線
100
AcDbLine
 10
163.8574318740189
 20
494.804581480342
 30
0.0
 11
234.357431874019
 21
494.804581480342
 31
0.0
  0
LINE
  5
AAF
102
{ACAD_REACTORS
330
B77
102
}
330
1F
100
AcDbEntity
  8
実線
100
AcDbLine
 10
325.3574318740188
 20
565.2545814803421
 30
0.0
 11
325.3574318740188
 21
506.5178673950365
 31
0.0
  0
LINE
  5
AB0
102
{ACAD_REACTORS
330
B77
102
}
330
1F
100
AcDbEntity
  8
実線
100
AcDbLine
 10
337.3574318740188
 20
565.2545814803421
 30
0.0
 11
337.3574318740188
 21
495.013748116708
 31
0.0
  0
LINE
  5
AB1
102
{ACAD_REACTORS
330
B77
102
}
330
1F
100
AcDbEntity
  8
実線
100
AcDbLine
 10
337.3574318740188
 20
565.2545814803421
 30
0.0
 11
325.3574318740188
 21
565.2545814803421
 31
0.0
  0
LINE
  5
AB2
102
{ACAD_REACTORS
330
B77
102
}
330
1F
100
AcDbEntity
  8
実線
100
AcDbLine
 10
325.3574318740188
 20
460.5912955656476
 30
0.0
 11
325.3574318740188
 21
439.2545814803423
 31
0.0
  0
LINE
  5
AB3
102
{ACAD_REACTORS
330
B77
102
}
330
1F
100
AcDbEntity
  8
実線
100
AcDbLine
 10
325.3574318740188
 20
555.1399727404986
 30
0.0
 11
337.3574318740188
 21
555.1399727404986
 31
0.0
  0
LINE
  5
AB4
102
{ACAD_REACTORS
330
B77
102
}
330
1F
100
AcDbEntity
  8
実線
100
AcDbLine
 10
325.3574318740188
 20
439.2545814803423
 30
0.0
 11
337.3574318740188
 21
439.2545814803423
 31
0.0
  0
ARC
  5
AB5
102
{ACAD_REACTORS
330
B77
102
}
330
1F
100
AcDbEntity
  8
実線
100
AcDbCircle
 10
289.007431874019
 20
502.1942114211208
 30
0.0
 40
15.0
100
AcDbArc
 50
55.45879388569932
 51
78.2907427530915
  0
LINE
  5
AB6
102
{ACAD_REACTORS
330
B77
102
}
330
1F
100
AcDbEntity
  8
実線
100
AcDbLine
 10
259.8574318740189
 20
523.5545814803423
 30
0.0
 11
257.8574318740189
 21
523.5545814803423
 31
0.0
  0
LINE
  5
AB7
102
{ACAD_REACTORS
330
B77
102
}
330
1F
100
AcDbEntity
  8
実線
100
AcDbLine
 10
257.8574318740189
 20
443.5545814803423
 30
0.0
 11
259.8574318740189
 21
443.5545814803423
 31
0.0
  0
LINE
  5
AB8
102
{ACAD_REACTORS
330
B77
102
}
330
1F
100
AcDbEntity
  8
実線
100
AcDbLine
 10
292.051614451844
 20
516.8820619252913
 30
0.0
 11
259.8574318740189
 21
523.5545814803423
 31
0.0
  0
LINE
  5
AB9
102
{ACAD_REACTORS
330
B77
102
}
330
1F
100
AcDbEntity
  8
実線
100
AcDbLine
 10
259.8574318740189
 20
443.5545814803423
 30
0.0
 11
284.8574318740189
 21
448.7360451958138
 31
0.0
  0
LINE
  5
ABA
102
{ACAD_REACTORS
330
B77
102
}
330
1F
100
AcDbEntity
  8
実線
100
AcDbLine
 10
259.8574318740189
 20
443.5545814803423
 30
0.0
 11
259.8574318740189
 21
523.5545814803423
 31
0.0
  0
LINE
  5
ABB
102
{ACAD_REACTORS
330
B77
102
}
330
1F
100
AcDbEntity
  8
実線
100
AcDbLine
 10
337.3574318740188
 20
472.0954148439763
 30
0.0
 11
337.3574318740188
 21
439.2545814803423
 31
0.0
  0
LINE
  5
ABC
102
{ACAD_REACTORS
330
B77
102
}
330
1F
100
AcDbEntity
  8
実線
100
AcDbLine
 10
349.6574318740189
 20
564.2545814803423
 30
0.0
 11
337.3574318740188
 21
564.2545814803423
 31
0.0
  0
LINE
  5
ABD
102
{ACAD_REACTORS
330
B77
102
}
330
1F
100
AcDbEntity
  8
実線
100
AcDbLine
 10
337.3574318740188
 20
439.2545814803423
 30
0.0
 11
349.6574318740189
 21
439.2545814803423
 31
0.0
  0
LINE
  5
ABE
102
{ACAD_REACTORS
330
B77
102
}
330
1F
100
AcDbEntity
  8
実線
100
AcDbLine
 10
349.6574318740189
 20
564.2545814803423
 30
0.0
 11
349.6574318740189
 21
439.2545814803423
 31
0.0
  0
LINE
  5
ABF
102
{ACAD_REACTORS
330
B77
102
}
330
1F
100
AcDbEntity
  8
実線
100
AcDbLine
 10
37.90743187401881
 20
468.5545814803423
 30
0.0
 11
36.85743187401892
 21
468.5545814803423
 31
0.0
  0
LINE
  5
AC0
102
{ACAD_REACTORS
330
B77
102
}
330
1F
100
AcDbEntity
  8
実線
100
AcDbLine
 10
49.40743187401881
 20
468.5545814803423
 30
0.0
 11
45.80743187401885
 21
468.5545814803423
 31
0.0
  0
LINE
  5
AC1
102
{ACAD_REACTORS
330
B77
102
}
330
1F
100
AcDbEntity
  8
実線
100
AcDbLine
 10
65.85743187406627
 20
468.5545814803423
 30
0.0
 11
57.30743187401884
 21
468.5545814803423
 31
0.0
  0
LINE
  5
AC2
102
{ACAD_REACTORS
330
B77
102
}
330
1F
100
AcDbEntity
  8
実線
100
AcDbLine
 10
36.85743187401892
 20
476.054581480342
 30
0.0
 11
36.85743187401892
 21
468.5545814803423
 31
0.0
  0
LINE
  5
AC3
102
{ACAD_REACTORS
330
B77
102
}
330
1F
100
AcDbEntity
  8
実線
100
AcDbLine
 10
67.85743187401891
 20
508.554581480342
 30
0.0
 11
65.85743187401893
 21
508.554581480342
 31
0.0
  0
LINE
  5
AC4
102
{ACAD_REACTORS
330
B77
102
}
330
1F
100
AcDbEntity
  8
実線
100
AcDbLine
 10
65.85743187401893
 20
458.554581480342
 30
0.0
 11
67.85743187401891
 21
458.554581480342
 31
0.0
  0
LINE
  5
AC5
102
{ACAD_REACTORS
330
B77
102
}
330
1F
100
AcDbEntity
  8
実線
100
AcDbLine
 10
65.85743187401893
 20
508.554581480342
 30
0.0
 11
65.85743187401893
 21
458.554581480342
 31
0.0
  0
CIRCLE
  5
AC6
102
{ACAD_REACTORS
330
B7E
102
}
330
1F
100
AcDbEntity
  8
実線
100
AcDbCircle
 10
539.6626209643718
 20
510.9579348966893
 30
0.0
 40
9.0
  0
CIRCLE
  5
AC7
102
{ACAD_REACTORS
330
B7E
102
}
330
1F
100
AcDbEntity
  8
実線
100
AcDbCircle
 10
644.0522427836659
 20
492.5512280639948
 30
0.0
 40
9.0
  0
CIRCLE
  5
AC8
102
{ACAD_REACTORS
330
B7E
102
}
330
1F
100
AcDbEntity
  8
実線
100
AcDbCircle
 10
582.6540784576715
 20
449.559770570695
 30
0.0
 40
9.0
  0
CIRCLE
  5
AC9
102
{ACAD_REACTORS
330
B7E
102
}
330
1F
100
AcDbEntity
  8
実線
100
AcDbCircle
 10
601.0607852903663
 20
553.9493923899891
 30
0.0
 40
9.0
  0
CIRCLE
  5
ACA
102
{ACAD_REACTORS
330
B7E
102
}
330
1F
100
AcDbEntity
  8
実線
100
AcDbCircle
 10
539.6626209643717
 20
510.9579348966893
 30
0.0
 40
7.25
  0
CIRCLE
  5
ACB
102
{ACAD_REACTORS
330
B7E
102
}
330
1F
100
AcDbEntity
  8
実線
100
AcDbCircle
 10
582.6540784576715
 20
449.559770570695
 30
0.0
 40
7.25
  0
CIRCLE
  5
ACC
102
{ACAD_REACTORS
330
B7E
102
}
330
1F
100
AcDbEntity
  8
実線
100
AcDbCircle
 10
601.0607852903663
 20
553.9493923899891
 30
0.0
 40
7.25
  0
CIRCLE
  5
ACD
102
{ACAD_REACTORS
330
B7E
102
}
330
1F
100
AcDbEntity
  8
実線
100
AcDbCircle
 10
644.0522427836659
 20
492.5512280639948
 30
0.0
 40
7.25
  0
LINE
  5
ACE
102
{ACAD_REACTORS
330
B7E
102
}
330
1F
100
AcDbEntity
  8
実線
100
AcDbLine
 10
691.3556775094735
 20
531.5839146184993
 30
0.0
 11
687.2514357895654
 21
542.8602260679301
 31
0.0
  0
LINE
  5
ACF
102
{ACAD_REACTORS
330
B7E
102
}
330
1F
100
AcDbEntity
  8
実線
100
AcDbLine
 10
687.2514357895654
 20
542.8602260679301
 30
0.0
 11
648.2648419135736
 21
528.6702663616441
 31
0.0
  0
LINE
  5
AD0
102
{ACAD_REACTORS
330
B7E
102
}
330
1F
100
AcDbEntity
  8
実線
100
AcDbLine
 10
652.3690836334816
 20
517.3939549122131
 30
0.0
 11
691.3556775094735
 21
531.5839146184993
 31
0.0
  0
LINE
  5
AD1
102
{ACAD_REACTORS
330
B7E
102
}
330
1F
100
AcDbEntity
  8
実線
100
AcDbLine
 10
534.8574318740189
 20
431.5545814803423
 30
0.0
 11
534.8574318740189
 21
462.7045814803421
 31
0.0
  0
LINE
  5
AD2
102
{ACAD_REACTORS
330
B7E
102
}
330
1F
100
AcDbEntity
  8
実線
100
AcDbLine
 10
559.8574318740189
 20
448.0679909758221
 30
0.0
 11
559.8574318740189
 21
431.5545814803423
 31
0.0
  0
LINE
  5
AD3
102
{ACAD_REACTORS
330
B7E
102
}
330
1F
100
AcDbEntity
  8
実線
100
AcDbLine
 10
559.8574318740189
 20
431.5545814803423
 30
0.0
 11
534.8574318740189
 21
431.5545814803423
 31
0.0
  0
ARC
  5
AD4
102
{ACAD_REACTORS
330
B7E
102
}
330
1F
100
AcDbEntity
  8
実線
100
AcDbCircle
 10
554.8574318740191
 20
483.5545814803423
 30
0.0
 40
61.50000000000008
100
AcDbArc
 50
133.2354262571157
 51
136.7645737428889
  0
ARC
  5
AD5
102
{ACAD_REACTORS
330
B7E
102
}
330
1F
100
AcDbEntity
  8
実線
100
AcDbCircle
 10
518.2100549309468
 20
522.5317512492259
 30
0.0
 40
8.000000000000021
100
AcDbArc
 50
55.00000000000264
 51
133.2354262571157
  0
LINE
  5
AD6
102
{ACAD_REACTORS
330
B7E
102
}
330
1F
100
AcDbEntity
  8
実線
100
AcDbLine
 10
522.7986664217552
 20
529.0849676035378
 30
0.0
 11
532.7640776041968
 21
522.1071115722328
 31
0.0
  0
LINE
  5
AD7
102
{ACAD_REACTORS
330
B7E
102
}
330
1F
100
AcDbEntity
  8
実線
100
AcDbLine
 10
586.9161973262825
 20
438.0241953571462
 30
0.0
 11
584.5461964334372
 21
439.6836878478803
 31
0.0
  0
ARC
  5
AD8
102
{ACAD_REACTORS
330
B7E
102
}
330
1F
100
AcDbEntity
  8
実線
100
AcDbCircle
 10
515.8802621051352
 20
520.2019584234141
 30
0.0
 40
7.999999999999996
100
AcDbArc
 50
136.7645737428889
 51
214.9999999999974
  0
ARC
  5
AD9
102
{ACAD_REACTORS
330
B7E
102
}
330
1F
100
AcDbEntity
  8
実線
100
AcDbCircle
 10
554.857431874019
 20
483.5545814803423
 30
0.0
 40
61.50000000000009
100
AcDbArc
 50
313.235426257111
 51
314.2988327116778
  0
ARC
  5
ADA
102
{ACAD_REACTORS
330
B7E
102
}
330
1F
100
AcDbEntity
  8
実線
100
AcDbCircle
 10
591.5048088170911
 20
444.5774117114582
 30
0.0
 40
8.000000000000008
100
AcDbArc
 50
235.0000000000026
 51
313.235426257111
  0
LINE
  5
ADB
102
{ACAD_REACTORS
330
B7E
102
}
330
1F
100
AcDbEntity
  8
実線
100
AcDbLine
 10
517.1755078145224
 20
504.4045814803423
 30
0.0
 11
509.3270457508229
 21
515.6133469326058
 31
0.0
  0
LINE
  5
ADC
102
{ACAD_REACTORS
330
B7E
102
}
330
1F
100
AcDbEntity
  8
実線
100
AcDbLine
 10
509.3270457508229
 20
451.4958160280785
 30
0.0
 11
517.1755078145224
 21
462.7045814803421
 31
0.0
  0
ARC
  5
ADD
102
{ACAD_REACTORS
330
B7E
102
}
330
1F
100
AcDbEntity
  8
実線
100
AcDbCircle
 10
515.8802621051352
 20
446.9072045372702
 30
0.0
 40
8.000000000000008
100
AcDbArc
 50
145.0000000000026
 51
223.2354262571111
  0
ARC
  5
ADE
102
{ACAD_REACTORS
330
B7E
102
}
330
1F
100
AcDbEntity
  8
実線
100
AcDbCircle
 10
554.8574318740198
 20
483.5545814803428
 30
0.0
 40
61.50000000000114
100
AcDbArc
 50
223.2354262571111
 51
226.7645737428889
  0
ARC
  5
ADF
102
{ACAD_REACTORS
330
B7E
102
}
330
1F
100
AcDbEntity
  8
実線
100
AcDbCircle
 10
518.2100549309468
 20
444.5774117114582
 30
0.0
 40
8.000000000000008
100
AcDbArc
 50
226.7645737428889
 51
304.9999999999974
  0
LINE
  5
AE0
102
{ACAD_REACTORS
330
B7E
102
}
330
1F
100
AcDbEntity
  8
実線
100
AcDbLine
 10
534.8574318740189
 20
446.4678338283242
 30
0.0
 11
522.7986664217552
 21
438.0241953571462
 31
0.0
  0
LINE
  5
AE1
102
{ACAD_REACTORS
330
B7E
102
}
330
1F
100
AcDbEntity
  8
実線
100
AcDbLine
 10
670.757431874019
 20
490.9045814803421
 30
0.0
 11
653.408447300249
 21
490.9045814803421
 31
0.0
  0
LINE
  5
AE2
102
{ACAD_REACTORS
330
B7E
102
}
330
1F
100
AcDbEntity
  8
実線
100
AcDbLine
 10
629.8574318740191
 20
449.2045814803423
 30
0.0
 11
670.757431874019
 21
449.2045814803423
 31
0.0
  0
LINE
  5
AE3
102
{ACAD_REACTORS
330
B7E
102
}
330
1F
100
AcDbEntity
  8
実線
100
AcDbLine
 10
675.857431874019
 20
444.804581480342
 30
0.0
 11
675.857431874019
 21
495.3045814803421
 31
0.0
  0
LINE
  5
AE4
102
{ACAD_REACTORS
330
B7E
102
}
330
1F
100
AcDbEntity
  8
実線
100
AcDbLine
 10
675.857431874019
 20
495.3045814803421
 30
0.0
 11
673.107431874019
 21
495.3045814803421
 31
0.0
  0
LINE
  5
AE5
102
{ACAD_REACTORS
330
B7E
102
}
330
1F
100
AcDbEntity
  8
実線
100
AcDbLine
 10
673.107431874019
 20
444.804581480342
 30
0.0
 11
675.857431874019
 21
444.804581480342
 31
0.0
  0
LINE
  5
AE6
102
{ACAD_REACTORS
330
B7E
102
}
330
1F
100
AcDbEntity
  8
実線
100
AcDbLine
 10
673.107431874019
 20
444.804581480342
 30
0.0
 11
673.107431874019
 21
495.3045814803421
 31
0.0
  0
LINE
  5
AE7
102
{ACAD_REACTORS
330
B7E
102
}
330
1F
100
AcDbEntity
  8
実線
100
AcDbLine
 10
670.757431874019
 20
449.2045814803423
 30
0.0
 11
670.757431874019
 21
490.9045814803421
 31
0.0
  0
LINE
  5
AE8
102
{ACAD_REACTORS
330
B7E
102
}
330
1F
100
AcDbEntity
  8
実線
100
AcDbLine
 10
670.757431874019
 20
449.2045814803423
 30
0.0
 11
673.107431874019
 21
444.804581480342
 31
0.0
  0
LINE
  5
AE9
102
{ACAD_REACTORS
330
B7E
102
}
330
1F
100
AcDbEntity
  8
実線
100
AcDbLine
 10
673.107431874019
 20
495.3045814803421
 30
0.0
 11
670.757431874019
 21
490.9045814803421
 31
0.0
  0
LINE
  5
AEA
102
{ACAD_REACTORS
330
B7E
102
}
330
1F
100
AcDbEntity
  8
実線
100
AcDbLine
 10
543.0583796291236
 20
462.7045814803421
 30
0.0
 11
485.9574318740189
 21
462.7045814803421
 31
0.0
  0
LINE
  5
AEB
102
{ACAD_REACTORS
330
B7E
102
}
330
1F
100
AcDbEntity
  8
実線
100
AcDbLine
 10
529.4136371462799
 20
504.4045814803423
 30
0.0
 11
485.9574318740189
 21
504.4045814803423
 31
0.0
  0
LINE
  5
AEC
102
{ACAD_REACTORS
330
B7E
102
}
330
1F
100
AcDbEntity
  8
実線
100
AcDbLine
 10
485.9574318740189
 20
504.4045814803423
 30
0.0
 11
483.6074318740188
 21
508.8045814803423
 31
0.0
  0
LINE
  5
AED
102
{ACAD_REACTORS
330
B7E
102
}
330
1F
100
AcDbEntity
  8
実線
100
AcDbLine
 10
483.6074318740188
 20
458.3045814803423
 30
0.0
 11
485.9574318740189
 21
462.7045814803421
 31
0.0
  0
LINE
  5
AEE
102
{ACAD_REACTORS
330
B7E
102
}
330
1F
100
AcDbEntity
  8
実線
100
AcDbLine
 10
485.9574318740189
 20
462.7045814803421
 30
0.0
 11
485.9574318740189
 21
504.4045814803423
 31
0.0
  0
LINE
  5
AEF
102
{ACAD_REACTORS
330
B7E
102
}
330
1F
100
AcDbEntity
  8
実線
100
AcDbLine
 10
480.8574318740189
 20
458.3045814803423
 30
0.0
 11
483.6074318740188
 21
458.3045814803423
 31
0.0
  0
LINE
  5
AF0
102
{ACAD_REACTORS
330
B7E
102
}
330
1F
100
AcDbEntity
  8
実線
100
AcDbLine
 10
483.6074318740188
 20
508.8045814803423
 30
0.0
 11
480.8574318740189
 21
508.8045814803423
 31
0.0
  0
LINE
  5
AF1
102
{ACAD_REACTORS
330
B7E
102
}
330
1F
100
AcDbEntity
  8
実線
100
AcDbLine
 10
480.8574318740189
 20
458.3045814803423
 30
0.0
 11
480.8574318740189
 21
508.8045814803423
 31
0.0
  0
LINE
  5
AF2
102
{ACAD_REACTORS
330
B7E
102
}
330
1F
100
AcDbEntity
  8
実線
100
AcDbLine
 10
483.6074318740188
 20
458.3045814803423
 30
0.0
 11
483.6074318740188
 21
508.8045814803423
 31
0.0
  0
ARC
  5
AF3
102
{ACAD_REACTORS
330
B7E
102
}
330
1F
100
AcDbEntity
  8
実線
100
AcDbCircle
 10
554.8574318740187
 20
483.554581480342
 30
0.0
 40
50.0
100
AcDbArc
 50
204.6453293003973
 51
212.7800510628626
  0
ARC
  5
AF4
102
{ACAD_REACTORS
330
B7E
102
}
330
1F
100
AcDbEntity
  8
実線
100
AcDbCircle
 10
554.8574318740187
 20
483.554581480342
 30
0.0
 40
50.0
100
AcDbArc
 50
237.2199489371374
 51
246.4218215217994
  0
ARC
  5
AF5
102
{ACAD_REACTORS
330
B7E
102
}
330
1F
100
AcDbEntity
  8
実線
100
AcDbCircle
 10
554.8574318740187
 20
483.554581480342
 30
0.0
 40
50.0
100
AcDbArc
 50
275.739170477268
 51
300.2807432229449
  0
ARC
  5
AF6
102
{ACAD_REACTORS
330
B7E
102
}
330
1F
100
AcDbEntity
  8
実線
100
AcDbCircle
 10
554.8574318740187
 20
483.554581480342
 30
0.0
 40
50.0
100
AcDbArc
 50
112.103654522987
 51
122.7800510628626
  0
ARC
  5
AF7
102
{ACAD_REACTORS
330
B7E
102
}
330
1F
100
AcDbEntity
  8
実線
100
AcDbCircle
 10
554.8574318740187
 20
483.554581480342
 30
0.0
 40
50.0
100
AcDbArc
 50
147.2199489371374
 51
155.3546706996027
  0
LINE
  5
AF8
102
{ACAD_REACTORS
330
B7E
102
}
330
1F
100
AcDbEntity
  8
実線
100
AcDbLine
 10
624.3574318740188
 20
555.1399727404988
 30
0.0
 11
624.3574318740188
 21
565.2545814803421
 31
0.0
  0
LINE
  5
AF9
102
{ACAD_REACTORS
330
B7E
102
}
330
1F
100
AcDbEntity
  8
実線
100
AcDbLine
 10
624.3574318740188
 20
565.2545814803421
 30
0.0
 11
559.3574318740187
 21
565.2545814803421
 31
0.0
  0
LINE
  5
AFA
102
{ACAD_REACTORS
330
B7E
102
}
330
1F
100
AcDbEntity
  8
実線
100
AcDbLine
 10
559.3574318740187
 20
555.1399727404986
 30
0.0
 11
559.3574318740187
 21
565.2545814803421
 31
0.0
  0
LINE
  5
AFB
102
{ACAD_REACTORS
330
B7E
102
}
330
1F
100
AcDbEntity
  8
実線
100
AcDbLine
 10
629.8574318740187
 20
452.1335174046897
 30
0.0
 11
629.8574318740187
 21
431.5545814803423
 31
0.0
  0
LINE
  5
AFC
102
{ACAD_REACTORS
330
B7E
102
}
330
1F
100
AcDbEntity
  8
実線
100
AcDbLine
 10
604.8574318740187
 20
431.5545814803423
 30
0.0
 11
604.8574318740187
 21
440.6215298633976
 31
0.0
  0
LINE
  5
AFD
102
{ACAD_REACTORS
330
B7E
102
}
330
1F
100
AcDbEntity
  8
実線
100
AcDbLine
 10
629.8574318740187
 20
431.5545814803423
 30
0.0
 11
604.8574318740187
 21
431.5545814803423
 31
0.0
  0
ARC
  5
AFE
102
{ACAD_REACTORS
330
B7E
102
}
330
1F
100
AcDbEntity
  8
実線
100
AcDbCircle
 10
554.8574318740187
 20
483.554581480342
 30
0.0
 40
40.0
100
AcDbArc
 50
126.7781773990078
 51
148.583863567147
  0
ARC
  5
AFF
102
{ACAD_REACTORS
330
B7E
102
}
330
1F
100
AcDbEntity
  8
実線
100
AcDbCircle
 10
554.8574318740187
 20
483.554581480342
 30
0.0
 40
40.0
100
AcDbArc
 50
211.4161364328529
 51
240.0000000000002
  0
ARC
  5
B00
102
{ACAD_REACTORS
330
B7E
102
}
330
1F
100
AcDbEntity
  8
実線
100
AcDbCircle
 10
554.8574318740187
 20
483.554581480342
 30
0.0
 40
40.0
100
AcDbArc
 50
277.1807557814583
 51
285.606220346924
  0
CIRCLE
  5
B01
102
{ACAD_REACTORS
330
B7E
102
}
330
1F
100
AcDbEntity
  8
実線
100
AcDbCircle
 10
591.857431874019
 20
501.7545814803423
 30
0.0
 40
62.5
  0
CIRCLE
  5
B04
102
{ACAD_REACTORS
330
B7E
102
}
330
1F
100
AcDbEntity
  8
実線
100
AcDbCircle
 10
591.857431874019
 20
501.7545814803423
 30
0.0
 40
35.0
  0
LINE
  5
B64
102
{ACAD_REACTORS
330
B7E
102
}
330
1F
100
AcDbEntity
  8
中心線
100
AcDbLine
 10
554.8574318740187
 20
538.5545814803419
 30
0.0
 11
554.8574318740187
 21
428.5545814803421
 31
0.0
  0
LINE
  5
B70
102
{ACAD_REACTORS
330
B77
102
}
330
1F
100
AcDbEntity
  8
中心線
100
AcDbLine
 10
305.8574318740189
 20
470.0545814803423
 30
0.0
 11
245.8574318740188
 21
470.0545814803423
 31
0.0
  0
LINE
  5
B71
102
{ACAD_REACTORS
330
B77
102
}
330
1F
100
AcDbEntity
  8
中心線
100
AcDbLine
 10
275.8574318740189
 20
500.0545814803423
 30
0.0
 11
275.8574318740189
 21
440.0545814803423
 31
0.0
  0
LINE
  5
B73
102
{ACAD_REACTORS
330
B77
102
}
330
1F
100
AcDbEntity
  8
中心線
100
AcDbLine
 10
371.9276221773744
 20
501.7545814803423
 30
0.0
 11
275.8574318740189
 21
501.7545814803423
 31
0.0
  0
LINE
  5
B78
102
{ACAD_REACTORS
330
B80
102
}
330
1F
100
AcDbEntity
  8
中心線
100
AcDbLine
 10
591.8574318740162
 20
606.4573754652058
 30
0.0
 11
591.8574318740162
 21
702.5545814803422
 31
0.0
  0
LINE
  5
B81
102
{ACAD_REACTORS
330
B85
102
}
330
1F
100
AcDbEntity
  8
中心線
100
AcDbLine
 10
591.8574318740162
 20
358.9561164277802
 30
0.0
 11
591.8574318740162
 21
264.5545814803422
 31
0.0
  0
LINE
  5
B88
102
{ACAD_REACTORS
330
B8F
102
}
330
1F
100
AcDbEntity
  8
中心線
100
AcDbLine
 10
831.8574318740147
 20
513.5545814803419
 30
0.0
 11
831.8574318740147
 21
453.5545814803421
 31
0.0
  0
LINE
  5
B89
102
{ACAD_REACTORS
330
B8F
102
}
330
1F
100
AcDbEntity
  8
中心線
100
AcDbLine
 10
775.9362020929202
 20
501.7545814803423
 30
0.0
 11
870.8574318740147
 21
501.7545814803423
 31
0.0
  0
LINE
  5
B91
102
{ACAD_REACTORS
330
B97
102
}
330
1F
100
AcDbEntity
  8
中心線
100
AcDbLine
 10
1186.857431874015
 20
501.7545814803423
 30
0.0
 11
1316.857431874015
 21
501.7545814803423
 31
0.0
  0
LINE
  5
B95
102
{ACAD_REACTORS
330
B97
102
}
330
1F
100
AcDbEntity
  8
中心線
100
AcDbLine
 10
1251.857431874015
 20
566.7545814803422
 30
0.0
 11
1251.857431874015
 21
436.7545814803421
 31
0.0
  0
ENDSEC
  0
SECTION
  2
OBJECTS
  0
DICTIONARY
  5
C
330
0
100
AcDbDictionary
281
     1
  3
ACAD_CIP_PREVIOUS_PRODUCT_INFO
350
377
  3
ACAD_COLOR
350
36D
  3
ACAD_DETAILVIEWSTYLE
350
370
  3
ACAD_GROUP
350
D
  3
ACAD_LAYOUT
350
1A
  3
ACAD_MATERIAL
350
43
  3
ACAD_MLEADERSTYLE
350
5B
  3
ACAD_MLINESTYLE
350
17
  3
ACAD_PLOTSETTINGS
350
19
  3
ACAD_PLOTSTYLENAME
350
E
  3
ACAD_SCALELIST
350
47
  3
ACAD_SECTIONVIEWSTYLE
350
36E
  3
ACAD_TABLESTYLE
350
59
  3
ACAD_VISUALSTYLE
350
2A
  3
ACDB_RECOMPOSE_DATA
350
C18
  3
AcDbVariableDictionary
350
322
  3
DWGPROPS
350
C19
  0
DICTIONARY
  5
37E
330
2
100
AcDbDictionary
280
     1
281
     1
  3
ACAD_LAYERSTATES
360
37F
  0
DICTIONARY
  5
B1C
330
10
100
AcDbDictionary
280
     1
281
     1
  3
ADSK_XREC_LAYER_RECONCILED
360
B1D
  0
DICTIONARY
  5
37A
330
379
100
AcDbDictionary
280
     1
281
     1
  3
ADSK_XREC_LAYER_RECONCILED
360
B1E
  0
DICTIONARY
  5
37C
330
37B
100
AcDbDictionary
280
     1
281
     1
  3
ADSK_XREC_LAYER_RECONCILED
360
B1F
  0
DICTIONARY
  5
8F1
330
1F
100
AcDbDictionary
280
     1
281
     1
  3
ACAD_SORTENTS
360
8F2
  0
XRECORD
  5
377
102
{ACAD_REACTORS
330
C
102
}
330
C
100
AcDbXrecord
280
     1
300
ACDLT
300
2016
300
ACDLT_F_S
  0
DICTIONARY
  5
36D
102
{ACAD_REACTORS
330
C
102
}
330
C
100
AcDbDictionary
281
     1
  0
DICTIONARY
  5
370
102
{ACAD_REACTORS
330
C
102
}
330
C
100
AcDbDictionary
281
     1
  3
Metric50
350
371
  0
DICTIONARY
  5
D
102
{ACAD_REACTORS
330
C
102
}
330
C
100
AcDbDictionary
281
     1
  3
*A1
350
B85
  3
*A2
350
B8F
  3
*A3
350
B97
  3
*A4
350
B77
  3
*A5
350
B7E
  3
*A6
350
B80
  0
DICTIONARY
  5
1A
102
{ACAD_REACTORS
330
C
102
}
330
C
100
AcDbDictionary
281
     1
  3
Layout1
350
1E
  3
Model
350
22
  3
レイアウト1
350
372
  0
DICTIONARY
  5
43
102
{ACAD_REACTORS
330
C
102
}
330
C
100
AcDbDictionary
281
     1
  3
ByBlock
350
45
  3
ByLayer
350
44
  3
Global
350
46
  0
DICTIONARY
  5
5B
102
{ACAD_REACTORS
330
C
102
}
330
C
100
AcDbDictionary
281
     1
  3
Standard
350
5C
  0
DICTIONARY
  5
17
102
{ACAD_REACTORS
330
C
102
}
330
C
100
AcDbDictionary
281
     1
  3
Standard
350
18
  0
DICTIONARY
  5
19
102
{ACAD_REACTORS
330
C
102
}
330
C
100
AcDbDictionary
281
     1
  0
ACDBDICTIONARYWDFLT
  5
E
102
{ACAD_REACTORS
330
C
102
}
330
C
100
AcDbDictionary
281
     1
  3
Normal
350
F
100
AcDbDictionaryWithDefault
340
F
  0
DICTIONARY
  5
47
102
{ACAD_REACTORS
330
C
102
}
330
C
100
AcDbDictionary
281
     1
  3
A0
350
48
  3
A1
350
49
  3
A2
350
4A
  3
A3
350
4B
  3
A4
350
4C
  3
A5
350
4D
  3
A6
350
4E
  3
A7
350
4F
  3
A8
350
50
  3
A9
350
51
  3
B0
350
52
  3
B1
350
53
  3
B2
350
54
  3
B3
350
55
  3
B4
350
56
  3
B5
350
57
  3
B6
350
58
  0
DICTIONARY
  5
36E
102
{ACAD_REACTORS
330
C
102
}
330
C
100
AcDbDictionary
281
     1
  3
Metric50
350
36F
  0
DICTIONARY
  5
59
102
{ACAD_REACTORS
330
C
102
}
330
C
100
AcDbDictionary
281
     1
  3
Standard
350
5A
  0
DICTIONARY
  5
2A
102
{ACAD_REACTORS
330
C
102
}
330
C
100
AcDbDictionary
281
     1
  3
2dWireframe
350
2F
  3
Basic
350
32
  3
Brighten
350
36
  3
ColorChange
350
3A
  3
Conceptual
350
34
  3
Dim
350
35
  3
EdgeColorOff
350
3D
  3
Facepattern
350
39
  3
Flat
350
2B
  3
FlatWithEdges
350
2C
  3
Gouraud
350
2D
  3
GouraudWithEdges
350
2E
  3
Hidden
350
31
  3
JitterOff
350
3B
  3
Linepattern
350
38
  3
OverhangOff
350
3C
  3
Realistic
350
33
  3
Shaded
350
42
  3
Shaded with edges
350
41
  3
Shades of Gray
350
3E
  3
Sketchy
350
3F
  3
Thicken
350
37
  3
Wireframe
350
30
  3
X-Ray
350
40
  0
XRECORD
  5
C18
102
{ACAD_REACTORS
330
C
102
}
330
C
100
AcDbXrecord
280
     1
 90
        1
330
5A
  0
DICTIONARY
  5
322
102
{ACAD_REACTORS
330
C
102
}
330
C
100
AcDbDictionary
281
     1
  3
CANNOSCALE
350
330
  3
CENTEREXE
350
329
  3
CENTERLTYPEFILE
350
32A
  3
CMLEADERSTYLE
350
324
  3
CTABLESTYLE
350
323
  3
CVIEWDETAILSTYLE
350
B20
  3
CVIEWSECTIONSTYLE
350
B21
  3
DIMASSOC
350
32B
  3
HIDETEXT
350
32C
  3
INDEXCTL
350
B99
  3
LAYEREVAL
350
B23
  3
LAYERNOTIFY
350
B24
  3
LIGHTINGUNITS
350
B22
  3
LOFTANG1
350
C14
  3
LOFTANG2
350
C15
  3
MSLTSCALE
350
331
  3
PSOLHEIGHT
350
C13
  3
PSOLWIDTH
350
C12
  3
SORTENTS
350
B98
  3
XCLIPFRAME
350
C16
  0
XRECORD
  5
C19
102
{ACAD_REACTORS
330
C
102
}
330
C
100
AcDbXrecord
280
     1
  1
DWGPROPS COOKIE
  2

  3

  4

  6
File was created by TR2_DExp
  7

  8
t.yanai
  9

300
=
301
=
302
=
303
=
304
=
305
=
306
=
307
=
308
=
309
=
 40
0.0460647222222222
 41
2455188.75
 42
2459753.592730197
  1

 90
        0
  0
DICTIONARY
  5
37F
102
{ACAD_REACTORS
330
37E
102
}
330
37E
100
AcDbDictionary
281
     1
  0
XRECORD
  5
B1D
102
{ACAD_REACTORS
330
B1C
102
}
330
B1C
100
AcDbXrecord
280
     1
290
     1
  0
XRECORD
  5
B1E
102
{ACAD_REACTORS
330
37A
102
}
330
37A
100
AcDbXrecord
280
     1
290
     1
  0
XRECORD
  5
B1F
102
{ACAD_REACTORS
330
37C
102
}
330
37C
100
AcDbXrecord
280
     1
290
     1
  0
SORTENTSTABLE
  5
8F2
102
{ACAD_REACTORS
330
8F1
102
}
330
8F1
100
AcDbSortentsTable
330
1F
331
986
  5
721
331
947
  5
7CB
331
943
  5
7C7
331
982
  5
71D
331
8C5
  5
86B
331
90C
  5
78F
331
93F
  5
7C3
331
97E
  5
802
331
8C1
  5
867
331
908
  5
78B
331
904
  5
787
331
93B
  5
7BF
331
97A
  5
7FE
331
8BD
  5
863
331
8B9
  5
85F
331
900
  5
783
331
AEF
  5
61C
331
AAC
  5
687
331
AEB
  5
618
331
AA8
  5
683
331
AE7
  5
614
331
AA4
  5
67F
331
AE3
  5
610
331
AA0
  5
67B
331
A75
  5
650
331
88E
  5
834
331
9FF
  5
6C5
331
A36
  5
6FC
331
A71
  5
64C
331
A32
  5
6F8
331
9BC
  5
757
331
9FB
  5
6C1
331
88A
  5
830
331
886
  5
82C
331
A2E
  5
6F4
331
A6D
  5
648
331
9B8
  5
753
331
9F7
  5
6BD
331
882
  5
828
331
9F3
  5
6B9
331
A2A
  5
6F0
331
A69
  5
644
331
9B4
  5
74F
331
9B0
  5
74B
331
976
  5
7FA
331
937
  5
7BB
331
972
  5
7F6
331
8B5
  5
85B
331
8FC
  5
77F
331
933
  5
7B6
331
92F
  5
7B2
331
96E
  5
7F2
331
8B1
  5
857
331
8F8
  5
77B
331
8EC
  5
892
331
92B
  5
7AE
331
96A
  5
7EE
331
8AD
  5
853
331
8A9
  5
84F
331
8E8
  5
88E
331
ADF
  5
60C
331
A9C
  5
677
331
ADB
  5
608
331
A98
  5
673
331
AD7
  5
604
331
A94
  5
66F
331
AD3
  5
600
331
A90
  5
66B
331
A65
  5
640
331
8F4
  5
777
331
87E
  5
824
331
9EF
  5
6B5
331
A26
  5
6EC
331
A61
  5
63C
331
8F0
  5
AF3
331
87A
  5
820
331
9AC
  5
747
331
9EB
  5
6B1
331
A22
  5
6E8
331
876
  5
81C
331
A1E
  5
6E4
331
A5D
  5
638
331
9A8
  5
743
331
9E7
  5
6AD
331
872
  5
818
331
9E3
  5
6A9
331
A1A
  5
6E0
331
A59
  5
634
331
9A4
  5
73F
331
9A0
  5
73B
331
966
  5
7EA
331
962
  5
7E6
331
8E4
  5
88A
331
927
  5
7AA
331
95E
  5
7E2
331
99D
  5
738
331
8E0
  5
886
331
8DC
  5
882
331
923
  5
7A6
331
95A
  5
7DE
331
999
  5
734
331
8D8
  5
87E
331
ACF
  5
5FC
331
ACB
  5
5F8
331
AC7
  5
5F4
331
AC3
  5
69E
331
9DF
  5
6A5
331
86E
  5
814
331
A55
  5
71B
331
A51
  5
717
331
857
  5
AFD
331
9DB
  5
6A1
331
86A
  5
810
331
8A5
  5
84B
331
A4D
  5
713
331
A8C
  5
667
331
853
  5
AF9
331
A16
  5
6DC
331
9D7
  5
772
331
866
  5
80C
331
8A1
  5
847
331
862
  5
808
331
9D3
  5
76E
331
A12
  5
6D8
331
A49
  5
70F
331
A88
  5
663
331
995
  5
730
331
91F
  5
7A2
331
956
  5
7DA
331
952
  5
7D6
331
991
  5
72C
331
8D4
  5
87A
331
91B
  5
79E
331
917
  5
79A
331
94E
  5
7D2
331
98D
  5
728
331
8D0
  5
876
331
8CC
  5
872
331
913
  5
796
331
94A
  5
7CE
331
989
  5
724
331
8C8
  5
86E
331
AFE
  5
62B
331
ABF
  5
69A
331
ABB
  5
696
331
AFA
  5
627
331
AB7
  5
692
331
AF6
  5
623
331
AB3
  5
68E
331
AF2
  5
61F
331
84F
  5
AF5
331
B04
  5
631
331
A84
  5
65F
331
89D
  5
843
331
9CF
  5
76A
331
A0E
  5
6D4
331
A45
  5
70B
331
B00
  5
62D
331
A80
  5
65B
331
A41
  5
707
331
9CB
  5
766
331
A0A
  5
6D0
331
899
  5
83F
331
895
  5
83B
331
A3D
  5
703
331
A7C
  5
657
331
A06
  5
6CC
331
9C7
  5
762
331
85E
  5
B64
331
891
  5
837
331
85A
  5
B00
331
9C3
  5
75E
331
A02
  5
6C8
331
A39
  5
6FF
331
A78
  5
653
331
985
  5
720
331
90F
  5
792
331
946
  5
7CA
331
942
  5
7C6
331
981
  5
805
331
8C4
  5
86A
331
90B
  5
78E
331
907
  5
78A
331
93E
  5
7C2
331
97D
  5
801
331
8C0
  5
866
331
903
  5
786
331
93A
  5
7BE
331
979
  5
7FD
331
8BC
  5
862
331
8B8
  5
85E
331
AEE
  5
61B
331
AAF
  5
68A
331
AAB
  5
686
331
AEA
  5
617
331
AA7
  5
682
331
AE6
  5
613
331
AA3
  5
67E
331
AE2
  5
60F
331
A74
  5
64F
331
88D
  5
833
331
9BF
  5
75A
331
9FE
  5
6C4
331
A35
  5
6FB
331
A70
  5
64B
331
A31
  5
6F7
331
9BB
  5
756
331
9FA
  5
6C0
331
889
  5
82F
331
885
  5
82B
331
9F6
  5
6BC
331
A2D
  5
6F3
331
A6C
  5
647
331
9B7
  5
752
331
881
  5
827
331
9F2
  5
6B8
331
A29
  5
6EF
331
A68
  5
643
331
9B3
  5
74E
331
975
  5
7F9
331
8FF
  5
782
331
936
  5
7BA
331
932
  5
7B5
331
971
  5
7F5
331
8B4
  5
85A
331
8FB
  5
77E
331
92E
  5
7B1
331
96D
  5
7F1
331
8B0
  5
856
331
8EF
  5
895
331
8EB
  5
891
331
92A
  5
7AD
331
969
  5
7ED
331
8AC
  5
852
331
8A8
  5
84E
331
ADE
  5
60B
331
A9F
  5
67A
331
A9B
  5
676
331
ADA
  5
607
331
A97
  5
672
331
AD6
  5
603
331
A93
  5
66E
331
AD2
  5
5FF
331
8F7
  5
77A
331
A64
  5
63F
331
8F3
  5
776
331
87D
  5
823
331
9AF
  5
74A
331
9EE
  5
6B4
331
A25
  5
6EB
331
A60
  5
63B
331
A21
  5
6E7
331
9AB
  5
746
331
9EA
  5
6B0
331
879
  5
81F
331
875
  5
81B
331
A1D
  5
6E3
331
A5C
  5
637
331
9A7
  5
742
331
9E6
  5
6AC
331
871
  5
817
331
9E2
  5
6A8
331
A19
  5
6DF
331
A58
  5
633
331
9A3
  5
73E
331
965
  5
7E9
331
8E7
  5
88D
331
961
  5
7E5
331
8E3
  5
889
331
926
  5
7A9
331
95D
  5
7E1
331
99C
  5
737
331
8DF
  5
885
331
998
  5
733
331
8DB
  5
881
331
922
  5
7A5
331
959
  5
7DD
331
ACE
  5
5FB
331
ACA
  5
5F7
331
AC6
  5
5F3
331
AC2
  5
69D
331
A54
  5
71A
331
9DE
  5
6A4
331
86D
  5
813
331
A50
  5
716
331
A8F
  5
66A
331
856
  5
AFC
331
9DA
  5
775
331
869
  5
80F
331
8A4
  5
84A
331
865
  5
80B
331
A15
  5
6DB
331
A4C
  5
712
331
A8B
  5
666
331
9D6
  5
771
331
852
  5
AF8
331
8A0
  5
846
331
861
  5
807
331
9D2
  5
76D
331
A11
  5
6D7
331
A48
  5
70E
331
994
  5
72F
331
8D7
  5
87D
331
91E
  5
7A1
331
955
  5
7D9
331
951
  5
7D5
331
990
  5
72B
331
8D3
  5
879
331
91A
  5
79D
331
916
  5
799
331
94D
  5
7D1
331
98C
  5
727
331
8CF
  5
875
331
8CB
  5
871
331
912
  5
795
331
949
  5
7CD
331
988
  5
723
331
ABE
  5
699
331
AFD
  5
62A
331
ABA
  5
695
331
AF9
  5
626
331
AB6
  5
691
331
AF5
  5
622
331
AF1
  5
61E
331
AB2
  5
68D
331
A87
  5
662
331
84E
  5
AF4
331
A83
  5
65E
331
89C
  5
842
331
9CE
  5
769
331
A0D
  5
6D3
331
A44
  5
70A
331
898
  5
83E
331
A40
  5
706
331
A7F
  5
65A
331
B71
  5
B01
331
9CA
  5
765
331
A09
  5
6CF
331
894
  5
83A
331
A3C
  5
702
331
A7B
  5
656
331
A05
  5
6CB
331
9C6
  5
761
331
85D
  5
B04
331
890
  5
836
331
859
  5
AFF
331
9C2
  5
75D
331
A01
  5
6C7
331
A38
  5
6FE
331
984
  5
71F
331
8C7
  5
86D
331
90E
  5
791
331
945
  5
7C9
331
941
  5
7C5
331
980
  5
804
331
8C3
  5
869
331
90A
  5
78D
331
906
  5
789
331
93D
  5
7C1
331
97C
  5
800
331
8BF
  5
865
331
8BB
  5
861
331
902
  5
785
331
939
  5
7BD
331
978
  5
7FC
331
AED
  5
61A
331
AAE
  5
689
331
AAA
  5
685
331
AE9
  5
616
331
AA6
  5
681
331
AE5
  5
612
331
AA2
  5
67D
331
AE1
  5
60E
331
A77
  5
652
331
A73
  5
64E
331
88C
  5
832
331
9BE
  5
759
331
9FD
  5
6C3
331
A34
  5
6FA
331
A6F
  5
64A
331
A30
  5
6F6
331
9BA
  5
755
331
9F9
  5
6BF
331
888
  5
82E
331
884
  5
82A
331
9F5
  5
6BB
331
A2C
  5
6F2
331
A6B
  5
646
331
9B6
  5
751
331
880
  5
826
331
9B2
  5
74D
331
9F1
  5
6B7
331
A28
  5
6EE
331
974
  5
7F8
331
8B7
  5
85D
331
8FE
  5
781
331
935
  5
7B9
331
931
  5
7B4
331
970
  5
7F4
331
8B3
  5
859
331
8FA
  5
77D
331
8EE
  5
894
331
92D
  5
7B0
331
96C
  5
7F0
331
8AF
  5
855
331
8EA
  5
890
331
929
  5
7AC
331
968
  5
7EC
331
8AB
  5
851
331
ADD
  5
60A
331
A9E
  5
679
331
A9A
  5
675
331
AD9
  5
606
331
A96
  5
671
331
AD5
  5
602
331
A92
  5
66D
331
AD1
  5
5FE
331
8F6
  5
779
331
A67
  5
642
331
A63
  5
63E
331
87C
  5
822
331
9AE
  5
749
331
9ED
  5
6B3
331
A24
  5
6EA
331
A5F
  5
63A
331
A20
  5
6E6
331
9AA
  5
745
331
9E9
  5
6AF
331
878
  5
81E
331
874
  5
81A
331
9E5
  5
6AB
331
A1C
  5
6E2
331
A5B
  5
636
331
9A6
  5
741
331
870
  5
816
331
9E1
  5
6A7
331
A18
  5
6DE
331
9A2
  5
73D
331
964
  5
7E8
331
8E6
  5
88C
331
960
  5
7E4
331
99F
  5
73A
331
8E2
  5
888
331
925
  5
7A8
331
95C
  5
7E0
331
99B
  5
736
331
8DE
  5
884
331
8DA
  5
880
331
921
  5
7A4
331
958
  5
7DC
331
ACD
  5
5FA
331
AC9
  5
5F6
331
AC5
  5
6A0
331
B64
  5
B70
331
AC1
  5
69C
331
A57
  5
632
331
A53
  5
719
331
9DD
  5
6A3
331
86C
  5
812
331
8A7
  5
84D
331
A4F
  5
715
331
A8E
  5
669
331
855
  5
AFB
331
9D9
  5
774
331
868
  5
80E
331
8A3
  5
849
331
864
  5
80A
331
A14
  5
6DA
331
A4B
  5
711
331
A8A
  5
665
331
9D5
  5
770
331
851
  5
AF7
331
860
  5
806
331
9D1
  5
76C
331
A10
  5
6D6
331
997
  5
732
331
954
  5
7D8
331
993
  5
72E
331
8D6
  5
87C
331
91D
  5
7A0
331
950
  5
7D4
331
98F
  5
72A
331
8D2
  5
878
331
919
  5
79C
331
915
  5
798
331
94C
  5
7D0
331
98B
  5
726
331
8CE
  5
874
331
8CA
  5
870
331
911
  5
794
331
948
  5
7CC
331
ABD
  5
698
331
AFC
  5
629
331
AB9
  5
694
331
AF8
  5
625
331
AB5
  5
690
331
AF4
  5
621
331
AF0
  5
61D
331
AB1
  5
68C
331
A86
  5
661
331
89F
  5
845
331
A47
  5
70D
331
A82
  5
65D
331
A43
  5
709
331
9CD
  5
768
331
A0C
  5
6D2
331
89B
  5
841
331
897
  5
83D
331
A3F
  5
705
331
A7E
  5
659
331
B70
  5
B73
331
9C9
  5
764
331
A08
  5
6CE
331
893
  5
839
331
85C
  5
B03
331
A04
  5
6CA
331
A3B
  5
701
331
A7A
  5
655
331
9C5
  5
760
331
B81
  5
B82
331
858
  5
AFE
331
9C1
  5
75C
331
A00
  5
6C6
331
987
  5
722
331
983
  5
71E
331
8C6
  5
86C
331
90D
  5
790
331
944
  5
7C8
331
940
  5
7C4
331
97F
  5
803
331
8C2
  5
868
331
909
  5
78C
331
905
  5
788
331
93C
  5
7C0
331
97B
  5
7FF
331
8BE
  5
864
331
8BA
  5
860
331
901
  5
784
331
938
  5
7BC
331
AAD
  5
688
331
AEC
  5
619
331
AA9
  5
684
331
AE8
  5
615
331
AA5
  5
680
331
AE4
  5
611
331
AE0
  5
60D
331
AA1
  5
67C
331
A76
  5
651
331
88F
  5
835
331
A37
  5
6FD
331
A72
  5
64D
331
88B
  5
831
331
9BD
  5
758
331
9FC
  5
6C2
331
A33
  5
6F9
331
887
  5
82D
331
A2F
  5
6F5
331
A6E
  5
649
331
B78
  5
B81
331
9B9
  5
754
331
9F8
  5
6BE
331
883
  5
829
331
9F4
  5
6BA
331
A2B
  5
6F1
331
A6A
  5
645
331
9B5
  5
750
331
9B1
  5
74C
331
9F0
  5
6B6
331
977
  5
7FB
331
973
  5
7F7
331
8B6
  5
85C
331
8FD
  5
780
331
934
  5
7B7
331
930
  5
7B3
331
96F
  5
7F3
331
8B2
  5
858
331
8F9
  5
77C
331
8ED
  5
893
331
92C
  5
7AF
331
96B
  5
7EF
331
8AE
  5
854
331
8AA
  5
850
331
8E9
  5
88F
331
928
  5
7AB
331
ADC
  5
609
331
A9D
  5
678
331
A99
  5
674
331
AD8
  5
605
331
A95
  5
670
331
AD4
  5
601
331
A91
  5
66C
331
AD0
  5
5FD
331
8F5
  5
778
331
87F
  5
825
331
A27
  5
6ED
331
A66
  5
641
331
A62
  5
63D
331
87B
  5
821
331
9AD
  5
748
331
9EC
  5
6B2
331
A23
  5
6E9
331
A5E
  5
639
331
A1F
  5
6E5
331
9A9
  5
744
331
9E8
  5
6AE
331
877
  5
81D
331
873
  5
819
331
9E4
  5
6AA
331
A1B
  5
6E1
331
A5A
  5
635
331
9A5
  5
740
331
9A1
  5
73C
331
9E0
  5
6A6
331
967
  5
7EB
331
963
  5
7E7
331
8E5
  5
88B
331
95F
  5
7E3
331
99E
  5
739
331
8E1
  5
887
331
8DD
  5
883
331
924
  5
7A7
331
95B
  5
7DF
331
99A
  5
735
331
8D9
  5
87F
331
920
  5
7A3
331
ACC
  5
5F9
331
AC8
  5
5F5
331
AC4
  5
69F
331
AC0
  5
69B
331
86F
  5
815
331
A56
  5
71C
331
A52
  5
718
331
9DC
  5
6A2
331
86B
  5
811
331
8A6
  5
84C
331
A4E
  5
714
331
A8D
  5
668
331
854
  5
AFA
331
A17
  5
6DD
331
9D8
  5
773
331
867
  5
80D
331
850
  5
AF6
331
8A2
  5
848
331
863
  5
809
331
9D4
  5
76F
331
A13
  5
6D9
331
A4A
  5
710
331
A89
  5
664
331
9D0
  5
76B
331
996
  5
731
331
957
  5
7DB
331
953
  5
7D7
331
992
  5
72D
331
8D5
  5
87B
331
91C
  5
79F
331
918
  5
79B
331
94F
  5
7D3
331
98E
  5
729
331
8D1
  5
877
331
914
  5
797
331
94B
  5
7CF
331
98A
  5
725
331
8CD
  5
873
331
8C9
  5
86F
331
910
  5
793
331
AFF
  5
62C
331
ABC
  5
697
331
AFB
  5
628
331
AB8
  5
693
331
AF7
  5
624
331
AB4
  5
68F
331
AF3
  5
620
331
AB0
  5
68B
331
A85
  5
660
331
89E
  5
844
331
A0F
  5
6D5
331
A46
  5
70C
331
B01
  5
62E
331
A81
  5
65C
331
A42
  5
708
331
B73
  5
B78
331
9CC
  5
767
331
A0B
  5
6D1
331
89A
  5
840
331
896
  5
83C
331
A3E
  5
704
331
A7D
  5
658
331
A07
  5
6CD
331
9C8
  5
763
331
85F
  5
B68
331
892
  5
838
331
85B
  5
B02
331
A03
  5
6C9
331
A3A
  5
700
331
A79
  5
654
331
9C4
  5
75F
331
9C0
  5
75B
  0
ACDBDETAILVIEWSTYLE
  5
371
102
{ACAD_XDICTIONARY
360
C51
102
}
102
{ACAD_REACTORS
330
370
102
}
330
370
100
AcDbModelDocViewStyle
 70
     0
  3
Metric50
290
     0
100
AcDbDetailViewStyle
 70
     0
 71
     0
 90
        3
 71
     1
340
11
 40
5.0
340
0
 40
5.0
300

 40
0.0
280
     1
 71
     2
340
16
 90
       25
 71
     3
340
11
 40
5.0
 90
        0
 40
15.0
 90
        1
300
%<\AcVar ViewDetailId>% (%<\AcVar ViewScale \f "%sn">%)
 71
     4
340
16
 90
       25
340
16
 90
       25
280
     0
  0
GROUP
  5
B85
102
{ACAD_REACTORS
330
D
102
}
330
D
100
AcDbGroup
300

 70
     1
 71
     1
340
B81
340
850
340
84F
340
84E
340
981
340
980
340
97F
340
97E
340
97D
340
97C
340
97B
340
97A
340
979
340
978
340
977
340
976
340
975
340
974
340
973
340
972
340
971
340
970
340
96F
340
96E
340
96D
340
96C
340
96B
340
96A
340
969
340
968
340
967
340
966
340
965
340
964
340
963
340
962
340
961
340
960
340
95F
340
95E
340
95D
340
95C
340
95B
340
95A
340
959
340
958
340
957
340
956
340
955
340
954
340
953
340
952
340
951
340
950
340
94F
340
94E
340
94D
340
94C
340
94B
340
94A
340
949
340
948
340
947
340
946
340
945
340
944
340
943
340
942
340
941
340
940
340
93F
340
93E
340
93D
340
93C
340
93B
340
93A
340
939
340
938
340
937
340
936
340
935
340
934
340
933
340
932
340
931
340
930
340
92F
340
92E
340
92D
340
92C
340
92B
340
92A
340
929
340
928
340
927
340
926
340
925
340
924
340
923
340
922
340
921
340
920
340
91F
340
91E
340
91D
340
91C
340
91B
340
91A
340
919
340
918
340
917
340
916
340
915
340
914
340
913
340
912
340
911
340
910
340
90F
340
90E
340
90D
340
90C
340
90B
340
90A
340
909
340
908
340
907
340
906
340
905
340
904
340
903
340
902
340
901
340
900
340
8FF
340
8FE
340
8FD
340
8FC
340
8FB
340
8FA
340
8F9
340
8F8
340
8F7
340
8F6
340
8F5
340
8F4
340
8F3
  0
GROUP
  5
B8F
102
{ACAD_REACTORS
330
D
102
}
330
D
100
AcDbGroup
300

 70
     1
 71
     1
340
B89
340
B88
340
85C
340
854
340
853
340
A56
340
A55
340
A54
340
A53
340
A52
340
A51
340
A50
340
A4F
340
A4E
340
A4D
340
A4C
340
A4B
340
A4A
340
A49
340
A48
340
A47
340
A46
340
A45
340
A44
340
A43
340
A42
340
A41
340
A40
340
A3F
340
A3E
340
A3D
340
A3C
340
A3B
340
A3A
340
A39
340
A38
340
A37
340
A36
340
A35
340
A34
340
A33
340
A32
340
A31
340
A30
340
A2F
340
A2E
340
A2D
340
A2C
340
A2B
340
A2A
340
A29
340
A28
340
A27
340
A26
340
A25
340
A24
340
A23
340
A22
340
A21
340
A20
340
A1F
340
A1E
340
A1D
340
A1C
340
A1B
340
A1A
340
A19
340
A18
340
A17
340
A16
340
A15
340
A14
340
A13
340
A12
340
A11
340
A10
340
A0F
340
A0E
340
A0D
340
A0C
340
A0B
340
A0A
340
A09
340
A08
340
A07
340
A06
340
A05
340
A04
340
A03
340
A02
340
A01
340
A00
340
9FF
340
9FE
340
9FD
340
9FC
340
9FB
340
9FA
340
9F9
340
9F8
340
9F7
340
9F6
340
9F5
340
9F4
340
9F3
340
9F2
340
9F1
340
9F0
340
9EF
340
9EE
340
9ED
340
9EC
340
9EB
340
9EA
340
9E9
340
9E8
340
9E7
340
9E6
340
9E5
340
9E4
340
9E3
340
9E2
340
9E1
340
9E0
340
9DF
340
9DE
340
9DD
340
9DC
340
9DB
  0
GROUP
  5
B97
102
{ACAD_REACTORS
330
D
102
}
330
D
100
AcDbGroup
300

 70
     1
 71
     1
340
B95
340
B91
340
85D
340
852
340
851
340
9DA
340
9D9
340
9D8
340
9D7
340
9D6
340
9D5
340
9D4
340
9D3
340
9D2
340
9D1
340
9D0
340
9CF
340
9CE
340
9CD
340
9CC
340
9CB
340
9CA
340
9C9
340
9C8
340
9C7
340
9C6
340
9C5
340
9C4
340
9C3
340
9C2
340
9C1
340
9C0
340
9BF
340
9BE
340
9BD
340
9BC
340
9BB
340
9BA
340
9B9
340
9B8
340
9B7
340
9B6
340
9B5
340
9B4
340
9B3
340
9B2
340
9B1
340
9B0
340
9AF
340
9AE
340
9AD
340
9AC
340
9AB
340
9AA
340
9A9
340
9A8
340
9A7
340
9A6
340
9A5
340
9A4
340
9A3
340
9A2
340
9A1
340
9A0
340
99F
340
99E
340
99D
340
99C
340
99B
340
99A
340
999
340
998
340
997
340
996
340
995
340
994
340
993
340
992
340
991
340
990
340
98F
340
98E
340
98D
340
98C
340
98B
340
98A
340
989
340
988
340
987
340
986
340
985
340
984
340
983
340
982
  0
GROUP
  5
B77
102
{ACAD_REACTORS
330
D
102
}
330
D
100
AcDbGroup
300

 70
     1
 71
     1
340
B73
340
B70
340
85B
340
B71
340
85A
340
AC5
340
AC4
340
AC3
340
AC2
340
AC1
340
AC0
340
ABF
340
ABE
340
ABD
340
ABC
340
ABB
340
ABA
340
AB9
340
AB8
340
AB7
340
AB6
340
AB5
340
AB4
340
AB3
340
AB2
340
AB1
340
AB0
340
AAF
340
AAE
340
AAD
340
AAC
340
AAB
340
AAA
340
AA9
340
AA8
340
AA7
340
AA6
340
AA5
340
AA4
340
AA3
340
AA2
340
AA1
340
AA0
340
A9F
340
A9E
340
A9D
340
A9C
340
A9B
340
A9A
340
A99
340
A98
340
A97
340
A96
340
A95
340
A94
340
A93
340
A92
340
A91
340
A90
340
A8F
340
A8E
340
A8D
340
A8C
340
A8B
340
A8A
340
A89
340
A88
340
A87
340
A86
340
A85
340
A84
340
A83
340
A82
340
A81
340
A80
340
A7F
340
A7E
340
A7D
340
A7C
340
A7B
340
A7A
340
A79
340
A78
340
A77
340
A76
340
A75
340
A74
340
A73
340
A72
340
A71
340
A70
340
A6F
340
A6E
340
A6D
340
A6C
340
A6B
340
A6A
340
A69
340
A68
340
A67
340
A66
340
A65
340
A64
340
A63
340
A62
340
A61
340
A60
340
A5F
340
A5E
340
A5D
340
A5C
340
A5B
340
A5A
340
A59
340
A58
340
A57
  0
GROUP
  5
B7E
102
{ACAD_REACTORS
330
D
102
}
330
D
100
AcDbGroup
300

 70
     1
 71
     1
340
B64
340
85F
340
85E
340
856
340
855
340
B04
340
B01
340
B00
340
AFF
340
AFE
340
AFD
340
AFC
340
AFB
340
AFA
340
AF9
340
AF8
340
AF7
340
AF6
340
AF5
340
AF4
340
AF3
340
AF2
340
AF1
340
AF0
340
AEF
340
AEE
340
AED
340
AEC
340
AEB
340
AEA
340
AE9
340
AE8
340
AE7
340
AE6
340
AE5
340
AE4
340
AE3
340
AE2
340
AE1
340
AE0
340
ADF
340
ADE
340
ADD
340
ADC
340
ADB
340
ADA
340
AD9
340
AD8
340
AD7
340
AD6
340
AD5
340
AD4
340
AD3
340
AD2
340
AD1
340
AD0
340
ACF
340
ACE
340
ACD
340
ACC
340
ACB
340
ACA
340
AC9
340
AC8
340
AC7
340
AC6
  0
GROUP
  5
B80
102
{ACAD_REACTORS
330
D
102
}
330
D
100
AcDbGroup
300

 70
     1
 71
     1
340
B78
340
859
340
858
340
857
340
8F0
340
8EF
340
8EE
340
8ED
340
8EC
340
8EB
340
8EA
340
8E9
340
8E8
340
8E7
340
8E6
340
8E5
340
8E4
340
8E3
340
8E2
340
8E1
340
8E0
340
8DF
340
8DE
340
8DD
340
8DC
340
8DB
340
8DA
340
8D9
340
8D8
340
8D7
340
8D6
340
8D5
340
8D4
340
8D3
340
8D2
340
8D1
340
8D0
340
8CF
340
8CE
340
8CD
340
8CC
340
8CB
340
8CA
340
8C9
340
8C8
340
8C7
340
8C6
340
8C5
340
8C4
340
8C3
340
8C2
340
8C1
340
8C0
340
8BF
340
8BE
340
8BD
340
8BC
340
8BB
340
8BA
340
8B9
340
8B8
340
8B7
340
8B6
340
8B5
340
8B4
340
8B3
340
8B2
340
8B1
340
8B0
340
8AF
340
8AE
340
8AD
340
8AC
340
8AB
340
8AA
340
8A9
340
8A8
340
8A7
340
8A6
340
8A5
340
8A4
340
8A3
340
8A2
340
8A1
340
8A0
340
89F
340
89E
340
89D
340
89C
340
89B
340
89A
340
899
340
898
340
897
340
896
340
895
340
894
340
893
340
892
340
891
340
890
340
88F
340
88E
340
88D
340
88C
340
88B
340
88A
340
889
340
888
340
887
340
886
340
885
340
884
340
883
340
882
340
881
340
880
340
87F
340
87E
340
87D
340
87C
340
87B
340
87A
340
879
340
878
340
877
340
876
340
875
340
874
340
873
340
872
340
871
340
870
340
86F
340
86E
340
86D
340
86C
340
86B
340
86A
340
869
340
868
340
867
340
866
340
865
340
864
340
863
340
862
340
861
340
860
  0
LAYOUT
  5
1E
102
{ACAD_XDICTIONARY
360
C1A
102
}
102
{ACAD_REACTORS
330
1A
102
}
330
1A
100
AcDbPlotSettings
  1

  2
none_device
  4

  6

 40
0.0
 41
0.0
 42
0.0
 43
0.0
 44
0.0
 45
0.0
 46
0.0
 47
0.0
 48
0.0
 49
0.0
140
0.0
141
0.0
142
1.0
143
1.0
 70
   688
 72
     1
 73
     0
 74
     5
  7

 75
    16
147
1.0
148
0.0
149
0.0
100
AcDbLayout
  1
Layout1
 70
     1
 71
     1
 10
0.0
 20
0.0
 11
420.0
 21
297.0
 12
0.0
 22
0.0
 32
0.0
 14
1.000000000000000E+20
 24
1.000000000000000E+20
 34
1.000000000000000E+20
 15
-1.000000000000000E+20
 25
-1.000000000000000E+20
 35
-1.000000000000000E+20
146
0.0
 13
0.0
 23
0.0
 33
0.0
 16
1.0
 26
0.0
 36
0.0
 17
0.0
 27
1.0
 37
0.0
 76
     0
330
1B
  0
LAYOUT
  5
22
102
{ACAD_XDICTIONARY
360
C1C
102
}
102
{ACAD_REACTORS
330
1A
102
}
330
1A
100
AcDbPlotSettings
  1

  2
none_device
  4
Letter_(8.50_x_11.00_Inches)
  6

 40
6.349999999999997
 41
6.349999999999997
 42
6.350005079999997
 43
6.350005079999997
 44
215.9
 45
279.4
 46
0.0
 47
0.0
 48
0.0
 49
0.0
140
0.0
141
0.0
142
1.0
143
1.0
 70
  1712
 72
     1
 73
     0
 74
     0
  7

 75
     0
147
1.0
148
0.0
149
0.0
100
AcDbLayout
  1
Model
 70
     1
 71
     0
 10
-467.2301433563233
 20
-530.391617822647
 11
1112.416854858398
 21
522.0906568050385
 12
0.0
 22
0.0
 32
0.0
 14
-467.2301433563233
 24
-530.391617822647
 34
0.0
 15
1112.416854858398
 25
522.0906568050385
 35
0.0
146
0.0
 13
0.0
 23
0.0
 33
0.0
 16
1.0
 26
0.0
 36
0.0
 17
0.0
 27
1.0
 37
0.0
 76
     0
330
1F
331
29
  0
LAYOUT
  5
372
102
{ACAD_XDICTIONARY
360
C53
102
}
102
{ACAD_REACTORS
330
1A
102
}
330
1A
100
AcDbPlotSettings
  1

  2
青梅 FX DocuCentre-V C2275 T2
  4

  6

 40
0.0
 41
0.0
 42
0.0
 43
0.0
 44
0.0
 45
0.0
 46
0.0
 47
0.0
 48
0.0
 49
0.0
140
0.0
141
0.0
142
1.0
143
1.0
 70
   688
 72
     0
 73
     0
 74
     5
  7
AutoCAD_PEN.ctb
 75
    16
147
1.0
148
0.0
149
0.0
100
AcDbLayout
  1
レイアウト1
 70
     1
 71
     2
 10
0.0
 20
0.0
 11
12.0
 21
9.0
 12
0.0
 22
0.0
 32
0.0
 14
0.0
 24
0.0
 34
0.0
 15
0.0
 25
0.0
 35
0.0
146
0.0
 13
0.0
 23
0.0
 33
0.0
 16
1.0
 26
0.0
 36
0.0
 17
0.0
 27
1.0
 37
0.0
 76
     0
330
23
  0
MATERIAL
  5
45
102
{ACAD_XDICTIONARY
360
364
102
}
102
{ACAD_REACTORS
330
43
102
}
330
43
100
AcDbMaterial
  1
ByBlock
  0
MATERIAL
  5
44
102
{ACAD_XDICTIONARY
360
362
102
}
102
{ACAD_REACTORS
330
43
102
}
330
43
100
AcDbMaterial
  1
ByLayer
  0
MATERIAL
  5
46
102
{ACAD_XDICTIONARY
360
366
102
}
102
{ACAD_REACTORS
330
43
102
}
330
43
100
AcDbMaterial
  1
Global
  0
MLEADERSTYLE
  5
5C
102
{ACAD_REACTORS
330
5B
102
}
330
5B
100
AcDbMLeaderStyle
170
     2
171
     1
172
     0
 90
        2
 40
0.0
 41
0.0
173
     1
 91
-1056964608
340
14
 92
       -2
290
     1
 42
2.0
291
     1
 43
8.0
  3
Standard
 44
4.0
300

342
11
174
     1
178
     6
175
     1
176
     0
 93
-1056964608
 45
4.0
292
     0
297
     0
 46
4.0
 94
-1056964608
 47
1.0
 49
1.0
140
1.0
293
     1
141
0.0
294
     1
177
     0
142
1.0
295
     0
296
     0
143
3.75
1001
ACAD_MLEADERVER
1070
     2
  0
MLINESTYLE
  5
18
102
{ACAD_REACTORS
330
17
102
}
330
17
100
AcDbMlineStyle
  2
STANDARD
 70
     0
  3

 62
   256
 51
90.0
 52
90.0
 71
     2
 49
0.5
 62
   256
  6
BYLAYER
 49
-0.5
 62
   256
  6
BYLAYER
  0
ACDBPLACEHOLDER
  5
F
102
{ACAD_REACTORS
330
E
102
}
330
E
  0
SCALE
  5
48
102
{ACAD_REACTORS
330
47
102
}
330
47
100
AcDbScale
 70
     0
300
1:1
140
1.0
141
1.0
290
     1
  0
SCALE
  5
49
102
{ACAD_REACTORS
330
47
102
}
330
47
100
AcDbScale
 70
     0
300
1:2
140
1.0
141
2.0
290
     0
  0
SCALE
  5
4A
102
{ACAD_REACTORS
330
47
102
}
330
47
100
AcDbScale
 70
     0
300
1:4
140
1.0
141
4.0
290
     0
  0
SCALE
  5
4B
102
{ACAD_REACTORS
330
47
102
}
330
47
100
AcDbScale
 70
     0
300
1:5
140
1.0
141
5.0
290
     0
  0
SCALE
  5
4C
102
{ACAD_REACTORS
330
47
102
}
330
47
100
AcDbScale
 70
     0
300
1:8
140
1.0
141
8.0
290
     0
  0
SCALE
  5
4D
102
{ACAD_REACTORS
330
47
102
}
330
47
100
AcDbScale
 70
     0
300
1:10
140
1.0
141
10.0
290
     0
  0
SCALE
  5
4E
102
{ACAD_REACTORS
330
47
102
}
330
47
100
AcDbScale
 70
     0
300
1:16
140
1.0
141
16.0
290
     0
  0
SCALE
  5
4F
102
{ACAD_REACTORS
330
47
102
}
330
47
100
AcDbScale
 70
     0
300
1:20
140
1.0
141
20.0
290
     0
  0
SCALE
  5
50
102
{ACAD_REACTORS
330
47
102
}
330
47
100
AcDbScale
 70
     0
300
1:30
140
1.0
141
30.0
290
     0
  0
SCALE
  5
51
102
{ACAD_REACTORS
330
47
102
}
330
47
100
AcDbScale
 70
     0
300
1:40
140
1.0
141
40.0
290
     0
  0
SCALE
  5
52
102
{ACAD_REACTORS
330
47
102
}
330
47
100
AcDbScale
 70
     0
300
1:50
140
1.0
141
50.0
290
     0
  0
SCALE
  5
53
102
{ACAD_REACTORS
330
47
102
}
330
47
100
AcDbScale
 70
     0
300
1:100
140
1.0
141
100.0
290
     0
  0
SCALE
  5
54
102
{ACAD_REACTORS
330
47
102
}
330
47
100
AcDbScale
 70
     0
300
2:1
140
2.0
141
1.0
290
     0
  0
SCALE
  5
55
102
{ACAD_REACTORS
330
47
102
}
330
47
100
AcDbScale
 70
     0
300
4:1
140
4.0
141
1.0
290
     0
  0
SCALE
  5
56
102
{ACAD_REACTORS
330
47
102
}
330
47
100
AcDbScale
 70
     0
300
8:1
140
8.0
141
1.0
290
     0
  0
SCALE
  5
57
102
{ACAD_REACTORS
330
47
102
}
330
47
100
AcDbScale
 70
     0
300
10:1
140
10.0
141
1.0
290
     0
  0
SCALE
  5
58
102
{ACAD_REACTORS
330
47
102
}
330
47
100
AcDbScale
 70
     0
300
100:1
140
100.0
141
1.0
290
     0
  0
ACDBSECTIONVIEWSTYLE
  5
36F
102
{ACAD_XDICTIONARY
360
C4F
102
}
102
{ACAD_REACTORS
330
36E
102
}
330
36E
100
AcDbModelDocViewStyle
 70
     0
  3
Metric50
290
     0
100
AcDbSectionViewStyle
 70
     0
 71
     0
 90
      102
 71
     1
340
11
 40
5.0
340
0
340
0
 40
5.0
300
I, O, Q, S, X, Z
 40
10.0
 90
        0
 40
2.5
 90
        0
 71
     2
340
16
 90
       25
340
16
 90
       50
 40
5.0
 40
2.5
 40
5.0
 71
     3
340
11
 40
5.0
 90
        0
 40
15.0
 90
        1
300
%<\AcVar ViewSectionStartId>%-%<\AcVar ViewSectionEndId>% (%<\AcVar ViewScale \f "%sn">%)
 71
     4
300
ANSI31
 40
1.0
 90
        0
290
     0
290
     0
 90
        6
 40
0.0
 40
1.570796326794896
 40
0.2617993877991494
 40
1.308996938995747
 40
-0.2617993877991494
 40
1.832595714594044
  0
TABLESTYLE
  5
5A
102
{ACAD_XDICTIONARY
360
B25
102
}
102
{ACAD_REACTORS
330
59
102
}
330
59
100
AcDbTableStyle
  3
Standard
 70
     0
 71
     0
 40
1.5
 41
1.5
280
     0
281
     0
  7
Standard
140
4.5
170
     2
 62
     0
 63
     7
283
     0
274
    -2
284
     1
 64
     0
275
    -2
285
     1
 65
     0
276
    -2
286
     1
 66
     0
277
    -2
287
     1
 67
     0
278
    -2
288
     1
 68
     0
279
    -2
289
     1
 69
     0
  7
Standard
140
6.0
170
     5
 62
     0
 63
     7
283
     0
274
    -2
284
     1
 64
     0
275
    -2
285
     1
 65
     0
276
    -2
286
     1
 66
     0
277
    -2
287
     1
 67
     0
278
    -2
288
     1
 68
     0
279
    -2
289
     1
 69
     0
  7
Standard
140
4.5
170
     5
 62
     0
 63
     7
283
     0
274
    -2
284
     1
 64
     0
275
    -2
285
     1
 65
     0
276
    -2
286
     1
 66
     0
277
    -2
287
     1
 67
     0
278
    -2
288
     1
 68
     0
279
    -2
289
     1
 69
     0
  0
VISUALSTYLE
  5
2F
102
{ACAD_XDICTIONARY
360
C26
102
}
102
{ACAD_REACTORS
330
2A
102
}
330
2A
100
AcDbVisualStyle
  2

 70
     4
 71
     0
 72
     2
 73
     0
 90
        0
 40
-0.6
 41
-30.0
 62
     5
 63
     7
 74
     1
 91
        4
 64
     7
 65
   257
 75
     1
175
     1
 42
1.0
 92
        0
 66
   257
 43
1.0
 76
     1
 77
     6
 78
     2
 67
     7
 79
     5
170
     0
171
     0
290
     0
174
     0
 93
        1
 44
0.0
173
     0
291
     0
 45
0.0
1001
ACAD
1000
AcDbSavedByObjectVersion
1070
     0
  0
VISUALSTYLE
  5
32
102
{ACAD_XDICTIONARY
360
C2C
102
}
102
{ACAD_REACTORS
330
2A
102
}
330
2A
100
AcDbVisualStyle
  2

 70
     7
 71
     1
 72
     0
 73
     1
 90
        0
 40
-0.6
 41
-30.0
 62
     5
 63
     7
 74
     0
 91
        4
 64
     7
 65
   257
 75
     1
175
     1
 42
1.0
 92
        8
 66
     7
 43
1.0
 76
     1
 77
     6
 78
     2
 67
     7
 79
     5
170
     0
171
     0
290
     0
174
     0
 93
        1
 44
0.0
173
     0
291
     1
 45
0.0
1001
ACAD
1000
AcDbSavedByObjectVersion
1070
     0
  0
VISUALSTYLE
  5
36
102
{ACAD_XDICTIONARY
360
C34
102
}
102
{ACAD_REACTORS
330
2A
102
}
330
2A
100
AcDbVisualStyle
  2

 70
    12
 71
     2
 72
     2
 73
     0
 90
        0
 40
-0.6
 41
-30.0
 62
     5
 63
     7
 74
     1
 91
        4
 64
     7
 65
   257
 75
     1
175
     1
 42
1.0
 92
        8
 66
     7
 43
1.0
 76
     1
 77
     6
 78
     2
 67
     7
 79
     5
170
     0
171
     0
290
     0
174
     0
 93
        1
 44
50.0
173
     0
291
     1
 45
0.0
1001
ACAD
1000
AcDbSavedByObjectVersion
1070
     0
  0
VISUALSTYLE
  5
3A
102
{ACAD_XDICTIONARY
360
C3C
102
}
102
{ACAD_REACTORS
330
2A
102
}
330
2A
100
AcDbVisualStyle
  2

 70
    16
 71
     2
 72
     2
 73
     3
 90
        0
 40
-0.6
 41
-30.0
 62
     5
 63
     8
 74
     1
 91
        4
 64
     7
 65
   257
 75
     1
175
     1
 42
1.0
 92
        8
 66
     8
 43
1.0
 76
     1
 77
     6
 78
     2
 67
     7
 79
     5
170
     0
171
     0
290
     0
174
     0
 93
        1
 44
0.0
173
     0
291
     1
 45
0.0
1001
ACAD
1000
AcDbSavedByObjectVersion
1070
     0
  0
VISUALSTYLE
  5
34
102
{ACAD_XDICTIONARY
360
C30
102
}
102
{ACAD_REACTORS
330
2A
102
}
330
2A
100
AcDbVisualStyle
  2

 70
     9
 71
     3
 72
     2
 73
     0
 90
        0
 40
-0.6
 41
-30.0
 62
     5
 63
     7
 74
     2
 91
        2
 64
     7
 65
   257
 75
     1
175
     1
 42
179.0
 92
        8
 66
     7
 43
1.0
 76
     1
 77
     6
 78
     2
 67
     7
 79
     3
170
     0
171
     0
290
     0
174
     0
 93
        1
 44
0.0
173
     0
291
     0
 45
0.0
1001
ACAD
1000
AcDbSavedByObjectVersion
1070
     0
  0
VISUALSTYLE
  5
35
102
{ACAD_XDICTIONARY
360
C32
102
}
102
{ACAD_REACTORS
330
2A
102
}
330
2A
100
AcDbVisualStyle
  2

 70
    11
 71
     2
 72
     2
 73
     0
 90
        0
 40
-0.6
 41
-30.0
 62
     5
 63
     7
 74
     1
 91
        4
 64
     7
 65
   257
 75
     1
175
     1
 42
1.0
 92
        8
 66
     7
 43
1.0
 76
     1
 77
     6
 78
     2
 67
     7
 79
     5
170
     0
171
     0
290
     0
174
     0
 93
        1
 44
-50.0
173
     0
291
     1
 45
0.0
1001
ACAD
1000
AcDbSavedByObjectVersion
1070
     0
  0
VISUALSTYLE
  5
3D
102
{ACAD_XDICTIONARY
360
C42
102
}
102
{ACAD_REACTORS
330
2A
102
}
330
2A
100
AcDbVisualStyle
  2

 70
    22
 71
     2
 72
     2
 73
     0
 90
        0
 40
-0.6
 41
-30.0
 62
     5
 63
     7
 74
     1
 91
        4
 64
     7
 65
   257
 75
     1
175
     1
 42
1.0
 92
        8
 66
     7
 43
1.0
 76
     1
 77
     6
 78
     2
 67
     7
 79
     5
170
     0
171
     0
290
     0
174
     0
 93
        1
 44
0.0
173
     0
291
     1
 45
0.0
1001
ACAD
1000
AcDbSavedByObjectVersion
1070
     0
  0
VISUALSTYLE
  5
39
102
{ACAD_XDICTIONARY
360
C3A
102
}
102
{ACAD_REACTORS
330
2A
102
}
330
2A
100
AcDbVisualStyle
  2

 70
    15
 71
     2
 72
     2
 73
     0
 90
        0
 40
-0.6
 41
-30.0
 62
     5
 63
     7
 74
     1
 91
        4
 64
     7
 65
   257
 75
     1
175
     1
 42
1.0
 92
        8
 66
     7
 43
1.0
 76
     1
 77
     6
 78
     2
 67
     7
 79
     5
170
     0
171
     0
290
     0
174
     0
 93
        1
 44
0.0
173
     0
291
     1
 45
0.0
1001
ACAD
1000
AcDbSavedByObjectVersion
1070
     0
  0
VISUALSTYLE
  5
2B
102
{ACAD_XDICTIONARY
360
C1E
102
}
102
{ACAD_REACTORS
330
2A
102
}
330
2A
100
AcDbVisualStyle
  2

 70
     0
 71
     2
 72
     1
 73
     1
 90
        2
 40
-0.6
 41
30.0
 62
     5
 63
     7
 74
     0
 91
        0
 64
     7
 65
   257
 75
     1
175
     1
 42
1.0
 92
        8
 66
     7
 43
1.0
 76
     1
 77
     6
 78
     2
 67
     7
 79
     5
170
     0
171
     0
290
     0
174
     0
 93
       13
 44
0.0
173
     0
291
     1
 45
0.0
1001
ACAD
1000
AcDbSavedByObjectVersion
1070
     0
  0
VISUALSTYLE
  5
2C
102
{ACAD_XDICTIONARY
360
C20
102
}
102
{ACAD_REACTORS
330
2A
102
}
330
2A
100
AcDbVisualStyle
  2

 70
     1
 71
     2
 72
     1
 73
     1
 90
        2
 40
-0.6
 41
30.0
 62
     5
 63
     7
 74
     1
 91
        0
 64
     7
 65
   257
 75
     1
175
     1
 42
1.0
 92
        0
 66
   257
 43
1.0
 76
     1
 77
     6
 78
     2
 67
     7
 79
     5
170
     0
171
     0
290
     0
174
     0
 93
       13
 44
0.0
173
     0
291
     1
 45
0.0
1001
ACAD
1000
AcDbSavedByObjectVersion
1070
     0
  0
VISUALSTYLE
  5
2D
102
{ACAD_XDICTIONARY
360
C22
102
}
102
{ACAD_REACTORS
330
2A
102
}
330
2A
100
AcDbVisualStyle
  2

 70
     2
 71
     2
 72
     2
 73
     1
 90
        2
 40
-0.6
 41
30.0
 62
     5
 63
     7
 74
     0
 91
        0
 64
     7
 65
   257
 75
     1
175
     1
 42
1.0
 92
        0
 66
     7
 43
1.0
 76
     1
 77
     6
 78
     2
 67
     7
 79
     5
170
     0
171
     0
290
     0
174
     0
 93
       13
 44
0.0
173
     0
291
     1
 45
0.0
1001
ACAD
1000
AcDbSavedByObjectVersion
1070
     0
  0
VISUALSTYLE
  5
2E
102
{ACAD_XDICTIONARY
360
C24
102
}
102
{ACAD_REACTORS
330
2A
102
}
330
2A
100
AcDbVisualStyle
  2

 70
     3
 71
     2
 72
     2
 73
     1
 90
        2
 40
-0.6
 41
30.0
 62
     5
 63
     7
 74
     1
 91
        0
 64
     7
 65
   257
 75
     1
175
     1
 42
1.0
 92
        0
 66
   257
 43
1.0
 76
     1
 77
     6
 78
     2
 67
     7
 79
     5
170
     0
171
     0
290
     0
174
     0
 93
       13
 44
0.0
173
     0
291
     1
 45
0.0
1001
ACAD
1000
AcDbSavedByObjectVersion
1070
     0
  0
VISUALSTYLE
  5
31
102
{ACAD_XDICTIONARY
360
C2A
102
}
102
{ACAD_REACTORS
330
2A
102
}
330
2A
100
AcDbVisualStyle
  2

 70
     6
 71
     1
 72
     2
 73
     2
 90
        0
 40
-0.6
 41
-30.0
 62
     5
 63
     7
 74
     2
 91
        2
 64
     7
 65
   257
 75
     2
175
     1
 42
40.0
 92
        0
 66
   257
 43
1.0
 76
     1
 77
     6
 78
     2
 67
     7
 79
     3
170
     0
171
     0
290
     0
174
     0
 93
        1
 44
0.0
173
     0
291
     0
 45
0.0
1001
ACAD
1000
AcDbSavedByObjectVersion
1070
     0
  0
VISUALSTYLE
  5
3B
102
{ACAD_XDICTIONARY
360
C3E
102
}
102
{ACAD_REACTORS
330
2A
102
}
330
2A
100
AcDbVisualStyle
  2

 70
    20
 71
     2
 72
     2
 73
     0
 90
        0
 40
-0.6
 41
-30.0
 62
     5
 63
     7
 74
     1
 91
        4
 64
     7
 65
   257
 75
     1
175
     1
 42
1.0
 92
       10
 66
     7
 43
1.0
 76
     1
 77
     6
 78
     2
 67
     7
 79
     5
170
     0
171
     0
290
     0
174
     0
 93
        1
 44
0.0
173
     0
291
     1
 45
0.0
1001
ACAD
1000
AcDbSavedByObjectVersion
1070
     0
  0
VISUALSTYLE
  5
38
102
{ACAD_XDICTIONARY
360
C38
102
}
102
{ACAD_REACTORS
330
2A
102
}
330
2A
100
AcDbVisualStyle
  2

 70
    14
 71
     2
 72
     2
 73
     0
 90
        0
 40
-0.6
 41
-30.0
 62
     5
 63
     7
 74
     1
 91
        4
 64
     7
 65
   257
 75
     7
175
     7
 42
1.0
 92
        8
 66
     7
 43
1.0
 76
     1
 77
     6
 78
     2
 67
     7
 79
     5
170
     0
171
     0
290
     0
174
     0
 93
        1
 44
0.0
173
     0
291
     1
 45
0.0
1001
ACAD
1000
AcDbSavedByObjectVersion
1070
     0
  0
VISUALSTYLE
  5
3C
102
{ACAD_XDICTIONARY
360
C40
102
}
102
{ACAD_REACTORS
330
2A
102
}
330
2A
100
AcDbVisualStyle
  2

 70
    21
 71
     2
 72
     2
 73
     0
 90
        0
 40
-0.6
 41
-30.0
 62
     5
 63
     7
 74
     1
 91
        4
 64
     7
 65
   257
 75
     1
175
     1
 42
1.0
 92
        9
 66
     7
 43
1.0
 76
     1
 77
     6
 78
     2
 67
     7
 79
     5
170
     0
171
     0
290
     0
174
     0
 93
        1
 44
0.0
173
     0
291
     1
 45
0.0
1001
ACAD
1000
AcDbSavedByObjectVersion
1070
     0
  0
VISUALSTYLE
  5
33
102
{ACAD_XDICTIONARY
360
C2E
102
}
102
{ACAD_REACTORS
330
2A
102
}
330
2A
100
AcDbVisualStyle
  2

 70
     8
 71
     2
 72
     3
 73
     0
 90
        2
 40
-0.6
 41
30.0
 62
     5
 63
     7
 74
     0
 91
        0
 64
     7
 65
   257
 75
     1
175
     1
 42
1.0
 92
        8
 66
   257
 43
1.0
 76
     1
 77
     6
 78
     2
 67
     7
 79
     3
170
     0
171
     0
290
     0
174
     0
 93
       13
 44
0.0
173
     0
291
     0
 45
0.0
1001
ACAD
1000
AcDbSavedByObjectVersion
1070
     0
  0
VISUALSTYLE
  5
42
102
{ACAD_XDICTIONARY
360
C4C
102
}
102
{ACAD_REACTORS
330
2A
102
}
330
2A
100
AcDbVisualStyle
  2

 70
    27
 71
     2
 72
     2
 73
     1
 90
        2
 40
-0.6
 41
30.0
 62
     5
 63
     7
 74
     0
 91
        4
 64
     7
 65
   257
 75
     1
175
     1
 42
1.0
 92
        8
 66
   257
 43
1.0
 76
     1
 77
     6
 78
     2
 67
     8
 79
     3
170
     0
171
     0
290
     0
174
     0
 93
        5
 44
0.0
173
     0
291
     0
 45
0.0
1001
ACAD
1000
AcDbSavedByObjectVersion
1070
     0
  0
VISUALSTYLE
  5
41
102
{ACAD_XDICTIONARY
360
C4A
102
}
102
{ACAD_REACTORS
330
2A
102
}
330
2A
100
AcDbVisualStyle
  2

 70
    26
 71
     2
 72
     2
 73
     1
 90
        2
 40
-0.6
 41
30.0
 62
     5
 63
     7
 74
     1
 91
       10
 64
     7
 65
   257
 75
     2
175
     1
 42
1.0
 92
        8
 66
   257
 43
1.0
 76
     1
 77
     6
 78
     2
 67
     7
 79
     3
170
     0
171
     0
290
     0
174
     0
 93
        5
 44
0.0
173
     0
291
     0
 45
0.0
1001
ACAD
1000
AcDbSavedByObjectVersion
1070
     0
  0
VISUALSTYLE
  5
3E
102
{ACAD_XDICTIONARY
360
C44
102
}
102
{ACAD_REACTORS
330
2A
102
}
330
2A
100
AcDbVisualStyle
  2

 70
    23
 71
     2
 72
     2
 73
     3
 90
        0
 40
-0.6
 41
-30.0
 62
     5
 63
     7
 74
     2
 91
        2
 64
     7
 65
     7
 75
     1
175
     1
 42
40.0
 92
        8
 66
     7
 43
1.0
 76
     1
 77
     6
 78
     2
 67
     7
 79
     3
170
     0
171
     0
290
     0
174
     0
 93
        1
 44
0.0
173
     0
291
     0
 45
0.0
1001
ACAD
1000
AcDbSavedByObjectVersion
1070
     0
  0
VISUALSTYLE
  5
3F
102
{ACAD_XDICTIONARY
360
C46
102
}
102
{ACAD_REACTORS
330
2A
102
}
330
2A
100
AcDbVisualStyle
  2

 70
    24
 71
     1
 72
     2
 73
     2
 90
        0
 40
-0.6
 41
-30.0
 62
     5
 63
     7
 74
     2
 91
        2
 64
     7
 65
     7
 75
     1
175
     1
 42
40.0
 92
       11
 66
     7
 43
1.0
 76
     1
 77
     6
 78
     2
 67
     7
 79
     6
170
     0
171
     0
290
     0
174
     0
 93
        1
 44
0.0
173
     0
291
     0
 45
0.0
1001
ACAD
1000
AcDbSavedByObjectVersion
1070
     0
  0
VISUALSTYLE
  5
37
102
{ACAD_XDICTIONARY
360
C36
102
}
102
{ACAD_REACTORS
330
2A
102
}
330
2A
100
AcDbVisualStyle
  2

 70
    13
 71
     2
 72
     2
 73
     0
 90
        0
 40
-0.6
 41
-30.0
 62
     5
 63
     7
 74
     1
 91
        4
 64
     7
 65
   257
 75
     1
175
     1
 42
1.0
 92
       12
 66
     7
 43
1.0
 76
     1
 77
     6
 78
     2
 67
     7
 79
     5
170
     0
171
     0
290
     0
174
     0
 93
        1
 44
0.0
173
     0
291
     1
 45
0.0
1001
ACAD
1000
AcDbSavedByObjectVersion
1070
     0
  0
VISUALSTYLE
  5
30
102
{ACAD_XDICTIONARY
360
C28
102
}
102
{ACAD_REACTORS
330
2A
102
}
330
2A
100
AcDbVisualStyle
  2

 70
     5
 71
     0
 72
     2
 73
     0
 90
        0
 40
-0.6
 41
-30.0
 62
     5
 63
     7
 74
     1
 91
        4
 64
     7
 65
   257
 75
     1
175
     1
 42
1.0
 92
        0
 66
   257
 43
1.0
 76
     1
 77
     6
 78
     2
 67
     7
 79
     3
170
     0
171
     0
290
     0
174
     0
 93
        1
 44
0.0
173
     0
291
     0
 45
0.0
1001
ACAD
1000
AcDbSavedByObjectVersion
1070
     0
  0
VISUALSTYLE
  5
40
102
{ACAD_XDICTIONARY
360
C48
102
}
102
{ACAD_REACTORS
330
2A
102
}
330
2A
100
AcDbVisualStyle
  2

 70
    25
 71
     2
 72
     2
 73
     1
 90
        1
 40
0.5
 41
-30.0
 62
     5
 63
     7
 74
     1
 91
        0
 64
     7
 65
   257
 75
     1
175
     1
 42
1.0
 92
        8
 66
     7
 43
1.0
 76
     1
 77
     6
 78
     2
 67
     7
 79
     3
170
     0
171
     0
290
     0
174
     0
 93
       13
 44
0.0
173
     0
291
     0
 45
0.0
1001
ACAD
1000
AcDbSavedByObjectVersion
1070
     0
  0
DICTIONARYVAR
  5
330
102
{ACAD_REACTORS
330
322
102
}
330
322
100
DictionaryVariables
280
     0
  1
1:1
  0
DICTIONARYVAR
  5
329
102
{ACAD_REACTORS
330
322
102
}
330
322
100
DictionaryVariables
280
     0
  1
3.500000
  0
DICTIONARYVAR
  5
32A
102
{ACAD_REACTORS
330
322
102
}
330
322
100
DictionaryVariables
280
     0
  1
acadiso.lin
  0
DICTIONARYVAR
  5
324
102
{ACAD_REACTORS
330
322
102
}
330
322
100
DictionaryVariables
280
     0
  1
STANDARD
  0
DICTIONARYVAR
  5
323
102
{ACAD_REACTORS
330
322
102
}
330
322
100
DictionaryVariables
280
     0
  1
STANDARD
  0
DICTIONARYVAR
  5
B20
102
{ACAD_REACTORS
330
322
102
}
330
322
100
DictionaryVariables
280
     0
  1
Metric50
  0
DICTIONARYVAR
  5
B21
102
{ACAD_REACTORS
330
322
102
}
330
322
100
DictionaryVariables
280
     0
  1
Metric50
  0
DICTIONARYVAR
  5
32B
102
{ACAD_REACTORS
330
322
102
}
330
322
100
DictionaryVariables
280
     0
  1
2
  0
DICTIONARYVAR
  5
32C
102
{ACAD_REACTORS
330
322
102
}
330
322
100
DictionaryVariables
280
     0
  1
1
  0
DICTIONARYVAR
  5
B99
102
{ACAD_REACTORS
330
322
102
}
330
322
100
DictionaryVariables
280
     0
  1
0
  0
DICTIONARYVAR
  5
B23
102
{ACAD_REACTORS
330
322
102
}
330
322
100
DictionaryVariables
280
     0
  1
1
  0
DICTIONARYVAR
  5
B24
102
{ACAD_REACTORS
330
322
102
}
330
322
100
DictionaryVariables
280
     0
  1
15
  0
DICTIONARYVAR
  5
B22
102
{ACAD_REACTORS
330
322
102
}
330
322
100
DictionaryVariables
280
     0
  1
0
  0
DICTIONARYVAR
  5
C14
102
{ACAD_REACTORS
330
322
102
}
330
322
100
DictionaryVariables
280
     0
  1
1.570796
  0
DICTIONARYVAR
  5
C15
102
{ACAD_REACTORS
330
322
102
}
330
322
100
DictionaryVariables
280
     0
  1
1.570796
  0
DICTIONARYVAR
  5
331
102
{ACAD_REACTORS
330
322
102
}
330
322
100
DictionaryVariables
280
     0
  1
1
  0
DICTIONARYVAR
  5
C13
102
{ACAD_REACTORS
330
322
102
}
330
322
100
DictionaryVariables
280
     0
  1
80.000000
  0
DICTIONARYVAR
  5
C12
102
{ACAD_REACTORS
330
322
102
}
330
322
100
DictionaryVariables
280
     0
  1
5.000000
  0
DICTIONARYVAR
  5
B98
102
{ACAD_REACTORS
330
322
102
}
330
322
100
DictionaryVariables
280
     0
  1
127
  0
DICTIONARYVAR
  5
C16
102
{ACAD_REACTORS
330
322
102
}
330
322
100
DictionaryVariables
280
     0
  1
2
  0
DICTIONARY
  5
C51
330
371
100
AcDbDictionary
280
     1
281
     1
  3
ACAD_XREC_ROUNDTRIP
360
C52
  0
DICTIONARY
  5
C1A
330
1E
100
AcDbDictionary
280
     1
281
     1
  3
ACAD_XREC_ROUNDTRIP
360
C1B
  0
DICTIONARY
  5
C1C
330
22
100
AcDbDictionary
280
     1
281
     1
  3
ACAD_XREC_ROUNDTRIP
360
C1D
  0
DICTIONARY
  5
C53
330
372
100
AcDbDictionary
280
     1
281
     1
  3
ACAD_XREC_ROUNDTRIP
360
C54
  0
DICTIONARY
  5
364
330
45
100
AcDbDictionary
280
     1
281
     1
  3
ACAD_XREC_ROUNDTRIP
360
365
  0
DICTIONARY
  5
362
330
44
100
AcDbDictionary
280
     1
281
     1
  3
ACAD_XREC_ROUNDTRIP
360
363
  0
DICTIONARY
  5
366
330
46
100
AcDbDictionary
280
     1
281
     1
  3
ACAD_XREC_ROUNDTRIP
360
367
  0
DICTIONARY
  5
C4F
330
36F
100
AcDbDictionary
280
     1
281
     1
  3
ACAD_XREC_ROUNDTRIP
360
C50
  0
DICTIONARY
  5
B25
330
5A
100
AcDbDictionary
280
     1
281
     1
  3
ACAD_ROUNDTRIP_2008_TABLESTYLE_CELLSTYLEMAP
360
C17
  3
ACAD_XREC_ROUNDTRIP
360
C4E
  0
DICTIONARY
  5
C26
330
2F
100
AcDbDictionary
280
     1
281
     1
  3
ACAD_XREC_ROUNDTRIP
360
C27
  0
DICTIONARY
  5
C2C
330
32
100
AcDbDictionary
280
     1
281
     1
  3
ACAD_XREC_ROUNDTRIP
360
C2D
  0
DICTIONARY
  5
C34
330
36
100
AcDbDictionary
280
     1
281
     1
  3
ACAD_XREC_ROUNDTRIP
360
C35
  0
DICTIONARY
  5
C3C
330
3A
100
AcDbDictionary
280
     1
281
     1
  3
ACAD_XREC_ROUNDTRIP
360
C3D
  0
DICTIONARY
  5
C30
330
34
100
AcDbDictionary
280
     1
281
     1
  3
ACAD_XREC_ROUNDTRIP
360
C31
  0
DICTIONARY
  5
C32
330
35
100
AcDbDictionary
280
     1
281
     1
  3
ACAD_XREC_ROUNDTRIP
360
C33
  0
DICTIONARY
  5
C42
330
3D
100
AcDbDictionary
280
     1
281
     1
  3
ACAD_XREC_ROUNDTRIP
360
C43
  0
DICTIONARY
  5
C3A
330
39
100
AcDbDictionary
280
     1
281
     1
  3
ACAD_XREC_ROUNDTRIP
360
C3B
  0
DICTIONARY
  5
C1E
330
2B
100
AcDbDictionary
280
     1
281
     1
  3
ACAD_XREC_ROUNDTRIP
360
C1F
  0
DICTIONARY
  5
C20
330
2C
100
AcDbDictionary
280
     1
281
     1
  3
ACAD_XREC_ROUNDTRIP
360
C21
  0
DICTIONARY
  5
C22
330
2D
100
AcDbDictionary
280
     1
281
     1
  3
ACAD_XREC_ROUNDTRIP
360
C23
  0
DICTIONARY
  5
C24
330
2E
100
AcDbDictionary
280
     1
281
     1
  3
ACAD_XREC_ROUNDTRIP
360
C25
  0
DICTIONARY
  5
C2A
330
31
100
AcDbDictionary
280
     1
281
     1
  3
ACAD_XREC_ROUNDTRIP
360
C2B
  0
DICTIONARY
  5
C3E
330
3B
100
AcDbDictionary
280
     1
281
     1
  3
ACAD_XREC_ROUNDTRIP
360
C3F
  0
DICTIONARY
  5
C38
330
38
100
AcDbDictionary
280
     1
281
     1
  3
ACAD_XREC_ROUNDTRIP
360
C39
  0
DICTIONARY
  5
C40
330
3C
100
AcDbDictionary
280
     1
281
     1
  3
ACAD_XREC_ROUNDTRIP
360
C41
  0
DICTIONARY
  5
C2E
330
33
100
AcDbDictionary
280
     1
281
     1
  3
ACAD_XREC_ROUNDTRIP
360
C2F
  0
DICTIONARY
  5
C4C
330
42
100
AcDbDictionary
280
     1
281
     1
  3
ACAD_XREC_ROUNDTRIP
360
C4D
  0
DICTIONARY
  5
C4A
330
41
100
AcDbDictionary
280
     1
281
     1
  3
ACAD_XREC_ROUNDTRIP
360
C4B
  0
DICTIONARY
  5
C44
330
3E
100
AcDbDictionary
280
     1
281
     1
  3
ACAD_XREC_ROUNDTRIP
360
C45
  0
DICTIONARY
  5
C46
330
3F
100
AcDbDictionary
280
     1
281
     1
  3
ACAD_XREC_ROUNDTRIP
360
C47
  0
DICTIONARY
  5
C36
330
37
100
AcDbDictionary
280
     1
281
     1
  3
ACAD_XREC_ROUNDTRIP
360
C37
  0
DICTIONARY
  5
C28
330
30
100
AcDbDictionary
280
     1
281
     1
  3
ACAD_XREC_ROUNDTRIP
360
C29
  0
DICTIONARY
  5
C48
330
40
100
AcDbDictionary
280
     1
281
     1
  3
ACAD_XREC_ROUNDTRIP
360
C49
  0
XRECORD
  5
C52
102
{ACAD_REACTORS
330
C51
102
}
330
C51
100
AcDbXrecord
280
     1
102
DISPLAYNAME
  1
Metric50
102
FLAGS
 90
        0
  0
XRECORD
  5
C1B
102
{ACAD_REACTORS
330
C1A
102
}
330
C1A
100
AcDbXrecord
280
     1
102
SHADEPLOT
 70
     0
102
SHADEPLOTRESLEVEL
 70
     2
102
SHADEPLOTCUSTOMDPI
 70
   300
  0
XRECORD
  5
C1D
102
{ACAD_REACTORS
330
C1C
102
}
330
C1C
100
AcDbXrecord
280
     1
102
SHADEPLOT
 70
     0
102
SHADEPLOTRESLEVEL
 70
     2
102
SHADEPLOTCUSTOMDPI
 70
   300
  0
XRECORD
  5
C54
102
{ACAD_REACTORS
330
C53
102
}
330
C53
100
AcDbXrecord
280
     1
102
SHADEPLOT
 70
     0
102
SHADEPLOTRESLEVEL
 70
     2
102
SHADEPLOTCUSTOMDPI
 70
   300
  0
XRECORD
  5
365
102
{ACAD_REACTORS
330
364
102
}
330
364
100
AcDbXrecord
280
     1
102
MATERIAL
148
0.0
149
0.0
149
0.0
 93
        0
 94
      127
282
     0
 72
     1
 77
     1
171
     1
175
     1
179
     1
273
     0
  0
XRECORD
  5
363
102
{ACAD_REACTORS
330
362
102
}
330
362
100
AcDbXrecord
280
     1
102
MATERIAL
148
0.0
149
0.0
149
0.0
 93
        0
 94
      127
282
     0
 72
     1
 77
     1
171
     1
175
     1
179
     1
273
     0
  0
XRECORD
  5
367
102
{ACAD_REACTORS
330
366
102
}
330
366
100
AcDbXrecord
280
     1
102
MATERIAL
148
0.0
149
0.0
149
0.0
 93
        0
 94
      127
282
     0
 72
     1
 77
     1
171
     1
175
     1
179
     1
273
     0
  0
XRECORD
  5
C50
102
{ACAD_REACTORS
330
C4F
102
}
330
C4F
100
AcDbXrecord
280
     1
102
DISPLAYNAME
  1
Metric50
102
FLAGS
 90
        0
  0
CELLSTYLEMAP
  5
C17
102
{ACAD_REACTORS
330
B25
102
}
330
B25
100
AcDbCellStyleMap
 90
        3
300
CELLSTYLE
  1
TABLEFORMAT_BEGIN
 90
        5
170
     1
 91
        0
 92
    32768
 62
   257
 93
        1
300
CONTENTFORMAT
  1
CONTENTFORMAT_BEGIN
 90
        0
 91
        0
 92
        4
 93
        0
300

 40
0.0
140
1.0
 94
        5
 62
     0
340
11
144
6.0
309
CONTENTFORMAT_END
171
     1
301
MARGIN
  1
CELLMARGIN_BEGIN
 40
1.5
 40
1.5
 40
1.5
 40
1.5
 40
0.18
 40
0.18
309
CELLMARGIN_END
 94
        6
 95
        1
302
GRIDFORMAT
  1
GRIDFORMAT_BEGIN
 90
        0
 91
        1
 62
     0
 92
       -2
340
0
 93
        0
 40
0.045
309
GRIDFORMAT_END
 95
        2
302
GRIDFORMAT
  1
GRIDFORMAT_BEGIN
 90
        0
 91
        1
 62
     0
 92
       -2
340
0
 93
        0
 40
0.045
309
GRIDFORMAT_END
 95
        4
302
GRIDFORMAT
  1
GRIDFORMAT_BEGIN
 90
        0
 91
        1
 62
     0
 92
       -2
340
0
 93
        0
 40
0.045
309
GRIDFORMAT_END
 95
        8
302
GRIDFORMAT
  1
GRIDFORMAT_BEGIN
 90
        0
 91
        1
 62
     0
 92
       -2
340
0
 93
        0
 40
0.045
309
GRIDFORMAT_END
 95
       16
302
GRIDFORMAT
  1
GRIDFORMAT_BEGIN
 90
        0
 91
        1
 62
     0
 92
       -2
340
0
 93
        0
 40
0.045
309
GRIDFORMAT_END
 95
       32
302
GRIDFORMAT
  1
GRIDFORMAT_BEGIN
 90
        0
 91
        1
 62
     0
 92
       -2
340
0
 93
        0
 40
0.045
309
GRIDFORMAT_END
309
TABLEFORMAT_END
  1
CELLSTYLE_BEGIN
 90
        1
 91
        1
300
_TITLE
309
CELLSTYLE_END
300
CELLSTYLE
  1
TABLEFORMAT_BEGIN
 90
        5
170
     1
 91
        0
 92
        0
 62
   257
 93
        1
300
CONTENTFORMAT
  1
CONTENTFORMAT_BEGIN
 90
        0
 91
        0
 92
        4
 93
        0
300

 40
0.0
140
1.0
 94
        5
 62
     0
340
11
144
4.5
309
CONTENTFORMAT_END
171
     1
301
MARGIN
  1
CELLMARGIN_BEGIN
 40
1.5
 40
1.5
 40
1.5
 40
1.5
 40
0.18
 40
0.18
309
CELLMARGIN_END
 94
        6
 95
        1
302
GRIDFORMAT
  1
GRIDFORMAT_BEGIN
 90
        0
 91
        1
 62
     0
 92
       -2
340
0
 93
        0
 40
0.045
309
GRIDFORMAT_END
 95
        2
302
GRIDFORMAT
  1
GRIDFORMAT_BEGIN
 90
        0
 91
        1
 62
     0
 92
       -2
340
0
 93
        0
 40
0.045
309
GRIDFORMAT_END
 95
        4
302
GRIDFORMAT
  1
GRIDFORMAT_BEGIN
 90
        0
 91
        1
 62
     0
 92
       -2
340
0
 93
        0
 40
0.045
309
GRIDFORMAT_END
 95
        8
302
GRIDFORMAT
  1
GRIDFORMAT_BEGIN
 90
        0
 91
        1
 62
     0
 92
       -2
340
0
 93
        0
 40
0.045
309
GRIDFORMAT_END
 95
       16
302
GRIDFORMAT
  1
GRIDFORMAT_BEGIN
 90
        0
 91
        1
 62
     0
 92
       -2
340
0
 93
        0
 40
0.045
309
GRIDFORMAT_END
 95
       32
302
GRIDFORMAT
  1
GRIDFORMAT_BEGIN
 90
        0
 91
        1
 62
     0
 92
       -2
340
0
 93
        0
 40
0.045
309
GRIDFORMAT_END
309
TABLEFORMAT_END
  1
CELLSTYLE_BEGIN
 90
        2
 91
        1
300
_HEADER
309
CELLSTYLE_END
300
CELLSTYLE
  1
TABLEFORMAT_BEGIN
 90
        5
170
     1
 91
        0
 92
        0
 62
   257
 93
        1
300
CONTENTFORMAT
  1
CONTENTFORMAT_BEGIN
 90
        0
 91
        0
 92
        4
 93
        0
300

 40
0.0
140
1.0
 94
        2
 62
     0
340
11
144
4.5
309
CONTENTFORMAT_END
171
     1
301
MARGIN
  1
CELLMARGIN_BEGIN
 40
1.5
 40
1.5
 40
1.5
 40
1.5
 40
0.18
 40
0.18
309
CELLMARGIN_END
 94
        6
 95
        1
302
GRIDFORMAT
  1
GRIDFORMAT_BEGIN
 90
        0
 91
        1
 62
     0
 92
       -2
340
0
 93
        0
 40
0.045
309
GRIDFORMAT_END
 95
        2
302
GRIDFORMAT
  1
GRIDFORMAT_BEGIN
 90
        0
 91
        1
 62
     0
 92
       -2
340
0
 93
        0
 40
0.045
309
GRIDFORMAT_END
 95
        4
302
GRIDFORMAT
  1
GRIDFORMAT_BEGIN
 90
        0
 91
        1
 62
     0
 92
       -2
340
0
 93
        0
 40
0.045
309
GRIDFORMAT_END
 95
        8
302
GRIDFORMAT
  1
GRIDFORMAT_BEGIN
 90
        0
 91
        1
 62
     0
 92
       -2
340
0
 93
        0
 40
0.045
309
GRIDFORMAT_END
 95
       16
302
GRIDFORMAT
  1
GRIDFORMAT_BEGIN
 90
        0
 91
        1
 62
     0
 92
       -2
340
0
 93
        0
 40
0.045
309
GRIDFORMAT_END
 95
       32
302
GRIDFORMAT
  1
GRIDFORMAT_BEGIN
 90
        0
 91
        1
 62
     0
 92
       -2
340
0
 93
        0
 40
0.045
309
GRIDFORMAT_END
309
TABLEFORMAT_END
  1
CELLSTYLE_BEGIN
 90
        3
 91
        2
300
_DATA
309
CELLSTYLE_END
  0
XRECORD
  5
C4E
102
{ACAD_REACTORS
330
B25
102
}
330
B25
100
AcDbXrecord
280
     1
102
ACAD_ROUNDTRIP_PRE2007_TABLESTYLE
 90
        4
 91
        0
  1

 92
        4
 93
        0
  2

 94
        4
 95
        0
  3

  0
XRECORD
  5
C27
102
{ACAD_REACTORS
330
C26
102
}
330
C26
100
AcDbXrecord
280
     1
102
RTVSPost2010Prop28
280
     1
102
RTVSPost2010PropOp28
 70
     1
102
RTVSPost2010Prop29
280
     1
102
RTVSPost2010PropOp29
 70
     1
102
RTVSPost2010Prop30
280
     0
102
RTVSPost2010PropOp30
 70
     1
102
RTVSPost2010Prop31
280
     0
102
RTVSPost2010PropOp31
 70
     1
102
RTVSPost2010Prop32
280
     0
102
RTVSPost2010PropOp32
 70
     1
102
RTVSPost2010Prop33
280
     0
102
RTVSPost2010PropOp33
 70
     1
102
RTVSPost2010Prop34
280
     0
102
RTVSPost2010PropOp34
 70
     1
102
RTVSPost2010Prop35
280
     0
102
RTVSPost2010PropOp35
 70
     1
102
RTVSPost2010Prop36
280
     0
102
RTVSPost2010PropOp36
 70
     1
102
RTVSPost2010Prop37
 90
       50
102
RTVSPost2010PropOp37
 70
     1
102
RTVSPost2010Prop38
140
0.0
102
RTVSPost2010PropOp38
 70
     1
102
RTVSPost2010Prop39
140
1.0
102
RTVSPost2010PropOp39
 70
     1
102
RTVSPost2010Prop40
 90
        0
102
RTVSPost2010PropOp40
 70
     1
102
RTVSPost2010Prop41ColorIndex
 90
       18
102
RTVSPost2010Prop41ColorRGB
 90
        0
102
RTVSPost2010PropOp41
 70
     1
102
RTVSPost2010Prop42
 90
       50
102
RTVSPost2010PropOp42
 70
     1
102
RTVSPost2010Prop43
 90
        3
102
RTVSPost2010PropOp43
 70
     1
102
RTVSPost2010Prop44ColorIndex
 90
        5
102
RTVSPost2010Prop44ColorRGB
 90
      255
102
RTVSPost2010PropOp44
 70
     1
102
RTVSPost2010Prop45
280
     0
102
RTVSPost2010PropOp45
 70
     1
102
RTVSPost2010Prop46
 90
       50
102
RTVSPost2010PropOp46
 70
     1
102
RTVSPost2010Prop47
 90
       50
102
RTVSPost2010PropOp47
 70
     1
102
RTVSPost2010Prop48
 90
       50
102
RTVSPost2010PropOp48
 70
     1
102
RTVSPost2010Prop49
280
     0
102
RTVSPost2010PropOp49
 70
     1
102
RTVSPost2010Prop50
 90
       50
102
RTVSPost2010PropOp50
 70
     1
102
RTVSPost2010Prop51ColorIndex
 90
      256
102
RTVSPost2010Prop51ColorRGB
 90
-16777216
102
RTVSPost2010PropOp51
 70
     0
102
RTVSPost2010Prop52
140
1.0
102
RTVSPost2010PropOp52
 70
     0
102
RTVSPost2010Prop53
 90
        2
102
RTVSPost2010PropOp53
 70
     1
102
RTVSPost2010Prop54
  1
strokes_ogs.tif
102
RTVSPost2010PropOp54
 70
     1
102
RTVSPost2010Prop55
280
     0
102
RTVSPost2010PropOp55
 70
     1
102
RTVSPost2010Prop56
140
1.0
102
RTVSPost2010PropOp56
 70
     1
102
RTVSPost2010Prop57
140
1.0
102
RTVSPost2010PropOp57
 70
     1
102
RTVSPropertyOp0
 70
     1
102
RTVSPropertyOp1
 70
     1
102
RTVSPropertyOp2
 70
     1
102
RTVSPropertyOp3
 70
     1
102
RTVSPropertyOp4
 70
     1
102
RTVSPropertyOp5
 70
     1
102
RTVSPropertyOp6
 70
     1
102
RTVSPropertyOp7
 70
     1
102
RTVSPropertyOp8
 70
     1
102
RTVSPropertyOp9
 70
     1
102
RTVSPropertyOp10
 70
     1
102
RTVSPropertyOp11
 70
     1
102
RTVSPropertyOp12
 70
     1
102
RTVSPropertyOp13
 70
     1
102
RTVSPropertyOp14
 70
     1
102
RTVSPropertyOp15
 70
     1
102
RTVSPropertyOp16
 70
     1
102
RTVSPropertyOp17
 70
     1
102
RTVSPropertyOp18
 70
     1
102
RTVSPropertyOp19
 70
     1
102
RTVSPropertyOp20
 70
     1
102
RTVSPropertyOp21
 70
     1
102
RTVSPropertyOp22
 70
     1
102
RTVSPropertyOp23
 70
     1
102
RTVSPropertyOp24
 70
     1
102
RTVSPropertyOp25
 70
     1
102
RTVSPropertyOp26
 70
     1
102
RTVSPropertyOp27
 70
     1
102
RTVSPropertyOp28
 70
     1
102
RTVSPropertyOp29
 70
     1
102
RTVSPropertyOp30
 70
     1
102
RTVSPropertyOp31
 70
     1
102
RTVSPropertyOp32
 70
     1
102
RTVSPropertyOp33
 70
     1
102
RTVSPropertyOp34
 70
     1
102
RTVSPropertyOp35
 70
     1
102
RTVSPropertyOp36
 70
     1
102
RTVSPropertyOp37
 70
     1
102
RTVSPropertyOp38
 70
     1
102
RTVSPropertyOp39
 70
     1
102
RTVSPropertyOp40
 70
     1
102
RTVSPropertyOp41
 70
     1
102
RTVSPropertyOp42
 70
     1
102
RTVSPropertyOp43
 70
     1
102
RTVSPropertyOp44
 70
     1
102
RTVSPropertyOp45
 70
     1
102
RTVSPropertyOp46
 70
     1
102
RTVSPropertyOp47
 70
     1
102
RTVSPropertyOp48
 70
     1
102
RTVSPropertyOp49
 70
     1
102
RTVSPropertyOp50
 70
     1
102
RTVSPropertyOp51
 70
     0
102
RTVSPropertyOp52
 70
     0
102
RTVSPropertyOp53
 70
     1
102
RTVSPropertyOp54
 70
     1
102
RTVSPropertyOp55
 70
     1
102
RTVSPropertyOp56
 70
     1
102
RTVSPropertyOp57
 70
     1
102
RTVSPropertyOp58
 70
     1
102
RTVSPropertyOp59
 70
     1
102
RTVSPropertyOp60
 70
     1
102
RTVSPropertyOp61
 70
     1
102
RTVSPropertyOp62
 70
     1
  0
XRECORD
  5
C2D
102
{ACAD_REACTORS
330
C2C
102
}
330
C2C
100
AcDbXrecord
280
     1
102
RTVSPost2010Prop28
280
     0
102
RTVSPost2010PropOp28
 70
     1
102
RTVSPost2010Prop29
280
     1
102
RTVSPost2010PropOp29
 70
     1
102
RTVSPost2010Prop30
280
     1
102
RTVSPost2010PropOp30
 70
     1
102
RTVSPost2010Prop31
280
     0
102
RTVSPost2010PropOp31
 70
     1
102
RTVSPost2010Prop32
280
     0
102
RTVSPost2010PropOp32
 70
     1
102
RTVSPost2010Prop33
280
     0
102
RTVSPost2010PropOp33
 70
     1
102
RTVSPost2010Prop34
280
     0
102
RTVSPost2010PropOp34
 70
     1
102
RTVSPost2010Prop35
280
     0
102
RTVSPost2010PropOp35
 70
     1
102
RTVSPost2010Prop36
280
     0
102
RTVSPost2010PropOp36
 70
     1
102
RTVSPost2010Prop37
 90
       50
102
RTVSPost2010PropOp37
 70
     1
102
RTVSPost2010Prop38
140
0.0
102
RTVSPost2010PropOp38
 70
     1
102
RTVSPost2010Prop39
140
1.0
102
RTVSPost2010PropOp39
 70
     1
102
RTVSPost2010Prop40
 90
        0
102
RTVSPost2010PropOp40
 70
     1
102
RTVSPost2010Prop41ColorIndex
 90
       18
102
RTVSPost2010Prop41ColorRGB
 90
        0
102
RTVSPost2010PropOp41
 70
     1
102
RTVSPost2010Prop42
 90
       50
102
RTVSPost2010PropOp42
 70
     1
102
RTVSPost2010Prop43
 90
        3
102
RTVSPost2010PropOp43
 70
     1
102
RTVSPost2010Prop44ColorIndex
 90
        5
102
RTVSPost2010Prop44ColorRGB
 90
      255
102
RTVSPost2010PropOp44
 70
     1
102
RTVSPost2010Prop45
280
     0
102
RTVSPost2010PropOp45
 70
     1
102
RTVSPost2010Prop46
 90
       50
102
RTVSPost2010PropOp46
 70
     1
102
RTVSPost2010Prop47
 90
       50
102
RTVSPost2010PropOp47
 70
     1
102
RTVSPost2010Prop48
 90
       50
102
RTVSPost2010PropOp48
 70
     1
102
RTVSPost2010Prop49
280
     0
102
RTVSPost2010PropOp49
 70
     1
102
RTVSPost2010Prop50
 90
       50
102
RTVSPost2010PropOp50
 70
     1
102
RTVSPost2010Prop51ColorIndex
 90
      256
102
RTVSPost2010Prop51ColorRGB
 90
-16777216
102
RTVSPost2010PropOp51
 70
     0
102
RTVSPost2010Prop52
140
1.0
102
RTVSPost2010PropOp52
 70
     0
102
RTVSPost2010Prop53
 90
        2
102
RTVSPost2010PropOp53
 70
     1
102
RTVSPost2010Prop54
  1
strokes_ogs.tif
102
RTVSPost2010PropOp54
 70
     1
102
RTVSPost2010Prop55
280
     0
102
RTVSPost2010PropOp55
 70
     1
102
RTVSPost2010Prop56
140
1.0
102
RTVSPost2010PropOp56
 70
     1
102
RTVSPost2010Prop57
140
1.0
102
RTVSPost2010PropOp57
 70
     1
102
RTVSPropertyOp0
 70
     1
102
RTVSPropertyOp1
 70
     1
102
RTVSPropertyOp2
 70
     1
102
RTVSPropertyOp3
 70
     1
102
RTVSPropertyOp4
 70
     1
102
RTVSPropertyOp5
 70
     1
102
RTVSPropertyOp6
 70
     1
102
RTVSPropertyOp7
 70
     1
102
RTVSPropertyOp8
 70
     1
102
RTVSPropertyOp9
 70
     1
102
RTVSPropertyOp10
 70
     1
102
RTVSPropertyOp11
 70
     1
102
RTVSPropertyOp12
 70
     1
102
RTVSPropertyOp13
 70
     1
102
RTVSPropertyOp14
 70
     1
102
RTVSPropertyOp15
 70
     1
102
RTVSPropertyOp16
 70
     1
102
RTVSPropertyOp17
 70
     1
102
RTVSPropertyOp18
 70
     1
102
RTVSPropertyOp19
 70
     1
102
RTVSPropertyOp20
 70
     1
102
RTVSPropertyOp21
 70
     1
102
RTVSPropertyOp22
 70
     1
102
RTVSPropertyOp23
 70
     1
102
RTVSPropertyOp24
 70
     1
102
RTVSPropertyOp25
 70
     1
102
RTVSPropertyOp26
 70
     1
102
RTVSPropertyOp27
 70
     1
102
RTVSPropertyOp28
 70
     1
102
RTVSPropertyOp29
 70
     1
102
RTVSPropertyOp30
 70
     1
102
RTVSPropertyOp31
 70
     1
102
RTVSPropertyOp32
 70
     1
102
RTVSPropertyOp33
 70
     1
102
RTVSPropertyOp34
 70
     1
102
RTVSPropertyOp35
 70
     1
102
RTVSPropertyOp36
 70
     1
102
RTVSPropertyOp37
 70
     1
102
RTVSPropertyOp38
 70
     1
102
RTVSPropertyOp39
 70
     1
102
RTVSPropertyOp40
 70
     1
102
RTVSPropertyOp41
 70
     1
102
RTVSPropertyOp42
 70
     1
102
RTVSPropertyOp43
 70
     1
102
RTVSPropertyOp44
 70
     1
102
RTVSPropertyOp45
 70
     1
102
RTVSPropertyOp46
 70
     1
102
RTVSPropertyOp47
 70
     1
102
RTVSPropertyOp48
 70
     1
102
RTVSPropertyOp49
 70
     1
102
RTVSPropertyOp50
 70
     1
102
RTVSPropertyOp51
 70
     0
102
RTVSPropertyOp52
 70
     0
102
RTVSPropertyOp53
 70
     1
102
RTVSPropertyOp54
 70
     1
102
RTVSPropertyOp55
 70
     1
102
RTVSPropertyOp56
 70
     1
102
RTVSPropertyOp57
 70
     1
102
RTVSPropertyOp58
 70
     1
102
RTVSPropertyOp59
 70
     1
102
RTVSPropertyOp60
 70
     1
102
RTVSPropertyOp61
 70
     1
102
RTVSPropertyOp62
 70
     1
  0
XRECORD
  5
C35
102
{ACAD_REACTORS
330
C34
102
}
330
C34
100
AcDbXrecord
280
     1
102
RTVSPost2010Prop28
280
     0
102
RTVSPost2010PropOp28
 70
     1
102
RTVSPost2010Prop29
280
     1
102
RTVSPost2010PropOp29
 70
     1
102
RTVSPost2010Prop30
280
     1
102
RTVSPost2010PropOp30
 70
     1
102
RTVSPost2010Prop31
280
     0
102
RTVSPost2010PropOp31
 70
     1
102
RTVSPost2010Prop32
280
     0
102
RTVSPost2010PropOp32
 70
     1
102
RTVSPost2010Prop33
280
     0
102
RTVSPost2010PropOp33
 70
     1
102
RTVSPost2010Prop34
280
     0
102
RTVSPost2010PropOp34
 70
     1
102
RTVSPost2010Prop35
280
     0
102
RTVSPost2010PropOp35
 70
     1
102
RTVSPost2010Prop36
280
     0
102
RTVSPost2010PropOp36
 70
     1
102
RTVSPost2010Prop37
 90
       50
102
RTVSPost2010PropOp37
 70
     1
102
RTVSPost2010Prop38
140
0.0
102
RTVSPost2010PropOp38
 70
     1
102
RTVSPost2010Prop39
140
1.0
102
RTVSPost2010PropOp39
 70
     1
102
RTVSPost2010Prop40
 90
        0
102
RTVSPost2010PropOp40
 70
     1
102
RTVSPost2010Prop41ColorIndex
 90
       18
102
RTVSPost2010Prop41ColorRGB
 90
        0
102
RTVSPost2010PropOp41
 70
     1
102
RTVSPost2010Prop42
 90
       50
102
RTVSPost2010PropOp42
 70
     1
102
RTVSPost2010Prop43
 90
        3
102
RTVSPost2010PropOp43
 70
     1
102
RTVSPost2010Prop44ColorIndex
 90
        5
102
RTVSPost2010Prop44ColorRGB
 90
      255
102
RTVSPost2010PropOp44
 70
     1
102
RTVSPost2010Prop45
280
     0
102
RTVSPost2010PropOp45
 70
     1
102
RTVSPost2010Prop46
 90
       50
102
RTVSPost2010PropOp46
 70
     1
102
RTVSPost2010Prop47
 90
       50
102
RTVSPost2010PropOp47
 70
     1
102
RTVSPost2010Prop48
 90
       50
102
RTVSPost2010PropOp48
 70
     1
102
RTVSPost2010Prop49
280
     0
102
RTVSPost2010PropOp49
 70
     1
102
RTVSPost2010Prop50
 90
       50
102
RTVSPost2010PropOp50
 70
     1
102
RTVSPost2010Prop51ColorIndex
 90
      256
102
RTVSPost2010Prop51ColorRGB
 90
-16777216
102
RTVSPost2010PropOp51
 70
     0
102
RTVSPost2010Prop52
140
1.0
102
RTVSPost2010PropOp52
 70
     0
102
RTVSPost2010Prop53
 90
        2
102
RTVSPost2010PropOp53
 70
     1
102
RTVSPost2010Prop54
  1
strokes_ogs.tif
102
RTVSPost2010PropOp54
 70
     1
102
RTVSPost2010Prop55
280
     0
102
RTVSPost2010PropOp55
 70
     1
102
RTVSPost2010Prop56
140
1.0
102
RTVSPost2010PropOp56
 70
     1
102
RTVSPost2010Prop57
140
1.0
102
RTVSPost2010PropOp57
 70
     1
102
RTVSPropertyOp0
 70
     1
102
RTVSPropertyOp1
 70
     1
102
RTVSPropertyOp2
 70
     1
102
RTVSPropertyOp3
 70
     1
102
RTVSPropertyOp4
 70
     1
102
RTVSPropertyOp5
 70
     1
102
RTVSPropertyOp6
 70
     1
102
RTVSPropertyOp7
 70
     1
102
RTVSPropertyOp8
 70
     1
102
RTVSPropertyOp9
 70
     1
102
RTVSPropertyOp10
 70
     1
102
RTVSPropertyOp11
 70
     1
102
RTVSPropertyOp12
 70
     1
102
RTVSPropertyOp13
 70
     1
102
RTVSPropertyOp14
 70
     1
102
RTVSPropertyOp15
 70
     1
102
RTVSPropertyOp16
 70
     1
102
RTVSPropertyOp17
 70
     1
102
RTVSPropertyOp18
 70
     1
102
RTVSPropertyOp19
 70
     1
102
RTVSPropertyOp20
 70
     1
102
RTVSPropertyOp21
 70
     1
102
RTVSPropertyOp22
 70
     1
102
RTVSPropertyOp23
 70
     1
102
RTVSPropertyOp24
 70
     1
102
RTVSPropertyOp25
 70
     1
102
RTVSPropertyOp26
 70
     1
102
RTVSPropertyOp27
 70
     1
102
RTVSPropertyOp28
 70
     1
102
RTVSPropertyOp29
 70
     1
102
RTVSPropertyOp30
 70
     1
102
RTVSPropertyOp31
 70
     1
102
RTVSPropertyOp32
 70
     1
102
RTVSPropertyOp33
 70
     1
102
RTVSPropertyOp34
 70
     1
102
RTVSPropertyOp35
 70
     1
102
RTVSPropertyOp36
 70
     1
102
RTVSPropertyOp37
 70
     1
102
RTVSPropertyOp38
 70
     1
102
RTVSPropertyOp39
 70
     1
102
RTVSPropertyOp40
 70
     1
102
RTVSPropertyOp41
 70
     1
102
RTVSPropertyOp42
 70
     1
102
RTVSPropertyOp43
 70
     1
102
RTVSPropertyOp44
 70
     1
102
RTVSPropertyOp45
 70
     1
102
RTVSPropertyOp46
 70
     1
102
RTVSPropertyOp47
 70
     1
102
RTVSPropertyOp48
 70
     1
102
RTVSPropertyOp49
 70
     1
102
RTVSPropertyOp50
 70
     1
102
RTVSPropertyOp51
 70
     0
102
RTVSPropertyOp52
 70
     0
102
RTVSPropertyOp53
 70
     1
102
RTVSPropertyOp54
 70
     1
102
RTVSPropertyOp55
 70
     1
102
RTVSPropertyOp56
 70
     1
102
RTVSPropertyOp57
 70
     1
102
RTVSPropertyOp58
 70
     1
102
RTVSPropertyOp59
 70
     1
102
RTVSPropertyOp60
 70
     1
102
RTVSPropertyOp61
 70
     1
102
RTVSPropertyOp62
 70
     1
  0
XRECORD
  5
C3D
102
{ACAD_REACTORS
330
C3C
102
}
330
C3C
100
AcDbXrecord
280
     1
102
RTVSPost2010Prop28
280
     0
102
RTVSPost2010PropOp28
 70
     1
102
RTVSPost2010Prop29
280
     1
102
RTVSPost2010PropOp29
 70
     1
102
RTVSPost2010Prop30
280
     1
102
RTVSPost2010PropOp30
 70
     1
102
RTVSPost2010Prop31
280
     0
102
RTVSPost2010PropOp31
 70
     1
102
RTVSPost2010Prop32
280
     0
102
RTVSPost2010PropOp32
 70
     1
102
RTVSPost2010Prop33
280
     0
102
RTVSPost2010PropOp33
 70
     1
102
RTVSPost2010Prop34
280
     0
102
RTVSPost2010PropOp34
 70
     1
102
RTVSPost2010Prop35
280
     0
102
RTVSPost2010PropOp35
 70
     1
102
RTVSPost2010Prop36
280
     0
102
RTVSPost2010PropOp36
 70
     1
102
RTVSPost2010Prop37
 90
       50
102
RTVSPost2010PropOp37
 70
     1
102
RTVSPost2010Prop38
140
0.0
102
RTVSPost2010PropOp38
 70
     1
102
RTVSPost2010Prop39
140
1.0
102
RTVSPost2010PropOp39
 70
     1
102
RTVSPost2010Prop40
 90
        0
102
RTVSPost2010PropOp40
 70
     1
102
RTVSPost2010Prop41ColorIndex
 90
       18
102
RTVSPost2010Prop41ColorRGB
 90
        0
102
RTVSPost2010PropOp41
 70
     1
102
RTVSPost2010Prop42
 90
       50
102
RTVSPost2010PropOp42
 70
     1
102
RTVSPost2010Prop43
 90
        3
102
RTVSPost2010PropOp43
 70
     1
102
RTVSPost2010Prop44ColorIndex
 90
        5
102
RTVSPost2010Prop44ColorRGB
 90
      255
102
RTVSPost2010PropOp44
 70
     1
102
RTVSPost2010Prop45
280
     0
102
RTVSPost2010PropOp45
 70
     1
102
RTVSPost2010Prop46
 90
       50
102
RTVSPost2010PropOp46
 70
     1
102
RTVSPost2010Prop47
 90
       50
102
RTVSPost2010PropOp47
 70
     1
102
RTVSPost2010Prop48
 90
       50
102
RTVSPost2010PropOp48
 70
     1
102
RTVSPost2010Prop49
280
     0
102
RTVSPost2010PropOp49
 70
     1
102
RTVSPost2010Prop50
 90
       50
102
RTVSPost2010PropOp50
 70
     1
102
RTVSPost2010Prop51ColorIndex
 90
      256
102
RTVSPost2010Prop51ColorRGB
 90
-16777216
102
RTVSPost2010PropOp51
 70
     0
102
RTVSPost2010Prop52
140
1.0
102
RTVSPost2010PropOp52
 70
     0
102
RTVSPost2010Prop53
 90
        2
102
RTVSPost2010PropOp53
 70
     1
102
RTVSPost2010Prop54
  1
strokes_ogs.tif
102
RTVSPost2010PropOp54
 70
     1
102
RTVSPost2010Prop55
280
     0
102
RTVSPost2010PropOp55
 70
     1
102
RTVSPost2010Prop56
140
1.0
102
RTVSPost2010PropOp56
 70
     1
102
RTVSPost2010Prop57
140
1.0
102
RTVSPost2010PropOp57
 70
     1
102
RTVSPropertyOp0
 70
     1
102
RTVSPropertyOp1
 70
     1
102
RTVSPropertyOp2
 70
     1
102
RTVSPropertyOp3
 70
     1
102
RTVSPropertyOp4
 70
     1
102
RTVSPropertyOp5
 70
     1
102
RTVSPropertyOp6
 70
     1
102
RTVSPropertyOp7
 70
     1
102
RTVSPropertyOp8
 70
     1
102
RTVSPropertyOp9
 70
     1
102
RTVSPropertyOp10
 70
     1
102
RTVSPropertyOp11
 70
     1
102
RTVSPropertyOp12
 70
     1
102
RTVSPropertyOp13
 70
     1
102
RTVSPropertyOp14
 70
     1
102
RTVSPropertyOp15
 70
     1
102
RTVSPropertyOp16
 70
     1
102
RTVSPropertyOp17
 70
     1
102
RTVSPropertyOp18
 70
     1
102
RTVSPropertyOp19
 70
     1
102
RTVSPropertyOp20
 70
     1
102
RTVSPropertyOp21
 70
     1
102
RTVSPropertyOp22
 70
     1
102
RTVSPropertyOp23
 70
     1
102
RTVSPropertyOp24
 70
     1
102
RTVSPropertyOp25
 70
     1
102
RTVSPropertyOp26
 70
     1
102
RTVSPropertyOp27
 70
     1
102
RTVSPropertyOp28
 70
     1
102
RTVSPropertyOp29
 70
     1
102
RTVSPropertyOp30
 70
     1
102
RTVSPropertyOp31
 70
     1
102
RTVSPropertyOp32
 70
     1
102
RTVSPropertyOp33
 70
     1
102
RTVSPropertyOp34
 70
     1
102
RTVSPropertyOp35
 70
     1
102
RTVSPropertyOp36
 70
     1
102
RTVSPropertyOp37
 70
     1
102
RTVSPropertyOp38
 70
     1
102
RTVSPropertyOp39
 70
     1
102
RTVSPropertyOp40
 70
     1
102
RTVSPropertyOp41
 70
     1
102
RTVSPropertyOp42
 70
     1
102
RTVSPropertyOp43
 70
     1
102
RTVSPropertyOp44
 70
     1
102
RTVSPropertyOp45
 70
     1
102
RTVSPropertyOp46
 70
     1
102
RTVSPropertyOp47
 70
     1
102
RTVSPropertyOp48
 70
     1
102
RTVSPropertyOp49
 70
     1
102
RTVSPropertyOp50
 70
     1
102
RTVSPropertyOp51
 70
     0
102
RTVSPropertyOp52
 70
     0
102
RTVSPropertyOp53
 70
     1
102
RTVSPropertyOp54
 70
     1
102
RTVSPropertyOp55
 70
     1
102
RTVSPropertyOp56
 70
     1
102
RTVSPropertyOp57
 70
     1
102
RTVSPropertyOp58
 70
     1
102
RTVSPropertyOp59
 70
     1
102
RTVSPropertyOp60
 70
     1
102
RTVSPropertyOp61
 70
     1
102
RTVSPropertyOp62
 70
     1
  0
XRECORD
  5
C31
102
{ACAD_REACTORS
330
C30
102
}
330
C30
100
AcDbXrecord
280
     1
102
RTVSPost2010Prop28
280
     0
102
RTVSPost2010PropOp28
 70
     1
102
RTVSPost2010Prop29
280
     1
102
RTVSPost2010PropOp29
 70
     1
102
RTVSPost2010Prop30
280
     1
102
RTVSPost2010PropOp30
 70
     1
102
RTVSPost2010Prop31
280
     0
102
RTVSPost2010PropOp31
 70
     1
102
RTVSPost2010Prop32
280
     0
102
RTVSPost2010PropOp32
 70
     1
102
RTVSPost2010Prop33
280
     0
102
RTVSPost2010PropOp33
 70
     1
102
RTVSPost2010Prop34
280
     0
102
RTVSPost2010PropOp34
 70
     1
102
RTVSPost2010Prop35
280
     0
102
RTVSPost2010PropOp35
 70
     1
102
RTVSPost2010Prop36
280
     0
102
RTVSPost2010PropOp36
 70
     1
102
RTVSPost2010Prop37
 90
       50
102
RTVSPost2010PropOp37
 70
     1
102
RTVSPost2010Prop38
140
0.0
102
RTVSPost2010PropOp38
 70
     1
102
RTVSPost2010Prop39
140
1.0
102
RTVSPost2010PropOp39
 70
     1
102
RTVSPost2010Prop40
 90
        0
102
RTVSPost2010PropOp40
 70
     1
102
RTVSPost2010Prop41ColorIndex
 90
       18
102
RTVSPost2010Prop41ColorRGB
 90
        0
102
RTVSPost2010PropOp41
 70
     1
102
RTVSPost2010Prop42
 90
       50
102
RTVSPost2010PropOp42
 70
     1
102
RTVSPost2010Prop43
 90
        3
102
RTVSPost2010PropOp43
 70
     1
102
RTVSPost2010Prop44ColorIndex
 90
        5
102
RTVSPost2010Prop44ColorRGB
 90
      255
102
RTVSPost2010PropOp44
 70
     1
102
RTVSPost2010Prop45
280
     0
102
RTVSPost2010PropOp45
 70
     1
102
RTVSPost2010Prop46
 90
       50
102
RTVSPost2010PropOp46
 70
     1
102
RTVSPost2010Prop47
 90
       50
102
RTVSPost2010PropOp47
 70
     1
102
RTVSPost2010Prop48
 90
       50
102
RTVSPost2010PropOp48
 70
     1
102
RTVSPost2010Prop49
280
     0
102
RTVSPost2010PropOp49
 70
     1
102
RTVSPost2010Prop50
 90
       50
102
RTVSPost2010PropOp50
 70
     1
102
RTVSPost2010Prop51ColorIndex
 90
      256
102
RTVSPost2010Prop51ColorRGB
 90
-16777216
102
RTVSPost2010PropOp51
 70
     0
102
RTVSPost2010Prop52
140
1.0
102
RTVSPost2010PropOp52
 70
     0
102
RTVSPost2010Prop53
 90
        2
102
RTVSPost2010PropOp53
 70
     1
102
RTVSPost2010Prop54
  1
strokes_ogs.tif
102
RTVSPost2010PropOp54
 70
     1
102
RTVSPost2010Prop55
280
     0
102
RTVSPost2010PropOp55
 70
     1
102
RTVSPost2010Prop56
140
1.0
102
RTVSPost2010PropOp56
 70
     1
102
RTVSPost2010Prop57
140
1.0
102
RTVSPost2010PropOp57
 70
     1
102
RTVSPropertyOp0
 70
     1
102
RTVSPropertyOp1
 70
     1
102
RTVSPropertyOp2
 70
     1
102
RTVSPropertyOp3
 70
     1
102
RTVSPropertyOp4
 70
     1
102
RTVSPropertyOp5
 70
     1
102
RTVSPropertyOp6
 70
     1
102
RTVSPropertyOp7
 70
     1
102
RTVSPropertyOp8
 70
     1
102
RTVSPropertyOp9
 70
     1
102
RTVSPropertyOp10
 70
     1
102
RTVSPropertyOp11
 70
     1
102
RTVSPropertyOp12
 70
     1
102
RTVSPropertyOp13
 70
     1
102
RTVSPropertyOp14
 70
     1
102
RTVSPropertyOp15
 70
     1
102
RTVSPropertyOp16
 70
     1
102
RTVSPropertyOp17
 70
     1
102
RTVSPropertyOp18
 70
     1
102
RTVSPropertyOp19
 70
     1
102
RTVSPropertyOp20
 70
     1
102
RTVSPropertyOp21
 70
     1
102
RTVSPropertyOp22
 70
     1
102
RTVSPropertyOp23
 70
     1
102
RTVSPropertyOp24
 70
     1
102
RTVSPropertyOp25
 70
     1
102
RTVSPropertyOp26
 70
     1
102
RTVSPropertyOp27
 70
     1
102
RTVSPropertyOp28
 70
     1
102
RTVSPropertyOp29
 70
     1
102
RTVSPropertyOp30
 70
     1
102
RTVSPropertyOp31
 70
     1
102
RTVSPropertyOp32
 70
     1
102
RTVSPropertyOp33
 70
     1
102
RTVSPropertyOp34
 70
     1
102
RTVSPropertyOp35
 70
     1
102
RTVSPropertyOp36
 70
     1
102
RTVSPropertyOp37
 70
     1
102
RTVSPropertyOp38
 70
     1
102
RTVSPropertyOp39
 70
     1
102
RTVSPropertyOp40
 70
     1
102
RTVSPropertyOp41
 70
     1
102
RTVSPropertyOp42
 70
     1
102
RTVSPropertyOp43
 70
     1
102
RTVSPropertyOp44
 70
     1
102
RTVSPropertyOp45
 70
     1
102
RTVSPropertyOp46
 70
     1
102
RTVSPropertyOp47
 70
     1
102
RTVSPropertyOp48
 70
     1
102
RTVSPropertyOp49
 70
     1
102
RTVSPropertyOp50
 70
     1
102
RTVSPropertyOp51
 70
     0
102
RTVSPropertyOp52
 70
     0
102
RTVSPropertyOp53
 70
     1
102
RTVSPropertyOp54
 70
     1
102
RTVSPropertyOp55
 70
     1
102
RTVSPropertyOp56
 70
     1
102
RTVSPropertyOp57
 70
     1
102
RTVSPropertyOp58
 70
     1
102
RTVSPropertyOp59
 70
     1
102
RTVSPropertyOp60
 70
     1
102
RTVSPropertyOp61
 70
     1
102
RTVSPropertyOp62
 70
     1
  0
XRECORD
  5
C33
102
{ACAD_REACTORS
330
C32
102
}
330
C32
100
AcDbXrecord
280
     1
102
RTVSPost2010Prop28
280
     0
102
RTVSPost2010PropOp28
 70
     1
102
RTVSPost2010Prop29
280
     1
102
RTVSPost2010PropOp29
 70
     1
102
RTVSPost2010Prop30
280
     1
102
RTVSPost2010PropOp30
 70
     1
102
RTVSPost2010Prop31
280
     0
102
RTVSPost2010PropOp31
 70
     1
102
RTVSPost2010Prop32
280
     0
102
RTVSPost2010PropOp32
 70
     1
102
RTVSPost2010Prop33
280
     0
102
RTVSPost2010PropOp33
 70
     1
102
RTVSPost2010Prop34
280
     0
102
RTVSPost2010PropOp34
 70
     1
102
RTVSPost2010Prop35
280
     0
102
RTVSPost2010PropOp35
 70
     1
102
RTVSPost2010Prop36
280
     0
102
RTVSPost2010PropOp36
 70
     1
102
RTVSPost2010Prop37
 90
       50
102
RTVSPost2010PropOp37
 70
     1
102
RTVSPost2010Prop38
140
0.0
102
RTVSPost2010PropOp38
 70
     1
102
RTVSPost2010Prop39
140
1.0
102
RTVSPost2010PropOp39
 70
     1
102
RTVSPost2010Prop40
 90
        0
102
RTVSPost2010PropOp40
 70
     1
102
RTVSPost2010Prop41ColorIndex
 90
       18
102
RTVSPost2010Prop41ColorRGB
 90
        0
102
RTVSPost2010PropOp41
 70
     1
102
RTVSPost2010Prop42
 90
       50
102
RTVSPost2010PropOp42
 70
     1
102
RTVSPost2010Prop43
 90
        3
102
RTVSPost2010PropOp43
 70
     1
102
RTVSPost2010Prop44ColorIndex
 90
        5
102
RTVSPost2010Prop44ColorRGB
 90
      255
102
RTVSPost2010PropOp44
 70
     1
102
RTVSPost2010Prop45
280
     0
102
RTVSPost2010PropOp45
 70
     1
102
RTVSPost2010Prop46
 90
       50
102
RTVSPost2010PropOp46
 70
     1
102
RTVSPost2010Prop47
 90
       50
102
RTVSPost2010PropOp47
 70
     1
102
RTVSPost2010Prop48
 90
       50
102
RTVSPost2010PropOp48
 70
     1
102
RTVSPost2010Prop49
280
     0
102
RTVSPost2010PropOp49
 70
     1
102
RTVSPost2010Prop50
 90
       50
102
RTVSPost2010PropOp50
 70
     1
102
RTVSPost2010Prop51ColorIndex
 90
      256
102
RTVSPost2010Prop51ColorRGB
 90
-16777216
102
RTVSPost2010PropOp51
 70
     0
102
RTVSPost2010Prop52
140
1.0
102
RTVSPost2010PropOp52
 70
     0
102
RTVSPost2010Prop53
 90
        2
102
RTVSPost2010PropOp53
 70
     1
102
RTVSPost2010Prop54
  1
strokes_ogs.tif
102
RTVSPost2010PropOp54
 70
     1
102
RTVSPost2010Prop55
280
     0
102
RTVSPost2010PropOp55
 70
     1
102
RTVSPost2010Prop56
140
1.0
102
RTVSPost2010PropOp56
 70
     1
102
RTVSPost2010Prop57
140
1.0
102
RTVSPost2010PropOp57
 70
     1
102
RTVSPropertyOp0
 70
     1
102
RTVSPropertyOp1
 70
     1
102
RTVSPropertyOp2
 70
     1
102
RTVSPropertyOp3
 70
     1
102
RTVSPropertyOp4
 70
     1
102
RTVSPropertyOp5
 70
     1
102
RTVSPropertyOp6
 70
     1
102
RTVSPropertyOp7
 70
     1
102
RTVSPropertyOp8
 70
     1
102
RTVSPropertyOp9
 70
     1
102
RTVSPropertyOp10
 70
     1
102
RTVSPropertyOp11
 70
     1
102
RTVSPropertyOp12
 70
     1
102
RTVSPropertyOp13
 70
     1
102
RTVSPropertyOp14
 70
     1
102
RTVSPropertyOp15
 70
     1
102
RTVSPropertyOp16
 70
     1
102
RTVSPropertyOp17
 70
     1
102
RTVSPropertyOp18
 70
     1
102
RTVSPropertyOp19
 70
     1
102
RTVSPropertyOp20
 70
     1
102
RTVSPropertyOp21
 70
     1
102
RTVSPropertyOp22
 70
     1
102
RTVSPropertyOp23
 70
     1
102
RTVSPropertyOp24
 70
     1
102
RTVSPropertyOp25
 70
     1
102
RTVSPropertyOp26
 70
     1
102
RTVSPropertyOp27
 70
     1
102
RTVSPropertyOp28
 70
     1
102
RTVSPropertyOp29
 70
     1
102
RTVSPropertyOp30
 70
     1
102
RTVSPropertyOp31
 70
     1
102
RTVSPropertyOp32
 70
     1
102
RTVSPropertyOp33
 70
     1
102
RTVSPropertyOp34
 70
     1
102
RTVSPropertyOp35
 70
     1
102
RTVSPropertyOp36
 70
     1
102
RTVSPropertyOp37
 70
     1
102
RTVSPropertyOp38
 70
     1
102
RTVSPropertyOp39
 70
     1
102
RTVSPropertyOp40
 70
     1
102
RTVSPropertyOp41
 70
     1
102
RTVSPropertyOp42
 70
     1
102
RTVSPropertyOp43
 70
     1
102
RTVSPropertyOp44
 70
     1
102
RTVSPropertyOp45
 70
     1
102
RTVSPropertyOp46
 70
     1
102
RTVSPropertyOp47
 70
     1
102
RTVSPropertyOp48
 70
     1
102
RTVSPropertyOp49
 70
     1
102
RTVSPropertyOp50
 70
     1
102
RTVSPropertyOp51
 70
     0
102
RTVSPropertyOp52
 70
     0
102
RTVSPropertyOp53
 70
     1
102
RTVSPropertyOp54
 70
     1
102
RTVSPropertyOp55
 70
     1
102
RTVSPropertyOp56
 70
     1
102
RTVSPropertyOp57
 70
     1
102
RTVSPropertyOp58
 70
     1
102
RTVSPropertyOp59
 70
     1
102
RTVSPropertyOp60
 70
     1
102
RTVSPropertyOp61
 70
     1
102
RTVSPropertyOp62
 70
     1
  0
XRECORD
  5
C43
102
{ACAD_REACTORS
330
C42
102
}
330
C42
100
AcDbXrecord
280
     1
102
RTVSPost2010Prop28
280
     0
102
RTVSPost2010PropOp28
 70
     0
102
RTVSPost2010Prop29
280
     1
102
RTVSPost2010PropOp29
 70
     0
102
RTVSPost2010Prop30
280
     1
102
RTVSPost2010PropOp30
 70
     0
102
RTVSPost2010Prop31
280
     0
102
RTVSPost2010PropOp31
 70
     0
102
RTVSPost2010Prop32
280
     0
102
RTVSPost2010PropOp32
 70
     0
102
RTVSPost2010Prop33
280
     0
102
RTVSPost2010PropOp33
 70
     0
102
RTVSPost2010Prop34
280
     0
102
RTVSPost2010PropOp34
 70
     0
102
RTVSPost2010Prop35
280
     0
102
RTVSPost2010PropOp35
 70
     0
102
RTVSPost2010Prop36
280
     0
102
RTVSPost2010PropOp36
 70
     0
102
RTVSPost2010Prop37
 90
       50
102
RTVSPost2010PropOp37
 70
     0
102
RTVSPost2010Prop38
140
0.0
102
RTVSPost2010PropOp38
 70
     0
102
RTVSPost2010Prop39
140
1.0
102
RTVSPost2010PropOp39
 70
     0
102
RTVSPost2010Prop40
 90
        0
102
RTVSPost2010PropOp40
 70
     0
102
RTVSPost2010Prop41ColorIndex
 90
       18
102
RTVSPost2010Prop41ColorRGB
 90
        0
102
RTVSPost2010PropOp41
 70
     0
102
RTVSPost2010Prop42
 90
       50
102
RTVSPost2010PropOp42
 70
     0
102
RTVSPost2010Prop43
 90
        3
102
RTVSPost2010PropOp43
 70
     0
102
RTVSPost2010Prop44ColorIndex
 90
        5
102
RTVSPost2010Prop44ColorRGB
 90
      255
102
RTVSPost2010PropOp44
 70
     0
102
RTVSPost2010Prop45
280
     0
102
RTVSPost2010PropOp45
 70
     0
102
RTVSPost2010Prop46
 90
       50
102
RTVSPost2010PropOp46
 70
     0
102
RTVSPost2010Prop47
 90
       50
102
RTVSPost2010PropOp47
 70
     0
102
RTVSPost2010Prop48
 90
       50
102
RTVSPost2010PropOp48
 70
     0
102
RTVSPost2010Prop49
280
     0
102
RTVSPost2010PropOp49
 70
     0
102
RTVSPost2010Prop50
 90
       50
102
RTVSPost2010PropOp50
 70
     0
102
RTVSPost2010Prop51ColorIndex
 90
      256
102
RTVSPost2010Prop51ColorRGB
 90
-16777216
102
RTVSPost2010PropOp51
 70
     0
102
RTVSPost2010Prop52
140
1.0
102
RTVSPost2010PropOp52
 70
     0
102
RTVSPost2010Prop53
 90
        2
102
RTVSPost2010PropOp53
 70
     0
102
RTVSPost2010Prop54
  1
strokes_ogs.tif
102
RTVSPost2010PropOp54
 70
     0
102
RTVSPost2010Prop55
280
     0
102
RTVSPost2010PropOp55
 70
     0
102
RTVSPost2010Prop56
140
1.0
102
RTVSPost2010PropOp56
 70
     0
102
RTVSPost2010Prop57
140
1.0
102
RTVSPost2010PropOp57
 70
     0
102
RTVSPropertyOp0
 70
     0
102
RTVSPropertyOp1
 70
     0
102
RTVSPropertyOp2
 70
     0
102
RTVSPropertyOp3
 70
     0
102
RTVSPropertyOp4
 70
     0
102
RTVSPropertyOp5
 70
     0
102
RTVSPropertyOp6
 70
     0
102
RTVSPropertyOp7
 70
     0
102
RTVSPropertyOp8
 70
     0
102
RTVSPropertyOp9
 70
     0
102
RTVSPropertyOp10
 70
     0
102
RTVSPropertyOp11
 70
     0
102
RTVSPropertyOp12
 70
     0
102
RTVSPropertyOp13
 70
     0
102
RTVSPropertyOp14
 70
     2
102
RTVSPropertyOp15
 70
     0
102
RTVSPropertyOp16
 70
     0
102
RTVSPropertyOp17
 70
     0
102
RTVSPropertyOp18
 70
     0
102
RTVSPropertyOp19
 70
     0
102
RTVSPropertyOp20
 70
     0
102
RTVSPropertyOp21
 70
     0
102
RTVSPropertyOp22
 70
     0
102
RTVSPropertyOp23
 70
     0
102
RTVSPropertyOp24
 70
     0
102
RTVSPropertyOp25
 70
     0
102
RTVSPropertyOp26
 70
     0
102
RTVSPropertyOp27
 70
     0
102
RTVSPropertyOp28
 70
     0
102
RTVSPropertyOp29
 70
     0
102
RTVSPropertyOp30
 70
     0
102
RTVSPropertyOp31
 70
     0
102
RTVSPropertyOp32
 70
     0
102
RTVSPropertyOp33
 70
     0
102
RTVSPropertyOp34
 70
     0
102
RTVSPropertyOp35
 70
     0
102
RTVSPropertyOp36
 70
     0
102
RTVSPropertyOp37
 70
     0
102
RTVSPropertyOp38
 70
     0
102
RTVSPropertyOp39
 70
     0
102
RTVSPropertyOp40
 70
     0
102
RTVSPropertyOp41
 70
     0
102
RTVSPropertyOp42
 70
     0
102
RTVSPropertyOp43
 70
     0
102
RTVSPropertyOp44
 70
     0
102
RTVSPropertyOp45
 70
     0
102
RTVSPropertyOp46
 70
     0
102
RTVSPropertyOp47
 70
     0
102
RTVSPropertyOp48
 70
     0
102
RTVSPropertyOp49
 70
     0
102
RTVSPropertyOp50
 70
     0
102
RTVSPropertyOp51
 70
     0
102
RTVSPropertyOp52
 70
     0
102
RTVSPropertyOp53
 70
     0
102
RTVSPropertyOp54
 70
     0
102
RTVSPropertyOp55
 70
     0
102
RTVSPropertyOp56
 70
     0
102
RTVSPropertyOp57
 70
     0
102
RTVSPropertyOp58
 70
     1
102
RTVSPropertyOp59
 70
     1
102
RTVSPropertyOp60
 70
     1
102
RTVSPropertyOp61
 70
     1
102
RTVSPropertyOp62
 70
     1
  0
XRECORD
  5
C3B
102
{ACAD_REACTORS
330
C3A
102
}
330
C3A
100
AcDbXrecord
280
     1
102
RTVSPost2010Prop28
280
     0
102
RTVSPost2010PropOp28
 70
     1
102
RTVSPost2010Prop29
280
     1
102
RTVSPost2010PropOp29
 70
     1
102
RTVSPost2010Prop30
280
     1
102
RTVSPost2010PropOp30
 70
     1
102
RTVSPost2010Prop31
280
     0
102
RTVSPost2010PropOp31
 70
     1
102
RTVSPost2010Prop32
280
     0
102
RTVSPost2010PropOp32
 70
     1
102
RTVSPost2010Prop33
280
     0
102
RTVSPost2010PropOp33
 70
     1
102
RTVSPost2010Prop34
280
     0
102
RTVSPost2010PropOp34
 70
     1
102
RTVSPost2010Prop35
280
     0
102
RTVSPost2010PropOp35
 70
     1
102
RTVSPost2010Prop36
280
     0
102
RTVSPost2010PropOp36
 70
     1
102
RTVSPost2010Prop37
 90
       50
102
RTVSPost2010PropOp37
 70
     1
102
RTVSPost2010Prop38
140
0.0
102
RTVSPost2010PropOp38
 70
     1
102
RTVSPost2010Prop39
140
1.0
102
RTVSPost2010PropOp39
 70
     1
102
RTVSPost2010Prop40
 90
        0
102
RTVSPost2010PropOp40
 70
     1
102
RTVSPost2010Prop41ColorIndex
 90
       18
102
RTVSPost2010Prop41ColorRGB
 90
        0
102
RTVSPost2010PropOp41
 70
     1
102
RTVSPost2010Prop42
 90
       50
102
RTVSPost2010PropOp42
 70
     1
102
RTVSPost2010Prop43
 90
        3
102
RTVSPost2010PropOp43
 70
     1
102
RTVSPost2010Prop44ColorIndex
 90
        5
102
RTVSPost2010Prop44ColorRGB
 90
      255
102
RTVSPost2010PropOp44
 70
     1
102
RTVSPost2010Prop45
280
     0
102
RTVSPost2010PropOp45
 70
     1
102
RTVSPost2010Prop46
 90
       50
102
RTVSPost2010PropOp46
 70
     1
102
RTVSPost2010Prop47
 90
       50
102
RTVSPost2010PropOp47
 70
     1
102
RTVSPost2010Prop48
 90
       50
102
RTVSPost2010PropOp48
 70
     1
102
RTVSPost2010Prop49
280
     0
102
RTVSPost2010PropOp49
 70
     1
102
RTVSPost2010Prop50
 90
       50
102
RTVSPost2010PropOp50
 70
     1
102
RTVSPost2010Prop51ColorIndex
 90
      256
102
RTVSPost2010Prop51ColorRGB
 90
-16777216
102
RTVSPost2010PropOp51
 70
     0
102
RTVSPost2010Prop52
140
1.0
102
RTVSPost2010PropOp52
 70
     0
102
RTVSPost2010Prop53
 90
        2
102
RTVSPost2010PropOp53
 70
     1
102
RTVSPost2010Prop54
  1
strokes_ogs.tif
102
RTVSPost2010PropOp54
 70
     1
102
RTVSPost2010Prop55
280
     0
102
RTVSPost2010PropOp55
 70
     1
102
RTVSPost2010Prop56
140
1.0
102
RTVSPost2010PropOp56
 70
     1
102
RTVSPost2010Prop57
140
1.0
102
RTVSPost2010PropOp57
 70
     1
102
RTVSPropertyOp0
 70
     1
102
RTVSPropertyOp1
 70
     1
102
RTVSPropertyOp2
 70
     1
102
RTVSPropertyOp3
 70
     1
102
RTVSPropertyOp4
 70
     1
102
RTVSPropertyOp5
 70
     1
102
RTVSPropertyOp6
 70
     1
102
RTVSPropertyOp7
 70
     1
102
RTVSPropertyOp8
 70
     1
102
RTVSPropertyOp9
 70
     1
102
RTVSPropertyOp10
 70
     1
102
RTVSPropertyOp11
 70
     1
102
RTVSPropertyOp12
 70
     1
102
RTVSPropertyOp13
 70
     1
102
RTVSPropertyOp14
 70
     1
102
RTVSPropertyOp15
 70
     1
102
RTVSPropertyOp16
 70
     1
102
RTVSPropertyOp17
 70
     1
102
RTVSPropertyOp18
 70
     1
102
RTVSPropertyOp19
 70
     1
102
RTVSPropertyOp20
 70
     1
102
RTVSPropertyOp21
 70
     1
102
RTVSPropertyOp22
 70
     1
102
RTVSPropertyOp23
 70
     1
102
RTVSPropertyOp24
 70
     1
102
RTVSPropertyOp25
 70
     1
102
RTVSPropertyOp26
 70
     1
102
RTVSPropertyOp27
 70
     1
102
RTVSPropertyOp28
 70
     1
102
RTVSPropertyOp29
 70
     1
102
RTVSPropertyOp30
 70
     1
102
RTVSPropertyOp31
 70
     1
102
RTVSPropertyOp32
 70
     1
102
RTVSPropertyOp33
 70
     1
102
RTVSPropertyOp34
 70
     1
102
RTVSPropertyOp35
 70
     1
102
RTVSPropertyOp36
 70
     1
102
RTVSPropertyOp37
 70
     1
102
RTVSPropertyOp38
 70
     1
102
RTVSPropertyOp39
 70
     1
102
RTVSPropertyOp40
 70
     1
102
RTVSPropertyOp41
 70
     1
102
RTVSPropertyOp42
 70
     1
102
RTVSPropertyOp43
 70
     1
102
RTVSPropertyOp44
 70
     1
102
RTVSPropertyOp45
 70
     1
102
RTVSPropertyOp46
 70
     1
102
RTVSPropertyOp47
 70
     1
102
RTVSPropertyOp48
 70
     1
102
RTVSPropertyOp49
 70
     1
102
RTVSPropertyOp50
 70
     1
102
RTVSPropertyOp51
 70
     0
102
RTVSPropertyOp52
 70
     0
102
RTVSPropertyOp53
 70
     1
102
RTVSPropertyOp54
 70
     1
102
RTVSPropertyOp55
 70
     1
102
RTVSPropertyOp56
 70
     1
102
RTVSPropertyOp57
 70
     1
102
RTVSPropertyOp58
 70
     1
102
RTVSPropertyOp59
 70
     1
102
RTVSPropertyOp60
 70
     1
102
RTVSPropertyOp61
 70
     1
102
RTVSPropertyOp62
 70
     1
  0
XRECORD
  5
C1F
102
{ACAD_REACTORS
330
C1E
102
}
330
C1E
100
AcDbXrecord
280
     1
102
RTVSPost2010Prop28
280
     0
102
RTVSPost2010PropOp28
 70
     1
102
RTVSPost2010Prop29
280
     1
102
RTVSPost2010PropOp29
 70
     1
102
RTVSPost2010Prop30
280
     1
102
RTVSPost2010PropOp30
 70
     1
102
RTVSPost2010Prop31
280
     0
102
RTVSPost2010PropOp31
 70
     1
102
RTVSPost2010Prop32
280
     0
102
RTVSPost2010PropOp32
 70
     1
102
RTVSPost2010Prop33
280
     0
102
RTVSPost2010PropOp33
 70
     1
102
RTVSPost2010Prop34
280
     0
102
RTVSPost2010PropOp34
 70
     1
102
RTVSPost2010Prop35
280
     0
102
RTVSPost2010PropOp35
 70
     1
102
RTVSPost2010Prop36
280
     0
102
RTVSPost2010PropOp36
 70
     1
102
RTVSPost2010Prop37
 90
       50
102
RTVSPost2010PropOp37
 70
     1
102
RTVSPost2010Prop38
140
0.0
102
RTVSPost2010PropOp38
 70
     1
102
RTVSPost2010Prop39
140
1.0
102
RTVSPost2010PropOp39
 70
     1
102
RTVSPost2010Prop40
 90
        0
102
RTVSPost2010PropOp40
 70
     1
102
RTVSPost2010Prop41ColorIndex
 90
       18
102
RTVSPost2010Prop41ColorRGB
 90
        0
102
RTVSPost2010PropOp41
 70
     1
102
RTVSPost2010Prop42
 90
       50
102
RTVSPost2010PropOp42
 70
     1
102
RTVSPost2010Prop43
 90
        3
102
RTVSPost2010PropOp43
 70
     1
102
RTVSPost2010Prop44ColorIndex
 90
        5
102
RTVSPost2010Prop44ColorRGB
 90
      255
102
RTVSPost2010PropOp44
 70
     1
102
RTVSPost2010Prop45
280
     0
102
RTVSPost2010PropOp45
 70
     1
102
RTVSPost2010Prop46
 90
       50
102
RTVSPost2010PropOp46
 70
     1
102
RTVSPost2010Prop47
 90
       50
102
RTVSPost2010PropOp47
 70
     1
102
RTVSPost2010Prop48
 90
       50
102
RTVSPost2010PropOp48
 70
     1
102
RTVSPost2010Prop49
280
     0
102
RTVSPost2010PropOp49
 70
     1
102
RTVSPost2010Prop50
 90
       50
102
RTVSPost2010PropOp50
 70
     1
102
RTVSPost2010Prop51ColorIndex
 90
      256
102
RTVSPost2010Prop51ColorRGB
 90
-16777216
102
RTVSPost2010PropOp51
 70
     0
102
RTVSPost2010Prop52
140
1.0
102
RTVSPost2010PropOp52
 70
     0
102
RTVSPost2010Prop53
 90
        2
102
RTVSPost2010PropOp53
 70
     1
102
RTVSPost2010Prop54
  1
strokes_ogs.tif
102
RTVSPost2010PropOp54
 70
     1
102
RTVSPost2010Prop55
280
     0
102
RTVSPost2010PropOp55
 70
     1
102
RTVSPost2010Prop56
140
1.0
102
RTVSPost2010PropOp56
 70
     1
102
RTVSPost2010Prop57
140
1.0
102
RTVSPost2010PropOp57
 70
     1
102
RTVSPropertyOp0
 70
     1
102
RTVSPropertyOp1
 70
     1
102
RTVSPropertyOp2
 70
     1
102
RTVSPropertyOp3
 70
     1
102
RTVSPropertyOp4
 70
     1
102
RTVSPropertyOp5
 70
     1
102
RTVSPropertyOp6
 70
     1
102
RTVSPropertyOp7
 70
     1
102
RTVSPropertyOp8
 70
     1
102
RTVSPropertyOp9
 70
     1
102
RTVSPropertyOp10
 70
     1
102
RTVSPropertyOp11
 70
     1
102
RTVSPropertyOp12
 70
     1
102
RTVSPropertyOp13
 70
     1
102
RTVSPropertyOp14
 70
     1
102
RTVSPropertyOp15
 70
     1
102
RTVSPropertyOp16
 70
     1
102
RTVSPropertyOp17
 70
     1
102
RTVSPropertyOp18
 70
     1
102
RTVSPropertyOp19
 70
     1
102
RTVSPropertyOp20
 70
     1
102
RTVSPropertyOp21
 70
     1
102
RTVSPropertyOp22
 70
     1
102
RTVSPropertyOp23
 70
     1
102
RTVSPropertyOp24
 70
     1
102
RTVSPropertyOp25
 70
     1
102
RTVSPropertyOp26
 70
     1
102
RTVSPropertyOp27
 70
     1
102
RTVSPropertyOp28
 70
     1
102
RTVSPropertyOp29
 70
     1
102
RTVSPropertyOp30
 70
     1
102
RTVSPropertyOp31
 70
     1
102
RTVSPropertyOp32
 70
     1
102
RTVSPropertyOp33
 70
     1
102
RTVSPropertyOp34
 70
     1
102
RTVSPropertyOp35
 70
     1
102
RTVSPropertyOp36
 70
     1
102
RTVSPropertyOp37
 70
     1
102
RTVSPropertyOp38
 70
     1
102
RTVSPropertyOp39
 70
     1
102
RTVSPropertyOp40
 70
     1
102
RTVSPropertyOp41
 70
     1
102
RTVSPropertyOp42
 70
     1
102
RTVSPropertyOp43
 70
     1
102
RTVSPropertyOp44
 70
     1
102
RTVSPropertyOp45
 70
     1
102
RTVSPropertyOp46
 70
     1
102
RTVSPropertyOp47
 70
     1
102
RTVSPropertyOp48
 70
     1
102
RTVSPropertyOp49
 70
     1
102
RTVSPropertyOp50
 70
     1
102
RTVSPropertyOp51
 70
     0
102
RTVSPropertyOp52
 70
     0
102
RTVSPropertyOp53
 70
     1
102
RTVSPropertyOp54
 70
     1
102
RTVSPropertyOp55
 70
     1
102
RTVSPropertyOp56
 70
     1
102
RTVSPropertyOp57
 70
     1
102
RTVSPropertyOp58
 70
     1
102
RTVSPropertyOp59
 70
     1
102
RTVSPropertyOp60
 70
     1
102
RTVSPropertyOp61
 70
     1
102
RTVSPropertyOp62
 70
     1
  0
XRECORD
  5
C21
102
{ACAD_REACTORS
330
C20
102
}
330
C20
100
AcDbXrecord
280
     1
102
RTVSPost2010Prop28
280
     0
102
RTVSPost2010PropOp28
 70
     1
102
RTVSPost2010Prop29
280
     1
102
RTVSPost2010PropOp29
 70
     1
102
RTVSPost2010Prop30
280
     1
102
RTVSPost2010PropOp30
 70
     1
102
RTVSPost2010Prop31
280
     0
102
RTVSPost2010PropOp31
 70
     1
102
RTVSPost2010Prop32
280
     0
102
RTVSPost2010PropOp32
 70
     1
102
RTVSPost2010Prop33
280
     0
102
RTVSPost2010PropOp33
 70
     1
102
RTVSPost2010Prop34
280
     0
102
RTVSPost2010PropOp34
 70
     1
102
RTVSPost2010Prop35
280
     0
102
RTVSPost2010PropOp35
 70
     1
102
RTVSPost2010Prop36
280
     0
102
RTVSPost2010PropOp36
 70
     1
102
RTVSPost2010Prop37
 90
       50
102
RTVSPost2010PropOp37
 70
     1
102
RTVSPost2010Prop38
140
0.0
102
RTVSPost2010PropOp38
 70
     1
102
RTVSPost2010Prop39
140
1.0
102
RTVSPost2010PropOp39
 70
     1
102
RTVSPost2010Prop40
 90
        0
102
RTVSPost2010PropOp40
 70
     1
102
RTVSPost2010Prop41ColorIndex
 90
       18
102
RTVSPost2010Prop41ColorRGB
 90
        0
102
RTVSPost2010PropOp41
 70
     1
102
RTVSPost2010Prop42
 90
       50
102
RTVSPost2010PropOp42
 70
     1
102
RTVSPost2010Prop43
 90
        3
102
RTVSPost2010PropOp43
 70
     1
102
RTVSPost2010Prop44ColorIndex
 90
        5
102
RTVSPost2010Prop44ColorRGB
 90
      255
102
RTVSPost2010PropOp44
 70
     1
102
RTVSPost2010Prop45
280
     0
102
RTVSPost2010PropOp45
 70
     1
102
RTVSPost2010Prop46
 90
       50
102
RTVSPost2010PropOp46
 70
     1
102
RTVSPost2010Prop47
 90
       50
102
RTVSPost2010PropOp47
 70
     1
102
RTVSPost2010Prop48
 90
       50
102
RTVSPost2010PropOp48
 70
     1
102
RTVSPost2010Prop49
280
     0
102
RTVSPost2010PropOp49
 70
     1
102
RTVSPost2010Prop50
 90
       50
102
RTVSPost2010PropOp50
 70
     1
102
RTVSPost2010Prop51ColorIndex
 90
      256
102
RTVSPost2010Prop51ColorRGB
 90
-16777216
102
RTVSPost2010PropOp51
 70
     0
102
RTVSPost2010Prop52
140
1.0
102
RTVSPost2010PropOp52
 70
     0
102
RTVSPost2010Prop53
 90
        2
102
RTVSPost2010PropOp53
 70
     1
102
RTVSPost2010Prop54
  1
strokes_ogs.tif
102
RTVSPost2010PropOp54
 70
     1
102
RTVSPost2010Prop55
280
     0
102
RTVSPost2010PropOp55
 70
     1
102
RTVSPost2010Prop56
140
1.0
102
RTVSPost2010PropOp56
 70
     1
102
RTVSPost2010Prop57
140
1.0
102
RTVSPost2010PropOp57
 70
     1
102
RTVSPropertyOp0
 70
     1
102
RTVSPropertyOp1
 70
     1
102
RTVSPropertyOp2
 70
     1
102
RTVSPropertyOp3
 70
     1
102
RTVSPropertyOp4
 70
     1
102
RTVSPropertyOp5
 70
     1
102
RTVSPropertyOp6
 70
     1
102
RTVSPropertyOp7
 70
     1
102
RTVSPropertyOp8
 70
     1
102
RTVSPropertyOp9
 70
     1
102
RTVSPropertyOp10
 70
     1
102
RTVSPropertyOp11
 70
     1
102
RTVSPropertyOp12
 70
     1
102
RTVSPropertyOp13
 70
     1
102
RTVSPropertyOp14
 70
     1
102
RTVSPropertyOp15
 70
     1
102
RTVSPropertyOp16
 70
     1
102
RTVSPropertyOp17
 70
     1
102
RTVSPropertyOp18
 70
     1
102
RTVSPropertyOp19
 70
     1
102
RTVSPropertyOp20
 70
     1
102
RTVSPropertyOp21
 70
     1
102
RTVSPropertyOp22
 70
     1
102
RTVSPropertyOp23
 70
     1
102
RTVSPropertyOp24
 70
     1
102
RTVSPropertyOp25
 70
     1
102
RTVSPropertyOp26
 70
     1
102
RTVSPropertyOp27
 70
     1
102
RTVSPropertyOp28
 70
     1
102
RTVSPropertyOp29
 70
     1
102
RTVSPropertyOp30
 70
     1
102
RTVSPropertyOp31
 70
     1
102
RTVSPropertyOp32
 70
     1
102
RTVSPropertyOp33
 70
     1
102
RTVSPropertyOp34
 70
     1
102
RTVSPropertyOp35
 70
     1
102
RTVSPropertyOp36
 70
     1
102
RTVSPropertyOp37
 70
     1
102
RTVSPropertyOp38
 70
     1
102
RTVSPropertyOp39
 70
     1
102
RTVSPropertyOp40
 70
     1
102
RTVSPropertyOp41
 70
     1
102
RTVSPropertyOp42
 70
     1
102
RTVSPropertyOp43
 70
     1
102
RTVSPropertyOp44
 70
     1
102
RTVSPropertyOp45
 70
     1
102
RTVSPropertyOp46
 70
     1
102
RTVSPropertyOp47
 70
     1
102
RTVSPropertyOp48
 70
     1
102
RTVSPropertyOp49
 70
     1
102
RTVSPropertyOp50
 70
     1
102
RTVSPropertyOp51
 70
     0
102
RTVSPropertyOp52
 70
     0
102
RTVSPropertyOp53
 70
     1
102
RTVSPropertyOp54
 70
     1
102
RTVSPropertyOp55
 70
     1
102
RTVSPropertyOp56
 70
     1
102
RTVSPropertyOp57
 70
     1
102
RTVSPropertyOp58
 70
     1
102
RTVSPropertyOp59
 70
     1
102
RTVSPropertyOp60
 70
     1
102
RTVSPropertyOp61
 70
     1
102
RTVSPropertyOp62
 70
     1
  0
XRECORD
  5
C23
102
{ACAD_REACTORS
330
C22
102
}
330
C22
100
AcDbXrecord
280
     1
102
RTVSPost2010Prop28
280
     0
102
RTVSPost2010PropOp28
 70
     1
102
RTVSPost2010Prop29
280
     1
102
RTVSPost2010PropOp29
 70
     1
102
RTVSPost2010Prop30
280
     1
102
RTVSPost2010PropOp30
 70
     1
102
RTVSPost2010Prop31
280
     0
102
RTVSPost2010PropOp31
 70
     1
102
RTVSPost2010Prop32
280
     0
102
RTVSPost2010PropOp32
 70
     1
102
RTVSPost2010Prop33
280
     0
102
RTVSPost2010PropOp33
 70
     1
102
RTVSPost2010Prop34
280
     0
102
RTVSPost2010PropOp34
 70
     1
102
RTVSPost2010Prop35
280
     0
102
RTVSPost2010PropOp35
 70
     1
102
RTVSPost2010Prop36
280
     0
102
RTVSPost2010PropOp36
 70
     1
102
RTVSPost2010Prop37
 90
       50
102
RTVSPost2010PropOp37
 70
     1
102
RTVSPost2010Prop38
140
0.0
102
RTVSPost2010PropOp38
 70
     1
102
RTVSPost2010Prop39
140
1.0
102
RTVSPost2010PropOp39
 70
     1
102
RTVSPost2010Prop40
 90
        0
102
RTVSPost2010PropOp40
 70
     1
102
RTVSPost2010Prop41ColorIndex
 90
       18
102
RTVSPost2010Prop41ColorRGB
 90
        0
102
RTVSPost2010PropOp41
 70
     1
102
RTVSPost2010Prop42
 90
       50
102
RTVSPost2010PropOp42
 70
     1
102
RTVSPost2010Prop43
 90
        3
102
RTVSPost2010PropOp43
 70
     1
102
RTVSPost2010Prop44ColorIndex
 90
        5
102
RTVSPost2010Prop44ColorRGB
 90
      255
102
RTVSPost2010PropOp44
 70
     1
102
RTVSPost2010Prop45
280
     0
102
RTVSPost2010PropOp45
 70
     1
102
RTVSPost2010Prop46
 90
       50
102
RTVSPost2010PropOp46
 70
     1
102
RTVSPost2010Prop47
 90
       50
102
RTVSPost2010PropOp47
 70
     1
102
RTVSPost2010Prop48
 90
       50
102
RTVSPost2010PropOp48
 70
     1
102
RTVSPost2010Prop49
280
     0
102
RTVSPost2010PropOp49
 70
     1
102
RTVSPost2010Prop50
 90
       50
102
RTVSPost2010PropOp50
 70
     1
102
RTVSPost2010Prop51ColorIndex
 90
      256
102
RTVSPost2010Prop51ColorRGB
 90
-16777216
102
RTVSPost2010PropOp51
 70
     0
102
RTVSPost2010Prop52
140
1.0
102
RTVSPost2010PropOp52
 70
     0
102
RTVSPost2010Prop53
 90
        2
102
RTVSPost2010PropOp53
 70
     1
102
RTVSPost2010Prop54
  1
strokes_ogs.tif
102
RTVSPost2010PropOp54
 70
     1
102
RTVSPost2010Prop55
280
     0
102
RTVSPost2010PropOp55
 70
     1
102
RTVSPost2010Prop56
140
1.0
102
RTVSPost2010PropOp56
 70
     1
102
RTVSPost2010Prop57
140
1.0
102
RTVSPost2010PropOp57
 70
     1
102
RTVSPropertyOp0
 70
     1
102
RTVSPropertyOp1
 70
     1
102
RTVSPropertyOp2
 70
     1
102
RTVSPropertyOp3
 70
     1
102
RTVSPropertyOp4
 70
     1
102
RTVSPropertyOp5
 70
     1
102
RTVSPropertyOp6
 70
     1
102
RTVSPropertyOp7
 70
     1
102
RTVSPropertyOp8
 70
     1
102
RTVSPropertyOp9
 70
     1
102
RTVSPropertyOp10
 70
     1
102
RTVSPropertyOp11
 70
     1
102
RTVSPropertyOp12
 70
     1
102
RTVSPropertyOp13
 70
     1
102
RTVSPropertyOp14
 70
     1
102
RTVSPropertyOp15
 70
     1
102
RTVSPropertyOp16
 70
     1
102
RTVSPropertyOp17
 70
     1
102
RTVSPropertyOp18
 70
     1
102
RTVSPropertyOp19
 70
     1
102
RTVSPropertyOp20
 70
     1
102
RTVSPropertyOp21
 70
     1
102
RTVSPropertyOp22
 70
     1
102
RTVSPropertyOp23
 70
     1
102
RTVSPropertyOp24
 70
     1
102
RTVSPropertyOp25
 70
     1
102
RTVSPropertyOp26
 70
     1
102
RTVSPropertyOp27
 70
     1
102
RTVSPropertyOp28
 70
     1
102
RTVSPropertyOp29
 70
     1
102
RTVSPropertyOp30
 70
     1
102
RTVSPropertyOp31
 70
     1
102
RTVSPropertyOp32
 70
     1
102
RTVSPropertyOp33
 70
     1
102
RTVSPropertyOp34
 70
     1
102
RTVSPropertyOp35
 70
     1
102
RTVSPropertyOp36
 70
     1
102
RTVSPropertyOp37
 70
     1
102
RTVSPropertyOp38
 70
     1
102
RTVSPropertyOp39
 70
     1
102
RTVSPropertyOp40
 70
     1
102
RTVSPropertyOp41
 70
     1
102
RTVSPropertyOp42
 70
     1
102
RTVSPropertyOp43
 70
     1
102
RTVSPropertyOp44
 70
     1
102
RTVSPropertyOp45
 70
     1
102
RTVSPropertyOp46
 70
     1
102
RTVSPropertyOp47
 70
     1
102
RTVSPropertyOp48
 70
     1
102
RTVSPropertyOp49
 70
     1
102
RTVSPropertyOp50
 70
     1
102
RTVSPropertyOp51
 70
     0
102
RTVSPropertyOp52
 70
     0
102
RTVSPropertyOp53
 70
     1
102
RTVSPropertyOp54
 70
     1
102
RTVSPropertyOp55
 70
     1
102
RTVSPropertyOp56
 70
     1
102
RTVSPropertyOp57
 70
     1
102
RTVSPropertyOp58
 70
     1
102
RTVSPropertyOp59
 70
     1
102
RTVSPropertyOp60
 70
     1
102
RTVSPropertyOp61
 70
     1
102
RTVSPropertyOp62
 70
     1
  0
XRECORD
  5
C25
102
{ACAD_REACTORS
330
C24
102
}
330
C24
100
AcDbXrecord
280
     1
102
RTVSPost2010Prop28
280
     0
102
RTVSPost2010PropOp28
 70
     1
102
RTVSPost2010Prop29
280
     1
102
RTVSPost2010PropOp29
 70
     1
102
RTVSPost2010Prop30
280
     1
102
RTVSPost2010PropOp30
 70
     1
102
RTVSPost2010Prop31
280
     0
102
RTVSPost2010PropOp31
 70
     1
102
RTVSPost2010Prop32
280
     0
102
RTVSPost2010PropOp32
 70
     1
102
RTVSPost2010Prop33
280
     0
102
RTVSPost2010PropOp33
 70
     1
102
RTVSPost2010Prop34
280
     0
102
RTVSPost2010PropOp34
 70
     1
102
RTVSPost2010Prop35
280
     0
102
RTVSPost2010PropOp35
 70
     1
102
RTVSPost2010Prop36
280
     0
102
RTVSPost2010PropOp36
 70
     1
102
RTVSPost2010Prop37
 90
       50
102
RTVSPost2010PropOp37
 70
     1
102
RTVSPost2010Prop38
140
0.0
102
RTVSPost2010PropOp38
 70
     1
102
RTVSPost2010Prop39
140
1.0
102
RTVSPost2010PropOp39
 70
     1
102
RTVSPost2010Prop40
 90
        0
102
RTVSPost2010PropOp40
 70
     1
102
RTVSPost2010Prop41ColorIndex
 90
       18
102
RTVSPost2010Prop41ColorRGB
 90
        0
102
RTVSPost2010PropOp41
 70
     1
102
RTVSPost2010Prop42
 90
       50
102
RTVSPost2010PropOp42
 70
     1
102
RTVSPost2010Prop43
 90
        3
102
RTVSPost2010PropOp43
 70
     1
102
RTVSPost2010Prop44ColorIndex
 90
        5
102
RTVSPost2010Prop44ColorRGB
 90
      255
102
RTVSPost2010PropOp44
 70
     1
102
RTVSPost2010Prop45
280
     0
102
RTVSPost2010PropOp45
 70
     1
102
RTVSPost2010Prop46
 90
       50
102
RTVSPost2010PropOp46
 70
     1
102
RTVSPost2010Prop47
 90
       50
102
RTVSPost2010PropOp47
 70
     1
102
RTVSPost2010Prop48
 90
       50
102
RTVSPost2010PropOp48
 70
     1
102
RTVSPost2010Prop49
280
     0
102
RTVSPost2010PropOp49
 70
     1
102
RTVSPost2010Prop50
 90
       50
102
RTVSPost2010PropOp50
 70
     1
102
RTVSPost2010Prop51ColorIndex
 90
      256
102
RTVSPost2010Prop51ColorRGB
 90
-16777216
102
RTVSPost2010PropOp51
 70
     0
102
RTVSPost2010Prop52
140
1.0
102
RTVSPost2010PropOp52
 70
     0
102
RTVSPost2010Prop53
 90
        2
102
RTVSPost2010PropOp53
 70
     1
102
RTVSPost2010Prop54
  1
strokes_ogs.tif
102
RTVSPost2010PropOp54
 70
     1
102
RTVSPost2010Prop55
280
     0
102
RTVSPost2010PropOp55
 70
     1
102
RTVSPost2010Prop56
140
1.0
102
RTVSPost2010PropOp56
 70
     1
102
RTVSPost2010Prop57
140
1.0
102
RTVSPost2010PropOp57
 70
     1
102
RTVSPropertyOp0
 70
     1
102
RTVSPropertyOp1
 70
     1
102
RTVSPropertyOp2
 70
     1
102
RTVSPropertyOp3
 70
     1
102
RTVSPropertyOp4
 70
     1
102
RTVSPropertyOp5
 70
     1
102
RTVSPropertyOp6
 70
     1
102
RTVSPropertyOp7
 70
     1
102
RTVSPropertyOp8
 70
     1
102
RTVSPropertyOp9
 70
     1
102
RTVSPropertyOp10
 70
     1
102
RTVSPropertyOp11
 70
     1
102
RTVSPropertyOp12
 70
     1
102
RTVSPropertyOp13
 70
     1
102
RTVSPropertyOp14
 70
     1
102
RTVSPropertyOp15
 70
     1
102
RTVSPropertyOp16
 70
     1
102
RTVSPropertyOp17
 70
     1
102
RTVSPropertyOp18
 70
     1
102
RTVSPropertyOp19
 70
     1
102
RTVSPropertyOp20
 70
     1
102
RTVSPropertyOp21
 70
     1
102
RTVSPropertyOp22
 70
     1
102
RTVSPropertyOp23
 70
     1
102
RTVSPropertyOp24
 70
     1
102
RTVSPropertyOp25
 70
     1
102
RTVSPropertyOp26
 70
     1
102
RTVSPropertyOp27
 70
     1
102
RTVSPropertyOp28
 70
     1
102
RTVSPropertyOp29
 70
     1
102
RTVSPropertyOp30
 70
     1
102
RTVSPropertyOp31
 70
     1
102
RTVSPropertyOp32
 70
     1
102
RTVSPropertyOp33
 70
     1
102
RTVSPropertyOp34
 70
     1
102
RTVSPropertyOp35
 70
     1
102
RTVSPropertyOp36
 70
     1
102
RTVSPropertyOp37
 70
     1
102
RTVSPropertyOp38
 70
     1
102
RTVSPropertyOp39
 70
     1
102
RTVSPropertyOp40
 70
     1
102
RTVSPropertyOp41
 70
     1
102
RTVSPropertyOp42
 70
     1
102
RTVSPropertyOp43
 70
     1
102
RTVSPropertyOp44
 70
     1
102
RTVSPropertyOp45
 70
     1
102
RTVSPropertyOp46
 70
     1
102
RTVSPropertyOp47
 70
     1
102
RTVSPropertyOp48
 70
     1
102
RTVSPropertyOp49
 70
     1
102
RTVSPropertyOp50
 70
     1
102
RTVSPropertyOp51
 70
     0
102
RTVSPropertyOp52
 70
     0
102
RTVSPropertyOp53
 70
     1
102
RTVSPropertyOp54
 70
     1
102
RTVSPropertyOp55
 70
     1
102
RTVSPropertyOp56
 70
     1
102
RTVSPropertyOp57
 70
     1
102
RTVSPropertyOp58
 70
     1
102
RTVSPropertyOp59
 70
     1
102
RTVSPropertyOp60
 70
     1
102
RTVSPropertyOp61
 70
     1
102
RTVSPropertyOp62
 70
     1
  0
XRECORD
  5
C2B
102
{ACAD_REACTORS
330
C2A
102
}
330
C2A
100
AcDbXrecord
280
     1
102
RTVSPost2010Prop28
280
     0
102
RTVSPost2010PropOp28
 70
     1
102
RTVSPost2010Prop29
280
     1
102
RTVSPost2010PropOp29
 70
     1
102
RTVSPost2010Prop30
280
     1
102
RTVSPost2010PropOp30
 70
     1
102
RTVSPost2010Prop31
280
     0
102
RTVSPost2010PropOp31
 70
     1
102
RTVSPost2010Prop32
280
     0
102
RTVSPost2010PropOp32
 70
     1
102
RTVSPost2010Prop33
280
     0
102
RTVSPost2010PropOp33
 70
     1
102
RTVSPost2010Prop34
280
     0
102
RTVSPost2010PropOp34
 70
     1
102
RTVSPost2010Prop35
280
     0
102
RTVSPost2010PropOp35
 70
     1
102
RTVSPost2010Prop36
280
     0
102
RTVSPost2010PropOp36
 70
     1
102
RTVSPost2010Prop37
 90
       50
102
RTVSPost2010PropOp37
 70
     1
102
RTVSPost2010Prop38
140
0.0
102
RTVSPost2010PropOp38
 70
     1
102
RTVSPost2010Prop39
140
1.0
102
RTVSPost2010PropOp39
 70
     1
102
RTVSPost2010Prop40
 90
        0
102
RTVSPost2010PropOp40
 70
     1
102
RTVSPost2010Prop41ColorIndex
 90
       18
102
RTVSPost2010Prop41ColorRGB
 90
        0
102
RTVSPost2010PropOp41
 70
     1
102
RTVSPost2010Prop42
 90
       50
102
RTVSPost2010PropOp42
 70
     1
102
RTVSPost2010Prop43
 90
        3
102
RTVSPost2010PropOp43
 70
     1
102
RTVSPost2010Prop44ColorIndex
 90
        5
102
RTVSPost2010Prop44ColorRGB
 90
      255
102
RTVSPost2010PropOp44
 70
     1
102
RTVSPost2010Prop45
280
     0
102
RTVSPost2010PropOp45
 70
     1
102
RTVSPost2010Prop46
 90
       50
102
RTVSPost2010PropOp46
 70
     1
102
RTVSPost2010Prop47
 90
       50
102
RTVSPost2010PropOp47
 70
     1
102
RTVSPost2010Prop48
 90
       50
102
RTVSPost2010PropOp48
 70
     1
102
RTVSPost2010Prop49
280
     0
102
RTVSPost2010PropOp49
 70
     1
102
RTVSPost2010Prop50
 90
       50
102
RTVSPost2010PropOp50
 70
     1
102
RTVSPost2010Prop51ColorIndex
 90
      256
102
RTVSPost2010Prop51ColorRGB
 90
-16777216
102
RTVSPost2010PropOp51
 70
     0
102
RTVSPost2010Prop52
140
1.0
102
RTVSPost2010PropOp52
 70
     0
102
RTVSPost2010Prop53
 90
        2
102
RTVSPost2010PropOp53
 70
     1
102
RTVSPost2010Prop54
  1
strokes_ogs.tif
102
RTVSPost2010PropOp54
 70
     1
102
RTVSPost2010Prop55
280
     0
102
RTVSPost2010PropOp55
 70
     1
102
RTVSPost2010Prop56
140
1.0
102
RTVSPost2010PropOp56
 70
     1
102
RTVSPost2010Prop57
140
1.0
102
RTVSPost2010PropOp57
 70
     1
102
RTVSPropertyOp0
 70
     1
102
RTVSPropertyOp1
 70
     1
102
RTVSPropertyOp2
 70
     1
102
RTVSPropertyOp3
 70
     1
102
RTVSPropertyOp4
 70
     1
102
RTVSPropertyOp5
 70
     1
102
RTVSPropertyOp6
 70
     1
102
RTVSPropertyOp7
 70
     1
102
RTVSPropertyOp8
 70
     1
102
RTVSPropertyOp9
 70
     1
102
RTVSPropertyOp10
 70
     1
102
RTVSPropertyOp11
 70
     1
102
RTVSPropertyOp12
 70
     1
102
RTVSPropertyOp13
 70
     1
102
RTVSPropertyOp14
 70
     1
102
RTVSPropertyOp15
 70
     1
102
RTVSPropertyOp16
 70
     1
102
RTVSPropertyOp17
 70
     1
102
RTVSPropertyOp18
 70
     1
102
RTVSPropertyOp19
 70
     1
102
RTVSPropertyOp20
 70
     1
102
RTVSPropertyOp21
 70
     1
102
RTVSPropertyOp22
 70
     1
102
RTVSPropertyOp23
 70
     1
102
RTVSPropertyOp24
 70
     1
102
RTVSPropertyOp25
 70
     1
102
RTVSPropertyOp26
 70
     1
102
RTVSPropertyOp27
 70
     1
102
RTVSPropertyOp28
 70
     1
102
RTVSPropertyOp29
 70
     1
102
RTVSPropertyOp30
 70
     1
102
RTVSPropertyOp31
 70
     1
102
RTVSPropertyOp32
 70
     1
102
RTVSPropertyOp33
 70
     1
102
RTVSPropertyOp34
 70
     1
102
RTVSPropertyOp35
 70
     1
102
RTVSPropertyOp36
 70
     1
102
RTVSPropertyOp37
 70
     1
102
RTVSPropertyOp38
 70
     1
102
RTVSPropertyOp39
 70
     1
102
RTVSPropertyOp40
 70
     1
102
RTVSPropertyOp41
 70
     1
102
RTVSPropertyOp42
 70
     1
102
RTVSPropertyOp43
 70
     1
102
RTVSPropertyOp44
 70
     1
102
RTVSPropertyOp45
 70
     1
102
RTVSPropertyOp46
 70
     1
102
RTVSPropertyOp47
 70
     1
102
RTVSPropertyOp48
 70
     1
102
RTVSPropertyOp49
 70
     1
102
RTVSPropertyOp50
 70
     1
102
RTVSPropertyOp51
 70
     0
102
RTVSPropertyOp52
 70
     0
102
RTVSPropertyOp53
 70
     1
102
RTVSPropertyOp54
 70
     1
102
RTVSPropertyOp55
 70
     1
102
RTVSPropertyOp56
 70
     1
102
RTVSPropertyOp57
 70
     1
102
RTVSPropertyOp58
 70
     1
102
RTVSPropertyOp59
 70
     1
102
RTVSPropertyOp60
 70
     1
102
RTVSPropertyOp61
 70
     1
102
RTVSPropertyOp62
 70
     1
  0
XRECORD
  5
C3F
102
{ACAD_REACTORS
330
C3E
102
}
330
C3E
100
AcDbXrecord
280
     1
102
RTVSPost2010Prop28
280
     0
102
RTVSPost2010PropOp28
 70
     0
102
RTVSPost2010Prop29
280
     1
102
RTVSPost2010PropOp29
 70
     0
102
RTVSPost2010Prop30
280
     1
102
RTVSPost2010PropOp30
 70
     0
102
RTVSPost2010Prop31
280
     0
102
RTVSPost2010PropOp31
 70
     0
102
RTVSPost2010Prop32
280
     0
102
RTVSPost2010PropOp32
 70
     0
102
RTVSPost2010Prop33
280
     0
102
RTVSPost2010PropOp33
 70
     0
102
RTVSPost2010Prop34
280
     0
102
RTVSPost2010PropOp34
 70
     0
102
RTVSPost2010Prop35
280
     0
102
RTVSPost2010PropOp35
 70
     0
102
RTVSPost2010Prop36
280
     0
102
RTVSPost2010PropOp36
 70
     0
102
RTVSPost2010Prop37
 90
       50
102
RTVSPost2010PropOp37
 70
     0
102
RTVSPost2010Prop38
140
0.0
102
RTVSPost2010PropOp38
 70
     0
102
RTVSPost2010Prop39
140
1.0
102
RTVSPost2010PropOp39
 70
     0
102
RTVSPost2010Prop40
 90
        0
102
RTVSPost2010PropOp40
 70
     0
102
RTVSPost2010Prop41ColorIndex
 90
       18
102
RTVSPost2010Prop41ColorRGB
 90
        0
102
RTVSPost2010PropOp41
 70
     0
102
RTVSPost2010Prop42
 90
       50
102
RTVSPost2010PropOp42
 70
     0
102
RTVSPost2010Prop43
 90
        3
102
RTVSPost2010PropOp43
 70
     0
102
RTVSPost2010Prop44ColorIndex
 90
        5
102
RTVSPost2010Prop44ColorRGB
 90
      255
102
RTVSPost2010PropOp44
 70
     0
102
RTVSPost2010Prop45
280
     0
102
RTVSPost2010PropOp45
 70
     0
102
RTVSPost2010Prop46
 90
       50
102
RTVSPost2010PropOp46
 70
     0
102
RTVSPost2010Prop47
 90
       50
102
RTVSPost2010PropOp47
 70
     0
102
RTVSPost2010Prop48
 90
       50
102
RTVSPost2010PropOp48
 70
     0
102
RTVSPost2010Prop49
280
     0
102
RTVSPost2010PropOp49
 70
     0
102
RTVSPost2010Prop50
 90
       50
102
RTVSPost2010PropOp50
 70
     0
102
RTVSPost2010Prop51ColorIndex
 90
      256
102
RTVSPost2010Prop51ColorRGB
 90
-16777216
102
RTVSPost2010PropOp51
 70
     0
102
RTVSPost2010Prop52
140
1.0
102
RTVSPost2010PropOp52
 70
     0
102
RTVSPost2010Prop53
 90
        2
102
RTVSPost2010PropOp53
 70
     0
102
RTVSPost2010Prop54
  1
strokes_ogs.tif
102
RTVSPost2010PropOp54
 70
     0
102
RTVSPost2010Prop55
280
     0
102
RTVSPost2010PropOp55
 70
     0
102
RTVSPost2010Prop56
140
1.0
102
RTVSPost2010PropOp56
 70
     0
102
RTVSPost2010Prop57
140
1.0
102
RTVSPost2010PropOp57
 70
     0
102
RTVSPropertyOp0
 70
     0
102
RTVSPropertyOp1
 70
     0
102
RTVSPropertyOp2
 70
     0
102
RTVSPropertyOp3
 70
     0
102
RTVSPropertyOp4
 70
     0
102
RTVSPropertyOp5
 70
     0
102
RTVSPropertyOp6
 70
     0
102
RTVSPropertyOp7
 70
     0
102
RTVSPropertyOp8
 70
     0
102
RTVSPropertyOp9
 70
     0
102
RTVSPropertyOp10
 70
     0
102
RTVSPropertyOp11
 70
     0
102
RTVSPropertyOp12
 70
     0
102
RTVSPropertyOp13
 70
     0
102
RTVSPropertyOp14
 70
     2
102
RTVSPropertyOp15
 70
     0
102
RTVSPropertyOp16
 70
     0
102
RTVSPropertyOp17
 70
     0
102
RTVSPropertyOp18
 70
     0
102
RTVSPropertyOp19
 70
     0
102
RTVSPropertyOp20
 70
     0
102
RTVSPropertyOp21
 70
     0
102
RTVSPropertyOp22
 70
     0
102
RTVSPropertyOp23
 70
     0
102
RTVSPropertyOp24
 70
     0
102
RTVSPropertyOp25
 70
     0
102
RTVSPropertyOp26
 70
     0
102
RTVSPropertyOp27
 70
     0
102
RTVSPropertyOp28
 70
     0
102
RTVSPropertyOp29
 70
     0
102
RTVSPropertyOp30
 70
     0
102
RTVSPropertyOp31
 70
     0
102
RTVSPropertyOp32
 70
     0
102
RTVSPropertyOp33
 70
     0
102
RTVSPropertyOp34
 70
     0
102
RTVSPropertyOp35
 70
     0
102
RTVSPropertyOp36
 70
     0
102
RTVSPropertyOp37
 70
     0
102
RTVSPropertyOp38
 70
     0
102
RTVSPropertyOp39
 70
     0
102
RTVSPropertyOp40
 70
     0
102
RTVSPropertyOp41
 70
     0
102
RTVSPropertyOp42
 70
     0
102
RTVSPropertyOp43
 70
     0
102
RTVSPropertyOp44
 70
     0
102
RTVSPropertyOp45
 70
     0
102
RTVSPropertyOp46
 70
     0
102
RTVSPropertyOp47
 70
     0
102
RTVSPropertyOp48
 70
     0
102
RTVSPropertyOp49
 70
     0
102
RTVSPropertyOp50
 70
     0
102
RTVSPropertyOp51
 70
     0
102
RTVSPropertyOp52
 70
     0
102
RTVSPropertyOp53
 70
     0
102
RTVSPropertyOp54
 70
     0
102
RTVSPropertyOp55
 70
     0
102
RTVSPropertyOp56
 70
     0
102
RTVSPropertyOp57
 70
     0
102
RTVSPropertyOp58
 70
     1
102
RTVSPropertyOp59
 70
     1
102
RTVSPropertyOp60
 70
     1
102
RTVSPropertyOp61
 70
     1
102
RTVSPropertyOp62
 70
     1
  0
XRECORD
  5
C39
102
{ACAD_REACTORS
330
C38
102
}
330
C38
100
AcDbXrecord
280
     1
102
RTVSPost2010Prop28
280
     0
102
RTVSPost2010PropOp28
 70
     1
102
RTVSPost2010Prop29
280
     1
102
RTVSPost2010PropOp29
 70
     1
102
RTVSPost2010Prop30
280
     1
102
RTVSPost2010PropOp30
 70
     1
102
RTVSPost2010Prop31
280
     0
102
RTVSPost2010PropOp31
 70
     1
102
RTVSPost2010Prop32
280
     0
102
RTVSPost2010PropOp32
 70
     1
102
RTVSPost2010Prop33
280
     0
102
RTVSPost2010PropOp33
 70
     1
102
RTVSPost2010Prop34
280
     0
102
RTVSPost2010PropOp34
 70
     1
102
RTVSPost2010Prop35
280
     0
102
RTVSPost2010PropOp35
 70
     1
102
RTVSPost2010Prop36
280
     0
102
RTVSPost2010PropOp36
 70
     1
102
RTVSPost2010Prop37
 90
       50
102
RTVSPost2010PropOp37
 70
     1
102
RTVSPost2010Prop38
140
0.0
102
RTVSPost2010PropOp38
 70
     1
102
RTVSPost2010Prop39
140
1.0
102
RTVSPost2010PropOp39
 70
     1
102
RTVSPost2010Prop40
 90
        0
102
RTVSPost2010PropOp40
 70
     1
102
RTVSPost2010Prop41ColorIndex
 90
       18
102
RTVSPost2010Prop41ColorRGB
 90
        0
102
RTVSPost2010PropOp41
 70
     1
102
RTVSPost2010Prop42
 90
       50
102
RTVSPost2010PropOp42
 70
     1
102
RTVSPost2010Prop43
 90
        3
102
RTVSPost2010PropOp43
 70
     1
102
RTVSPost2010Prop44ColorIndex
 90
        5
102
RTVSPost2010Prop44ColorRGB
 90
      255
102
RTVSPost2010PropOp44
 70
     1
102
RTVSPost2010Prop45
280
     0
102
RTVSPost2010PropOp45
 70
     1
102
RTVSPost2010Prop46
 90
       50
102
RTVSPost2010PropOp46
 70
     1
102
RTVSPost2010Prop47
 90
       50
102
RTVSPost2010PropOp47
 70
     1
102
RTVSPost2010Prop48
 90
       50
102
RTVSPost2010PropOp48
 70
     1
102
RTVSPost2010Prop49
280
     0
102
RTVSPost2010PropOp49
 70
     1
102
RTVSPost2010Prop50
 90
       50
102
RTVSPost2010PropOp50
 70
     1
102
RTVSPost2010Prop51ColorIndex
 90
      256
102
RTVSPost2010Prop51ColorRGB
 90
-16777216
102
RTVSPost2010PropOp51
 70
     0
102
RTVSPost2010Prop52
140
1.0
102
RTVSPost2010PropOp52
 70
     0
102
RTVSPost2010Prop53
 90
        2
102
RTVSPost2010PropOp53
 70
     1
102
RTVSPost2010Prop54
  1
strokes_ogs.tif
102
RTVSPost2010PropOp54
 70
     1
102
RTVSPost2010Prop55
280
     0
102
RTVSPost2010PropOp55
 70
     1
102
RTVSPost2010Prop56
140
1.0
102
RTVSPost2010PropOp56
 70
     1
102
RTVSPost2010Prop57
140
1.0
102
RTVSPost2010PropOp57
 70
     1
102
RTVSPropertyOp0
 70
     1
102
RTVSPropertyOp1
 70
     1
102
RTVSPropertyOp2
 70
     1
102
RTVSPropertyOp3
 70
     1
102
RTVSPropertyOp4
 70
     1
102
RTVSPropertyOp5
 70
     1
102
RTVSPropertyOp6
 70
     1
102
RTVSPropertyOp7
 70
     1
102
RTVSPropertyOp8
 70
     1
102
RTVSPropertyOp9
 70
     1
102
RTVSPropertyOp10
 70
     1
102
RTVSPropertyOp11
 70
     1
102
RTVSPropertyOp12
 70
     1
102
RTVSPropertyOp13
 70
     1
102
RTVSPropertyOp14
 70
     1
102
RTVSPropertyOp15
 70
     1
102
RTVSPropertyOp16
 70
     1
102
RTVSPropertyOp17
 70
     1
102
RTVSPropertyOp18
 70
     1
102
RTVSPropertyOp19
 70
     1
102
RTVSPropertyOp20
 70
     1
102
RTVSPropertyOp21
 70
     1
102
RTVSPropertyOp22
 70
     1
102
RTVSPropertyOp23
 70
     1
102
RTVSPropertyOp24
 70
     1
102
RTVSPropertyOp25
 70
     1
102
RTVSPropertyOp26
 70
     1
102
RTVSPropertyOp27
 70
     1
102
RTVSPropertyOp28
 70
     1
102
RTVSPropertyOp29
 70
     1
102
RTVSPropertyOp30
 70
     1
102
RTVSPropertyOp31
 70
     1
102
RTVSPropertyOp32
 70
     1
102
RTVSPropertyOp33
 70
     1
102
RTVSPropertyOp34
 70
     1
102
RTVSPropertyOp35
 70
     1
102
RTVSPropertyOp36
 70
     1
102
RTVSPropertyOp37
 70
     1
102
RTVSPropertyOp38
 70
     1
102
RTVSPropertyOp39
 70
     1
102
RTVSPropertyOp40
 70
     1
102
RTVSPropertyOp41
 70
     1
102
RTVSPropertyOp42
 70
     1
102
RTVSPropertyOp43
 70
     1
102
RTVSPropertyOp44
 70
     1
102
RTVSPropertyOp45
 70
     1
102
RTVSPropertyOp46
 70
     1
102
RTVSPropertyOp47
 70
     1
102
RTVSPropertyOp48
 70
     1
102
RTVSPropertyOp49
 70
     1
102
RTVSPropertyOp50
 70
     1
102
RTVSPropertyOp51
 70
     0
102
RTVSPropertyOp52
 70
     0
102
RTVSPropertyOp53
 70
     1
102
RTVSPropertyOp54
 70
     1
102
RTVSPropertyOp55
 70
     1
102
RTVSPropertyOp56
 70
     1
102
RTVSPropertyOp57
 70
     1
102
RTVSPropertyOp58
 70
     1
102
RTVSPropertyOp59
 70
     1
102
RTVSPropertyOp60
 70
     1
102
RTVSPropertyOp61
 70
     1
102
RTVSPropertyOp62
 70
     1
  0
XRECORD
  5
C41
102
{ACAD_REACTORS
330
C40
102
}
330
C40
100
AcDbXrecord
280
     1
102
RTVSPost2010Prop28
280
     0
102
RTVSPost2010PropOp28
 70
     0
102
RTVSPost2010Prop29
280
     1
102
RTVSPost2010PropOp29
 70
     0
102
RTVSPost2010Prop30
280
     1
102
RTVSPost2010PropOp30
 70
     0
102
RTVSPost2010Prop31
280
     0
102
RTVSPost2010PropOp31
 70
     0
102
RTVSPost2010Prop32
280
     0
102
RTVSPost2010PropOp32
 70
     0
102
RTVSPost2010Prop33
280
     0
102
RTVSPost2010PropOp33
 70
     0
102
RTVSPost2010Prop34
280
     0
102
RTVSPost2010PropOp34
 70
     0
102
RTVSPost2010Prop35
280
     0
102
RTVSPost2010PropOp35
 70
     0
102
RTVSPost2010Prop36
280
     0
102
RTVSPost2010PropOp36
 70
     0
102
RTVSPost2010Prop37
 90
       50
102
RTVSPost2010PropOp37
 70
     0
102
RTVSPost2010Prop38
140
0.0
102
RTVSPost2010PropOp38
 70
     0
102
RTVSPost2010Prop39
140
1.0
102
RTVSPost2010PropOp39
 70
     0
102
RTVSPost2010Prop40
 90
        0
102
RTVSPost2010PropOp40
 70
     0
102
RTVSPost2010Prop41ColorIndex
 90
       18
102
RTVSPost2010Prop41ColorRGB
 90
        0
102
RTVSPost2010PropOp41
 70
     0
102
RTVSPost2010Prop42
 90
       50
102
RTVSPost2010PropOp42
 70
     0
102
RTVSPost2010Prop43
 90
        3
102
RTVSPost2010PropOp43
 70
     0
102
RTVSPost2010Prop44ColorIndex
 90
        5
102
RTVSPost2010Prop44ColorRGB
 90
      255
102
RTVSPost2010PropOp44
 70
     0
102
RTVSPost2010Prop45
280
     0
102
RTVSPost2010PropOp45
 70
     0
102
RTVSPost2010Prop46
 90
       50
102
RTVSPost2010PropOp46
 70
     0
102
RTVSPost2010Prop47
 90
       50
102
RTVSPost2010PropOp47
 70
     0
102
RTVSPost2010Prop48
 90
       50
102
RTVSPost2010PropOp48
 70
     0
102
RTVSPost2010Prop49
280
     0
102
RTVSPost2010PropOp49
 70
     0
102
RTVSPost2010Prop50
 90
       50
102
RTVSPost2010PropOp50
 70
     0
102
RTVSPost2010Prop51ColorIndex
 90
      256
102
RTVSPost2010Prop51ColorRGB
 90
-16777216
102
RTVSPost2010PropOp51
 70
     0
102
RTVSPost2010Prop52
140
1.0
102
RTVSPost2010PropOp52
 70
     0
102
RTVSPost2010Prop53
 90
        2
102
RTVSPost2010PropOp53
 70
     0
102
RTVSPost2010Prop54
  1
strokes_ogs.tif
102
RTVSPost2010PropOp54
 70
     0
102
RTVSPost2010Prop55
280
     0
102
RTVSPost2010PropOp55
 70
     0
102
RTVSPost2010Prop56
140
1.0
102
RTVSPost2010PropOp56
 70
     0
102
RTVSPost2010Prop57
140
1.0
102
RTVSPost2010PropOp57
 70
     0
102
RTVSPropertyOp0
 70
     0
102
RTVSPropertyOp1
 70
     0
102
RTVSPropertyOp2
 70
     0
102
RTVSPropertyOp3
 70
     0
102
RTVSPropertyOp4
 70
     0
102
RTVSPropertyOp5
 70
     0
102
RTVSPropertyOp6
 70
     0
102
RTVSPropertyOp7
 70
     0
102
RTVSPropertyOp8
 70
     0
102
RTVSPropertyOp9
 70
     0
102
RTVSPropertyOp10
 70
     0
102
RTVSPropertyOp11
 70
     0
102
RTVSPropertyOp12
 70
     0
102
RTVSPropertyOp13
 70
     0
102
RTVSPropertyOp14
 70
     2
102
RTVSPropertyOp15
 70
     0
102
RTVSPropertyOp16
 70
     0
102
RTVSPropertyOp17
 70
     0
102
RTVSPropertyOp18
 70
     0
102
RTVSPropertyOp19
 70
     0
102
RTVSPropertyOp20
 70
     0
102
RTVSPropertyOp21
 70
     0
102
RTVSPropertyOp22
 70
     0
102
RTVSPropertyOp23
 70
     0
102
RTVSPropertyOp24
 70
     0
102
RTVSPropertyOp25
 70
     0
102
RTVSPropertyOp26
 70
     0
102
RTVSPropertyOp27
 70
     0
102
RTVSPropertyOp28
 70
     0
102
RTVSPropertyOp29
 70
     0
102
RTVSPropertyOp30
 70
     0
102
RTVSPropertyOp31
 70
     0
102
RTVSPropertyOp32
 70
     0
102
RTVSPropertyOp33
 70
     0
102
RTVSPropertyOp34
 70
     0
102
RTVSPropertyOp35
 70
     0
102
RTVSPropertyOp36
 70
     0
102
RTVSPropertyOp37
 70
     0
102
RTVSPropertyOp38
 70
     0
102
RTVSPropertyOp39
 70
     0
102
RTVSPropertyOp40
 70
     0
102
RTVSPropertyOp41
 70
     0
102
RTVSPropertyOp42
 70
     0
102
RTVSPropertyOp43
 70
     0
102
RTVSPropertyOp44
 70
     0
102
RTVSPropertyOp45
 70
     0
102
RTVSPropertyOp46
 70
     0
102
RTVSPropertyOp47
 70
     0
102
RTVSPropertyOp48
 70
     0
102
RTVSPropertyOp49
 70
     0
102
RTVSPropertyOp50
 70
     0
102
RTVSPropertyOp51
 70
     0
102
RTVSPropertyOp52
 70
     0
102
RTVSPropertyOp53
 70
     0
102
RTVSPropertyOp54
 70
     0
102
RTVSPropertyOp55
 70
     0
102
RTVSPropertyOp56
 70
     0
102
RTVSPropertyOp57
 70
     0
102
RTVSPropertyOp58
 70
     1
102
RTVSPropertyOp59
 70
     1
102
RTVSPropertyOp60
 70
     1
102
RTVSPropertyOp61
 70
     1
102
RTVSPropertyOp62
 70
     1
  0
XRECORD
  5
C2F
102
{ACAD_REACTORS
330
C2E
102
}
330
C2E
100
AcDbXrecord
280
     1
102
RTVSPost2010Prop28
280
     0
102
RTVSPost2010PropOp28
 70
     1
102
RTVSPost2010Prop29
280
     1
102
RTVSPost2010PropOp29
 70
     1
102
RTVSPost2010Prop30
280
     1
102
RTVSPost2010PropOp30
 70
     1
102
RTVSPost2010Prop31
280
     0
102
RTVSPost2010PropOp31
 70
     1
102
RTVSPost2010Prop32
280
     0
102
RTVSPost2010PropOp32
 70
     1
102
RTVSPost2010Prop33
280
     0
102
RTVSPost2010PropOp33
 70
     1
102
RTVSPost2010Prop34
280
     0
102
RTVSPost2010PropOp34
 70
     1
102
RTVSPost2010Prop35
280
     0
102
RTVSPost2010PropOp35
 70
     1
102
RTVSPost2010Prop36
280
     0
102
RTVSPost2010PropOp36
 70
     1
102
RTVSPost2010Prop37
 90
       50
102
RTVSPost2010PropOp37
 70
     1
102
RTVSPost2010Prop38
140
0.0
102
RTVSPost2010PropOp38
 70
     1
102
RTVSPost2010Prop39
140
1.0
102
RTVSPost2010PropOp39
 70
     1
102
RTVSPost2010Prop40
 90
        0
102
RTVSPost2010PropOp40
 70
     1
102
RTVSPost2010Prop41ColorIndex
 90
       18
102
RTVSPost2010Prop41ColorRGB
 90
        0
102
RTVSPost2010PropOp41
 70
     1
102
RTVSPost2010Prop42
 90
       50
102
RTVSPost2010PropOp42
 70
     1
102
RTVSPost2010Prop43
 90
        3
102
RTVSPost2010PropOp43
 70
     1
102
RTVSPost2010Prop44ColorIndex
 90
        5
102
RTVSPost2010Prop44ColorRGB
 90
      255
102
RTVSPost2010PropOp44
 70
     1
102
RTVSPost2010Prop45
280
     0
102
RTVSPost2010PropOp45
 70
     1
102
RTVSPost2010Prop46
 90
       50
102
RTVSPost2010PropOp46
 70
     1
102
RTVSPost2010Prop47
 90
       50
102
RTVSPost2010PropOp47
 70
     1
102
RTVSPost2010Prop48
 90
       50
102
RTVSPost2010PropOp48
 70
     1
102
RTVSPost2010Prop49
280
     0
102
RTVSPost2010PropOp49
 70
     1
102
RTVSPost2010Prop50
 90
       50
102
RTVSPost2010PropOp50
 70
     1
102
RTVSPost2010Prop51ColorIndex
 90
      256
102
RTVSPost2010Prop51ColorRGB
 90
-16777216
102
RTVSPost2010PropOp51
 70
     0
102
RTVSPost2010Prop52
140
1.0
102
RTVSPost2010PropOp52
 70
     0
102
RTVSPost2010Prop53
 90
        2
102
RTVSPost2010PropOp53
 70
     1
102
RTVSPost2010Prop54
  1
strokes_ogs.tif
102
RTVSPost2010PropOp54
 70
     1
102
RTVSPost2010Prop55
280
     0
102
RTVSPost2010PropOp55
 70
     1
102
RTVSPost2010Prop56
140
1.0
102
RTVSPost2010PropOp56
 70
     1
102
RTVSPost2010Prop57
140
1.0
102
RTVSPost2010PropOp57
 70
     1
102
RTVSPropertyOp0
 70
     1
102
RTVSPropertyOp1
 70
     1
102
RTVSPropertyOp2
 70
     1
102
RTVSPropertyOp3
 70
     1
102
RTVSPropertyOp4
 70
     1
102
RTVSPropertyOp5
 70
     1
102
RTVSPropertyOp6
 70
     1
102
RTVSPropertyOp7
 70
     1
102
RTVSPropertyOp8
 70
     1
102
RTVSPropertyOp9
 70
     1
102
RTVSPropertyOp10
 70
     1
102
RTVSPropertyOp11
 70
     1
102
RTVSPropertyOp12
 70
     1
102
RTVSPropertyOp13
 70
     1
102
RTVSPropertyOp14
 70
     1
102
RTVSPropertyOp15
 70
     1
102
RTVSPropertyOp16
 70
     1
102
RTVSPropertyOp17
 70
     1
102
RTVSPropertyOp18
 70
     1
102
RTVSPropertyOp19
 70
     1
102
RTVSPropertyOp20
 70
     1
102
RTVSPropertyOp21
 70
     1
102
RTVSPropertyOp22
 70
     1
102
RTVSPropertyOp23
 70
     1
102
RTVSPropertyOp24
 70
     1
102
RTVSPropertyOp25
 70
     1
102
RTVSPropertyOp26
 70
     1
102
RTVSPropertyOp27
 70
     1
102
RTVSPropertyOp28
 70
     1
102
RTVSPropertyOp29
 70
     1
102
RTVSPropertyOp30
 70
     1
102
RTVSPropertyOp31
 70
     1
102
RTVSPropertyOp32
 70
     1
102
RTVSPropertyOp33
 70
     1
102
RTVSPropertyOp34
 70
     1
102
RTVSPropertyOp35
 70
     1
102
RTVSPropertyOp36
 70
     1
102
RTVSPropertyOp37
 70
     1
102
RTVSPropertyOp38
 70
     1
102
RTVSPropertyOp39
 70
     1
102
RTVSPropertyOp40
 70
     1
102
RTVSPropertyOp41
 70
     1
102
RTVSPropertyOp42
 70
     1
102
RTVSPropertyOp43
 70
     1
102
RTVSPropertyOp44
 70
     1
102
RTVSPropertyOp45
 70
     1
102
RTVSPropertyOp46
 70
     1
102
RTVSPropertyOp47
 70
     1
102
RTVSPropertyOp48
 70
     1
102
RTVSPropertyOp49
 70
     1
102
RTVSPropertyOp50
 70
     1
102
RTVSPropertyOp51
 70
     0
102
RTVSPropertyOp52
 70
     0
102
RTVSPropertyOp53
 70
     1
102
RTVSPropertyOp54
 70
     1
102
RTVSPropertyOp55
 70
     1
102
RTVSPropertyOp56
 70
     1
102
RTVSPropertyOp57
 70
     1
102
RTVSPropertyOp58
 70
     1
102
RTVSPropertyOp59
 70
     1
102
RTVSPropertyOp60
 70
     1
102
RTVSPropertyOp61
 70
     1
102
RTVSPropertyOp62
 70
     1
  0
XRECORD
  5
C4D
102
{ACAD_REACTORS
330
C4C
102
}
330
C4C
100
AcDbXrecord
280
     1
102
RTVSPost2010Prop28
280
     0
102
RTVSPost2010PropOp28
 70
     1
102
RTVSPost2010Prop29
280
     1
102
RTVSPost2010PropOp29
 70
     1
102
RTVSPost2010Prop30
280
     1
102
RTVSPost2010PropOp30
 70
     1
102
RTVSPost2010Prop31
280
     0
102
RTVSPost2010PropOp31
 70
     1
102
RTVSPost2010Prop32
280
     0
102
RTVSPost2010PropOp32
 70
     1
102
RTVSPost2010Prop33
280
     0
102
RTVSPost2010PropOp33
 70
     1
102
RTVSPost2010Prop34
280
     0
102
RTVSPost2010PropOp34
 70
     1
102
RTVSPost2010Prop35
280
     0
102
RTVSPost2010PropOp35
 70
     1
102
RTVSPost2010Prop36
280
     0
102
RTVSPost2010PropOp36
 70
     1
102
RTVSPost2010Prop37
 90
       50
102
RTVSPost2010PropOp37
 70
     1
102
RTVSPost2010Prop38
140
0.0
102
RTVSPost2010PropOp38
 70
     1
102
RTVSPost2010Prop39
140
1.0
102
RTVSPost2010PropOp39
 70
     1
102
RTVSPost2010Prop40
 90
        0
102
RTVSPost2010PropOp40
 70
     1
102
RTVSPost2010Prop41ColorIndex
 90
       18
102
RTVSPost2010Prop41ColorRGB
 90
        0
102
RTVSPost2010PropOp41
 70
     1
102
RTVSPost2010Prop42
 90
       50
102
RTVSPost2010PropOp42
 70
     1
102
RTVSPost2010Prop43
 90
        3
102
RTVSPost2010PropOp43
 70
     1
102
RTVSPost2010Prop44ColorIndex
 90
        5
102
RTVSPost2010Prop44ColorRGB
 90
      255
102
RTVSPost2010PropOp44
 70
     1
102
RTVSPost2010Prop45
280
     0
102
RTVSPost2010PropOp45
 70
     1
102
RTVSPost2010Prop46
 90
       50
102
RTVSPost2010PropOp46
 70
     1
102
RTVSPost2010Prop47
 90
       50
102
RTVSPost2010PropOp47
 70
     1
102
RTVSPost2010Prop48
 90
       50
102
RTVSPost2010PropOp48
 70
     1
102
RTVSPost2010Prop49
280
     0
102
RTVSPost2010PropOp49
 70
     1
102
RTVSPost2010Prop50
 90
       50
102
RTVSPost2010PropOp50
 70
     1
102
RTVSPost2010Prop51ColorIndex
 90
      256
102
RTVSPost2010Prop51ColorRGB
 90
-16777216
102
RTVSPost2010PropOp51
 70
     0
102
RTVSPost2010Prop52
140
1.0
102
RTVSPost2010PropOp52
 70
     0
102
RTVSPost2010Prop53
 90
        2
102
RTVSPost2010PropOp53
 70
     1
102
RTVSPost2010Prop54
  1
strokes_ogs.tif
102
RTVSPost2010PropOp54
 70
     1
102
RTVSPost2010Prop55
280
     0
102
RTVSPost2010PropOp55
 70
     1
102
RTVSPost2010Prop56
140
1.0
102
RTVSPost2010PropOp56
 70
     1
102
RTVSPost2010Prop57
140
1.0
102
RTVSPost2010PropOp57
 70
     1
102
RTVSPropertyOp0
 70
     1
102
RTVSPropertyOp1
 70
     1
102
RTVSPropertyOp2
 70
     1
102
RTVSPropertyOp3
 70
     1
102
RTVSPropertyOp4
 70
     1
102
RTVSPropertyOp5
 70
     1
102
RTVSPropertyOp6
 70
     1
102
RTVSPropertyOp7
 70
     1
102
RTVSPropertyOp8
 70
     1
102
RTVSPropertyOp9
 70
     1
102
RTVSPropertyOp10
 70
     1
102
RTVSPropertyOp11
 70
     1
102
RTVSPropertyOp12
 70
     1
102
RTVSPropertyOp13
 70
     1
102
RTVSPropertyOp14
 70
     1
102
RTVSPropertyOp15
 70
     1
102
RTVSPropertyOp16
 70
     1
102
RTVSPropertyOp17
 70
     1
102
RTVSPropertyOp18
 70
     1
102
RTVSPropertyOp19
 70
     1
102
RTVSPropertyOp20
 70
     1
102
RTVSPropertyOp21
 70
     1
102
RTVSPropertyOp22
 70
     1
102
RTVSPropertyOp23
 70
     1
102
RTVSPropertyOp24
 70
     1
102
RTVSPropertyOp25
 70
     1
102
RTVSPropertyOp26
 70
     1
102
RTVSPropertyOp27
 70
     1
102
RTVSPropertyOp28
 70
     1
102
RTVSPropertyOp29
 70
     1
102
RTVSPropertyOp30
 70
     1
102
RTVSPropertyOp31
 70
     1
102
RTVSPropertyOp32
 70
     1
102
RTVSPropertyOp33
 70
     1
102
RTVSPropertyOp34
 70
     1
102
RTVSPropertyOp35
 70
     1
102
RTVSPropertyOp36
 70
     1
102
RTVSPropertyOp37
 70
     1
102
RTVSPropertyOp38
 70
     1
102
RTVSPropertyOp39
 70
     1
102
RTVSPropertyOp40
 70
     1
102
RTVSPropertyOp41
 70
     1
102
RTVSPropertyOp42
 70
     1
102
RTVSPropertyOp43
 70
     1
102
RTVSPropertyOp44
 70
     1
102
RTVSPropertyOp45
 70
     1
102
RTVSPropertyOp46
 70
     1
102
RTVSPropertyOp47
 70
     1
102
RTVSPropertyOp48
 70
     1
102
RTVSPropertyOp49
 70
     1
102
RTVSPropertyOp50
 70
     1
102
RTVSPropertyOp51
 70
     0
102
RTVSPropertyOp52
 70
     0
102
RTVSPropertyOp53
 70
     1
102
RTVSPropertyOp54
 70
     1
102
RTVSPropertyOp55
 70
     1
102
RTVSPropertyOp56
 70
     1
102
RTVSPropertyOp57
 70
     1
102
RTVSPropertyOp58
 70
     1
102
RTVSPropertyOp59
 70
     1
102
RTVSPropertyOp60
 70
     1
102
RTVSPropertyOp61
 70
     1
102
RTVSPropertyOp62
 70
     1
  0
XRECORD
  5
C4B
102
{ACAD_REACTORS
330
C4A
102
}
330
C4A
100
AcDbXrecord
280
     1
102
RTVSPost2010Prop28
280
     0
102
RTVSPost2010PropOp28
 70
     1
102
RTVSPost2010Prop29
280
     1
102
RTVSPost2010PropOp29
 70
     1
102
RTVSPost2010Prop30
280
     1
102
RTVSPost2010PropOp30
 70
     1
102
RTVSPost2010Prop31
280
     0
102
RTVSPost2010PropOp31
 70
     1
102
RTVSPost2010Prop32
280
     0
102
RTVSPost2010PropOp32
 70
     1
102
RTVSPost2010Prop33
280
     0
102
RTVSPost2010PropOp33
 70
     1
102
RTVSPost2010Prop34
280
     0
102
RTVSPost2010PropOp34
 70
     1
102
RTVSPost2010Prop35
280
     0
102
RTVSPost2010PropOp35
 70
     1
102
RTVSPost2010Prop36
280
     0
102
RTVSPost2010PropOp36
 70
     1
102
RTVSPost2010Prop37
 90
       50
102
RTVSPost2010PropOp37
 70
     1
102
RTVSPost2010Prop38
140
0.0
102
RTVSPost2010PropOp38
 70
     1
102
RTVSPost2010Prop39
140
1.0
102
RTVSPost2010PropOp39
 70
     1
102
RTVSPost2010Prop40
 90
        0
102
RTVSPost2010PropOp40
 70
     1
102
RTVSPost2010Prop41ColorIndex
 90
       18
102
RTVSPost2010Prop41ColorRGB
 90
        0
102
RTVSPost2010PropOp41
 70
     1
102
RTVSPost2010Prop42
 90
       50
102
RTVSPost2010PropOp42
 70
     1
102
RTVSPost2010Prop43
 90
        3
102
RTVSPost2010PropOp43
 70
     1
102
RTVSPost2010Prop44ColorIndex
 90
        5
102
RTVSPost2010Prop44ColorRGB
 90
      255
102
RTVSPost2010PropOp44
 70
     1
102
RTVSPost2010Prop45
280
     0
102
RTVSPost2010PropOp45
 70
     1
102
RTVSPost2010Prop46
 90
       50
102
RTVSPost2010PropOp46
 70
     1
102
RTVSPost2010Prop47
 90
       50
102
RTVSPost2010PropOp47
 70
     1
102
RTVSPost2010Prop48
 90
       50
102
RTVSPost2010PropOp48
 70
     1
102
RTVSPost2010Prop49
280
     0
102
RTVSPost2010PropOp49
 70
     1
102
RTVSPost2010Prop50
 90
       50
102
RTVSPost2010PropOp50
 70
     1
102
RTVSPost2010Prop51ColorIndex
 90
      256
102
RTVSPost2010Prop51ColorRGB
 90
-16777216
102
RTVSPost2010PropOp51
 70
     0
102
RTVSPost2010Prop52
140
1.0
102
RTVSPost2010PropOp52
 70
     0
102
RTVSPost2010Prop53
 90
        2
102
RTVSPost2010PropOp53
 70
     1
102
RTVSPost2010Prop54
  1
strokes_ogs.tif
102
RTVSPost2010PropOp54
 70
     1
102
RTVSPost2010Prop55
280
     0
102
RTVSPost2010PropOp55
 70
     1
102
RTVSPost2010Prop56
140
1.0
102
RTVSPost2010PropOp56
 70
     1
102
RTVSPost2010Prop57
140
1.0
102
RTVSPost2010PropOp57
 70
     1
102
RTVSPropertyOp0
 70
     1
102
RTVSPropertyOp1
 70
     1
102
RTVSPropertyOp2
 70
     1
102
RTVSPropertyOp3
 70
     1
102
RTVSPropertyOp4
 70
     1
102
RTVSPropertyOp5
 70
     1
102
RTVSPropertyOp6
 70
     1
102
RTVSPropertyOp7
 70
     1
102
RTVSPropertyOp8
 70
     1
102
RTVSPropertyOp9
 70
     1
102
RTVSPropertyOp10
 70
     1
102
RTVSPropertyOp11
 70
     1
102
RTVSPropertyOp12
 70
     1
102
RTVSPropertyOp13
 70
     1
102
RTVSPropertyOp14
 70
     1
102
RTVSPropertyOp15
 70
     1
102
RTVSPropertyOp16
 70
     1
102
RTVSPropertyOp17
 70
     1
102
RTVSPropertyOp18
 70
     1
102
RTVSPropertyOp19
 70
     1
102
RTVSPropertyOp20
 70
     1
102
RTVSPropertyOp21
 70
     1
102
RTVSPropertyOp22
 70
     1
102
RTVSPropertyOp23
 70
     1
102
RTVSPropertyOp24
 70
     1
102
RTVSPropertyOp25
 70
     1
102
RTVSPropertyOp26
 70
     1
102
RTVSPropertyOp27
 70
     1
102
RTVSPropertyOp28
 70
     1
102
RTVSPropertyOp29
 70
     1
102
RTVSPropertyOp30
 70
     1
102
RTVSPropertyOp31
 70
     1
102
RTVSPropertyOp32
 70
     1
102
RTVSPropertyOp33
 70
     1
102
RTVSPropertyOp34
 70
     1
102
RTVSPropertyOp35
 70
     1
102
RTVSPropertyOp36
 70
     1
102
RTVSPropertyOp37
 70
     1
102
RTVSPropertyOp38
 70
     1
102
RTVSPropertyOp39
 70
     1
102
RTVSPropertyOp40
 70
     1
102
RTVSPropertyOp41
 70
     1
102
RTVSPropertyOp42
 70
     1
102
RTVSPropertyOp43
 70
     1
102
RTVSPropertyOp44
 70
     1
102
RTVSPropertyOp45
 70
     1
102
RTVSPropertyOp46
 70
     1
102
RTVSPropertyOp47
 70
     1
102
RTVSPropertyOp48
 70
     1
102
RTVSPropertyOp49
 70
     1
102
RTVSPropertyOp50
 70
     1
102
RTVSPropertyOp51
 70
     0
102
RTVSPropertyOp52
 70
     0
102
RTVSPropertyOp53
 70
     1
102
RTVSPropertyOp54
 70
     1
102
RTVSPropertyOp55
 70
     1
102
RTVSPropertyOp56
 70
     1
102
RTVSPropertyOp57
 70
     1
102
RTVSPropertyOp58
 70
     1
102
RTVSPropertyOp59
 70
     1
102
RTVSPropertyOp60
 70
     1
102
RTVSPropertyOp61
 70
     1
102
RTVSPropertyOp62
 70
     1
  0
XRECORD
  5
C45
102
{ACAD_REACTORS
330
C44
102
}
330
C44
100
AcDbXrecord
280
     1
102
RTVSPost2010Prop28
280
     0
102
RTVSPost2010PropOp28
 70
     1
102
RTVSPost2010Prop29
280
     1
102
RTVSPost2010PropOp29
 70
     1
102
RTVSPost2010Prop30
280
     1
102
RTVSPost2010PropOp30
 70
     1
102
RTVSPost2010Prop31
280
     0
102
RTVSPost2010PropOp31
 70
     1
102
RTVSPost2010Prop32
280
     0
102
RTVSPost2010PropOp32
 70
     1
102
RTVSPost2010Prop33
280
     0
102
RTVSPost2010PropOp33
 70
     1
102
RTVSPost2010Prop34
280
     0
102
RTVSPost2010PropOp34
 70
     1
102
RTVSPost2010Prop35
280
     0
102
RTVSPost2010PropOp35
 70
     1
102
RTVSPost2010Prop36
280
     0
102
RTVSPost2010PropOp36
 70
     1
102
RTVSPost2010Prop37
 90
       50
102
RTVSPost2010PropOp37
 70
     1
102
RTVSPost2010Prop38
140
0.0
102
RTVSPost2010PropOp38
 70
     1
102
RTVSPost2010Prop39
140
1.0
102
RTVSPost2010PropOp39
 70
     1
102
RTVSPost2010Prop40
 90
        0
102
RTVSPost2010PropOp40
 70
     1
102
RTVSPost2010Prop41ColorIndex
 90
       18
102
RTVSPost2010Prop41ColorRGB
 90
        0
102
RTVSPost2010PropOp41
 70
     1
102
RTVSPost2010Prop42
 90
       50
102
RTVSPost2010PropOp42
 70
     1
102
RTVSPost2010Prop43
 90
        3
102
RTVSPost2010PropOp43
 70
     1
102
RTVSPost2010Prop44ColorIndex
 90
        5
102
RTVSPost2010Prop44ColorRGB
 90
      255
102
RTVSPost2010PropOp44
 70
     1
102
RTVSPost2010Prop45
280
     0
102
RTVSPost2010PropOp45
 70
     1
102
RTVSPost2010Prop46
 90
       50
102
RTVSPost2010PropOp46
 70
     1
102
RTVSPost2010Prop47
 90
       50
102
RTVSPost2010PropOp47
 70
     1
102
RTVSPost2010Prop48
 90
       50
102
RTVSPost2010PropOp48
 70
     1
102
RTVSPost2010Prop49
280
     0
102
RTVSPost2010PropOp49
 70
     1
102
RTVSPost2010Prop50
 90
       50
102
RTVSPost2010PropOp50
 70
     1
102
RTVSPost2010Prop51ColorIndex
 90
      256
102
RTVSPost2010Prop51ColorRGB
 90
-16777216
102
RTVSPost2010PropOp51
 70
     0
102
RTVSPost2010Prop52
140
1.0
102
RTVSPost2010PropOp52
 70
     0
102
RTVSPost2010Prop53
 90
        2
102
RTVSPost2010PropOp53
 70
     1
102
RTVSPost2010Prop54
  1
strokes_ogs.tif
102
RTVSPost2010PropOp54
 70
     1
102
RTVSPost2010Prop55
280
     0
102
RTVSPost2010PropOp55
 70
     1
102
RTVSPost2010Prop56
140
1.0
102
RTVSPost2010PropOp56
 70
     1
102
RTVSPost2010Prop57
140
1.0
102
RTVSPost2010PropOp57
 70
     1
102
RTVSPropertyOp0
 70
     1
102
RTVSPropertyOp1
 70
     1
102
RTVSPropertyOp2
 70
     1
102
RTVSPropertyOp3
 70
     1
102
RTVSPropertyOp4
 70
     1
102
RTVSPropertyOp5
 70
     1
102
RTVSPropertyOp6
 70
     1
102
RTVSPropertyOp7
 70
     1
102
RTVSPropertyOp8
 70
     1
102
RTVSPropertyOp9
 70
     1
102
RTVSPropertyOp10
 70
     1
102
RTVSPropertyOp11
 70
     1
102
RTVSPropertyOp12
 70
     1
102
RTVSPropertyOp13
 70
     1
102
RTVSPropertyOp14
 70
     1
102
RTVSPropertyOp15
 70
     1
102
RTVSPropertyOp16
 70
     1
102
RTVSPropertyOp17
 70
     1
102
RTVSPropertyOp18
 70
     1
102
RTVSPropertyOp19
 70
     1
102
RTVSPropertyOp20
 70
     1
102
RTVSPropertyOp21
 70
     1
102
RTVSPropertyOp22
 70
     1
102
RTVSPropertyOp23
 70
     1
102
RTVSPropertyOp24
 70
     1
102
RTVSPropertyOp25
 70
     1
102
RTVSPropertyOp26
 70
     1
102
RTVSPropertyOp27
 70
     1
102
RTVSPropertyOp28
 70
     1
102
RTVSPropertyOp29
 70
     1
102
RTVSPropertyOp30
 70
     1
102
RTVSPropertyOp31
 70
     1
102
RTVSPropertyOp32
 70
     1
102
RTVSPropertyOp33
 70
     1
102
RTVSPropertyOp34
 70
     1
102
RTVSPropertyOp35
 70
     1
102
RTVSPropertyOp36
 70
     1
102
RTVSPropertyOp37
 70
     1
102
RTVSPropertyOp38
 70
     1
102
RTVSPropertyOp39
 70
     1
102
RTVSPropertyOp40
 70
     1
102
RTVSPropertyOp41
 70
     1
102
RTVSPropertyOp42
 70
     1
102
RTVSPropertyOp43
 70
     1
102
RTVSPropertyOp44
 70
     1
102
RTVSPropertyOp45
 70
     1
102
RTVSPropertyOp46
 70
     1
102
RTVSPropertyOp47
 70
     1
102
RTVSPropertyOp48
 70
     1
102
RTVSPropertyOp49
 70
     1
102
RTVSPropertyOp50
 70
     1
102
RTVSPropertyOp51
 70
     0
102
RTVSPropertyOp52
 70
     0
102
RTVSPropertyOp53
 70
     1
102
RTVSPropertyOp54
 70
     1
102
RTVSPropertyOp55
 70
     1
102
RTVSPropertyOp56
 70
     1
102
RTVSPropertyOp57
 70
     1
102
RTVSPropertyOp58
 70
     1
102
RTVSPropertyOp59
 70
     1
102
RTVSPropertyOp60
 70
     1
102
RTVSPropertyOp61
 70
     1
102
RTVSPropertyOp62
 70
     1
  0
XRECORD
  5
C47
102
{ACAD_REACTORS
330
C46
102
}
330
C46
100
AcDbXrecord
280
     1
102
RTVSPost2010Prop28
280
     0
102
RTVSPost2010PropOp28
 70
     1
102
RTVSPost2010Prop29
280
     1
102
RTVSPost2010PropOp29
 70
     1
102
RTVSPost2010Prop30
280
     1
102
RTVSPost2010PropOp30
 70
     1
102
RTVSPost2010Prop31
280
     0
102
RTVSPost2010PropOp31
 70
     1
102
RTVSPost2010Prop32
280
     0
102
RTVSPost2010PropOp32
 70
     1
102
RTVSPost2010Prop33
280
     0
102
RTVSPost2010PropOp33
 70
     1
102
RTVSPost2010Prop34
280
     0
102
RTVSPost2010PropOp34
 70
     1
102
RTVSPost2010Prop35
280
     0
102
RTVSPost2010PropOp35
 70
     1
102
RTVSPost2010Prop36
280
     0
102
RTVSPost2010PropOp36
 70
     1
102
RTVSPost2010Prop37
 90
       50
102
RTVSPost2010PropOp37
 70
     1
102
RTVSPost2010Prop38
140
0.0
102
RTVSPost2010PropOp38
 70
     1
102
RTVSPost2010Prop39
140
1.0
102
RTVSPost2010PropOp39
 70
     1
102
RTVSPost2010Prop40
 90
        0
102
RTVSPost2010PropOp40
 70
     1
102
RTVSPost2010Prop41ColorIndex
 90
       18
102
RTVSPost2010Prop41ColorRGB
 90
        0
102
RTVSPost2010PropOp41
 70
     1
102
RTVSPost2010Prop42
 90
       50
102
RTVSPost2010PropOp42
 70
     1
102
RTVSPost2010Prop43
 90
        3
102
RTVSPost2010PropOp43
 70
     1
102
RTVSPost2010Prop44ColorIndex
 90
        5
102
RTVSPost2010Prop44ColorRGB
 90
      255
102
RTVSPost2010PropOp44
 70
     1
102
RTVSPost2010Prop45
280
     0
102
RTVSPost2010PropOp45
 70
     1
102
RTVSPost2010Prop46
 90
       50
102
RTVSPost2010PropOp46
 70
     1
102
RTVSPost2010Prop47
 90
       50
102
RTVSPost2010PropOp47
 70
     1
102
RTVSPost2010Prop48
 90
       50
102
RTVSPost2010PropOp48
 70
     1
102
RTVSPost2010Prop49
280
     0
102
RTVSPost2010PropOp49
 70
     1
102
RTVSPost2010Prop50
 90
       50
102
RTVSPost2010PropOp50
 70
     1
102
RTVSPost2010Prop51ColorIndex
 90
      256
102
RTVSPost2010Prop51ColorRGB
 90
-16777216
102
RTVSPost2010PropOp51
 70
     0
102
RTVSPost2010Prop52
140
1.0
102
RTVSPost2010PropOp52
 70
     0
102
RTVSPost2010Prop53
 90
        2
102
RTVSPost2010PropOp53
 70
     1
102
RTVSPost2010Prop54
  1
strokes_ogs.tif
102
RTVSPost2010PropOp54
 70
     1
102
RTVSPost2010Prop55
280
     0
102
RTVSPost2010PropOp55
 70
     1
102
RTVSPost2010Prop56
140
1.0
102
RTVSPost2010PropOp56
 70
     1
102
RTVSPost2010Prop57
140
1.0
102
RTVSPost2010PropOp57
 70
     1
102
RTVSPropertyOp0
 70
     1
102
RTVSPropertyOp1
 70
     1
102
RTVSPropertyOp2
 70
     1
102
RTVSPropertyOp3
 70
     1
102
RTVSPropertyOp4
 70
     1
102
RTVSPropertyOp5
 70
     1
102
RTVSPropertyOp6
 70
     1
102
RTVSPropertyOp7
 70
     1
102
RTVSPropertyOp8
 70
     1
102
RTVSPropertyOp9
 70
     1
102
RTVSPropertyOp10
 70
     1
102
RTVSPropertyOp11
 70
     1
102
RTVSPropertyOp12
 70
     1
102
RTVSPropertyOp13
 70
     1
102
RTVSPropertyOp14
 70
     1
102
RTVSPropertyOp15
 70
     1
102
RTVSPropertyOp16
 70
     1
102
RTVSPropertyOp17
 70
     1
102
RTVSPropertyOp18
 70
     1
102
RTVSPropertyOp19
 70
     1
102
RTVSPropertyOp20
 70
     1
102
RTVSPropertyOp21
 70
     1
102
RTVSPropertyOp22
 70
     1
102
RTVSPropertyOp23
 70
     1
102
RTVSPropertyOp24
 70
     1
102
RTVSPropertyOp25
 70
     1
102
RTVSPropertyOp26
 70
     1
102
RTVSPropertyOp27
 70
     1
102
RTVSPropertyOp28
 70
     1
102
RTVSPropertyOp29
 70
     1
102
RTVSPropertyOp30
 70
     1
102
RTVSPropertyOp31
 70
     1
102
RTVSPropertyOp32
 70
     1
102
RTVSPropertyOp33
 70
     1
102
RTVSPropertyOp34
 70
     1
102
RTVSPropertyOp35
 70
     1
102
RTVSPropertyOp36
 70
     1
102
RTVSPropertyOp37
 70
     1
102
RTVSPropertyOp38
 70
     1
102
RTVSPropertyOp39
 70
     1
102
RTVSPropertyOp40
 70
     1
102
RTVSPropertyOp41
 70
     1
102
RTVSPropertyOp42
 70
     1
102
RTVSPropertyOp43
 70
     1
102
RTVSPropertyOp44
 70
     1
102
RTVSPropertyOp45
 70
     1
102
RTVSPropertyOp46
 70
     1
102
RTVSPropertyOp47
 70
     1
102
RTVSPropertyOp48
 70
     1
102
RTVSPropertyOp49
 70
     1
102
RTVSPropertyOp50
 70
     1
102
RTVSPropertyOp51
 70
     0
102
RTVSPropertyOp52
 70
     0
102
RTVSPropertyOp53
 70
     1
102
RTVSPropertyOp54
 70
     1
102
RTVSPropertyOp55
 70
     1
102
RTVSPropertyOp56
 70
     1
102
RTVSPropertyOp57
 70
     1
102
RTVSPropertyOp58
 70
     1
102
RTVSPropertyOp59
 70
     1
102
RTVSPropertyOp60
 70
     1
102
RTVSPropertyOp61
 70
     1
102
RTVSPropertyOp62
 70
     1
  0
XRECORD
  5
C37
102
{ACAD_REACTORS
330
C36
102
}
330
C36
100
AcDbXrecord
280
     1
102
RTVSPost2010Prop28
280
     0
102
RTVSPost2010PropOp28
 70
     1
102
RTVSPost2010Prop29
280
     1
102
RTVSPost2010PropOp29
 70
     1
102
RTVSPost2010Prop30
280
     1
102
RTVSPost2010PropOp30
 70
     1
102
RTVSPost2010Prop31
280
     0
102
RTVSPost2010PropOp31
 70
     1
102
RTVSPost2010Prop32
280
     0
102
RTVSPost2010PropOp32
 70
     1
102
RTVSPost2010Prop33
280
     0
102
RTVSPost2010PropOp33
 70
     1
102
RTVSPost2010Prop34
280
     0
102
RTVSPost2010PropOp34
 70
     1
102
RTVSPost2010Prop35
280
     0
102
RTVSPost2010PropOp35
 70
     1
102
RTVSPost2010Prop36
280
     0
102
RTVSPost2010PropOp36
 70
     1
102
RTVSPost2010Prop37
 90
       50
102
RTVSPost2010PropOp37
 70
     1
102
RTVSPost2010Prop38
140
0.0
102
RTVSPost2010PropOp38
 70
     1
102
RTVSPost2010Prop39
140
1.0
102
RTVSPost2010PropOp39
 70
     1
102
RTVSPost2010Prop40
 90
        0
102
RTVSPost2010PropOp40
 70
     1
102
RTVSPost2010Prop41ColorIndex
 90
       18
102
RTVSPost2010Prop41ColorRGB
 90
        0
102
RTVSPost2010PropOp41
 70
     1
102
RTVSPost2010Prop42
 90
       50
102
RTVSPost2010PropOp42
 70
     1
102
RTVSPost2010Prop43
 90
        3
102
RTVSPost2010PropOp43
 70
     1
102
RTVSPost2010Prop44ColorIndex
 90
        5
102
RTVSPost2010Prop44ColorRGB
 90
      255
102
RTVSPost2010PropOp44
 70
     1
102
RTVSPost2010Prop45
280
     0
102
RTVSPost2010PropOp45
 70
     1
102
RTVSPost2010Prop46
 90
       50
102
RTVSPost2010PropOp46
 70
     1
102
RTVSPost2010Prop47
 90
       50
102
RTVSPost2010PropOp47
 70
     1
102
RTVSPost2010Prop48
 90
       50
102
RTVSPost2010PropOp48
 70
     1
102
RTVSPost2010Prop49
280
     0
102
RTVSPost2010PropOp49
 70
     1
102
RTVSPost2010Prop50
 90
       50
102
RTVSPost2010PropOp50
 70
     1
102
RTVSPost2010Prop51ColorIndex
 90
      256
102
RTVSPost2010Prop51ColorRGB
 90
-16777216
102
RTVSPost2010PropOp51
 70
     0
102
RTVSPost2010Prop52
140
1.0
102
RTVSPost2010PropOp52
 70
     0
102
RTVSPost2010Prop53
 90
        2
102
RTVSPost2010PropOp53
 70
     1
102
RTVSPost2010Prop54
  1
strokes_ogs.tif
102
RTVSPost2010PropOp54
 70
     1
102
RTVSPost2010Prop55
280
     0
102
RTVSPost2010PropOp55
 70
     1
102
RTVSPost2010Prop56
140
1.0
102
RTVSPost2010PropOp56
 70
     1
102
RTVSPost2010Prop57
140
1.0
102
RTVSPost2010PropOp57
 70
     1
102
RTVSPropertyOp0
 70
     1
102
RTVSPropertyOp1
 70
     1
102
RTVSPropertyOp2
 70
     1
102
RTVSPropertyOp3
 70
     1
102
RTVSPropertyOp4
 70
     1
102
RTVSPropertyOp5
 70
     1
102
RTVSPropertyOp6
 70
     1
102
RTVSPropertyOp7
 70
     1
102
RTVSPropertyOp8
 70
     1
102
RTVSPropertyOp9
 70
     1
102
RTVSPropertyOp10
 70
     1
102
RTVSPropertyOp11
 70
     1
102
RTVSPropertyOp12
 70
     1
102
RTVSPropertyOp13
 70
     1
102
RTVSPropertyOp14
 70
     1
102
RTVSPropertyOp15
 70
     1
102
RTVSPropertyOp16
 70
     1
102
RTVSPropertyOp17
 70
     1
102
RTVSPropertyOp18
 70
     1
102
RTVSPropertyOp19
 70
     1
102
RTVSPropertyOp20
 70
     1
102
RTVSPropertyOp21
 70
     1
102
RTVSPropertyOp22
 70
     1
102
RTVSPropertyOp23
 70
     1
102
RTVSPropertyOp24
 70
     1
102
RTVSPropertyOp25
 70
     1
102
RTVSPropertyOp26
 70
     1
102
RTVSPropertyOp27
 70
     1
102
RTVSPropertyOp28
 70
     1
102
RTVSPropertyOp29
 70
     1
102
RTVSPropertyOp30
 70
     1
102
RTVSPropertyOp31
 70
     1
102
RTVSPropertyOp32
 70
     1
102
RTVSPropertyOp33
 70
     1
102
RTVSPropertyOp34
 70
     1
102
RTVSPropertyOp35
 70
     1
102
RTVSPropertyOp36
 70
     1
102
RTVSPropertyOp37
 70
     1
102
RTVSPropertyOp38
 70
     1
102
RTVSPropertyOp39
 70
     1
102
RTVSPropertyOp40
 70
     1
102
RTVSPropertyOp41
 70
     1
102
RTVSPropertyOp42
 70
     1
102
RTVSPropertyOp43
 70
     1
102
RTVSPropertyOp44
 70
     1
102
RTVSPropertyOp45
 70
     1
102
RTVSPropertyOp46
 70
     1
102
RTVSPropertyOp47
 70
     1
102
RTVSPropertyOp48
 70
     1
102
RTVSPropertyOp49
 70
     1
102
RTVSPropertyOp50
 70
     1
102
RTVSPropertyOp51
 70
     0
102
RTVSPropertyOp52
 70
     0
102
RTVSPropertyOp53
 70
     1
102
RTVSPropertyOp54
 70
     1
102
RTVSPropertyOp55
 70
     1
102
RTVSPropertyOp56
 70
     1
102
RTVSPropertyOp57
 70
     1
102
RTVSPropertyOp58
 70
     1
102
RTVSPropertyOp59
 70
     1
102
RTVSPropertyOp60
 70
     1
102
RTVSPropertyOp61
 70
     1
102
RTVSPropertyOp62
 70
     1
  0
XRECORD
  5
C29
102
{ACAD_REACTORS
330
C28
102
}
330
C28
100
AcDbXrecord
280
     1
102
RTVSPost2010Prop28
280
     0
102
RTVSPost2010PropOp28
 70
     1
102
RTVSPost2010Prop29
280
     1
102
RTVSPost2010PropOp29
 70
     1
102
RTVSPost2010Prop30
280
     1
102
RTVSPost2010PropOp30
 70
     1
102
RTVSPost2010Prop31
280
     0
102
RTVSPost2010PropOp31
 70
     1
102
RTVSPost2010Prop32
280
     0
102
RTVSPost2010PropOp32
 70
     1
102
RTVSPost2010Prop33
280
     0
102
RTVSPost2010PropOp33
 70
     1
102
RTVSPost2010Prop34
280
     0
102
RTVSPost2010PropOp34
 70
     1
102
RTVSPost2010Prop35
280
     0
102
RTVSPost2010PropOp35
 70
     1
102
RTVSPost2010Prop36
280
     0
102
RTVSPost2010PropOp36
 70
     1
102
RTVSPost2010Prop37
 90
       50
102
RTVSPost2010PropOp37
 70
     1
102
RTVSPost2010Prop38
140
0.0
102
RTVSPost2010PropOp38
 70
     1
102
RTVSPost2010Prop39
140
1.0
102
RTVSPost2010PropOp39
 70
     1
102
RTVSPost2010Prop40
 90
        0
102
RTVSPost2010PropOp40
 70
     1
102
RTVSPost2010Prop41ColorIndex
 90
       18
102
RTVSPost2010Prop41ColorRGB
 90
        0
102
RTVSPost2010PropOp41
 70
     1
102
RTVSPost2010Prop42
 90
       50
102
RTVSPost2010PropOp42
 70
     1
102
RTVSPost2010Prop43
 90
        3
102
RTVSPost2010PropOp43
 70
     1
102
RTVSPost2010Prop44ColorIndex
 90
        5
102
RTVSPost2010Prop44ColorRGB
 90
      255
102
RTVSPost2010PropOp44
 70
     1
102
RTVSPost2010Prop45
280
     0
102
RTVSPost2010PropOp45
 70
     1
102
RTVSPost2010Prop46
 90
       50
102
RTVSPost2010PropOp46
 70
     1
102
RTVSPost2010Prop47
 90
       50
102
RTVSPost2010PropOp47
 70
     1
102
RTVSPost2010Prop48
 90
       50
102
RTVSPost2010PropOp48
 70
     1
102
RTVSPost2010Prop49
280
     0
102
RTVSPost2010PropOp49
 70
     1
102
RTVSPost2010Prop50
 90
       50
102
RTVSPost2010PropOp50
 70
     1
102
RTVSPost2010Prop51ColorIndex
 90
      256
102
RTVSPost2010Prop51ColorRGB
 90
-16777216
102
RTVSPost2010PropOp51
 70
     0
102
RTVSPost2010Prop52
140
1.0
102
RTVSPost2010PropOp52
 70
     0
102
RTVSPost2010Prop53
 90
        2
102
RTVSPost2010PropOp53
 70
     1
102
RTVSPost2010Prop54
  1
strokes_ogs.tif
102
RTVSPost2010PropOp54
 70
     1
102
RTVSPost2010Prop55
280
     0
102
RTVSPost2010PropOp55
 70
     1
102
RTVSPost2010Prop56
140
1.0
102
RTVSPost2010PropOp56
 70
     1
102
RTVSPost2010Prop57
140
1.0
102
RTVSPost2010PropOp57
 70
     1
102
RTVSPropertyOp0
 70
     1
102
RTVSPropertyOp1
 70
     1
102
RTVSPropertyOp2
 70
     1
102
RTVSPropertyOp3
 70
     1
102
RTVSPropertyOp4
 70
     1
102
RTVSPropertyOp5
 70
     1
102
RTVSPropertyOp6
 70
     1
102
RTVSPropertyOp7
 70
     1
102
RTVSPropertyOp8
 70
     1
102
RTVSPropertyOp9
 70
     1
102
RTVSPropertyOp10
 70
     1
102
RTVSPropertyOp11
 70
     1
102
RTVSPropertyOp12
 70
     1
102
RTVSPropertyOp13
 70
     1
102
RTVSPropertyOp14
 70
     1
102
RTVSPropertyOp15
 70
     1
102
RTVSPropertyOp16
 70
     1
102
RTVSPropertyOp17
 70
     1
102
RTVSPropertyOp18
 70
     1
102
RTVSPropertyOp19
 70
     1
102
RTVSPropertyOp20
 70
     1
102
RTVSPropertyOp21
 70
     1
102
RTVSPropertyOp22
 70
     1
102
RTVSPropertyOp23
 70
     1
102
RTVSPropertyOp24
 70
     1
102
RTVSPropertyOp25
 70
     1
102
RTVSPropertyOp26
 70
     1
102
RTVSPropertyOp27
 70
     1
102
RTVSPropertyOp28
 70
     1
102
RTVSPropertyOp29
 70
     1
102
RTVSPropertyOp30
 70
     1
102
RTVSPropertyOp31
 70
     1
102
RTVSPropertyOp32
 70
     1
102
RTVSPropertyOp33
 70
     1
102
RTVSPropertyOp34
 70
     1
102
RTVSPropertyOp35
 70
     1
102
RTVSPropertyOp36
 70
     1
102
RTVSPropertyOp37
 70
     1
102
RTVSPropertyOp38
 70
     1
102
RTVSPropertyOp39
 70
     1
102
RTVSPropertyOp40
 70
     1
102
RTVSPropertyOp41
 70
     1
102
RTVSPropertyOp42
 70
     1
102
RTVSPropertyOp43
 70
     1
102
RTVSPropertyOp44
 70
     1
102
RTVSPropertyOp45
 70
     1
102
RTVSPropertyOp46
 70
     1
102
RTVSPropertyOp47
 70
     1
102
RTVSPropertyOp48
 70
     1
102
RTVSPropertyOp49
 70
     1
102
RTVSPropertyOp50
 70
     1
102
RTVSPropertyOp51
 70
     0
102
RTVSPropertyOp52
 70
     0
102
RTVSPropertyOp53
 70
     1
102
RTVSPropertyOp54
 70
     1
102
RTVSPropertyOp55
 70
     1
102
RTVSPropertyOp56
 70
     1
102
RTVSPropertyOp57
 70
     1
102
RTVSPropertyOp58
 70
     1
102
RTVSPropertyOp59
 70
     1
102
RTVSPropertyOp60
 70
     1
102
RTVSPropertyOp61
 70
     1
102
RTVSPropertyOp62
 70
     1
  0
XRECORD
  5
C49
102
{ACAD_REACTORS
330
C48
102
}
330
C48
100
AcDbXrecord
280
     1
102
RTVSPost2010Prop28
280
     0
102
RTVSPost2010PropOp28
 70
     1
102
RTVSPost2010Prop29
280
     1
102
RTVSPost2010PropOp29
 70
     1
102
RTVSPost2010Prop30
280
     1
102
RTVSPost2010PropOp30
 70
     1
102
RTVSPost2010Prop31
280
     0
102
RTVSPost2010PropOp31
 70
     1
102
RTVSPost2010Prop32
280
     0
102
RTVSPost2010PropOp32
 70
     1
102
RTVSPost2010Prop33
280
     0
102
RTVSPost2010PropOp33
 70
     1
102
RTVSPost2010Prop34
280
     0
102
RTVSPost2010PropOp34
 70
     1
102
RTVSPost2010Prop35
280
     0
102
RTVSPost2010PropOp35
 70
     1
102
RTVSPost2010Prop36
280
     0
102
RTVSPost2010PropOp36
 70
     1
102
RTVSPost2010Prop37
 90
       50
102
RTVSPost2010PropOp37
 70
     1
102
RTVSPost2010Prop38
140
0.0
102
RTVSPost2010PropOp38
 70
     1
102
RTVSPost2010Prop39
140
1.0
102
RTVSPost2010PropOp39
 70
     1
102
RTVSPost2010Prop40
 90
        0
102
RTVSPost2010PropOp40
 70
     1
102
RTVSPost2010Prop41ColorIndex
 90
       18
102
RTVSPost2010Prop41ColorRGB
 90
        0
102
RTVSPost2010PropOp41
 70
     1
102
RTVSPost2010Prop42
 90
       50
102
RTVSPost2010PropOp42
 70
     1
102
RTVSPost2010Prop43
 90
        3
102
RTVSPost2010PropOp43
 70
     1
102
RTVSPost2010Prop44ColorIndex
 90
        5
102
RTVSPost2010Prop44ColorRGB
 90
      255
102
RTVSPost2010PropOp44
 70
     1
102
RTVSPost2010Prop45
280
     0
102
RTVSPost2010PropOp45
 70
     1
102
RTVSPost2010Prop46
 90
       50
102
RTVSPost2010PropOp46
 70
     1
102
RTVSPost2010Prop47
 90
       50
102
RTVSPost2010PropOp47
 70
     1
102
RTVSPost2010Prop48
 90
       50
102
RTVSPost2010PropOp48
 70
     1
102
RTVSPost2010Prop49
280
     0
102
RTVSPost2010PropOp49
 70
     1
102
RTVSPost2010Prop50
 90
       50
102
RTVSPost2010PropOp50
 70
     1
102
RTVSPost2010Prop51ColorIndex
 90
      256
102
RTVSPost2010Prop51ColorRGB
 90
-16777216
102
RTVSPost2010PropOp51
 70
     0
102
RTVSPost2010Prop52
140
1.0
102
RTVSPost2010PropOp52
 70
     0
102
RTVSPost2010Prop53
 90
        2
102
RTVSPost2010PropOp53
 70
     1
102
RTVSPost2010Prop54
  1
strokes_ogs.tif
102
RTVSPost2010PropOp54
 70
     1
102
RTVSPost2010Prop55
280
     0
102
RTVSPost2010PropOp55
 70
     1
102
RTVSPost2010Prop56
140
1.0
102
RTVSPost2010PropOp56
 70
     1
102
RTVSPost2010Prop57
140
1.0
102
RTVSPost2010PropOp57
 70
     1
102
RTVSPropertyOp0
 70
     1
102
RTVSPropertyOp1
 70
     1
102
RTVSPropertyOp2
 70
     1
102
RTVSPropertyOp3
 70
     1
102
RTVSPropertyOp4
 70
     1
102
RTVSPropertyOp5
 70
     1
102
RTVSPropertyOp6
 70
     1
102
RTVSPropertyOp7
 70
     1
102
RTVSPropertyOp8
 70
     1
102
RTVSPropertyOp9
 70
     1
102
RTVSPropertyOp10
 70
     1
102
RTVSPropertyOp11
 70
     1
102
RTVSPropertyOp12
 70
     1
102
RTVSPropertyOp13
 70
     1
102
RTVSPropertyOp14
 70
     1
102
RTVSPropertyOp15
 70
     1
102
RTVSPropertyOp16
 70
     1
102
RTVSPropertyOp17
 70
     1
102
RTVSPropertyOp18
 70
     1
102
RTVSPropertyOp19
 70
     1
102
RTVSPropertyOp20
 70
     1
102
RTVSPropertyOp21
 70
     1
102
RTVSPropertyOp22
 70
     1
102
RTVSPropertyOp23
 70
     1
102
RTVSPropertyOp24
 70
     1
102
RTVSPropertyOp25
 70
     1
102
RTVSPropertyOp26
 70
     1
102
RTVSPropertyOp27
 70
     1
102
RTVSPropertyOp28
 70
     1
102
RTVSPropertyOp29
 70
     1
102
RTVSPropertyOp30
 70
     1
102
RTVSPropertyOp31
 70
     1
102
RTVSPropertyOp32
 70
     1
102
RTVSPropertyOp33
 70
     1
102
RTVSPropertyOp34
 70
     1
102
RTVSPropertyOp35
 70
     1
102
RTVSPropertyOp36
 70
     1
102
RTVSPropertyOp37
 70
     1
102
RTVSPropertyOp38
 70
     1
102
RTVSPropertyOp39
 70
     1
102
RTVSPropertyOp40
 70
     1
102
RTVSPropertyOp41
 70
     1
102
RTVSPropertyOp42
 70
     1
102
RTVSPropertyOp43
 70
     1
102
RTVSPropertyOp44
 70
     1
102
RTVSPropertyOp45
 70
     1
102
RTVSPropertyOp46
 70
     1
102
RTVSPropertyOp47
 70
     1
102
RTVSPropertyOp48
 70
     1
102
RTVSPropertyOp49
 70
     1
102
RTVSPropertyOp50
 70
     1
102
RTVSPropertyOp51
 70
     0
102
RTVSPropertyOp52
 70
     0
102
RTVSPropertyOp53
 70
     1
102
RTVSPropertyOp54
 70
     1
102
RTVSPropertyOp55
 70
     1
102
RTVSPropertyOp56
 70
     1
102
RTVSPropertyOp57
 70
     1
102
RTVSPropertyOp58
 70
     1
102
RTVSPropertyOp59
 70
     1
102
RTVSPropertyOp60
 70
     1
102
RTVSPropertyOp61
 70
     1
102
RTVSPropertyOp62
 70
     1
  0
ENDSEC
  0
EOF
