  0
SECTION
  2
HEADER
  9
$ACADVER
  1
AC1015
  9
$ACADMAINTVER
 70
    20
  9
$DWGCODEPAGE
  3
ANSI_932
  9
$INSBASE
 10
0.0
 20
0.0
 30
0.0
  9
$EXTMIN
 10
33.84176791986141
 20
58.91352609172736
 30
0.0
  9
$EXTMAX
 10
2231.71007619872
 20
1586.355992642784
 30
0.0
  9
$LIMMIN
 10
-618.9930385589599
 20
-635.6909450531007
  9
$LIMMAX
 10
1261.603523254395
 20
741.5713466644286
  9
$ORTHOMODE
 70
     1
  9
$REGENMODE
 70
     1
  9
$FILLMODE
 70
     1
  9
$QTEXTMODE
 70
     0
  9
$MIRRTEXT
 70
     1
  9
$LTSCALE
 40
0.8144315818876732
  9
$ATTMODE
 70
     1
  9
$TEXTSIZE
 40
2.5
  9
$TRACEWID
 40
1.0
  9
$TEXTSTYLE
  7
Standard
  9
$CLAYER
  8
0
  9
$CELTYPE
  6
ByLayer
  9
$CECOLOR
 62
   256
  9
$CELTSCALE
 40
1.0
  9
$DISPSILH
 70
     0
  9
$DIMSCALE
 40
1.0
  9
$DIMASZ
 40
2.5
  9
$DIMEXO
 40
0.625
  9
$DIMDLI
 40
3.75
  9
$DIMRND
 40
0.0
  9
$DIMDLE
 40
0.0
  9
$DIMEXE
 40
1.25
  9
$DIMTP
 40
0.0
  9
$DIMTM
 40
0.0
  9
$DIMTXT
 40
2.5
  9
$DIMCEN
 40
2.5
  9
$DIMTSZ
 40
0.0
  9
$DIMTOL
 70
     0
  9
$DIMLIM
 70
     0
  9
$DIMTIH
 70
     0
  9
$DIMTOH
 70
     0
  9
$DIMSE1
 70
     0
  9
$DIMSE2
 70
     0
  9
$DIMTAD
 70
     1
  9
$DIMZIN
 70
     0
  9
$DIMBLK
  1

  9
$DIMASO
 70
     1
  9
$DIMSHO
 70
     1
  9
$DIMPOST
  1

  9
$DIMAPOST
  1

  9
$DIMALT
 70
     0
  9
$DIMALTD
 70
     3
  9
$DIMALTF
 40
0.03937007874016
  9
$DIMLFAC
 40
1.0
  9
$DIMTOFL
 70
     1
  9
$DIMTVP
 40
0.0
  9
$DIMTIX
 70
     0
  9
$DIMSOXD
 70
     0
  9
$DIMSAH
 70
     0
  9
$DIMBLK1
  1

  9
$DIMBLK2
  1

  9
$DIMSTYLE
  2
Standard
  9
$DIMCLRD
 70
     0
  9
$DIMCLRE
 70
     0
  9
$DIMCLRT
 70
     0
  9
$DIMTFAC
 40
0.75
  9
$DIMGAP
 40
0.625
  9
$DIMJUST
 70
     0
  9
$DIMSD1
 70
     0
  9
$DIMSD2
 70
     0
  9
$DIMTOLJ
 70
     0
  9
$DIMTZIN
 70
     8
  9
$DIMALTZ
 70
     0
  9
$DIMALTTZ
 70
     0
  9
$DIMUPT
 70
     0
  9
$DIMDEC
 70
     2
  9
$DIMTDEC
 70
     2
  9
$DIMALTU
 70
     2
  9
$DIMALTTD
 70
     3
  9
$DIMTXSTY
  7
Standard
  9
$DIMAUNIT
 70
     0
  9
$DIMADEC
 70
     0
  9
$DIMALTRND
 40
0.0
  9
$DIMAZIN
 70
     0
  9
$DIMDSEP
 70
    46
  9
$DIMATFIT
 70
     3
  9
$DIMFRAC
 70
     0
  9
$DIMLDRBLK
  1

  9
$DIMLUNIT
 70
     2
  9
$DIMLWD
 70
    -2
  9
$DIMLWE
 70
    -2
  9
$DIMTMOVE
 70
     0
  9
$LUNITS
 70
     2
  9
$LUPREC
 70
     4
  9
$SKETCHINC
 40
1.0
  9
$FILLETRAD
 40
0.0
  9
$AUNITS
 70
     0
  9
$AUPREC
 70
     0
  9
$MENU
  1
.
  9
$ELEVATION
 40
0.0
  9
$PELEVATION
 40
0.0
  9
$THICKNESS
 40
0.0
  9
$LIMCHECK
 70
     0
  9
$CHAMFERA
 40
10.0
  9
$CHAMFERB
 40
10.0
  9
$CHAMFERC
 40
20.0
  9
$CHAMFERD
 40
0.0
  9
$SKPOLY
 70
     0
  9
$TDCREATE
 40
2455188.750000000
  9
$TDUCREATE
 40
2455188.375000000
  9
$TDUPDATE
 40
2459752.690430197
  9
$TDUUPDATE
 40
2459752.315430197
  9
$TDINDWG
 40
0.0539980556
  9
$TDUSRTIMER
 40
0.0539978935
  9
$USRTIMER
 70
     1
  9
$ANGBASE
 50
0.0
  9
$ANGDIR
 70
     0
  9
$PDMODE
 70
     0
  9
$PDSIZE
 40
0.0
  9
$PLINEWID
 40
0.0
  9
$SPLFRAME
 70
     0
  9
$SPLINETYPE
 70
     6
  9
$SPLINESEGS
 70
     8
  9
$HANDSEED
  5
951
  9
$SURFTAB1
 70
     6
  9
$SURFTAB2
 70
     6
  9
$SURFTYPE
 70
     6
  9
$SURFU
 70
     6
  9
$SURFV
 70
     6
  9
$UCSBASE
  2

  9
$UCSNAME
  2

  9
$UCSORG
 10
0.0
 20
0.0
 30
0.0
  9
$UCSXDIR
 10
1.0
 20
0.0
 30
0.0
  9
$UCSYDIR
 10
0.0
 20
1.0
 30
0.0
  9
$UCSORTHOREF
  2

  9
$UCSORTHOVIEW
 70
     0
  9
$UCSORGTOP
 10
0.0
 20
0.0
 30
0.0
  9
$UCSORGBOTTOM
 10
0.0
 20
0.0
 30
0.0
  9
$UCSORGLEFT
 10
0.0
 20
0.0
 30
0.0
  9
$UCSORGRIGHT
 10
0.0
 20
0.0
 30
0.0
  9
$UCSORGFRONT
 10
0.0
 20
0.0
 30
0.0
  9
$UCSORGBACK
 10
0.0
 20
0.0
 30
0.0
  9
$PUCSBASE
  2

  9
$PUCSNAME
  2

  9
$PUCSORG
 10
0.0
 20
0.0
 30
0.0
  9
$PUCSXDIR
 10
1.0
 20
0.0
 30
0.0
  9
$PUCSYDIR
 10
0.0
 20
1.0
 30
0.0
  9
$PUCSORTHOREF
  2

  9
$PUCSORTHOVIEW
 70
     0
  9
$PUCSORGTOP
 10
0.0
 20
0.0
 30
0.0
  9
$PUCSORGBOTTOM
 10
0.0
 20
0.0
 30
0.0
  9
$PUCSORGLEFT
 10
0.0
 20
0.0
 30
0.0
  9
$PUCSORGRIGHT
 10
0.0
 20
0.0
 30
0.0
  9
$PUCSORGFRONT
 10
0.0
 20
0.0
 30
0.0
  9
$PUCSORGBACK
 10
0.0
 20
0.0
 30
0.0
  9
$USERI1
 70
     0
  9
$USERI2
 70
     0
  9
$USERI3
 70
     0
  9
$USERI4
 70
     0
  9
$USERI5
 70
     0
  9
$USERR1
 40
0.0
  9
$USERR2
 40
0.0
  9
$USERR3
 40
0.0
  9
$USERR4
 40
0.0
  9
$USERR5
 40
0.0
  9
$WORLDVIEW
 70
     1
  9
$SHADEDGE
 70
     3
  9
$SHADEDIF
 70
    70
  9
$TILEMODE
 70
     1
  9
$MAXACTVP
 70
    64
  9
$PINSBASE
 10
0.0
 20
0.0
 30
0.0
  9
$PLIMCHECK
 70
     0
  9
$PEXTMIN
 10
1.000000000000000E+20
 20
1.000000000000000E+20
 30
1.000000000000000E+20
  9
$PEXTMAX
 10
-1.000000000000000E+20
 20
-1.000000000000000E+20
 30
-1.000000000000000E+20
  9
$PLIMMIN
 10
0.0
 20
0.0
  9
$PLIMMAX
 10
420.0
 20
297.0
  9
$UNITMODE
 70
     0
  9
$VISRETAIN
 70
     1
  9
$PLINEGEN
 70
     0
  9
$PSLTSCALE
 70
     1
  9
$TREEDEPTH
 70
  3020
  9
$CMLSTYLE
  2
Standard
  9
$CMLJUST
 70
     0
  9
$CMLSCALE
 40
20.0
  9
$PROXYGRAPHICS
 70
     1
  9
$MEASUREMENT
 70
     1
  9
$CELWEIGHT
370
    -1
  9
$ENDCAPS
280
     0
  9
$JOINSTYLE
280
     0
  9
$LWDISPLAY
290
     0
  9
$INSUNITS
 70
     4
  9
$HYPERLINKBASE
  1

  9
$STYLESHEET
  1

  9
$XEDIT
290
     1
  9
$CEPSNTYPE
380
     0
  9
$PSTYLEMODE
290
     1
  9
$FINGERPRINTGUID
  2
{950ABA03-836B-459E-99A8-F29E13387BB9}
  9
$VERSIONGUID
  2
{B8C2F6A1-D519-4852-B3F1-3E62CBC58DB4}
  9
$EXTNAMES
290
     1
  9
$PSVPSCALE
 40
0.0
  9
$OLESTARTUP
290
     0
  0
ENDSEC
  0
SECTION
  2
CLASSES
  0
CLASS
  1
ACDBDICTIONARYWDFLT
  2
AcDbDictionaryWithDefault
  3
ObjectDBX Classes
 90
        0
280
     0
281
     0
  0
CLASS
  1
VISUALSTYLE
  2
AcDbVisualStyle
  3
ObjectDBX Classes
 90
     4095
280
     0
281
     0
  0
CLASS
  1
MATERIAL
  2
AcDbMaterial
  3
ObjectDBX Classes
 90
     1153
280
     0
281
     0
  0
CLASS
  1
SCALE
  2
AcDbScale
  3
ObjectDBX Classes
 90
     1153
280
     0
281
     0
  0
CLASS
  1
TABLESTYLE
  2
AcDbTableStyle
  3
ObjectDBX Classes
 90
     4095
280
     0
281
     0
  0
CLASS
  1
MLEADERSTYLE
  2
AcDbMLeaderStyle
  3
ACDB_MLEADERSTYLE_CLASS
 90
     4095
280
     0
281
     0
  0
CLASS
  1
SUN
  2
AcDbSun
  3
SCENEOE
 90
    33921
280
     0
281
     0
  0
CLASS
  1
DICTIONARYVAR
  2
AcDbDictionaryVar
  3
ObjectDBX Classes
 90
        0
280
     0
281
     0
  0
CLASS
  1
ACDBSECTIONVIEWSTYLE
  2
AcDbSectionViewStyle
  3
ObjectDBX Classes
 90
     1025
280
     0
281
     0
  0
CLASS
  1
ACDBDETAILVIEWSTYLE
  2
AcDbDetailViewStyle
  3
ObjectDBX Classes
 90
     1025
280
     0
281
     0
  0
CLASS
  1
SORTENTSTABLE
  2
AcDbSortentsTable
  3
ObjectDBX Classes
 90
        0
280
     0
281
     0
  0
CLASS
  1
CELLSTYLEMAP
  2
AcDbCellStyleMap
  3
ObjectDBX Classes
 90
     1152
280
     0
281
     0
  0
CLASS
  1
ACDBPLACEHOLDER
  2
AcDbPlaceHolder
  3
ObjectDBX Classes
 90
        0
280
     0
281
     0
  0
CLASS
  1
LAYOUT
  2
AcDbLayout
  3
ObjectDBX Classes
 90
        0
280
     0
281
     0
  0
ENDSEC
  0
SECTION
  2
TABLES
  0
TABLE
  2
VPORT
  5
8
330
0
100
AcDbSymbolTable
 70
     1
  0
VPORT
  5
29
330
8
100
AcDbSymbolTableRecord
100
AcDbViewportTableRecord
  2
*Active
 70
     0
 10
0.0
 20
0.0
 11
1.0
 21
1.0
 12
1397.690560500157
 22
660.1402180272343
 13
0.0
 23
0.0
 14
10.0
 24
10.0
 15
10.0
 25
10.0
 16
0.0
 26
0.0
 36
1.0
 17
0.0
 27
0.0
 37
0.0
 40
1385.396542541197
 41
2.204301075268817
 42
50.0
 43
0.0
 44
0.0
 50
0.0
 51
0.0
 71
     0
 72
 20000
 73
     1
 74
     3
 75
     0
 76
     0
 77
     0
 78
     0
281
     0
 65
     1
110
0.0
120
0.0
130
0.0
111
1.0
121
0.0
131
0.0
112
0.0
122
1.0
132
0.0
 79
     0
146
0.0
1001
ACAD_NAV_VCDISPLAY
1070
     3
  0
ENDTAB
  0
TABLE
  2
LTYPE
  5
5
330
0
100
AcDbSymbolTable
 70
     3
  0
LTYPE
  5
14
330
5
100
AcDbSymbolTableRecord
100
AcDbLinetypeTableRecord
  2
ByBlock
 70
     0
  3

 72
    65
 73
     0
 40
0.0
  0
LTYPE
  5
15
330
5
100
AcDbSymbolTableRecord
100
AcDbLinetypeTableRecord
  2
ByLayer
 70
     0
  3

 72
    65
 73
     0
 40
0.0
  0
LTYPE
  5
16
330
5
100
AcDbSymbolTableRecord
100
AcDbLinetypeTableRecord
  2
Continuous
 70
     0
  3
Solid line
 72
    65
 73
     0
 40
0.0
  0
LTYPE
  5
591
330
5
100
AcDbSymbolTableRecord
100
AcDbLinetypeTableRecord
  2
CENTER2
 70
     0
  3
Center (.5x) ___ _ ___ _ ___ _ ___ _ ___ _ ___
 72
    65
 73
     4
 40
28.575
 49
19.05
 74
     0
 49
-3.174999999999998
 74
     0
 49
3.174999999999998
 74
     0
 49
-3.174999999999998
 74
     0
  0
ENDTAB
  0
TABLE
  2
LAYER
  5
2
102
{ACAD_XDICTIONARY
360
597
102
}
330
0
100
AcDbSymbolTable
 70
     4
  0
LAYER
  5
10
102
{ACAD_XDICTIONARY
360
84E
102
}
330
2
100
AcDbSymbolTableRecord
100
AcDbLayerTableRecord
  2
0
 70
     0
 62
     7
  6
Continuous
370
    -3
390
F
  0
LAYER
  5
66
330
2
100
AcDbSymbolTableRecord
100
AcDbLayerTableRecord
  2
Defpoints
 70
     0
 62
     7
  6
Continuous
290
     0
370
    -3
390
F
  0
LAYER
  5
592
102
{ACAD_XDICTIONARY
360
593
102
}
330
2
100
AcDbSymbolTableRecord
100
AcDbLayerTableRecord
  2
中心線
 70
     0
 62
     3
  6
CENTER2
370
    -3
390
F
  0
LAYER
  5
594
102
{ACAD_XDICTIONARY
360
595
102
}
330
2
100
AcDbSymbolTableRecord
100
AcDbLayerTableRecord
  2
実線
 70
     0
 62
     7
  6
Continuous
370
    -3
390
F
  0
ENDTAB
  0
TABLE
  2
STYLE
  5
3
330
0
100
AcDbSymbolTable
 70
     1
  0
STYLE
  5
11
330
3
100
AcDbSymbolTableRecord
100
AcDbTextStyleTableRecord
  2
Standard
 70
     0
 40
0.0
 41
1.0
 50
0.0
 71
     0
 42
2.5
  3
txt
  4
extfont2
  0
ENDTAB
  0
TABLE
  2
VIEW
  5
6
330
0
100
AcDbSymbolTable
 70
     0
  0
ENDTAB
  0
TABLE
  2
UCS
  5
7
330
0
100
AcDbSymbolTable
 70
     0
  0
ENDTAB
  0
TABLE
  2
APPID
  5
9
330
0
100
AcDbSymbolTable
 70
     5
  0
APPID
  5
12
330
9
100
AcDbSymbolTableRecord
100
AcDbRegAppTableRecord
  2
ACAD
 70
     0
  0
APPID
  5
322
330
9
100
AcDbSymbolTableRecord
100
AcDbRegAppTableRecord
  2
ACAD_MLEADERVER
 70
     0
  0
APPID
  5
596
330
9
100
AcDbSymbolTableRecord
100
AcDbRegAppTableRecord
  2
ACAD_NAV_VCDISPLAY
 70
     0
  0
APPID
  5
831
330
9
100
AcDbSymbolTableRecord
100
AcDbRegAppTableRecord
  2
ACAD_EXEMPT_FROM_CAD_STANDARDS
 70
     0
  0
APPID
  5
8AE
330
9
100
AcDbSymbolTableRecord
100
AcDbRegAppTableRecord
  2
ACAD_DSTYLE_DIMRADIAL_EXTENSION
 70
     0
  0
ENDTAB
  0
TABLE
  2
DIMSTYLE
  5
A
330
0
100
AcDbSymbolTable
 70
     2
100
AcDbDimStyleTable
 71
     1
340
27
  0
DIMSTYLE
105
27
330
A
100
AcDbSymbolTableRecord
100
AcDbDimStyleTableRecord
  2
Standard
 70
     0
 41
2.5
 42
0.625
 43
3.75
 44
1.25
 73
     0
 74
     0
 77
     1
140
2.5
141
2.5
143
0.03937007874016
146
0.75
147
0.625
171
     3
172
     1
271
     2
272
     2
274
     3
283
     0
284
     8
340
11
  0
ENDTAB
  0
TABLE
  2
BLOCK_RECORD
  5
1
330
0
100
AcDbSymbolTable
 70
     2
  0
BLOCK_RECORD
  5
1F
102
{ACAD_XDICTIONARY
360
3BA
102
}
330
1
100
AcDbSymbolTableRecord
100
AcDbBlockTableRecord
  2
*Model_Space
340
22
  0
BLOCK_RECORD
  5
1B
330
1
100
AcDbSymbolTableRecord
100
AcDbBlockTableRecord
  2
*Paper_Space
340
1E
  0
BLOCK_RECORD
  5
23
330
1
100
AcDbSymbolTableRecord
100
AcDbBlockTableRecord
  2
*Paper_Space0
340
32C
  0
ENDTAB
  0
ENDSEC
  0
SECTION
  2
BLOCKS
  0
BLOCK
  5
20
330
1F
100
AcDbEntity
  8
0
100
AcDbBlockBegin
  2
*Model_Space
 70
     0
 10
0.0
 20
0.0
 30
0.0
  3
*Model_Space
  1

  0
ENDBLK
  5
21
330
1F
100
AcDbEntity
  8
0
100
AcDbBlockEnd
  0
BLOCK
  5
1C
330
1B
100
AcDbEntity
 67
     1
  8
0
100
AcDbBlockBegin
  2
*Paper_Space
 70
     0
 10
0.0
 20
0.0
 30
0.0
  3
*Paper_Space
  1

  0
ENDBLK
  5
1D
330
1B
100
AcDbEntity
 67
     1
  8
0
100
AcDbBlockEnd
  0
BLOCK
  5
24
330
23
100
AcDbEntity
 67
     1
  8
0
100
AcDbBlockBegin
  2
*Paper_Space0
 70
     0
 10
0.0
 20
0.0
 30
0.0
  3
*Paper_Space0
  1

  0
ENDBLK
  5
25
330
23
100
AcDbEntity
 67
     1
  8
0
100
AcDbBlockEnd
  0
ENDSEC
  0
SECTION
  2
ENTITIES
  0
LINE
  5
332
102
{ACAD_REACTORS
330
8BE
102
}
330
1F
100
AcDbEntity
  8
実線
100
AcDbLine
 10
786.9252861492127
 20
871.0831316740078
 30
0.0
 11
718.0024559180966
 21
871.0831316740078
 31
0.0
  0
LINE
  5
333
102
{ACAD_REACTORS
330
8BE
102
}
330
1F
100
AcDbEntity
  8
実線
100
AcDbLine
 10
768.1462606142897
 20
829.3831316740075
 30
0.0
 11
786.9252861492127
 21
829.3831316740075
 31
0.0
  0
LINE
  5
334
102
{ACAD_REACTORS
330
8BE
102
}
330
1F
100
AcDbEntity
  8
実線
100
AcDbLine
 10
747.1752861492127
 20
829.3831316740075
 30
0.0
 11
753.0559159500835
 21
829.3831316740075
 31
0.0
  0
LINE
  5
335
102
{ACAD_REACTORS
330
8BE
102
}
330
1F
100
AcDbEntity
  8
実線
100
AcDbLine
 10
786.9252861492127
 20
829.3831316740075
 30
0.0
 11
789.2752861492127
 21
824.9831316740078
 31
0.0
  0
LINE
  5
336
102
{ACAD_REACTORS
330
8BE
102
}
330
1F
100
AcDbEntity
  8
実線
100
AcDbLine
 10
789.2752861492127
 20
875.4831316740069
 30
0.0
 11
786.9252861492127
 21
871.0831316740078
 31
0.0
  0
LINE
  5
337
102
{ACAD_REACTORS
330
8BE
102
}
330
1F
100
AcDbEntity
  8
実線
100
AcDbLine
 10
786.9252861492127
 20
829.3831316740075
 30
0.0
 11
786.9252861492127
 21
871.0831316740078
 31
0.0
  0
LINE
  5
338
102
{ACAD_REACTORS
330
8BE
102
}
330
1F
100
AcDbEntity
  8
実線
100
AcDbLine
 10
792.0252861492127
 20
875.4831316740069
 30
0.0
 11
789.2752861492127
 21
875.4831316740069
 31
0.0
  0
LINE
  5
339
102
{ACAD_REACTORS
330
8BE
102
}
330
1F
100
AcDbEntity
  8
実線
100
AcDbLine
 10
789.2752861492127
 20
824.9831316740078
 30
0.0
 11
792.0252861492127
 21
824.9831316740078
 31
0.0
  0
LINE
  5
33A
102
{ACAD_REACTORS
330
8BE
102
}
330
1F
100
AcDbEntity
  8
実線
100
AcDbLine
 10
792.0252861492127
 20
875.4831316740069
 30
0.0
 11
792.0252861492127
 21
824.9831316740078
 31
0.0
  0
LINE
  5
33B
102
{ACAD_REACTORS
330
8BE
102
}
330
1F
100
AcDbEntity
  8
実線
100
AcDbLine
 10
789.2752861492127
 20
875.4831316740069
 30
0.0
 11
789.2752861492127
 21
824.9831316740078
 31
0.0
  0
LINE
  5
33C
102
{ACAD_REACTORS
330
8BE
102
}
330
1F
100
AcDbEntity
  8
実線
100
AcDbLine
 10
690.5252861492132
 20
831.7331316740078
 30
0.0
 11
671.6385210741178
 21
831.7331316740078
 31
0.0
  0
LINE
  5
33D
102
{ACAD_REACTORS
330
8BE
102
}
330
1F
100
AcDbEntity
  8
実線
100
AcDbLine
 10
747.1752861492127
 20
831.7331316740078
 30
0.0
 11
725.5252861492127
 21
831.7331316740078
 31
0.0
  0
LINE
  5
33E
102
{ACAD_REACTORS
330
8BE
102
}
330
1F
100
AcDbEntity
  8
実線
100
AcDbLine
 10
747.1752861492127
 20
823.7322498225648
 30
0.0
 11
747.1752861492127
 21
831.7331316740078
 31
0.0
  0
LINE
  5
33F
102
{ACAD_REACTORS
330
8BE
102
}
330
1F
100
AcDbEntity
  8
実線
100
AcDbLine
 10
747.1752861492127
 20
802.2331316740068
 30
0.0
 11
747.1752861492127
 21
811.7340135254497
 31
0.0
  0
LINE
  5
340
102
{ACAD_REACTORS
330
8BE
102
}
330
1F
100
AcDbEntity
  8
実線
100
AcDbLine
 10
668.8752861492132
 20
801.0604968137558
 30
0.0
 11
668.8752861492132
 21
800.7331316740067
 31
0.0
  0
LINE
  5
341
102
{ACAD_REACTORS
330
8BE
102
}
330
1F
100
AcDbEntity
  8
実線
100
AcDbLine
 10
668.8752861492132
 20
822.0831316740078
 30
0.0
 11
668.8752861492132
 21
821.4057665342588
 31
0.0
  0
LINE
  5
342
102
{ACAD_REACTORS
330
8BE
102
}
330
1F
100
AcDbEntity
  8
実線
100
AcDbLine
 10
690.5252861492132
 20
813.2331316740076
 30
0.0
 11
725.5252861492127
 21
813.2331316740076
 31
0.0
  0
LINE
  5
343
102
{ACAD_REACTORS
330
8BE
102
}
330
1F
100
AcDbEntity
  8
実線
100
AcDbLine
 10
725.5252861492127
 20
848.2331316740078
 30
0.0
 11
690.5252861492132
 21
848.2331316740078
 31
0.0
  0
LINE
  5
344
102
{ACAD_REACTORS
330
8BE
102
}
330
1F
100
AcDbEntity
  8
実線
100
AcDbLine
 10
725.5252861492127
 20
813.2331316740076
 30
0.0
 11
725.5252861492127
 21
848.2331316740078
 31
0.0
  0
LINE
  5
345
102
{ACAD_REACTORS
330
8BE
102
}
330
1F
100
AcDbEntity
  8
実線
100
AcDbLine
 10
690.5252861492132
 20
813.2331316740076
 30
0.0
 11
690.5252861492132
 21
848.2331316740078
 31
0.0
  0
LINE
  5
346
102
{ACAD_REACTORS
330
8BE
102
}
330
1F
100
AcDbEntity
  8
実線
100
AcDbLine
 10
602.1252861492131
 20
790.3831316740076
 30
0.0
 11
645.5252861492132
 21
790.3831316740076
 31
0.0
  0
LINE
  5
347
102
{ACAD_REACTORS
330
8BE
102
}
330
1F
100
AcDbEntity
  8
実線
100
AcDbLine
 10
638.2435205847037
 20
832.0831316740068
 30
0.0
 11
602.1252861492131
 21
832.0831316740068
 31
0.0
  0
LINE
  5
348
102
{ACAD_REACTORS
330
8BE
102
}
330
1F
100
AcDbEntity
  8
実線
100
AcDbLine
 10
597.0252861492131
 20
785.9831316740077
 30
0.0
 11
599.7752861492131
 21
785.9831316740077
 31
0.0
  0
LINE
  5
349
102
{ACAD_REACTORS
330
8BE
102
}
330
1F
100
AcDbEntity
  8
実線
100
AcDbLine
 10
599.7752861492131
 20
836.4831316740078
 30
0.0
 11
597.0252861492131
 21
836.4831316740078
 31
0.0
  0
LINE
  5
34A
102
{ACAD_REACTORS
330
8BE
102
}
330
1F
100
AcDbEntity
  8
実線
100
AcDbLine
 10
597.0252861492131
 20
836.4831316740078
 30
0.0
 11
597.0252861492131
 21
785.9831316740077
 31
0.0
  0
LINE
  5
34B
102
{ACAD_REACTORS
330
8BE
102
}
330
1F
100
AcDbEntity
  8
実線
100
AcDbLine
 10
602.1252861492131
 20
832.0831316740068
 30
0.0
 11
599.7752861492131
 21
836.4831316740078
 31
0.0
  0
LINE
  5
34C
102
{ACAD_REACTORS
330
8BE
102
}
330
1F
100
AcDbEntity
  8
実線
100
AcDbLine
 10
599.7752861492131
 20
785.9831316740077
 30
0.0
 11
602.1252861492131
 21
790.3831316740076
 31
0.0
  0
LINE
  5
34D
102
{ACAD_REACTORS
330
8BE
102
}
330
1F
100
AcDbEntity
  8
実線
100
AcDbLine
 10
599.7752861492131
 20
836.4831316740078
 30
0.0
 11
599.7752861492131
 21
785.9831316740077
 31
0.0
  0
LINE
  5
34E
102
{ACAD_REACTORS
330
8BE
102
}
330
1F
100
AcDbEntity
  8
実線
100
AcDbLine
 10
602.1252861492131
 20
832.0831316740068
 30
0.0
 11
602.1252861492131
 21
790.3831316740076
 31
0.0
  0
ELLIPSE
  5
34F
102
{ACAD_REACTORS
330
8BE
102
}
330
1F
100
AcDbEntity
  8
実線
100
AcDbEllipse
 10
747.2104684359877
 20
817.7331316740076
 30
0.0
 11
0.0
 21
6.0
 31
0.0
210
0.0
220
0.0
230
1.0
 40
0.3420201433256689
 41
1.570796326794897
 42
3.141592653589792
  0
LINE
  5
350
102
{ACAD_REACTORS
330
8BE
102
}
330
1F
100
AcDbEntity
  8
実線
100
AcDbLine
 10
753.0559159500835
 20
823.7331316740078
 30
0.0
 11
747.2104684359877
 21
823.7331316740078
 31
0.0
  0
LINE
  5
351
102
{ACAD_REACTORS
330
8BE
102
}
330
1F
100
AcDbEntity
  8
実線
100
AcDbLine
 10
805.4714109247138
 20
823.7331316740078
 30
0.0
 11
761.3058577477756
 21
823.7331316740078
 31
0.0
  0
LINE
  5
352
102
{ACAD_REACTORS
330
8BE
102
}
330
1F
100
AcDbEntity
  8
実線
100
AcDbLine
 10
761.3058577477756
 20
811.7331316740068
 30
0.0
 11
805.4714109247138
 21
811.7331316740068
 31
0.0
  0
LINE
  5
353
102
{ACAD_REACTORS
330
8BE
102
}
330
1F
100
AcDbEntity
  8
実線
100
AcDbLine
 10
747.2104684359877
 20
811.7331316740068
 30
0.0
 11
753.0559159500835
 21
811.7331316740068
 31
0.0
  0
ELLIPSE
  5
354
102
{ACAD_REACTORS
330
8BE
102
}
330
1F
100
AcDbEntity
  8
実線
100
AcDbEllipse
 10
747.2104684359877
 20
817.7331316740076
 30
0.0
 11
0.0
 21
6.0
 31
0.0
210
0.0
220
0.0
230
1.0
 40
0.3420201433256689
 41
0.0
 42
1.570796326794897
  0
ELLIPSE
  5
355
102
{ACAD_REACTORS
330
8BE
102
}
330
1F
100
AcDbEntity
  8
実線
100
AcDbEllipse
 10
805.4714109247138
 20
817.7331316740076
 30
0.0
 11
0.0
 21
6.0
 31
0.0
210
0.0
220
0.0
230
1.0
 40
0.3420201433256689
 41
0.0
 42
3.141592653589792
  0
ELLIPSE
  5
356
102
{ACAD_REACTORS
330
8BE
102
}
330
1F
100
AcDbEntity
  8
実線
100
AcDbEllipse
 10
805.4714109247138
 20
817.7331316740076
 30
0.0
 11
0.0
 21
6.0
 31
0.0
210
0.0
220
0.0
230
1.0
 40
0.3420201433256689
 41
4.71238898038469
 42
6.283185307179584
  0
ELLIPSE
  5
357
102
{ACAD_REACTORS
330
8BE
102
}
330
1F
100
AcDbEntity
  8
実線
100
AcDbEllipse
 10
805.4714109247138
 20
817.7331316740076
 30
0.0
 11
0.0
 21
6.0
 31
0.0
210
0.0
220
0.0
230
1.0
 40
0.3420201433256689
 41
3.141592653589792
 42
4.71238898038469
  0
LINE
  5
358
102
{ACAD_REACTORS
330
8BE
102
}
330
1F
100
AcDbEntity
  8
実線
100
AcDbLine
 10
752.9700970588597
 20
758.9331316740068
 30
0.0
 11
767.4700970588596
 21
758.9331316740068
 31
0.0
  0
LINE
  5
359
102
{ACAD_REACTORS
330
8BE
102
}
330
1F
100
AcDbEntity
  8
実線
100
AcDbLine
 10
767.4700970588596
 20
758.9331316740068
 30
0.0
 11
767.4700970588596
 21
764.8331316740076
 31
0.0
  0
LINE
  5
35A
102
{ACAD_REACTORS
330
8BE
102
}
330
1F
100
AcDbEntity
  8
実線
100
AcDbLine
 10
752.9700970588597
 20
764.8331316740076
 30
0.0
 11
752.9700970588597
 21
758.9331316740068
 31
0.0
  0
LINE
  5
35B
102
{ACAD_REACTORS
330
8BE
102
}
330
1F
100
AcDbEntity
  8
実線
100
AcDbLine
 10
709.9786395655605
 20
758.9331316740068
 30
0.0
 11
724.4786395655605
 21
758.9331316740068
 31
0.0
  0
LINE
  5
35C
102
{ACAD_REACTORS
330
8BE
102
}
330
1F
100
AcDbEntity
  8
実線
100
AcDbLine
 10
724.4786395655605
 20
758.9331316740068
 30
0.0
 11
724.4786395655605
 21
764.8331316740076
 31
0.0
  0
LINE
  5
35D
102
{ACAD_REACTORS
330
8BE
102
}
330
1F
100
AcDbEntity
  8
実線
100
AcDbLine
 10
709.9786395655605
 20
764.8331316740076
 30
0.0
 11
709.9786395655605
 21
758.9331316740068
 31
0.0
  0
LINE
  5
35E
102
{ACAD_REACTORS
330
8BE
102
}
330
1F
100
AcDbEntity
  8
実線
100
AcDbLine
 10
691.5719327328661
 20
758.9331316740068
 30
0.0
 11
706.0719327328656
 21
758.9331316740068
 31
0.0
  0
LINE
  5
35F
102
{ACAD_REACTORS
330
8BE
102
}
330
1F
100
AcDbEntity
  8
実線
100
AcDbLine
 10
706.0719327328656
 20
758.9331316740068
 30
0.0
 11
706.0719327328656
 21
764.8331316740076
 31
0.0
  0
LINE
  5
360
102
{ACAD_REACTORS
330
8BE
102
}
330
1F
100
AcDbEntity
  8
実線
100
AcDbLine
 10
691.5719327328661
 20
764.8331316740076
 30
0.0
 11
691.5719327328661
 21
758.9331316740068
 31
0.0
  0
LINE
  5
361
102
{ACAD_REACTORS
330
8BE
102
}
330
1F
100
AcDbEntity
  8
実線
100
AcDbLine
 10
648.5804752395661
 20
758.9331316740068
 30
0.0
 11
663.0804752395661
 21
758.9331316740068
 31
0.0
  0
LINE
  5
362
102
{ACAD_REACTORS
330
8BE
102
}
330
1F
100
AcDbEntity
  8
実線
100
AcDbLine
 10
663.0804752395661
 20
758.9331316740068
 30
0.0
 11
663.0804752395661
 21
764.8331316740076
 31
0.0
  0
LINE
  5
363
102
{ACAD_REACTORS
330
8BE
102
}
330
1F
100
AcDbEntity
  8
実線
100
AcDbLine
 10
648.5804752395661
 20
764.8331316740076
 30
0.0
 11
648.5804752395661
 21
758.9331316740068
 31
0.0
  0
LINE
  5
364
102
{ACAD_REACTORS
330
8BE
102
}
330
1F
100
AcDbEntity
  8
実線
100
AcDbLine
 10
708.2286395655605
 20
764.8331316740076
 30
0.0
 11
726.2286395655605
 21
764.8331316740076
 31
0.0
  0
LINE
  5
365
102
{ACAD_REACTORS
330
8BE
102
}
330
1F
100
AcDbEntity
  8
実線
100
AcDbLine
 10
726.2286395655605
 20
764.8331316740076
 30
0.0
 11
726.2286395655605
 21
776.4331316740069
 31
0.0
  0
LINE
  5
366
102
{ACAD_REACTORS
330
8BE
102
}
330
1F
100
AcDbEntity
  8
実線
100
AcDbLine
 10
708.2286395655605
 20
776.4331316740069
 30
0.0
 11
708.2286395655605
 21
764.8331316740076
 31
0.0
  0
LINE
  5
367
102
{ACAD_REACTORS
330
8BE
102
}
330
1F
100
AcDbEntity
  8
実線
100
AcDbLine
 10
689.8219327328661
 20
764.8331316740076
 30
0.0
 11
707.8219327328656
 21
764.8331316740076
 31
0.0
  0
LINE
  5
368
102
{ACAD_REACTORS
330
8BE
102
}
330
1F
100
AcDbEntity
  8
実線
100
AcDbLine
 10
707.8219327328656
 20
764.8331316740076
 30
0.0
 11
707.8219327328656
 21
776.4331316740069
 31
0.0
  0
LINE
  5
369
102
{ACAD_REACTORS
330
8BE
102
}
330
1F
100
AcDbEntity
  8
実線
100
AcDbLine
 10
689.8219327328661
 20
776.4331316740069
 30
0.0
 11
689.8219327328661
 21
764.8331316740076
 31
0.0
  0
LINE
  5
36A
102
{ACAD_REACTORS
330
8BE
102
}
330
1F
100
AcDbEntity
  8
実線
100
AcDbLine
 10
751.2200970588605
 20
764.8331316740076
 30
0.0
 11
769.2200970588596
 21
764.8331316740076
 31
0.0
  0
LINE
  5
36B
102
{ACAD_REACTORS
330
8BE
102
}
330
1F
100
AcDbEntity
  8
実線
100
AcDbLine
 10
769.2200970588596
 20
764.8331316740076
 30
0.0
 11
769.2200970588596
 21
776.4331316740069
 31
0.0
  0
LINE
  5
36C
102
{ACAD_REACTORS
330
8BE
102
}
330
1F
100
AcDbEntity
  8
実線
100
AcDbLine
 10
751.2200970588597
 20
776.4331316740069
 30
0.0
 11
751.2200970588597
 21
764.8331316740076
 31
0.0
  0
LINE
  5
36D
102
{ACAD_REACTORS
330
8BE
102
}
330
1F
100
AcDbEntity
  8
実線
100
AcDbLine
 10
646.8304752395661
 20
764.8331316740076
 30
0.0
 11
664.830475239566
 21
764.8331316740076
 31
0.0
  0
LINE
  5
36E
102
{ACAD_REACTORS
330
8BE
102
}
330
1F
100
AcDbEntity
  8
実線
100
AcDbLine
 10
664.830475239566
 20
764.8331316740076
 30
0.0
 11
664.830475239566
 21
776.4331316740069
 31
0.0
  0
LINE
  5
36F
102
{ACAD_REACTORS
330
8BE
102
}
330
1F
100
AcDbEntity
  8
実線
100
AcDbLine
 10
646.8304752395661
 20
776.4331316740069
 30
0.0
 11
646.8304752395661
 21
764.8331316740076
 31
0.0
  0
LINE
  5
370
102
{ACAD_REACTORS
330
8BE
102
}
330
1F
100
AcDbEntity
  8
実線
100
AcDbLine
 10
677.0252861492132
 20
891.7331316740078
 30
0.0
 11
677.0252861492132
 21
918.7331316740078
 31
0.0
  0
LINE
  5
371
102
{ACAD_REACTORS
330
8BE
102
}
330
1F
100
AcDbEntity
  8
実線
100
AcDbLine
 10
665.0252861492132
 20
918.7331316740078
 30
0.0
 11
665.0252861492132
 21
891.7331316740078
 31
0.0
  0
LINE
  5
372
102
{ACAD_REACTORS
330
8BE
102
}
330
1F
100
AcDbEntity
  8
実線
100
AcDbLine
 10
718.0024559180966
 20
891.7331316740078
 30
0.0
 11
624.0481163803292
 21
891.7331316740078
 31
0.0
  0
LINE
  5
373
102
{ACAD_REACTORS
330
8BE
102
}
330
1F
100
AcDbEntity
  8
実線
100
AcDbLine
 10
718.0024559180966
 20
878.2331316740069
 30
0.0
 11
624.0481163803292
 21
878.2331316740069
 31
0.0
  0
LINE
  5
374
102
{ACAD_REACTORS
330
8BE
102
}
330
1F
100
AcDbEntity
  8
実線
100
AcDbLine
 10
624.0481163803292
 20
891.7331316740078
 30
0.0
 11
624.0481163803292
 21
878.2331316740069
 31
0.0
  0
LINE
  5
375
102
{ACAD_REACTORS
330
8BE
102
}
330
1F
100
AcDbEntity
  8
実線
100
AcDbLine
 10
718.0024559180966
 20
878.2331316740069
 30
0.0
 11
718.0024559180966
 21
891.7331316740078
 31
0.0
  0
LINE
  5
376
102
{ACAD_REACTORS
330
8BE
102
}
330
1F
100
AcDbEntity
  8
実線
100
AcDbLine
 10
689.0541829596372
 20
891.7331316740078
 30
0.0
 11
689.0541829596372
 21
878.2331316740069
 31
0.0
  0
LINE
  5
377
102
{ACAD_REACTORS
330
8BE
102
}
330
1F
100
AcDbEntity
  8
実線
100
AcDbLine
 10
652.9963893387893
 20
891.7331316740078
 30
0.0
 11
652.9963893387893
 21
878.2331316740069
 31
0.0
  0
LINE
  5
378
102
{ACAD_REACTORS
330
8BE
102
}
330
1F
100
AcDbEntity
  8
実線
100
AcDbLine
 10
621.0252861492132
 20
962.2331316740078
 30
0.0
 11
721.0252861492127
 21
962.2331316740078
 31
0.0
  0
LINE
  5
379
102
{ACAD_REACTORS
330
8BE
102
}
330
1F
100
AcDbEntity
  8
実線
100
AcDbLine
 10
721.0252861492127
 20
962.2331316740078
 30
0.0
 11
721.0252861492127
 21
1038.233131674006
 31
0.0
  0
LINE
  5
37A
102
{ACAD_REACTORS
330
8BE
102
}
330
1F
100
AcDbEntity
  8
実線
100
AcDbLine
 10
621.0252861492132
 20
1038.233131674006
 30
0.0
 11
621.0252861492132
 21
962.2331316740078
 31
0.0
  0
LINE
  5
37B
102
{ACAD_REACTORS
330
8BE
102
}
330
1F
100
AcDbEntity
  8
実線
100
AcDbLine
 10
627.0252861492132
 20
1067.233131674008
 30
0.0
 11
715.0252861492137
 21
1067.233131674008
 31
0.0
  0
LINE
  5
37C
102
{ACAD_REACTORS
330
8BE
102
}
330
1F
100
AcDbEntity
  8
実線
100
AcDbLine
 10
714.3252861492126
 20
1070.933131674007
 30
0.0
 11
627.7252861492132
 21
1070.933131674007
 31
0.0
  0
LINE
  5
37D
102
{ACAD_REACTORS
330
8BE
102
}
330
1F
100
AcDbEntity
  8
実線
100
AcDbLine
 10
627.7252861492132
 20
1070.933131674007
 30
0.0
 11
627.0252861492132
 21
1067.233131674008
 31
0.0
  0
LINE
  5
37E
102
{ACAD_REACTORS
330
8BE
102
}
330
1F
100
AcDbEntity
  8
実線
100
AcDbLine
 10
715.0252861492137
 20
1067.233131674008
 30
0.0
 11
714.3252861492126
 21
1070.933131674007
 31
0.0
  0
LINE
  5
37F
102
{ACAD_REACTORS
330
8BE
102
}
330
1F
100
AcDbEntity
  8
実線
100
AcDbLine
 10
628.5252861492132
 20
1183.933131674008
 30
0.0
 11
713.5252861492126
 21
1183.933131674008
 31
0.0
  0
LINE
  5
380
102
{ACAD_REACTORS
330
8BE
102
}
330
1F
100
AcDbEntity
  8
実線
100
AcDbLine
 10
687.5252861492132
 20
1193.133131674008
 30
0.0
 11
654.5252861492132
 21
1193.133131674008
 31
0.0
  0
LINE
  5
381
102
{ACAD_REACTORS
330
8BE
102
}
330
1F
100
AcDbEntity
  8
実線
100
AcDbLine
 10
654.5252861492132
 20
1193.133131674008
 30
0.0
 11
628.5252861492131
 21
1183.933131674008
 31
0.0
  0
LINE
  5
382
102
{ACAD_REACTORS
330
8BE
102
}
330
1F
100
AcDbEntity
  8
実線
100
AcDbLine
 10
713.5252861492126
 20
1183.933131674008
 30
0.0
 11
687.5252861492132
 21
1193.133131674008
 31
0.0
  0
LINE
  5
383
102
{ACAD_REACTORS
330
8BE
102
}
330
1F
100
AcDbEntity
  8
実線
100
AcDbLine
 10
713.5252861492126
 20
1106.933131674007
 30
0.0
 11
713.5252861492126
 21
1183.933131674008
 31
0.0
  0
LINE
  5
384
102
{ACAD_REACTORS
330
8BE
102
}
330
1F
100
AcDbEntity
  8
実線
100
AcDbLine
 10
628.5252861492132
 20
1183.933131674008
 30
0.0
 11
628.5252861492132
 21
1106.933131674007
 31
0.0
  0
LINE
  5
385
102
{ACAD_REACTORS
330
8BE
102
}
330
1F
100
AcDbEntity
  8
実線
100
AcDbLine
 10
714.3252861492126
 20
1106.933131674007
 30
0.0
 11
627.7252861492132
 21
1106.933131674007
 31
0.0
  0
LINE
  5
386
102
{ACAD_REACTORS
330
8BE
102
}
330
1F
100
AcDbEntity
  8
実線
100
AcDbLine
 10
714.3252861492126
 20
1070.933131674007
 30
0.0
 11
714.3252861492126
 21
1106.933131674007
 31
0.0
  0
LINE
  5
387
102
{ACAD_REACTORS
330
8BE
102
}
330
1F
100
AcDbEntity
  8
実線
100
AcDbLine
 10
627.7252861492132
 20
1106.933131674007
 30
0.0
 11
627.7252861492132
 21
1070.933131674007
 31
0.0
  0
LINE
  5
388
102
{ACAD_REACTORS
330
8BE
102
}
330
1F
100
AcDbEntity
  8
実線
100
AcDbLine
 10
684.0252861492132
 20
1054.233131674006
 30
0.0
 11
684.0252861492132
 21
1067.233131674008
 31
0.0
  0
LINE
  5
389
102
{ACAD_REACTORS
330
8BE
102
}
330
1F
100
AcDbEntity
  8
実線
100
AcDbLine
 10
658.0252861492132
 20
1067.233131674008
 30
0.0
 11
658.0252861492132
 21
1054.233131674006
 31
0.0
  0
LINE
  5
38A
102
{ACAD_REACTORS
330
8BE
102
}
330
1F
100
AcDbEntity
  8
実線
100
AcDbLine
 10
706.0252861492126
 20
1054.233131674006
 30
0.0
 11
636.0252861492132
 21
1054.233131674006
 31
0.0
  0
LINE
  5
38B
102
{ACAD_REACTORS
330
8BE
102
}
330
1F
100
AcDbEntity
  8
実線
100
AcDbLine
 10
706.0252861492126
 20
1042.733131674008
 30
0.0
 11
706.0252861492126
 21
1054.233131674006
 31
0.0
  0
LINE
  5
38C
102
{ACAD_REACTORS
330
8BE
102
}
330
1F
100
AcDbEntity
  8
実線
100
AcDbLine
 10
636.0252861492132
 20
1054.233131674006
 30
0.0
 11
636.0252861492132
 21
1042.733131674008
 31
0.0
  0
LINE
  5
38D
102
{ACAD_REACTORS
330
8BE
102
}
330
1F
100
AcDbEntity
  8
実線
100
AcDbLine
 10
718.0024559180966
 20
868.233131674007
 30
0.0
 11
624.0481163803292
 21
868.233131674007
 31
0.0
  0
LINE
  5
38E
102
{ACAD_REACTORS
330
8BE
102
}
330
1F
100
AcDbEntity
  8
実線
100
AcDbLine
 10
624.0481163803292
 20
878.2331316740069
 30
0.0
 11
624.0481163803292
 21
868.233131674007
 31
0.0
  0
LINE
  5
38F
102
{ACAD_REACTORS
330
8BE
102
}
330
1F
100
AcDbEntity
  8
実線
100
AcDbLine
 10
718.0024559180966
 20
868.233131674007
 30
0.0
 11
718.0024559180966
 21
878.2331316740069
 31
0.0
  0
LINE
  5
390
102
{ACAD_REACTORS
330
8BE
102
}
330
1F
100
AcDbEntity
  8
実線
100
AcDbLine
 10
689.0541829596372
 20
878.2331316740069
 30
0.0
 11
689.0541829596372
 21
868.233131674007
 31
0.0
  0
LINE
  5
391
102
{ACAD_REACTORS
330
8BE
102
}
330
1F
100
AcDbEntity
  8
実線
100
AcDbLine
 10
652.9963893387893
 20
878.2331316740069
 30
0.0
 11
652.9963893387893
 21
868.233131674007
 31
0.0
  0
LINE
  5
392
102
{ACAD_REACTORS
330
8BE
102
}
330
1F
100
AcDbEntity
  8
実線
100
AcDbLine
 10
746.0252861492127
 20
860.7331316740078
 30
0.0
 11
698.778946463007
 21
860.7331316740078
 31
0.0
  0
LINE
  5
393
102
{ACAD_REACTORS
330
8BE
102
}
330
1F
100
AcDbEntity
  8
実線
100
AcDbLine
 10
746.0252861492127
 20
831.7331316740078
 30
0.0
 11
746.0252861492127
 21
860.7331316740078
 31
0.0
  0
LINE
  5
394
102
{ACAD_REACTORS
330
8BE
102
}
330
1F
100
AcDbEntity
  8
実線
100
AcDbLine
 10
770.5252861492127
 20
788.7331316740077
 30
0.0
 11
645.5252861492132
 21
788.7331316740077
 31
0.0
  0
LINE
  5
395
102
{ACAD_REACTORS
330
8BE
102
}
330
1F
100
AcDbEntity
  8
実線
100
AcDbLine
 10
645.5252861492132
 20
800.7331316740067
 30
0.0
 11
770.5252861492127
 21
800.7331316740067
 31
0.0
  0
LINE
  5
396
102
{ACAD_REACTORS
330
8BE
102
}
330
1F
100
AcDbEntity
  8
実線
100
AcDbLine
 10
645.5252861492132
 20
800.7331316740067
 30
0.0
 11
645.5252861492132
 21
788.7331316740077
 31
0.0
  0
LINE
  5
397
102
{ACAD_REACTORS
330
8BE
102
}
330
1F
100
AcDbEntity
  8
実線
100
AcDbLine
 10
770.5252861492127
 20
788.7331316740077
 30
0.0
 11
770.5252861492127
 21
800.7331316740067
 31
0.0
  0
LINE
  5
398
102
{ACAD_REACTORS
330
8BE
102
}
330
1F
100
AcDbEntity
  8
実線
100
AcDbLine
 10
675.5252861492132
 20
788.7331316740077
 30
0.0
 11
675.5252861492132
 21
800.7331316740067
 31
0.0
  0
LINE
  5
399
102
{ACAD_REACTORS
330
8BE
102
}
330
1F
100
AcDbEntity
  8
実線
100
AcDbLine
 10
740.5252861492126
 20
800.7331316740067
 30
0.0
 11
740.5252861492126
 21
788.7331316740077
 31
0.0
  0
LINE
  5
39A
102
{ACAD_REACTORS
330
8BE
102
}
330
1F
100
AcDbEntity
  8
実線
100
AcDbLine
 10
768.1462606142897
 20
823.7331316740078
 30
0.0
 11
768.1462606142897
 21
830.7331316740079
 31
0.0
  0
LINE
  5
39B
102
{ACAD_REACTORS
330
8BE
102
}
330
1F
100
AcDbEntity
  8
実線
100
AcDbLine
 10
768.1462606142897
 20
800.7331316740067
 30
0.0
 11
768.1462606142897
 21
811.7331316740068
 31
0.0
  0
LINE
  5
39C
102
{ACAD_REACTORS
330
8BE
102
}
330
1F
100
AcDbEntity
  8
実線
100
AcDbLine
 10
768.1462606142897
 20
830.7331316740079
 30
0.0
 11
753.0559159500835
 21
830.7331316740079
 31
0.0
  0
LINE
  5
39D
102
{ACAD_REACTORS
330
8BE
102
}
330
1F
100
AcDbEntity
  8
実線
100
AcDbLine
 10
754.4654548812627
 20
800.7331316740067
 30
0.0
 11
754.4654548812627
 21
830.7331316740079
 31
0.0
  0
LINE
  5
39E
102
{ACAD_REACTORS
330
8BE
102
}
330
1F
100
AcDbEntity
  8
実線
100
AcDbLine
 10
753.0559159500835
 20
802.2331316740068
 30
0.0
 11
753.0559159500835
 21
830.7331316740079
 31
0.0
  0
LINE
  5
39F
102
{ACAD_REACTORS
330
8BE
102
}
330
1F
100
AcDbEntity
  8
実線
100
AcDbLine
 10
753.0559159500835
 20
802.2331316740068
 30
0.0
 11
740.3700655694738
 21
802.2331316740068
 31
0.0
  0
LINE
  5
3A0
102
{ACAD_REACTORS
330
8BE
102
}
330
1F
100
AcDbEntity
  8
実線
100
AcDbLine
 10
740.3700655694738
 20
800.7331316740067
 30
0.0
 11
740.3700655694738
 21
802.2331316740068
 31
0.0
  0
LINE
  5
3A1
102
{ACAD_REACTORS
330
8BE
102
}
330
1F
100
AcDbEntity
  8
実線
100
AcDbLine
 10
770.5252861492127
 20
776.4331316740078
 30
0.0
 11
770.5252861492127
 21
788.7331316740077
 31
0.0
  0
LINE
  5
3A2
102
{ACAD_REACTORS
330
8BE
102
}
330
1F
100
AcDbEntity
  8
実線
100
AcDbLine
 10
645.5252861492132
 20
788.7331316740077
 30
0.0
 11
645.5252861492132
 21
776.4331316740078
 31
0.0
  0
LINE
  5
3A3
102
{ACAD_REACTORS
330
8BE
102
}
330
1F
100
AcDbEntity
  8
実線
100
AcDbLine
 10
770.5252861492127
 20
776.4331316740078
 30
0.0
 11
645.5252861492132
 21
776.4331316740078
 31
0.0
  0
ARC
  5
3A4
102
{ACAD_REACTORS
330
8BE
102
}
330
1F
100
AcDbEntity
  8
実線
100
AcDbCircle
 10
647.3252861492133
 20
932.7331316740069
 30
0.0
 40
57.99999999999997
100
AcDbArc
 50
315.0170320400953
 51
346.0320373253454
  0
ARC
  5
3A5
102
{ACAD_REACTORS
330
8BE
102
}
330
1F
100
AcDbEntity
  8
実線
100
AcDbCircle
 10
645.3252861492132
 20
932.7331316740069
 30
0.0
 40
70.00000000000003
100
AcDbArc
 50
324.1465329365346
 51
0.0
  0
LINE
  5
3A6
102
{ACAD_REACTORS
330
8BE
102
}
330
1F
100
AcDbEntity
  8
実線
100
AcDbLine
 10
715.3252861492126
 20
962.2331316740078
 30
0.0
 11
715.3252861492126
 21
932.7331316740069
 31
0.0
  0
ARC
  5
3A7
102
{ACAD_REACTORS
330
8BE
102
}
330
1F
100
AcDbEntity
  8
実線
100
AcDbCircle
 10
694.7252861492132
 20
932.7331316740069
 30
0.0
 40
57.99999999999997
100
AcDbArc
 50
193.9679626746547
 51
224.9829679599048
  0
ARC
  5
3A8
102
{ACAD_REACTORS
330
8BE
102
}
330
1F
100
AcDbEntity
  8
実線
100
AcDbCircle
 10
696.7252861492132
 20
932.7331316740069
 30
0.0
 40
70.00000000000003
100
AcDbArc
 50
180.0
 51
215.8534670634654
  0
LINE
  5
3A9
102
{ACAD_REACTORS
330
8BE
102
}
330
1F
100
AcDbEntity
  8
実線
100
AcDbLine
 10
626.7252861492132
 20
962.2331316740078
 30
0.0
 11
626.7252861492132
 21
932.7331316740069
 31
0.0
  0
LINE
  5
3AA
102
{ACAD_REACTORS
330
8BE
102
}
330
1F
100
AcDbEntity
  8
実線
100
AcDbLine
 10
632.6399048172529
 20
918.7331316740078
 30
0.0
 11
709.4106674811737
 21
918.7331316740078
 31
0.0
  0
LINE
  5
3AB
102
{ACAD_REACTORS
330
8BE
102
}
330
1F
100
AcDbEntity
  8
実線
100
AcDbLine
 10
632.6399048172529
 20
962.2331316740078
 30
0.0
 11
632.6399048172529
 21
918.7331316740078
 31
0.0
  0
LINE
  5
3AC
102
{ACAD_REACTORS
330
8BE
102
}
330
1F
100
AcDbEntity
  8
実線
100
AcDbLine
 10
709.4106674811737
 20
962.2331316740078
 30
0.0
 11
709.4106674811737
 21
918.7331316740078
 31
0.0
  0
LINE
  5
3AD
102
{ACAD_REACTORS
330
8BE
102
}
330
1F
100
AcDbEntity
  8
実線
100
AcDbLine
 10
718.0252861492126
 20
1042.733131674008
 30
0.0
 11
624.0252861492132
 21
1042.733131674008
 31
0.0
  0
ARC
  5
3AE
102
{ACAD_REACTORS
330
8BE
102
}
330
1F
100
AcDbEntity
  8
実線
100
AcDbCircle
 10
718.0252861492126
 20
1039.733131674006
 30
0.0
 40
3.0
100
AcDbArc
 50
0.0
 51
90.0
  0
ARC
  5
3AF
102
{ACAD_REACTORS
330
8BE
102
}
330
1F
100
AcDbEntity
  8
実線
100
AcDbCircle
 10
624.0252861492132
 20
1039.733131674006
 30
0.0
 40
3.0
100
AcDbArc
 50
90.0
 51
180.0
  0
LINE
  5
3B0
102
{ACAD_REACTORS
330
8BE
102
}
330
1F
100
AcDbEntity
  8
実線
100
AcDbLine
 10
721.0252861492127
 20
1038.233131674006
 30
0.0
 11
721.0252861492127
 21
1039.733131674006
 31
0.0
  0
LINE
  5
3B1
102
{ACAD_REACTORS
330
8BE
102
}
330
1F
100
AcDbEntity
  8
実線
100
AcDbLine
 10
621.0252861492132
 20
1039.733131674006
 30
0.0
 11
621.0252861492132
 21
1038.233131674006
 31
0.0
  0
LINE
  5
3B2
102
{ACAD_REACTORS
330
8BE
102
}
330
1F
100
AcDbEntity
  8
実線
100
AcDbLine
 10
721.0252861492127
 20
1038.233131674006
 30
0.0
 11
621.0252861492132
 21
1038.233131674006
 31
0.0
  0
LINE
  5
3B3
102
{ACAD_REACTORS
330
8BE
102
}
330
1F
100
AcDbEntity
  8
実線
100
AcDbLine
 10
668.8752861492132
 20
822.0831316740078
 30
0.0
 11
665.5084207050349
 21
822.0831316740078
 31
0.0
  0
ARC
  5
3B4
102
{ACAD_REACTORS
330
8BE
102
}
330
1F
100
AcDbEntity
  8
実線
100
AcDbCircle
 10
652.3856562084345
 20
837.0831316740067
 30
0.0
 40
15.0
100
AcDbArc
 50
191.7092572469085
 51
199.4712206344914
  0
LINE
  5
3B5
102
{ACAD_REACTORS
330
8BE
102
}
330
1F
100
AcDbEntity
  8
実線
100
AcDbLine
 10
711.0023598817287
 20
866.1225149219498
 30
0.0
 11
711.0252861492126
 21
866.2331316740077
 31
0.0
  0
LINE
  5
3B6
102
{ACAD_REACTORS
330
8BE
102
}
330
1F
100
AcDbEntity
  8
実線
100
AcDbLine
 10
631.0252861492131
 20
866.2331316740077
 30
0.0
 11
637.6978057042639
 21
834.0389490961815
 31
0.0
  0
LINE
  5
3B7
102
{ACAD_REACTORS
330
8BE
102
}
330
1F
100
AcDbEntity
  8
実線
100
AcDbLine
 10
711.0252861492126
 20
866.2331316740077
 30
0.0
 11
711.0252861492126
 21
868.233131674007
 31
0.0
  0
LINE
  5
3B8
102
{ACAD_REACTORS
330
8BE
102
}
330
1F
100
AcDbEntity
  8
実線
100
AcDbLine
 10
631.0252861492131
 20
868.233131674007
 30
0.0
 11
631.0252861492131
 21
866.2331316740077
 31
0.0
  0
LINE
  5
3B9
102
{ACAD_REACTORS
330
8BE
102
}
330
1F
100
AcDbEntity
  8
実線
100
AcDbLine
 10
711.0252861492126
 20
866.2331316740077
 30
0.0
 11
631.0252861492131
 21
866.2331316740077
 31
0.0
  0
LINE
  5
3BC
102
{ACAD_REACTORS
330
8C1
102
}
330
1F
100
AcDbEntity
  8
実線
100
AcDbLine
 10
786.9252861492127
 20
433.0831316740078
 30
0.0
 11
746.0252861492127
 21
433.0831316740078
 31
0.0
  0
LINE
  5
3BD
102
{ACAD_REACTORS
330
8C1
102
}
330
1F
100
AcDbEntity
  8
実線
100
AcDbLine
 10
718.0024559180966
 20
391.3831316740077
 30
0.0
 11
786.9252861492127
 21
391.3831316740077
 31
0.0
  0
LINE
  5
3BE
102
{ACAD_REACTORS
330
8C1
102
}
330
1F
100
AcDbEntity
  8
実線
100
AcDbLine
 10
792.0252861492127
 20
437.4831316740077
 30
0.0
 11
792.0252861492127
 21
386.9831316740079
 31
0.0
  0
LINE
  5
3BF
102
{ACAD_REACTORS
330
8C1
102
}
330
1F
100
AcDbEntity
  8
実線
100
AcDbLine
 10
792.0252861492127
 20
437.4831316740077
 30
0.0
 11
789.2752861492127
 21
437.4831316740077
 31
0.0
  0
LINE
  5
3C0
102
{ACAD_REACTORS
330
8C1
102
}
330
1F
100
AcDbEntity
  8
実線
100
AcDbLine
 10
789.2752861492127
 20
386.9831316740079
 30
0.0
 11
792.0252861492127
 21
386.9831316740079
 31
0.0
  0
LINE
  5
3C1
102
{ACAD_REACTORS
330
8C1
102
}
330
1F
100
AcDbEntity
  8
実線
100
AcDbLine
 10
789.2752861492127
 20
437.4831316740077
 30
0.0
 11
789.2752861492127
 21
386.9831316740079
 31
0.0
  0
LINE
  5
3C2
102
{ACAD_REACTORS
330
8C1
102
}
330
1F
100
AcDbEntity
  8
実線
100
AcDbLine
 10
786.9252861492127
 20
433.0831316740078
 30
0.0
 11
786.9252861492127
 21
391.3831316740077
 31
0.0
  0
LINE
  5
3C3
102
{ACAD_REACTORS
330
8C1
102
}
330
1F
100
AcDbEntity
  8
実線
100
AcDbLine
 10
786.9252861492127
 20
391.3831316740077
 30
0.0
 11
789.2752861492127
 21
386.9831316740079
 31
0.0
  0
LINE
  5
3C4
102
{ACAD_REACTORS
330
8C1
102
}
330
1F
100
AcDbEntity
  8
実線
100
AcDbLine
 10
789.2752861492127
 20
437.4831316740077
 30
0.0
 11
786.9252861492127
 21
433.0831316740076
 31
0.0
  0
LINE
  5
3C5
102
{ACAD_REACTORS
330
8C1
102
}
330
1F
100
AcDbEntity
  8
実線
100
AcDbLine
 10
747.1752861492127
 20
433.0831316740076
 30
0.0
 11
747.1752861492127
 21
461.7331316740076
 31
0.0
  0
LINE
  5
3C6
102
{ACAD_REACTORS
330
8C1
102
}
330
1F
100
AcDbEntity
  8
実線
100
AcDbLine
 10
602.1252861492131
 20
430.3831316740078
 30
0.0
 11
638.2435205847037
 21
430.3831316740078
 31
0.0
  0
LINE
  5
3C7
102
{ACAD_REACTORS
330
8C1
102
}
330
1F
100
AcDbEntity
  8
実線
100
AcDbLine
 10
648.2338988095635
 20
472.0831316740077
 30
0.0
 11
602.1252861492131
 21
472.0831316740077
 31
0.0
  0
LINE
  5
3C8
102
{ACAD_REACTORS
330
8C1
102
}
330
1F
100
AcDbEntity
  8
実線
100
AcDbLine
 10
602.1252861492131
 20
430.3831316740078
 30
0.0
 11
602.1252861492131
 21
472.0831316740077
 31
0.0
  0
LINE
  5
3C9
102
{ACAD_REACTORS
330
8C1
102
}
330
1F
100
AcDbEntity
  8
実線
100
AcDbLine
 10
602.1252861492131
 20
472.0831316740077
 30
0.0
 11
599.7752861492131
 21
476.4831316740077
 31
0.0
  0
LINE
  5
3CA
102
{ACAD_REACTORS
330
8C1
102
}
330
1F
100
AcDbEntity
  8
実線
100
AcDbLine
 10
599.7752861492131
 20
425.9831316740078
 30
0.0
 11
602.1252861492131
 21
430.3831316740078
 31
0.0
  0
LINE
  5
3CB
102
{ACAD_REACTORS
330
8C1
102
}
330
1F
100
AcDbEntity
  8
実線
100
AcDbLine
 10
597.0252861492131
 20
425.9831316740078
 30
0.0
 11
597.0252861492131
 21
476.4831316740077
 31
0.0
  0
LINE
  5
3CC
102
{ACAD_REACTORS
330
8C1
102
}
330
1F
100
AcDbEntity
  8
実線
100
AcDbLine
 10
599.7752861492131
 20
425.9831316740078
 30
0.0
 11
599.7752861492131
 21
476.4831316740077
 31
0.0
  0
LINE
  5
3CD
102
{ACAD_REACTORS
330
8C1
102
}
330
1F
100
AcDbEntity
  8
実線
100
AcDbLine
 10
597.0252861492131
 20
425.9831316740078
 30
0.0
 11
599.7752861492131
 21
425.9831316740078
 31
0.0
  0
LINE
  5
3CE
102
{ACAD_REACTORS
330
8C1
102
}
330
1F
100
AcDbEntity
  8
実線
100
AcDbLine
 10
599.7752861492131
 20
476.4831316740077
 30
0.0
 11
597.0252861492131
 21
476.4831316740077
 31
0.0
  0
LINE
  5
3CF
102
{ACAD_REACTORS
330
8C1
102
}
330
1F
100
AcDbEntity
  8
実線
100
AcDbLine
 10
651.0252861492132
 20
451.2331316740077
 30
0.0
 11
651.0252861492132
 21
421.2331316740078
 31
0.0
  0
LINE
  5
3D0
102
{ACAD_REACTORS
330
8C1
102
}
330
1F
100
AcDbEntity
  8
実線
100
AcDbLine
 10
676.0252861492132
 20
451.2331316740077
 30
0.0
 11
651.0252861492132
 21
451.2331316740077
 31
0.0
  0
LINE
  5
3D1
102
{ACAD_REACTORS
330
8C1
102
}
330
1F
100
AcDbEntity
  8
実線
100
AcDbLine
 10
651.0252861492132
 20
421.2331316740078
 30
0.0
 11
676.0252861492132
 21
421.2331316740078
 31
0.0
  0
LINE
  5
3D2
102
{ACAD_REACTORS
330
8C1
102
}
330
1F
100
AcDbEntity
  8
実線
100
AcDbLine
 10
676.0252861492132
 20
451.2331316740077
 30
0.0
 11
676.0252861492132
 21
421.2331316740078
 31
0.0
  0
ELLIPSE
  5
3D3
102
{ACAD_REACTORS
330
8C1
102
}
330
1F
100
AcDbEntity
  8
実線
100
AcDbEllipse
 10
805.4714109247138
 20
444.7331316740076
 30
0.0
 11
0.0
 21
6.0
 31
0.0
210
0.0
220
0.0
230
1.0
 40
0.3420201433256689
 41
4.71238898038469
 42
6.283185307179584
  0
LINE
  5
3D4
102
{ACAD_REACTORS
330
8C1
102
}
330
1F
100
AcDbEntity
  8
実線
100
AcDbLine
 10
759.8963188165967
 20
450.7331316740077
 30
0.0
 11
747.2104684359877
 21
450.7331316740077
 31
0.0
  0
LINE
  5
3D5
102
{ACAD_REACTORS
330
8C1
102
}
330
1F
100
AcDbEntity
  8
実線
100
AcDbLine
 10
805.4714109247138
 20
450.7331316740077
 30
0.0
 11
768.1462606142897
 21
450.7331316740077
 31
0.0
  0
LINE
  5
3D6
102
{ACAD_REACTORS
330
8C1
102
}
330
1F
100
AcDbEntity
  8
実線
100
AcDbLine
 10
768.1462606142897
 20
438.7331316740077
 30
0.0
 11
805.4714109247138
 21
438.7331316740077
 31
0.0
  0
LINE
  5
3D7
102
{ACAD_REACTORS
330
8C1
102
}
330
1F
100
AcDbEntity
  8
実線
100
AcDbLine
 10
747.2104684359877
 20
438.7331316740077
 30
0.0
 11
759.8963188165967
 21
438.7331316740077
 31
0.0
  0
ELLIPSE
  5
3D8
102
{ACAD_REACTORS
330
8C1
102
}
330
1F
100
AcDbEntity
  8
実線
100
AcDbEllipse
 10
747.2104684359877
 20
444.7331316740076
 30
0.0
 11
0.0
 21
6.0
 31
0.0
210
0.0
220
0.0
230
1.0
 40
0.3420201433256689
 41
3.141592653589792
 42
6.283185307179584
  0
ELLIPSE
  5
3D9
102
{ACAD_REACTORS
330
8C1
102
}
330
1F
100
AcDbEntity
  8
実線
100
AcDbEllipse
 10
747.2104684359877
 20
444.7331316740076
 30
0.0
 11
0.0
 21
6.0
 31
0.0
210
0.0
220
0.0
230
1.0
 40
0.3420201433256689
 41
3.12444745946217
 42
3.141592653589792
  0
ELLIPSE
  5
3DA
102
{ACAD_REACTORS
330
8C1
102
}
330
1F
100
AcDbEntity
  8
実線
100
AcDbEllipse
 10
805.4714109247138
 20
444.7331316740076
 30
0.0
 11
0.0
 21
6.0
 31
0.0
210
0.0
220
0.0
230
1.0
 40
0.3420201433256689
 41
3.141592653589792
 42
4.71238898038469
  0
ELLIPSE
  5
3DB
102
{ACAD_REACTORS
330
8C1
102
}
330
1F
100
AcDbEntity
  8
実線
100
AcDbEllipse
 10
747.2104684359877
 20
444.7331316740076
 30
0.0
 11
0.0
 21
6.0
 31
0.0
210
0.0
220
0.0
230
1.0
 40
0.3420201433256689
 41
0.0
 42
0.0171451941276242
  0
LINE
  5
3DC
102
{ACAD_REACTORS
330
8C1
102
}
330
1F
100
AcDbEntity
  8
実線
100
AcDbLine
 10
752.9700970588597
 20
503.5331316740081
 30
0.0
 11
752.9700970588597
 21
497.633131674008
 31
0.0
  0
LINE
  5
3DD
102
{ACAD_REACTORS
330
8C1
102
}
330
1F
100
AcDbEntity
  8
実線
100
AcDbLine
 10
767.4700970588596
 20
497.633131674008
 30
0.0
 11
767.4700970588596
 21
503.5331316740081
 31
0.0
  0
LINE
  5
3DE
102
{ACAD_REACTORS
330
8C1
102
}
330
1F
100
AcDbEntity
  8
実線
100
AcDbLine
 10
752.9700970588597
 20
503.5331316740081
 30
0.0
 11
767.4700970588596
 21
503.5331316740081
 31
0.0
  0
LINE
  5
3DF
102
{ACAD_REACTORS
330
8C1
102
}
330
1F
100
AcDbEntity
  8
実線
100
AcDbLine
 10
709.9786395655605
 20
503.5331316740081
 30
0.0
 11
709.9786395655605
 21
497.633131674008
 31
0.0
  0
LINE
  5
3E0
102
{ACAD_REACTORS
330
8C1
102
}
330
1F
100
AcDbEntity
  8
実線
100
AcDbLine
 10
724.4786395655605
 20
497.633131674008
 30
0.0
 11
724.4786395655605
 21
503.5331316740081
 31
0.0
  0
LINE
  5
3E1
102
{ACAD_REACTORS
330
8C1
102
}
330
1F
100
AcDbEntity
  8
実線
100
AcDbLine
 10
724.4786395655605
 20
503.5331316740081
 30
0.0
 11
709.9786395655605
 21
503.5331316740081
 31
0.0
  0
LINE
  5
3E2
102
{ACAD_REACTORS
330
8C1
102
}
330
1F
100
AcDbEntity
  8
実線
100
AcDbLine
 10
691.5719327328661
 20
503.5331316740081
 30
0.0
 11
691.5719327328661
 21
497.633131674008
 31
0.0
  0
LINE
  5
3E3
102
{ACAD_REACTORS
330
8C1
102
}
330
1F
100
AcDbEntity
  8
実線
100
AcDbLine
 10
706.0719327328656
 20
497.633131674008
 30
0.0
 11
706.0719327328656
 21
503.5331316740081
 31
0.0
  0
LINE
  5
3E4
102
{ACAD_REACTORS
330
8C1
102
}
330
1F
100
AcDbEntity
  8
実線
100
AcDbLine
 10
706.0719327328656
 20
503.5331316740081
 30
0.0
 11
691.5719327328661
 21
503.5331316740081
 31
0.0
  0
LINE
  5
3E5
102
{ACAD_REACTORS
330
8C1
102
}
330
1F
100
AcDbEntity
  8
実線
100
AcDbLine
 10
648.5804752395661
 20
503.5331316740081
 30
0.0
 11
648.5804752395661
 21
497.633131674008
 31
0.0
  0
LINE
  5
3E6
102
{ACAD_REACTORS
330
8C1
102
}
330
1F
100
AcDbEntity
  8
実線
100
AcDbLine
 10
663.0804752395661
 20
497.633131674008
 30
0.0
 11
663.0804752395661
 21
503.5331316740081
 31
0.0
  0
LINE
  5
3E7
102
{ACAD_REACTORS
330
8C1
102
}
330
1F
100
AcDbEntity
  8
実線
100
AcDbLine
 10
663.0804752395661
 20
503.5331316740081
 30
0.0
 11
648.5804752395661
 21
503.5331316740081
 31
0.0
  0
LINE
  5
3E8
102
{ACAD_REACTORS
330
8C1
102
}
330
1F
100
AcDbEntity
  8
実線
100
AcDbLine
 10
708.2286395655605
 20
497.633131674008
 30
0.0
 11
708.2286395655605
 21
486.0331316740078
 31
0.0
  0
LINE
  5
3E9
102
{ACAD_REACTORS
330
8C1
102
}
330
1F
100
AcDbEntity
  8
実線
100
AcDbLine
 10
726.2286395655605
 20
486.0331316740078
 30
0.0
 11
726.2286395655605
 21
497.633131674008
 31
0.0
  0
LINE
  5
3EA
102
{ACAD_REACTORS
330
8C1
102
}
330
1F
100
AcDbEntity
  8
実線
100
AcDbLine
 10
726.2286395655605
 20
497.633131674008
 30
0.0
 11
708.2286395655605
 21
497.633131674008
 31
0.0
  0
LINE
  5
3EB
102
{ACAD_REACTORS
330
8C1
102
}
330
1F
100
AcDbEntity
  8
実線
100
AcDbLine
 10
689.8219327328661
 20
497.633131674008
 30
0.0
 11
689.8219327328661
 21
486.0331316740078
 31
0.0
  0
LINE
  5
3EC
102
{ACAD_REACTORS
330
8C1
102
}
330
1F
100
AcDbEntity
  8
実線
100
AcDbLine
 10
707.8219327328656
 20
486.0331316740078
 30
0.0
 11
707.8219327328656
 21
497.633131674008
 31
0.0
  0
LINE
  5
3ED
102
{ACAD_REACTORS
330
8C1
102
}
330
1F
100
AcDbEntity
  8
実線
100
AcDbLine
 10
707.8219327328656
 20
497.633131674008
 30
0.0
 11
689.8219327328661
 21
497.633131674008
 31
0.0
  0
LINE
  5
3EE
102
{ACAD_REACTORS
330
8C1
102
}
330
1F
100
AcDbEntity
  8
実線
100
AcDbLine
 10
751.2200970588597
 20
497.633131674008
 30
0.0
 11
751.2200970588597
 21
486.0331316740078
 31
0.0
  0
LINE
  5
3EF
102
{ACAD_REACTORS
330
8C1
102
}
330
1F
100
AcDbEntity
  8
実線
100
AcDbLine
 10
769.2200970588596
 20
486.0331316740078
 30
0.0
 11
769.2200970588596
 21
497.633131674008
 31
0.0
  0
LINE
  5
3F0
102
{ACAD_REACTORS
330
8C1
102
}
330
1F
100
AcDbEntity
  8
実線
100
AcDbLine
 10
751.2200970588605
 20
497.633131674008
 30
0.0
 11
769.2200970588596
 21
497.633131674008
 31
0.0
  0
LINE
  5
3F1
102
{ACAD_REACTORS
330
8C1
102
}
330
1F
100
AcDbEntity
  8
実線
100
AcDbLine
 10
646.8304752395661
 20
497.633131674008
 30
0.0
 11
646.8304752395661
 21
486.0331316740078
 31
0.0
  0
LINE
  5
3F2
102
{ACAD_REACTORS
330
8C1
102
}
330
1F
100
AcDbEntity
  8
実線
100
AcDbLine
 10
664.830475239566
 20
486.0331316740078
 30
0.0
 11
664.830475239566
 21
497.633131674008
 31
0.0
  0
LINE
  5
3F3
102
{ACAD_REACTORS
330
8C1
102
}
330
1F
100
AcDbEntity
  8
実線
100
AcDbLine
 10
664.830475239566
 20
497.633131674008
 30
0.0
 11
646.8304752395661
 21
497.633131674008
 31
0.0
  0
LINE
  5
3F4
102
{ACAD_REACTORS
330
8C1
102
}
330
1F
100
AcDbEntity
  8
実線
100
AcDbLine
 10
665.0252861492132
 20
370.7331316740078
 30
0.0
 11
665.0252861492132
 21
343.7331316740078
 31
0.0
  0
LINE
  5
3F5
102
{ACAD_REACTORS
330
8C1
102
}
330
1F
100
AcDbEntity
  8
実線
100
AcDbLine
 10
677.0252861492132
 20
343.7331316740078
 30
0.0
 11
677.0252861492132
 21
370.7331316740078
 31
0.0
  0
LINE
  5
3F6
102
{ACAD_REACTORS
330
8C1
102
}
330
1F
100
AcDbEntity
  8
実線
100
AcDbLine
 10
718.0024559180966
 20
370.7331316740078
 30
0.0
 11
624.0481163803292
 21
370.7331316740078
 31
0.0
  0
LINE
  5
3F7
102
{ACAD_REACTORS
330
8C1
102
}
330
1F
100
AcDbEntity
  8
実線
100
AcDbLine
 10
624.0481163803292
 20
384.2331316740078
 30
0.0
 11
624.0481163803292
 21
370.7331316740078
 31
0.0
  0
LINE
  5
3F8
102
{ACAD_REACTORS
330
8C1
102
}
330
1F
100
AcDbEntity
  8
実線
100
AcDbLine
 10
718.0024559180966
 20
370.7331316740078
 30
0.0
 11
718.0024559180966
 21
384.2331316740078
 31
0.0
  0
LINE
  5
3F9
102
{ACAD_REACTORS
330
8C1
102
}
330
1F
100
AcDbEntity
  8
実線
100
AcDbLine
 10
689.0541829596372
 20
370.7331316740078
 30
0.0
 11
689.0541829596372
 21
384.2331316740078
 31
0.0
  0
LINE
  5
3FA
102
{ACAD_REACTORS
330
8C1
102
}
330
1F
100
AcDbEntity
  8
実線
100
AcDbLine
 10
652.9963893387893
 20
370.7331316740078
 30
0.0
 11
652.9963893387893
 21
384.2331316740078
 31
0.0
  0
LINE
  5
3FB
102
{ACAD_REACTORS
330
8C1
102
}
330
1F
100
AcDbEntity
  8
実線
100
AcDbLine
 10
621.0252861492132
 20
300.2331316740078
 30
0.0
 11
621.0252861492132
 21
224.2331316740078
 31
0.0
  0
LINE
  5
3FC
102
{ACAD_REACTORS
330
8C1
102
}
330
1F
100
AcDbEntity
  8
実線
100
AcDbLine
 10
721.0252861492127
 20
224.2331316740078
 30
0.0
 11
721.0252861492127
 21
300.2331316740078
 31
0.0
  0
LINE
  5
3FD
102
{ACAD_REACTORS
330
8C1
102
}
330
1F
100
AcDbEntity
  8
実線
100
AcDbLine
 10
621.0252861492132
 20
224.2331316740078
 30
0.0
 11
721.0252861492127
 21
224.2331316740078
 31
0.0
  0
LINE
  5
3FE
102
{ACAD_REACTORS
330
8C1
102
}
330
1F
100
AcDbEntity
  8
実線
100
AcDbLine
 10
621.0252861492132
 20
300.2331316740078
 30
0.0
 11
721.0252861492127
 21
300.2331316740078
 31
0.0
  0
LINE
  5
3FF
102
{ACAD_REACTORS
330
8C1
102
}
330
1F
100
AcDbEntity
  8
実線
100
AcDbLine
 10
714.3252861492126
 20
191.5331316740078
 30
0.0
 11
715.0252861492137
 21
195.2331316740079
 31
0.0
  0
LINE
  5
400
102
{ACAD_REACTORS
330
8C1
102
}
330
1F
100
AcDbEntity
  8
実線
100
AcDbLine
 10
627.0252861492132
 20
195.2331316740079
 30
0.0
 11
627.7252861492132
 21
191.5331316740078
 31
0.0
  0
LINE
  5
401
102
{ACAD_REACTORS
330
8C1
102
}
330
1F
100
AcDbEntity
  8
実線
100
AcDbLine
 10
715.0252861492137
 20
195.2331316740079
 30
0.0
 11
627.0252861492132
 21
195.2331316740079
 31
0.0
  0
LINE
  5
402
102
{ACAD_REACTORS
330
8C1
102
}
330
1F
100
AcDbEntity
  8
実線
100
AcDbLine
 10
687.5252861492132
 20
69.33313167400786
 30
0.0
 11
713.5252861492126
 21
78.5331316740079
 31
0.0
  0
LINE
  5
403
102
{ACAD_REACTORS
330
8C1
102
}
330
1F
100
AcDbEntity
  8
実線
100
AcDbLine
 10
628.5252861492131
 20
78.5331316740079
 30
0.0
 11
654.5252861492132
 21
69.33313167400786
 31
0.0
  0
LINE
  5
404
102
{ACAD_REACTORS
330
8C1
102
}
330
1F
100
AcDbEntity
  8
実線
100
AcDbLine
 10
713.5252861492126
 20
78.5331316740079
 30
0.0
 11
628.5252861492132
 21
78.5331316740079
 31
0.0
  0
LINE
  5
405
102
{ACAD_REACTORS
330
8C1
102
}
330
1F
100
AcDbEntity
  8
実線
100
AcDbLine
 10
654.5252861492132
 20
69.33313167400786
 30
0.0
 11
687.5252861492132
 21
69.33313167400786
 31
0.0
  0
LINE
  5
406
102
{ACAD_REACTORS
330
8C1
102
}
330
1F
100
AcDbEntity
  8
実線
100
AcDbLine
 10
628.5252861492132
 20
155.5331316740078
 30
0.0
 11
628.5252861492132
 21
78.53313167400784
 31
0.0
  0
LINE
  5
407
102
{ACAD_REACTORS
330
8C1
102
}
330
1F
100
AcDbEntity
  8
実線
100
AcDbLine
 10
713.5252861492126
 20
78.53313167400784
 30
0.0
 11
713.5252861492126
 21
155.5331316740078
 31
0.0
  0
LINE
  5
408
102
{ACAD_REACTORS
330
8C1
102
}
330
1F
100
AcDbEntity
  8
実線
100
AcDbLine
 10
627.7252861492132
 20
191.5331316740078
 30
0.0
 11
627.7252861492132
 21
155.5331316740078
 31
0.0
  0
LINE
  5
409
102
{ACAD_REACTORS
330
8C1
102
}
330
1F
100
AcDbEntity
  8
実線
100
AcDbLine
 10
714.3252861492126
 20
155.5331316740078
 30
0.0
 11
714.3252861492126
 21
191.5331316740078
 31
0.0
  0
LINE
  5
40A
102
{ACAD_REACTORS
330
8C1
102
}
330
1F
100
AcDbEntity
  8
実線
100
AcDbLine
 10
627.7252861492132
 20
155.5331316740078
 30
0.0
 11
714.3252861492126
 21
155.5331316740078
 31
0.0
  0
LINE
  5
40B
102
{ACAD_REACTORS
330
8C1
102
}
330
1F
100
AcDbEntity
  8
実線
100
AcDbLine
 10
627.7252861492132
 20
191.5331316740078
 30
0.0
 11
714.3252861492126
 21
191.5331316740078
 31
0.0
  0
LINE
  5
40C
102
{ACAD_REACTORS
330
8C1
102
}
330
1F
100
AcDbEntity
  8
実線
100
AcDbLine
 10
658.0252861492132
 20
208.2331316740078
 30
0.0
 11
658.0252861492132
 21
195.2331316740079
 31
0.0
  0
LINE
  5
40D
102
{ACAD_REACTORS
330
8C1
102
}
330
1F
100
AcDbEntity
  8
実線
100
AcDbLine
 10
684.0252861492132
 20
195.2331316740079
 30
0.0
 11
684.0252861492132
 21
208.2331316740078
 31
0.0
  0
LINE
  5
40E
102
{ACAD_REACTORS
330
8C1
102
}
330
1F
100
AcDbEntity
  8
実線
100
AcDbLine
 10
636.0252861492132
 20
219.7331316740078
 30
0.0
 11
636.0252861492132
 21
208.2331316740078
 31
0.0
  0
LINE
  5
40F
102
{ACAD_REACTORS
330
8C1
102
}
330
1F
100
AcDbEntity
  8
実線
100
AcDbLine
 10
706.0252861492126
 20
208.2331316740078
 30
0.0
 11
706.0252861492126
 21
219.7331316740078
 31
0.0
  0
LINE
  5
410
102
{ACAD_REACTORS
330
8C1
102
}
330
1F
100
AcDbEntity
  8
実線
100
AcDbLine
 10
636.0252861492132
 20
208.2331316740078
 30
0.0
 11
706.0252861492126
 21
208.2331316740078
 31
0.0
  0
LINE
  5
411
102
{ACAD_REACTORS
330
8C1
102
}
330
1F
100
AcDbEntity
  8
実線
100
AcDbLine
 10
718.0024559180966
 20
394.2331316740078
 30
0.0
 11
624.0481163803292
 21
394.2331316740078
 31
0.0
  0
LINE
  5
412
102
{ACAD_REACTORS
330
8C1
102
}
330
1F
100
AcDbEntity
  8
実線
100
AcDbLine
 10
718.0024559180966
 20
384.2331316740078
 30
0.0
 11
624.0481163803292
 21
384.2331316740078
 31
0.0
  0
LINE
  5
413
102
{ACAD_REACTORS
330
8C1
102
}
330
1F
100
AcDbEntity
  8
実線
100
AcDbLine
 10
624.0481163803292
 20
394.2331316740078
 30
0.0
 11
624.0481163803292
 21
384.2331316740078
 31
0.0
  0
LINE
  5
414
102
{ACAD_REACTORS
330
8C1
102
}
330
1F
100
AcDbEntity
  8
実線
100
AcDbLine
 10
718.0024559180966
 20
384.2331316740078
 30
0.0
 11
718.0024559180966
 21
394.2331316740078
 31
0.0
  0
LINE
  5
415
102
{ACAD_REACTORS
330
8C1
102
}
330
1F
100
AcDbEntity
  8
実線
100
AcDbLine
 10
689.0541829596372
 20
384.2331316740078
 30
0.0
 11
689.0541829596372
 21
394.2331316740078
 31
0.0
  0
LINE
  5
416
102
{ACAD_REACTORS
330
8C1
102
}
330
1F
100
AcDbEntity
  8
実線
100
AcDbLine
 10
652.9963893387893
 20
384.2331316740078
 30
0.0
 11
652.9963893387893
 21
394.2331316740078
 31
0.0
  0
LINE
  5
417
102
{ACAD_REACTORS
330
8C1
102
}
330
1F
100
AcDbEntity
  8
実線
100
AcDbLine
 10
721.0252861492127
 20
421.2331316740078
 30
0.0
 11
746.0252861492127
 21
421.2331316740078
 31
0.0
  0
LINE
  5
418
102
{ACAD_REACTORS
330
8C1
102
}
330
1F
100
AcDbEntity
  8
実線
100
AcDbLine
 10
721.0252861492127
 20
451.2331316740077
 30
0.0
 11
721.0252861492127
 21
421.2331316740078
 31
0.0
  0
LINE
  5
419
102
{ACAD_REACTORS
330
8C1
102
}
330
1F
100
AcDbEntity
  8
実線
100
AcDbLine
 10
746.0252861492127
 20
451.2331316740077
 30
0.0
 11
746.0252861492127
 21
421.2331316740078
 31
0.0
  0
LINE
  5
41A
102
{ACAD_REACTORS
330
8C1
102
}
330
1F
100
AcDbEntity
  8
実線
100
AcDbLine
 10
746.0252861492127
 20
451.2331316740077
 30
0.0
 11
721.0252861492127
 21
451.2331316740077
 31
0.0
  0
LINE
  5
41B
102
{ACAD_REACTORS
330
8C1
102
}
330
1F
100
AcDbEntity
  8
実線
100
AcDbLine
 10
770.5252861492127
 20
461.7331316740076
 30
0.0
 11
770.5252861492127
 21
473.7331316740077
 31
0.0
  0
LINE
  5
41C
102
{ACAD_REACTORS
330
8C1
102
}
330
1F
100
AcDbEntity
  8
実線
100
AcDbLine
 10
645.5252861492132
 20
473.7331316740077
 30
0.0
 11
645.5252861492132
 21
472.0831316740077
 31
0.0
  0
LINE
  5
41D
102
{ACAD_REACTORS
330
8C1
102
}
330
1F
100
AcDbEntity
  8
実線
100
AcDbLine
 10
657.0855185402733
 20
461.7331316740076
 30
0.0
 11
770.5252861492127
 21
461.7331316740076
 31
0.0
  0
LINE
  5
41E
102
{ACAD_REACTORS
330
8C1
102
}
330
1F
100
AcDbEntity
  8
実線
100
AcDbLine
 10
770.5252861492127
 20
473.7331316740077
 30
0.0
 11
645.5252861492132
 21
473.7331316740077
 31
0.0
  0
LINE
  5
41F
102
{ACAD_REACTORS
330
8C1
102
}
330
1F
100
AcDbEntity
  8
実線
100
AcDbLine
 10
753.0559159500835
 20
438.7331316740077
 30
0.0
 11
753.0559159500835
 21
433.0831316740076
 31
0.0
  0
LINE
  5
420
102
{ACAD_REACTORS
330
8C1
102
}
330
1F
100
AcDbEntity
  8
実線
100
AcDbLine
 10
753.0559159500835
 20
460.2331316740077
 30
0.0
 11
753.0559159500835
 21
450.7331316740077
 31
0.0
  0
LINE
  5
421
102
{ACAD_REACTORS
330
8C1
102
}
330
1F
100
AcDbEntity
  8
実線
100
AcDbLine
 10
747.1752861492127
 20
460.2331316740077
 30
0.0
 11
766.7367216831108
 21
460.2331316740077
 31
0.0
  0
LINE
  5
422
102
{ACAD_REACTORS
330
8C1
102
}
330
1F
100
AcDbEntity
  8
実線
100
AcDbLine
 10
766.7367216831108
 20
460.2331316740077
 30
0.0
 11
766.7367216831108
 21
433.0831316740076
 31
0.0
  0
LINE
  5
423
102
{ACAD_REACTORS
330
8C1
102
}
330
1F
100
AcDbEntity
  8
実線
100
AcDbLine
 10
768.1462606142897
 20
461.7331316740076
 30
0.0
 11
768.1462606142897
 21
433.0831316740076
 31
0.0
  0
LINE
  5
424
102
{ACAD_REACTORS
330
8C1
102
}
330
1F
100
AcDbEntity
  8
実線
100
AcDbLine
 10
754.0508713025006
 20
461.7331316740076
 30
0.0
 11
754.0508713025006
 21
460.2331316740077
 31
0.0
  0
LINE
  5
425
102
{ACAD_REACTORS
330
8C1
102
}
330
1F
100
AcDbEntity
  8
実線
100
AcDbLine
 10
770.5252861492127
 20
486.0331316740078
 30
0.0
 11
645.5252861492132
 21
486.0331316740078
 31
0.0
  0
LINE
  5
426
102
{ACAD_REACTORS
330
8C1
102
}
330
1F
100
AcDbEntity
  8
実線
100
AcDbLine
 10
645.5252861492132
 20
486.0331316740078
 30
0.0
 11
645.5252861492132
 21
473.7331316740077
 31
0.0
  0
LINE
  5
427
102
{ACAD_REACTORS
330
8C1
102
}
330
1F
100
AcDbEntity
  8
実線
100
AcDbLine
 10
770.5252861492127
 20
473.7331316740077
 30
0.0
 11
770.5252861492127
 21
486.0331316740078
 31
0.0
  0
LINE
  5
428
102
{ACAD_REACTORS
330
8C1
102
}
330
1F
100
AcDbEntity
  8
実線
100
AcDbLine
 10
715.3252861492126
 20
300.2331316740078
 30
0.0
 11
715.3252861492126
 21
329.733131674008
 31
0.0
  0
ARC
  5
429
102
{ACAD_REACTORS
330
8C1
102
}
330
1F
100
AcDbEntity
  8
実線
100
AcDbCircle
 10
645.3252861492132
 20
329.733131674008
 30
0.0
 40
70.00000000000003
100
AcDbArc
 50
0.0
 51
35.85346706346538
  0
ARC
  5
42A
102
{ACAD_REACTORS
330
8C1
102
}
330
1F
100
AcDbEntity
  8
実線
100
AcDbCircle
 10
647.3252861492133
 20
329.733131674008
 30
0.0
 40
57.99999999999997
100
AcDbArc
 50
13.96796267465468
 51
44.98296795990476
  0
ARC
  5
42B
102
{ACAD_REACTORS
330
8C1
102
}
330
1F
100
AcDbEntity
  8
実線
100
AcDbCircle
 10
694.7252861492132
 20
329.733131674008
 30
0.0
 40
57.99999999999997
100
AcDbArc
 50
135.0170320400952
 51
166.0320373253469
  0
ARC
  5
42C
102
{ACAD_REACTORS
330
8C1
102
}
330
1F
100
AcDbEntity
  8
実線
100
AcDbCircle
 10
696.7252861492132
 20
329.733131674008
 30
0.0
 40
70.00000000000003
100
AcDbArc
 50
144.1465329365346
 51
180.0
  0
LINE
  5
42D
102
{ACAD_REACTORS
330
8C1
102
}
330
1F
100
AcDbEntity
  8
実線
100
AcDbLine
 10
626.7252861492132
 20
300.2331316740078
 30
0.0
 11
626.7252861492132
 21
329.733131674008
 31
0.0
  0
LINE
  5
42E
102
{ACAD_REACTORS
330
8C1
102
}
330
1F
100
AcDbEntity
  8
実線
100
AcDbLine
 10
709.4106674811737
 20
343.7331316740078
 30
0.0
 11
632.6399048172529
 21
343.7331316740078
 31
0.0
  0
LINE
  5
42F
102
{ACAD_REACTORS
330
8C1
102
}
330
1F
100
AcDbEntity
  8
実線
100
AcDbLine
 10
632.6399048172529
 20
300.2331316740078
 30
0.0
 11
632.6399048172529
 21
343.7331316740078
 31
0.0
  0
LINE
  5
430
102
{ACAD_REACTORS
330
8C1
102
}
330
1F
100
AcDbEntity
  8
実線
100
AcDbLine
 10
709.4106674811737
 20
300.2331316740078
 30
0.0
 11
709.4106674811737
 21
343.7331316740078
 31
0.0
  0
LINE
  5
431
102
{ACAD_REACTORS
330
8C1
102
}
330
1F
100
AcDbEntity
  8
実線
100
AcDbLine
 10
621.0252861492132
 20
224.2331316740078
 30
0.0
 11
621.0252861492132
 21
222.7331316740079
 31
0.0
  0
LINE
  5
432
102
{ACAD_REACTORS
330
8C1
102
}
330
1F
100
AcDbEntity
  8
実線
100
AcDbLine
 10
721.0252861492127
 20
222.7331316740079
 30
0.0
 11
721.0252861492127
 21
224.2331316740078
 31
0.0
  0
LINE
  5
433
102
{ACAD_REACTORS
330
8C1
102
}
330
1F
100
AcDbEntity
  8
実線
100
AcDbLine
 10
718.0252861492126
 20
219.7331316740078
 30
0.0
 11
624.0252861535569
 21
219.7331316740078
 31
0.0
  0
ARC
  5
434
102
{ACAD_REACTORS
330
8C1
102
}
330
1F
100
AcDbEntity
  8
実線
100
AcDbCircle
 10
624.0252861492132
 20
222.7331316740079
 30
0.0
 40
3.0
100
AcDbArc
 50
180.0
 51
270.0
  0
ARC
  5
435
102
{ACAD_REACTORS
330
8C1
102
}
330
1F
100
AcDbEntity
  8
実線
100
AcDbCircle
 10
718.0252861492126
 20
222.7331316740079
 30
0.0
 40
3.0
100
AcDbArc
 50
270.0
 51
0.0
  0
LINE
  5
436
102
{ACAD_REACTORS
330
8C1
102
}
330
1F
100
AcDbEntity
  8
実線
100
AcDbLine
 10
676.0252861492132
 20
440.3831316740077
 30
0.0
 11
676.5421515933917
 21
440.3831316740077
 31
0.0
  0
ARC
  5
437
102
{ACAD_REACTORS
330
8C1
102
}
330
1F
100
AcDbEntity
  8
実線
100
AcDbCircle
 10
652.3856562084345
 20
425.3831316740078
 30
0.0
 40
15.0
100
AcDbArc
 50
160.5287793655055
 51
168.290742753093
  0
LINE
  5
438
102
{ACAD_REACTORS
330
8C1
102
}
330
1F
100
AcDbEntity
  8
実線
100
AcDbLine
 10
631.0252861492131
 20
396.2331316740078
 30
0.0
 11
631.0252861492131
 21
394.2331316740078
 31
0.0
  0
LINE
  5
439
102
{ACAD_REACTORS
330
8C1
102
}
330
1F
100
AcDbEntity
  8
実線
100
AcDbLine
 10
700.6575698302156
 20
396.2331316740078
 30
0.0
 11
631.0252861492131
 21
396.2331316740078
 31
0.0
  0
LINE
  5
43A
102
{ACAD_REACTORS
330
8C1
102
}
330
1F
100
AcDbEntity
  8
実線
100
AcDbLine
 10
637.6978057042639
 20
428.4273142518332
 30
0.0
 11
631.0252861492131
 21
396.2331316740078
 31
0.0
  0
LINE
  5
43B
102
{ACAD_REACTORS
330
8C3
102
}
330
1F
100
AcDbEntity
  8
実線
100
AcDbLine
 10
1432.125286149211
 20
596.8831316740083
 30
0.0
 11
1501.385084396743
 21
596.8831316740083
 31
0.0
  0
LINE
  5
43C
102
{ACAD_REACTORS
330
8C3
102
}
330
1F
100
AcDbEntity
  8
実線
100
AcDbLine
 10
1473.025286149212
 20
638.5831316740083
 30
0.0
 11
1432.125286149211
 21
638.5831316740083
 31
0.0
  0
LINE
  5
43D
102
{ACAD_REACTORS
330
8C3
102
}
330
1F
100
AcDbEntity
  8
実線
100
AcDbLine
 10
1432.125286149211
 20
638.5831316740083
 30
0.0
 11
1429.775286149211
 21
642.9831316740083
 31
0.0
  0
LINE
  5
43E
102
{ACAD_REACTORS
330
8C3
102
}
330
1F
100
AcDbEntity
  8
実線
100
AcDbLine
 10
1429.775286149211
 20
592.4831316740083
 30
0.0
 11
1432.125286149211
 21
596.8831316740083
 31
0.0
  0
LINE
  5
43F
102
{ACAD_REACTORS
330
8C3
102
}
330
1F
100
AcDbEntity
  8
実線
100
AcDbLine
 10
1432.125286149211
 20
596.8831316740083
 30
0.0
 11
1432.125286149211
 21
638.5831316740083
 31
0.0
  0
LINE
  5
440
102
{ACAD_REACTORS
330
8C3
102
}
330
1F
100
AcDbEntity
  8
実線
100
AcDbLine
 10
1427.025286149211
 20
592.4831316740083
 30
0.0
 11
1429.775286149211
 21
592.4831316740083
 31
0.0
  0
LINE
  5
441
102
{ACAD_REACTORS
330
8C3
102
}
330
1F
100
AcDbEntity
  8
実線
100
AcDbLine
 10
1429.775286149211
 20
642.9831316740083
 30
0.0
 11
1427.025286149211
 21
642.9831316740083
 31
0.0
  0
LINE
  5
442
102
{ACAD_REACTORS
330
8C3
102
}
330
1F
100
AcDbEntity
  8
実線
100
AcDbLine
 10
1427.025286149211
 20
642.9831316740083
 30
0.0
 11
1427.025286149211
 21
592.4831316740083
 31
0.0
  0
LINE
  5
443
102
{ACAD_REACTORS
330
8C3
102
}
330
1F
100
AcDbEntity
  8
実線
100
AcDbLine
 10
1429.775286149211
 20
642.9831316740083
 30
0.0
 11
1429.775286149211
 21
592.4831316740083
 31
0.0
  0
ARC
  5
444
102
{ACAD_REACTORS
330
8C3
102
}
330
1F
100
AcDbEntity
  8
実線
100
AcDbCircle
 10
1511.025286149212
 20
649.4331316740083
 30
0.0
 40
39.15
100
AcDbArc
 50
116.5512875568688
 51
193.9216120380481
  0
ARC
  5
445
102
{ACAD_REACTORS
330
8C3
102
}
330
1F
100
AcDbEntity
  8
実線
100
AcDbCircle
 10
1511.025286149212
 20
649.4331316740083
 30
0.0
 40
39.15
100
AcDbArc
 50
50.68608784481257
 51
63.44871244313117
  0
LINE
  5
446
102
{ACAD_REACTORS
330
8C3
102
}
330
1F
100
AcDbEntity
  8
実線
100
AcDbLine
 10
1493.525286149212
 20
694.2331316740083
 30
0.0
 11
1528.525286149211
 21
694.2331316740083
 31
0.0
  0
LINE
  5
447
102
{ACAD_REACTORS
330
8C3
102
}
330
1F
100
AcDbEntity
  8
実線
100
AcDbLine
 10
1493.525286149212
 20
658.4331316740083
 30
0.0
 11
1493.525286149212
 21
694.2331316740083
 31
0.0
  0
LINE
  5
448
102
{ACAD_REACTORS
330
8C3
102
}
330
1F
100
AcDbEntity
  8
実線
100
AcDbLine
 10
1528.525286149211
 20
694.2331316740083
 30
0.0
 11
1528.525286149211
 21
677.2738745003355
 31
0.0
  0
LINE
  5
449
102
{ACAD_REACTORS
330
8C3
102
}
330
1F
100
AcDbEntity
  8
実線
100
AcDbLine
 10
1616.925286149212
 20
652.0831316740083
 30
0.0
 11
1593.470610441156
 21
652.0831316740083
 31
0.0
  0
LINE
  5
44A
102
{ACAD_REACTORS
330
8C3
102
}
330
1F
100
AcDbEntity
  8
実線
100
AcDbLine
 10
1593.470610441156
 20
610.3831316740081
 30
0.0
 11
1616.925286149212
 21
610.3831316740081
 31
0.0
  0
LINE
  5
44B
102
{ACAD_REACTORS
330
8C3
102
}
330
1F
100
AcDbEntity
  8
実線
100
AcDbLine
 10
1622.025286149211
 20
656.4831316740082
 30
0.0
 11
1622.025286149211
 21
605.9831316740083
 31
0.0
  0
LINE
  5
44C
102
{ACAD_REACTORS
330
8C3
102
}
330
1F
100
AcDbEntity
  8
実線
100
AcDbLine
 10
1622.025286149211
 20
656.4831316740082
 30
0.0
 11
1619.275286149212
 21
656.4831316740082
 31
0.0
  0
LINE
  5
44D
102
{ACAD_REACTORS
330
8C3
102
}
330
1F
100
AcDbEntity
  8
実線
100
AcDbLine
 10
1619.275286149212
 20
605.9831316740083
 30
0.0
 11
1622.025286149211
 21
605.9831316740083
 31
0.0
  0
LINE
  5
44E
102
{ACAD_REACTORS
330
8C3
102
}
330
1F
100
AcDbEntity
  8
実線
100
AcDbLine
 10
1619.275286149212
 20
656.4831316740082
 30
0.0
 11
1619.275286149212
 21
605.9831316740083
 31
0.0
  0
LINE
  5
44F
102
{ACAD_REACTORS
330
8C3
102
}
330
1F
100
AcDbEntity
  8
実線
100
AcDbLine
 10
1616.925286149212
 20
652.0831316740083
 30
0.0
 11
1616.925286149212
 21
610.3831316740081
 31
0.0
  0
LINE
  5
450
102
{ACAD_REACTORS
330
8C3
102
}
330
1F
100
AcDbEntity
  8
実線
100
AcDbLine
 10
1616.925286149212
 20
610.3831316740081
 30
0.0
 11
1619.275286149212
 21
605.9831316740083
 31
0.0
  0
LINE
  5
451
102
{ACAD_REACTORS
330
8C3
102
}
330
1F
100
AcDbEntity
  8
実線
100
AcDbLine
 10
1619.275286149212
 20
656.4831316740082
 30
0.0
 11
1616.925286149212
 21
652.0831316740083
 31
0.0
  0
LINE
  5
452
102
{ACAD_REACTORS
330
8C3
102
}
330
1F
100
AcDbEntity
  8
実線
100
AcDbLine
 10
1568.025286149212
 20
579.2331316740082
 30
0.0
 11
1543.025286149212
 21
579.2331316740082
 31
0.0
  0
LINE
  5
453
102
{ACAD_REACTORS
330
8C3
102
}
330
1F
100
AcDbEntity
  8
実線
100
AcDbLine
 10
1543.025286149212
 20
579.2331316740082
 30
0.0
 11
1543.025286149212
 21
581.4837598186771
 31
0.0
  0
LINE
  5
454
102
{ACAD_REACTORS
330
8C3
102
}
330
1F
100
AcDbEntity
  8
実線
100
AcDbLine
 10
1568.025286149212
 20
585.4073747244497
 30
0.0
 11
1568.025286149212
 21
579.2331316740082
 31
0.0
  0
LINE
  5
455
102
{ACAD_REACTORS
330
8C3
102
}
330
1F
100
AcDbEntity
  8
実線
100
AcDbLine
 10
1457.102132621873
 20
662.6744878608704
 30
0.0
 11
1469.787983002483
 21
658.0572159259739
 31
0.0
  0
LINE
  5
456
102
{ACAD_REACTORS
330
8C3
102
}
330
1F
100
AcDbEntity
  8
実線
100
AcDbLine
 10
1411.527040513756
 20
679.2624648121654
 30
0.0
 11
1455.692593690694
 21
663.1875180758588
 31
0.0
  0
LINE
  5
457
102
{ACAD_REACTORS
330
8C3
102
}
330
1F
100
AcDbEntity
  8
実線
100
AcDbLine
 10
1459.796835410602
 20
674.4638295252899
 30
0.0
 11
1415.631282233664
 21
690.5387762615959
 31
0.0
  0
LINE
  5
458
102
{ACAD_REACTORS
330
8C3
102
}
330
1F
100
AcDbEntity
  8
実線
100
AcDbLine
 10
1473.892224722391
 20
669.3335273754049
 30
0.0
 11
1461.20637434178
 21
673.9507993103013
 31
0.0
  0
LINE
  5
459
102
{ACAD_REACTORS
330
8C3
102
}
330
1F
100
AcDbEntity
  8
実線
100
AcDbLine
 10
1469.787983002483
 20
658.0572159259739
 30
0.0
 11
1473.892224722391
 21
669.3335273754049
 31
0.0
  0
LINE
  5
45A
102
{ACAD_REACTORS
330
8C3
102
}
330
1F
100
AcDbEntity
  8
実線
100
AcDbLine
 10
1411.527040513756
 20
679.2624648121654
 30
0.0
 11
1415.631282233664
 21
690.5387762615959
 31
0.0
  0
LINE
  5
45B
102
{ACAD_REACTORS
330
8C3
102
}
330
1F
100
AcDbEntity
  8
実線
100
AcDbLine
 10
1520.954510475033
 20
673.270889754076
 30
0.0
 11
1515.966520696948
 21
676.763517797204
 31
0.0
  0
LINE
  5
45C
102
{ACAD_REACTORS
330
8C3
102
}
330
1F
100
AcDbEntity
  8
実線
100
AcDbLine
 10
1515.966520696948
 20
585.7027455508123
 30
0.0
 11
1520.954510475033
 21
589.1953735939405
 31
0.0
  0
LINE
  5
45D
102
{ACAD_REACTORS
330
8C3
102
}
330
1F
100
AcDbEntity
  8
実線
100
AcDbLine
 10
1575.09606182339
 20
589.1953735939405
 30
0.0
 11
1580.084051601475
 21
585.7027455508123
 31
0.0
  0
ARC
  5
45E
102
{ACAD_REACTORS
330
8C3
102
}
330
1F
100
AcDbEntity
  8
実線
100
AcDbCircle
 10
1584.672663092282
 20
592.2559619051242
 30
0.0
 40
8.000000000000008
100
AcDbArc
 50
235.0000000000026
 51
313.2354262571145
  0
ARC
  5
45F
102
{ACAD_REACTORS
330
8C3
102
}
330
1F
100
AcDbEntity
  8
実線
100
AcDbCircle
 10
1548.025286149211
 20
631.2331316740091
 30
0.0
 40
61.50000000000114
100
AcDbArc
 50
313.2354262571145
 51
316.7645737428878
  0
ARC
  5
460
102
{ACAD_REACTORS
330
8C3
102
}
330
1F
100
AcDbEntity
  8
実線
100
AcDbCircle
 10
1587.002455918095
 20
594.5857547309363
 30
0.0
 40
8.000000000000008
100
AcDbArc
 50
316.7645737428878
 51
34.99999999999737
  0
LINE
  5
461
102
{ACAD_REACTORS
330
8C3
102
}
330
1F
100
AcDbEntity
  8
実線
100
AcDbLine
 10
1593.555672272407
 20
599.1743662217445
 30
0.0
 11
1590.063044229279
 21
604.1623559998295
 31
0.0
  0
LINE
  5
462
102
{ACAD_REACTORS
330
8C3
102
}
330
1F
100
AcDbEntity
  8
実線
100
AcDbLine
 10
1590.063044229279
 20
658.3039073481869
 30
0.0
 11
1593.555672272407
 21
663.2918971262719
 31
0.0
  0
ARC
  5
463
102
{ACAD_REACTORS
330
8C3
102
}
330
1F
100
AcDbEntity
  8
実線
100
AcDbCircle
 10
1587.002455918095
 20
667.8805086170804
 30
0.0
 40
7.999999999999996
100
AcDbArc
 50
325.0000000000026
 51
43.23542625711217
  0
ARC
  5
464
102
{ACAD_REACTORS
330
8C3
102
}
330
1F
100
AcDbEntity
  8
実線
100
AcDbCircle
 10
1548.025286149211
 20
631.2331316740085
 30
0.0
 40
61.50000000000008
100
AcDbArc
 50
43.23542625711217
 51
46.76457374288552
  0
ARC
  5
465
102
{ACAD_REACTORS
330
8C3
102
}
330
1F
100
AcDbEntity
  8
実線
100
AcDbCircle
 10
1584.672663092282
 20
670.2103014428921
 30
0.0
 40
8.000000000000021
100
AcDbArc
 50
46.76457374288552
 51
124.9999999999974
  0
LINE
  5
466
102
{ACAD_REACTORS
330
8C3
102
}
330
1F
100
AcDbEntity
  8
実線
100
AcDbLine
 10
1580.084051601475
 20
676.763517797204
 30
0.0
 11
1575.09606182339
 21
673.270889754076
 31
0.0
  0
ARC
  5
467
102
{ACAD_REACTORS
330
8C3
102
}
330
1F
100
AcDbEntity
  8
実線
100
AcDbCircle
 10
1511.377909206139
 20
670.2103014428921
 30
0.0
 40
7.999999999999986
100
AcDbArc
 50
55.00000000000264
 51
133.2354262571145
  0
ARC
  5
468
102
{ACAD_REACTORS
330
8C3
102
}
330
1F
100
AcDbEntity
  8
実線
100
AcDbCircle
 10
1548.025286149211
 20
631.2331316740091
 30
0.0
 40
61.49999999999885
100
AcDbArc
 50
133.2354262571145
 51
136.7645737428878
  0
ARC
  5
469
102
{ACAD_REACTORS
330
8C3
102
}
330
1F
100
AcDbEntity
  8
実線
100
AcDbCircle
 10
1509.048116380328
 20
667.8805086170804
 30
0.0
 40
8.000000000000023
100
AcDbArc
 50
136.7645737428878
 51
214.9999999999974
  0
LINE
  5
46A
102
{ACAD_REACTORS
330
8C3
102
}
330
1F
100
AcDbEntity
  8
実線
100
AcDbLine
 10
1502.494900026016
 20
663.2918971262719
 30
0.0
 11
1505.987528069144
 21
658.3039073481869
 31
0.0
  0
LINE
  5
46B
102
{ACAD_REACTORS
330
8C3
102
}
330
1F
100
AcDbEntity
  8
実線
100
AcDbLine
 10
1505.987528069144
 20
604.1623559998295
 30
0.0
 11
1502.494900026016
 21
599.1743662217445
 31
0.0
  0
ARC
  5
46C
102
{ACAD_REACTORS
330
8C3
102
}
330
1F
100
AcDbEntity
  8
実線
100
AcDbCircle
 10
1509.048116380328
 20
594.5857547309363
 30
0.0
 40
7.999999999999995
100
AcDbArc
 50
145.0000000000026
 51
223.2354262571122
  0
ARC
  5
46D
102
{ACAD_REACTORS
330
8C3
102
}
330
1F
100
AcDbEntity
  8
実線
100
AcDbCircle
 10
1548.025286149211
 20
631.2331316740085
 30
0.0
 40
61.50000000000009
100
AcDbArc
 50
223.2354262571122
 51
226.7645737428855
  0
ARC
  5
46E
102
{ACAD_REACTORS
330
8C3
102
}
330
1F
100
AcDbEntity
  8
実線
100
AcDbCircle
 10
1511.377909206139
 20
592.2559619051242
 30
0.0
 40
8.000000000000008
100
AcDbArc
 50
226.7645737428855
 51
304.9999999999974
  0
CIRCLE
  5
46F
102
{ACAD_REACTORS
330
8C3
102
}
330
1F
100
AcDbEntity
  8
実線
100
AcDbCircle
 10
1548.025286149211
 20
631.2331316740083
 30
0.0
 40
44.0
  0
CIRCLE
  5
470
102
{ACAD_REACTORS
330
8C3
102
}
330
1F
100
AcDbEntity
  8
実線
100
AcDbCircle
 10
1548.025286149211
 20
631.2331316740083
 30
0.0
 40
42.5
  0
CIRCLE
  5
471
102
{ACAD_REACTORS
330
8C3
102
}
330
1F
100
AcDbEntity
  8
実線
100
AcDbCircle
 10
1548.025286149211
 20
631.2331316740083
 30
0.0
 40
16.5
  0
CIRCLE
  5
472
102
{ACAD_REACTORS
330
8C3
102
}
330
1F
100
AcDbEntity
  8
実線
100
AcDbCircle
 10
1548.025286149211
 20
631.2331316740083
 30
0.0
 40
43.3
  0
LINE
  5
473
102
{ACAD_REACTORS
330
8C3
102
}
330
1F
100
AcDbEntity
  8
実線
100
AcDbLine
 10
1473.025286149212
 20
579.2331316740082
 30
0.0
 11
1473.025286149212
 21
596.8831316740083
 31
0.0
  0
LINE
  5
474
102
{ACAD_REACTORS
330
8C3
102
}
330
1F
100
AcDbEntity
  8
実線
100
AcDbLine
 10
1498.025286149211
 20
596.8831316740083
 30
0.0
 11
1498.025286149211
 21
579.2331316740082
 31
0.0
  0
LINE
  5
475
102
{ACAD_REACTORS
330
8C3
102
}
330
1F
100
AcDbEntity
  8
実線
100
AcDbLine
 10
1498.025286149211
 20
579.2331316740082
 30
0.0
 11
1473.025286149212
 21
579.2331316740082
 31
0.0
  0
LINE
  5
476
102
{ACAD_REACTORS
330
8C3
102
}
330
1F
100
AcDbEntity
  8
実線
100
AcDbLine
 10
1473.025286149212
 20
635.7462518923378
 30
0.0
 11
1473.025286149212
 21
658.4331316740083
 31
0.0
  0
LINE
  5
477
102
{ACAD_REACTORS
330
8C3
102
}
330
1F
100
AcDbEntity
  8
実線
100
AcDbLine
 10
1473.025286149212
 20
658.4331316740083
 30
0.0
 11
1505.897044222084
 21
658.4331316740083
 31
0.0
  0
LINE
  5
478
102
{ACAD_REACTORS
330
8C3
102
}
330
1F
100
AcDbEntity
  8
実線
100
AcDbLine
 10
1543.525286149212
 20
702.8185229341645
 30
0.0
 11
1543.525286149212
 21
712.9331316740083
 31
0.0
  0
LINE
  5
479
102
{ACAD_REACTORS
330
8C3
102
}
330
1F
100
AcDbEntity
  8
実線
100
AcDbLine
 10
1478.525286149211
 20
702.818522934165
 30
0.0
 11
1478.525286149211
 21
712.9331316740083
 31
0.0
  0
ARC
  5
47A
102
{ACAD_REACTORS
330
8C3
102
}
330
1F
100
AcDbEntity
  8
実線
100
AcDbCircle
 10
1511.025286149212
 20
649.4331316740083
 30
0.0
 40
62.5
100
AcDbArc
 50
121.3322514975931
 51
154.4911213287962
  0
ARC
  5
47B
102
{ACAD_REACTORS
330
8C3
102
}
330
1F
100
AcDbEntity
  8
実線
100
AcDbCircle
 10
1511.025286149212
 20
649.4331316740083
 30
0.0
 40
62.5
100
AcDbArc
 50
165.5088786712066
 51
189.9971970518399
  0
ARC
  5
47C
102
{ACAD_REACTORS
330
8C3
102
}
330
1F
100
AcDbEntity
  8
実線
100
AcDbCircle
 10
1511.025286149212
 20
649.4331316740083
 30
0.0
 40
62.5
100
AcDbArc
 50
257.9948271692413
 51
264.5356554950238
  0
ARC
  5
47D
102
{ACAD_REACTORS
330
8C3
102
}
330
1F
100
AcDbEntity
  8
実線
100
AcDbCircle
 10
1511.025286149212
 20
649.4331316740083
 30
0.0
 40
62.5
100
AcDbArc
 50
276.7178281907368
 51
280.8716805507373
  0
ARC
  5
47E
102
{ACAD_REACTORS
330
8C3
102
}
330
1F
100
AcDbEntity
  8
実線
100
AcDbCircle
 10
1511.025286149212
 20
649.4331316740083
 30
0.0
 40
62.5
100
AcDbArc
 50
26.74392170333078
 51
58.66774850240692
  0
LINE
  5
47F
102
{ACAD_REACTORS
330
8C3
102
}
330
1F
100
AcDbEntity
  8
実線
100
AcDbLine
 10
1543.525286149212
 20
712.9331316740083
 30
0.0
 11
1478.525286149211
 21
712.9331316740083
 31
0.0
  0
LINE
  5
480
102
{ACAD_REACTORS
330
8C3
102
}
330
1F
100
AcDbEntity
  8
実線
100
AcDbLine
 10
1464.999700995924
 20
644.9015192349711
 30
0.0
 11
1450.904311684135
 21
650.0318213848562
 31
0.0
  0
LINE
  5
481
102
{ACAD_REACTORS
330
8C3
102
}
330
1F
100
AcDbEntity
  8
実線
100
AcDbLine
 10
1478.68050672895
 20
682.4892240664074
 30
0.0
 11
1464.585117417162
 21
687.6195262162926
 31
0.0
  0
LINE
  5
482
102
{ACAD_REACTORS
330
8C3
102
}
330
1F
100
AcDbEntity
  8
実線
100
AcDbLine
 10
1469.787983002483
 20
658.0572159259739
 30
0.0
 11
1464.999700995924
 21
644.9015192349711
 31
0.0
  0
LINE
  5
483
102
{ACAD_REACTORS
330
8C3
102
}
330
1F
100
AcDbEntity
  8
実線
100
AcDbLine
 10
1478.68050672895
 20
682.4892240664076
 30
0.0
 11
1473.892224722391
 21
669.3335273754049
 31
0.0
  0
LINE
  5
484
102
{ACAD_REACTORS
330
8C3
102
}
330
1F
100
AcDbEntity
  8
実線
100
AcDbLine
 10
1465.994656348341
 20
687.106496001304
 30
0.0
 11
1452.313850615313
 21
649.5187911698677
 31
0.0
  0
LINE
  5
485
102
{ACAD_REACTORS
330
8C3
102
}
330
1F
100
AcDbEntity
  8
実線
100
AcDbLine
 10
1450.904311684135
 20
650.0318213848562
 30
0.0
 11
1464.585117417162
 21
687.6195262162926
 31
0.0
  0
CIRCLE
  5
486
102
{ACAD_REACTORS
330
8C3
102
}
330
1F
100
AcDbEntity
  8
実線
100
AcDbCircle
 10
1548.025286149211
 20
631.2331316740083
 30
0.0
 40
50.0
  0
CIRCLE
  5
487
102
{ACAD_REACTORS
330
8C2
102
}
330
1F
100
AcDbEntity
  8
実線
100
AcDbCircle
 10
987.0252861492108
 20
617.7331316740082
 30
0.0
 40
25.25
  0
LINE
  5
488
102
{ACAD_REACTORS
330
8C2
102
}
330
1F
100
AcDbEntity
  8
実線
100
AcDbLine
 10
968.5252861492108
 20
684.4541610706436
 30
0.0
 11
968.5252861492108
 21
640.0138694948351
 31
0.0
  0
LINE
  5
489
102
{ACAD_REACTORS
330
8C2
102
}
330
1F
100
AcDbEntity
  8
実線
100
AcDbLine
 10
937.5252861492109
 20
610.2831316740084
 30
0.0
 11
948.0252861492107
 21
610.2831316740084
 31
0.0
  0
LINE
  5
48A
102
{ACAD_REACTORS
330
8C2
102
}
330
1F
100
AcDbEntity
  8
実線
100
AcDbLine
 10
949.9818687000795
 20
688.5831316740083
 30
0.0
 11
937.5252861492109
 21
688.5831316740083
 31
0.0
  0
LINE
  5
48B
102
{ACAD_REACTORS
330
8C2
102
}
330
1F
100
AcDbEntity
  8
実線
100
AcDbLine
 10
950.0252861492109
 20
694.2331316740083
 30
0.0
 11
950.0252861492109
 21
688.6299100120436
 31
0.0
  0
LINE
  5
48C
102
{ACAD_REACTORS
330
8C2
102
}
330
1F
100
AcDbEntity
  8
実線
100
AcDbLine
 10
950.0252861492109
 20
694.2331316740083
 30
0.0
 11
985.0252861492108
 21
694.2331316740083
 31
0.0
  0
LINE
  5
48D
102
{ACAD_REACTORS
330
8C2
102
}
330
1F
100
AcDbEntity
  8
実線
100
AcDbLine
 10
985.0252861492108
 20
658.4331316740083
 30
0.0
 11
985.0252861492108
 21
694.2331316740083
 31
0.0
  0
ARC
  5
48E
102
{ACAD_REACTORS
330
8C2
102
}
330
1F
100
AcDbEntity
  8
実線
100
AcDbCircle
 10
948.0252861492107
 20
631.2331316740083
 30
0.0
 40
25.25
100
AcDbArc
 50
245.4276737683572
 51
270.0
  0
LINE
  5
48F
102
{ACAD_REACTORS
330
8C2
102
}
330
1F
100
AcDbEntity
  8
実線
100
AcDbLine
 10
948.5252861492108
 20
684.9006205368806
 30
0.0
 11
948.5252861492108
 21
668.8256738005743
 31
0.0
  0
LINE
  5
490
102
{ACAD_REACTORS
330
8C2
102
}
330
1F
100
AcDbEntity
  8
実線
100
AcDbLine
 10
960.5252861492107
 20
668.8256738005743
 30
0.0
 11
960.5252861492107
 21
684.9006205368806
 31
0.0
  0
ELLIPSE
  5
491
102
{ACAD_REACTORS
330
8C2
102
}
330
1F
100
AcDbEntity
  8
実線
100
AcDbEllipse
 10
954.5252861492109
 20
684.9006205368806
 30
0.0
 11
6.0
 21
0.0
 31
0.0
210
0.0
220
0.0
230
1.0
 40
0.9396926207859085
 41
0.0
 42
3.141592653589792
  0
ELLIPSE
  5
492
102
{ACAD_REACTORS
330
8C2
102
}
330
1F
100
AcDbEntity
  8
実線
100
AcDbEllipse
 10
954.5252861492109
 20
684.9006205368806
 30
0.0
 11
6.0
 21
0.0
 31
0.0
210
0.0
220
0.0
230
1.0
 40
0.9396926207859085
 41
4.71238898038469
 42
6.283185307179584
  0
ELLIPSE
  5
493
102
{ACAD_REACTORS
330
8C2
102
}
330
1F
100
AcDbEntity
  8
実線
100
AcDbEllipse
 10
954.5252861492109
 20
684.9006205368806
 30
0.0
 11
6.0
 21
0.0
 31
0.0
210
0.0
220
0.0
230
1.0
 40
0.9396926207859085
 41
3.141592653589792
 42
4.71238898038469
  0
LINE
  5
494
102
{ACAD_REACTORS
330
8C2
102
}
330
1F
100
AcDbEntity
  8
実線
100
AcDbLine
 10
895.7252861492106
 20
632.9797782576609
 30
0.0
 11
901.6252861492105
 21
632.9797782576609
 31
0.0
  0
LINE
  5
495
102
{ACAD_REACTORS
330
8C2
102
}
330
1F
100
AcDbEntity
  8
実線
100
AcDbLine
 10
901.6252861492105
 20
647.479778257661
 30
0.0
 11
895.7252861492106
 21
647.479778257661
 31
0.0
  0
LINE
  5
496
102
{ACAD_REACTORS
330
8C2
102
}
330
1F
100
AcDbEntity
  8
実線
100
AcDbLine
 10
895.7252861492106
 20
647.479778257661
 30
0.0
 11
895.7252861492106
 21
632.9797782576609
 31
0.0
  0
LINE
  5
497
102
{ACAD_REACTORS
330
8C2
102
}
330
1F
100
AcDbEntity
  8
実線
100
AcDbLine
 10
895.7252861492106
 20
694.3779425836553
 30
0.0
 11
901.6252861492105
 21
694.3779425836553
 31
0.0
  0
LINE
  5
498
102
{ACAD_REACTORS
330
8C2
102
}
330
1F
100
AcDbEntity
  8
実線
100
AcDbLine
 10
901.6252861492105
 20
708.8779425836555
 30
0.0
 11
895.7252861492106
 21
708.8779425836555
 31
0.0
  0
LINE
  5
499
102
{ACAD_REACTORS
330
8C2
102
}
330
1F
100
AcDbEntity
  8
実線
100
AcDbLine
 10
895.7252861492106
 20
708.8779425836555
 30
0.0
 11
895.7252861492106
 21
694.3779425836553
 31
0.0
  0
LINE
  5
49A
102
{ACAD_REACTORS
330
8C2
102
}
330
1F
100
AcDbEntity
  8
実線
100
AcDbLine
 10
895.7252861492106
 20
589.988320764361
 30
0.0
 11
901.6252861492105
 21
589.988320764361
 31
0.0
  0
LINE
  5
49B
102
{ACAD_REACTORS
330
8C2
102
}
330
1F
100
AcDbEntity
  8
実線
100
AcDbLine
 10
901.6252861492105
 20
604.4883207643611
 30
0.0
 11
895.7252861492106
 21
604.4883207643611
 31
0.0
  0
LINE
  5
49C
102
{ACAD_REACTORS
330
8C2
102
}
330
1F
100
AcDbEntity
  8
実線
100
AcDbLine
 10
895.7252861492106
 20
604.4883207643611
 30
0.0
 11
895.7252861492106
 21
589.988320764361
 31
0.0
  0
LINE
  5
49D
102
{ACAD_REACTORS
330
8C2
102
}
330
1F
100
AcDbEntity
  8
実線
100
AcDbLine
 10
895.7252861492106
 20
651.3864850903555
 30
0.0
 11
901.6252861492105
 21
651.3864850903555
 31
0.0
  0
LINE
  5
49E
102
{ACAD_REACTORS
330
8C2
102
}
330
1F
100
AcDbEntity
  8
実線
100
AcDbLine
 10
901.6252861492105
 20
665.8864850903555
 30
0.0
 11
895.7252861492106
 21
665.8864850903555
 31
0.0
  0
LINE
  5
49F
102
{ACAD_REACTORS
330
8C2
102
}
330
1F
100
AcDbEntity
  8
実線
100
AcDbLine
 10
895.7252861492106
 20
665.8864850903555
 30
0.0
 11
895.7252861492106
 21
651.3864850903555
 31
0.0
  0
LINE
  5
4A0
102
{ACAD_REACTORS
330
8C2
102
}
330
1F
100
AcDbEntity
  8
実線
100
AcDbLine
 10
901.6252861492105
 20
692.6279425836553
 30
0.0
 11
913.2252861492107
 21
692.6279425836553
 31
0.0
  0
LINE
  5
4A1
102
{ACAD_REACTORS
330
8C2
102
}
330
1F
100
AcDbEntity
  8
実線
100
AcDbLine
 10
913.2252861492107
 20
710.6279425836556
 30
0.0
 11
901.6252861492105
 21
710.6279425836556
 31
0.0
  0
LINE
  5
4A2
102
{ACAD_REACTORS
330
8C2
102
}
330
1F
100
AcDbEntity
  8
実線
100
AcDbLine
 10
901.6252861492105
 20
710.6279425836556
 30
0.0
 11
901.6252861492105
 21
692.6279425836553
 31
0.0
  0
LINE
  5
4A3
102
{ACAD_REACTORS
330
8C2
102
}
330
1F
100
AcDbEntity
  8
実線
100
AcDbLine
 10
901.6252861492105
 20
588.2383207643611
 30
0.0
 11
913.2252861492107
 21
588.2383207643611
 31
0.0
  0
LINE
  5
4A4
102
{ACAD_REACTORS
330
8C2
102
}
330
1F
100
AcDbEntity
  8
実線
100
AcDbLine
 10
913.2252861492107
 20
606.2383207643611
 30
0.0
 11
901.6252861492105
 21
606.2383207643611
 31
0.0
  0
LINE
  5
4A5
102
{ACAD_REACTORS
330
8C2
102
}
330
1F
100
AcDbEntity
  8
実線
100
AcDbLine
 10
901.6252861492105
 20
606.2383207643611
 30
0.0
 11
901.6252861492105
 21
588.2383207643611
 31
0.0
  0
LINE
  5
4A6
102
{ACAD_REACTORS
330
8C2
102
}
330
1F
100
AcDbEntity
  8
実線
100
AcDbLine
 10
901.6252861492105
 20
631.2297782576609
 30
0.0
 11
913.2252861492107
 21
631.2297782576609
 31
0.0
  0
LINE
  5
4A7
102
{ACAD_REACTORS
330
8C2
102
}
330
1F
100
AcDbEntity
  8
実線
100
AcDbLine
 10
913.2252861492107
 20
649.229778257661
 30
0.0
 11
901.6252861492105
 21
649.229778257661
 31
0.0
  0
LINE
  5
4A8
102
{ACAD_REACTORS
330
8C2
102
}
330
1F
100
AcDbEntity
  8
実線
100
AcDbLine
 10
901.6252861492105
 20
649.229778257661
 30
0.0
 11
901.6252861492105
 21
631.2297782576609
 31
0.0
  0
LINE
  5
4A9
102
{ACAD_REACTORS
330
8C2
102
}
330
1F
100
AcDbEntity
  8
実線
100
AcDbLine
 10
901.6252861492105
 20
649.6364850903555
 30
0.0
 11
913.2252861492107
 21
649.6364850903555
 31
0.0
  0
LINE
  5
4AA
102
{ACAD_REACTORS
330
8C2
102
}
330
1F
100
AcDbEntity
  8
実線
100
AcDbLine
 10
913.2252861492107
 20
667.6364850903556
 30
0.0
 11
901.6252861492105
 21
667.6364850903556
 31
0.0
  0
LINE
  5
4AB
102
{ACAD_REACTORS
330
8C2
102
}
330
1F
100
AcDbEntity
  8
実線
100
AcDbLine
 10
901.6252861492105
 20
667.6364850903556
 30
0.0
 11
901.6252861492105
 21
649.6364850903555
 31
0.0
  0
LINE
  5
4AC
102
{ACAD_REACTORS
330
8C2
102
}
330
1F
100
AcDbEntity
  8
実線
100
AcDbLine
 10
1028.525286149211
 20
584.2559619051242
 30
0.0
 11
1028.525286149211
 21
678.210301442892
 31
0.0
  0
LINE
  5
4AD
102
{ACAD_REACTORS
330
8C2
102
}
330
1F
100
AcDbEntity
  8
実線
100
AcDbLine
 10
1028.525286149211
 20
678.210301442892
 30
0.0
 11
1015.025286149211
 21
678.210301442892
 31
0.0
  0
LINE
  5
4AE
102
{ACAD_REACTORS
330
8C2
102
}
330
1F
100
AcDbEntity
  8
実線
100
AcDbLine
 10
1015.025286149211
 20
584.2559619051242
 30
0.0
 11
1028.525286149211
 21
584.2559619051242
 31
0.0
  0
LINE
  5
4AF
102
{ACAD_REACTORS
330
8C2
102
}
330
1F
100
AcDbEntity
  8
実線
100
AcDbLine
 10
1028.525286149211
 20
649.2620284844323
 30
0.0
 11
1015.025286149211
 21
649.2620284844323
 31
0.0
  0
LINE
  5
4B0
102
{ACAD_REACTORS
330
8C2
102
}
330
1F
100
AcDbEntity
  8
実線
100
AcDbLine
 10
1028.525286149211
 20
613.2042348635842
 30
0.0
 11
1015.025286149211
 21
613.2042348635842
 31
0.0
  0
LINE
  5
4B1
102
{ACAD_REACTORS
330
8C2
102
}
330
1F
100
AcDbEntity
  8
実線
100
AcDbLine
 10
1175.025286149211
 20
681.2331316740083
 30
0.0
 11
1175.025286149211
 21
581.2331316740083
 31
0.0
  0
LINE
  5
4B2
102
{ACAD_REACTORS
330
8C2
102
}
330
1F
100
AcDbEntity
  8
実線
100
AcDbLine
 10
1099.025286149211
 20
581.2331316740083
 30
0.0
 11
1175.025286149211
 21
581.2331316740083
 31
0.0
  0
LINE
  5
4B3
102
{ACAD_REACTORS
330
8C2
102
}
330
1F
100
AcDbEntity
  8
実線
100
AcDbLine
 10
1175.025286149211
 20
681.2331316740083
 30
0.0
 11
1099.025286149211
 21
681.2331316740083
 31
0.0
  0
LINE
  5
4B4
102
{ACAD_REACTORS
330
8C2
102
}
330
1F
100
AcDbEntity
  8
実線
100
AcDbLine
 10
1099.025286149211
 20
681.2331316740083
 30
0.0
 11
1099.025286149211
 21
581.2331316740083
 31
0.0
  0
LINE
  5
4B5
102
{ACAD_REACTORS
330
8C2
102
}
330
1F
100
AcDbEntity
  8
実線
100
AcDbLine
 10
1207.725286149211
 20
674.5331316740084
 30
0.0
 11
1207.725286149211
 21
587.9331316740083
 31
0.0
  0
LINE
  5
4B6
102
{ACAD_REACTORS
330
8C2
102
}
330
1F
100
AcDbEntity
  8
実線
100
AcDbLine
 10
1207.725286149211
 20
674.5331316740084
 30
0.0
 11
1204.025286149211
 21
675.2331316740082
 31
0.0
  0
LINE
  5
4B7
102
{ACAD_REACTORS
330
8C2
102
}
330
1F
100
AcDbEntity
  8
実線
100
AcDbLine
 10
1204.025286149211
 20
587.2331316740083
 30
0.0
 11
1207.725286149211
 21
587.9331316740082
 31
0.0
  0
LINE
  5
4B8
102
{ACAD_REACTORS
330
8C2
102
}
330
1F
100
AcDbEntity
  8
実線
100
AcDbLine
 10
1204.025286149211
 20
675.2331316740082
 30
0.0
 11
1204.025286149211
 21
587.2331316740083
 31
0.0
  0
LINE
  5
4B9
102
{ACAD_REACTORS
330
8C2
102
}
330
1F
100
AcDbEntity
  8
実線
100
AcDbLine
 10
1329.925286149211
 20
647.7331316740083
 30
0.0
 11
1329.925286149211
 21
614.7331316740083
 31
0.0
  0
LINE
  5
4BA
102
{ACAD_REACTORS
330
8C2
102
}
330
1F
100
AcDbEntity
  8
実線
100
AcDbLine
 10
1329.925286149211
 20
647.7331316740083
 30
0.0
 11
1320.72528614921
 21
673.7331316740083
 31
0.0
  0
LINE
  5
4BB
102
{ACAD_REACTORS
330
8C2
102
}
330
1F
100
AcDbEntity
  8
実線
100
AcDbLine
 10
1320.72528614921
 20
588.7331316740081
 30
0.0
 11
1329.925286149211
 21
614.7331316740083
 31
0.0
  0
LINE
  5
4BC
102
{ACAD_REACTORS
330
8C2
102
}
330
1F
100
AcDbEntity
  8
実線
100
AcDbLine
 10
1320.72528614921
 20
673.7331316740083
 30
0.0
 11
1320.72528614921
 21
588.7331316740081
 31
0.0
  0
LINE
  5
4BD
102
{ACAD_REACTORS
330
8C2
102
}
330
1F
100
AcDbEntity
  8
実線
100
AcDbLine
 10
1243.72528614921
 20
588.7331316740082
 30
0.0
 11
1320.725286149212
 21
588.7331316740082
 31
0.0
  0
LINE
  5
4BE
102
{ACAD_REACTORS
330
8C2
102
}
330
1F
100
AcDbEntity
  8
実線
100
AcDbLine
 10
1320.725286149212
 20
673.7331316740083
 30
0.0
 11
1243.72528614921
 21
673.7331316740083
 31
0.0
  0
LINE
  5
4BF
102
{ACAD_REACTORS
330
8C2
102
}
330
1F
100
AcDbEntity
  8
実線
100
AcDbLine
 10
1243.72528614921
 20
674.5331316740084
 30
0.0
 11
1243.72528614921
 21
587.9331316740083
 31
0.0
  0
LINE
  5
4C0
102
{ACAD_REACTORS
330
8C2
102
}
330
1F
100
AcDbEntity
  8
実線
100
AcDbLine
 10
1207.725286149211
 20
587.9331316740082
 30
0.0
 11
1243.72528614921
 21
587.9331316740082
 31
0.0
  0
LINE
  5
4C1
102
{ACAD_REACTORS
330
8C2
102
}
330
1F
100
AcDbEntity
  8
実線
100
AcDbLine
 10
1243.72528614921
 20
674.5331316740084
 30
0.0
 11
1207.725286149211
 21
674.5331316740084
 31
0.0
  0
LINE
  5
4C2
102
{ACAD_REACTORS
330
8C2
102
}
330
1F
100
AcDbEntity
  8
実線
100
AcDbLine
 10
1191.025286149211
 20
618.2331316740081
 30
0.0
 11
1204.025286149211
 21
618.2331316740081
 31
0.0
  0
LINE
  5
4C3
102
{ACAD_REACTORS
330
8C2
102
}
330
1F
100
AcDbEntity
  8
実線
100
AcDbLine
 10
1204.025286149211
 20
644.2331316740083
 30
0.0
 11
1191.025286149211
 21
644.2331316740083
 31
0.0
  0
LINE
  5
4C4
102
{ACAD_REACTORS
330
8C2
102
}
330
1F
100
AcDbEntity
  8
実線
100
AcDbLine
 10
1191.025286149211
 20
666.2331316740082
 30
0.0
 11
1191.025286149211
 21
596.2331316740082
 31
0.0
  0
LINE
  5
4C5
102
{ACAD_REACTORS
330
8C2
102
}
330
1F
100
AcDbEntity
  8
実線
100
AcDbLine
 10
1179.525286149211
 20
596.2331316740082
 30
0.0
 11
1191.025286149211
 21
596.2331316740082
 31
0.0
  0
LINE
  5
4C6
102
{ACAD_REACTORS
330
8C2
102
}
330
1F
100
AcDbEntity
  8
実線
100
AcDbLine
 10
1191.025286149211
 20
666.2331316740082
 30
0.0
 11
1179.525286149211
 21
666.2331316740082
 31
0.0
  0
LINE
  5
4C7
102
{ACAD_REACTORS
330
8C2
102
}
330
1F
100
AcDbEntity
  8
実線
100
AcDbLine
 10
1005.025286149211
 20
635.4408277409731
 30
0.0
 11
1005.025286149211
 21
678.210301442892
 31
0.0
  0
LINE
  5
4C8
102
{ACAD_REACTORS
330
8C2
102
}
330
1F
100
AcDbEntity
  8
実線
100
AcDbLine
 10
1015.025286149211
 20
584.2559619051242
 30
0.0
 11
1015.025286149211
 21
678.210301442892
 31
0.0
  0
LINE
  5
4C9
102
{ACAD_REACTORS
330
8C2
102
}
330
1F
100
AcDbEntity
  8
実線
100
AcDbLine
 10
1015.025286149211
 20
678.210301442892
 30
0.0
 11
1005.025286149211
 21
678.210301442892
 31
0.0
  0
LINE
  5
4CA
102
{ACAD_REACTORS
330
8C2
102
}
330
1F
100
AcDbEntity
  8
実線
100
AcDbLine
 10
1005.025286149211
 20
584.2559619051242
 30
0.0
 11
1005.025286149211
 21
600.0254356070435
 31
0.0
  0
LINE
  5
4CB
102
{ACAD_REACTORS
330
8C2
102
}
330
1F
100
AcDbEntity
  8
実線
100
AcDbLine
 10
1005.025286149211
 20
584.2559619051242
 30
0.0
 11
1015.025286149211
 21
584.2559619051242
 31
0.0
  0
LINE
  5
4CC
102
{ACAD_REACTORS
330
8C2
102
}
330
1F
100
AcDbEntity
  8
実線
100
AcDbLine
 10
1015.025286149211
 20
649.2620284844323
 30
0.0
 11
1005.025286149211
 21
649.2620284844323
 31
0.0
  0
LINE
  5
4CD
102
{ACAD_REACTORS
330
8C2
102
}
330
1F
100
AcDbEntity
  8
実線
100
AcDbLine
 10
1015.025286149211
 20
613.2042348635842
 30
0.0
 11
1011.865809365934
 21
613.2042348635842
 31
0.0
  0
LINE
  5
4CE
102
{ACAD_REACTORS
330
8C2
102
}
330
1F
100
AcDbEntity
  8
実線
100
AcDbLine
 10
968.5252861492108
 20
658.4331316740083
 30
0.0
 11
997.5252861492108
 21
658.4331316740083
 31
0.0
  0
LINE
  5
4CF
102
{ACAD_REACTORS
330
8C2
102
}
330
1F
100
AcDbEntity
  8
実線
100
AcDbLine
 10
948.0252861492107
 20
640.0138694948354
 30
0.0
 11
948.0252861492107
 21
579.2331316740082
 31
0.0
  0
LINE
  5
4D0
102
{ACAD_REACTORS
330
8C2
102
}
330
1F
100
AcDbEntity
  8
実線
100
AcDbLine
 10
948.0252861492107
 20
579.2331316740082
 30
0.0
 11
978.0252861492108
 21
579.2331316740082
 31
0.0
  0
LINE
  5
4D1
102
{ACAD_REACTORS
330
8C2
102
}
330
1F
100
AcDbEntity
  8
実線
100
AcDbLine
 10
978.0252861492108
 20
579.2331316740082
 30
0.0
 11
978.0252861492108
 21
594.1415547873311
 31
0.0
  0
LINE
  5
4D2
102
{ACAD_REACTORS
330
8C2
102
}
330
1F
100
AcDbEntity
  8
実線
100
AcDbLine
 10
997.5252861492108
 20
640.6964175887025
 30
0.0
 11
997.5252861492108
 21
658.4331316740083
 31
0.0
  0
LINE
  5
4D3
102
{ACAD_REACTORS
330
8C2
102
}
330
1F
100
AcDbEntity
  8
実線
100
AcDbLine
 10
925.5252861492106
 20
712.9331316740083
 30
0.0
 11
925.5252861492106
 21
586.9331316740083
 31
0.0
  0
LINE
  5
4D4
102
{ACAD_REACTORS
330
8C2
102
}
330
1F
100
AcDbEntity
  8
実線
100
AcDbLine
 10
937.5252861492109
 20
712.9331316740083
 30
0.0
 11
937.5252861492109
 21
586.9331316740083
 31
0.0
  0
LINE
  5
4D5
102
{ACAD_REACTORS
330
8C2
102
}
330
1F
100
AcDbEntity
  8
実線
100
AcDbLine
 10
937.5252861492109
 20
712.9331316740083
 30
0.0
 11
925.5252861492106
 21
712.9331316740083
 31
0.0
  0
LINE
  5
4D6
102
{ACAD_REACTORS
330
8C2
102
}
330
1F
100
AcDbEntity
  8
実線
100
AcDbLine
 10
925.5252861492106
 20
702.818522934165
 30
0.0
 11
937.5252861492109
 21
702.818522934165
 31
0.0
  0
LINE
  5
4D7
102
{ACAD_REACTORS
330
8C2
102
}
330
1F
100
AcDbEntity
  8
実線
100
AcDbLine
 10
925.5252861492106
 20
586.9331316740083
 30
0.0
 11
937.5252861492109
 21
586.9331316740083
 31
0.0
  0
LINE
  5
4D8
102
{ACAD_REACTORS
330
8C2
102
}
330
1F
100
AcDbEntity
  8
実線
100
AcDbLine
 10
939.0252861492108
 20
644.9015192349711
 30
0.0
 11
939.0252861492108
 21
649.5187911698677
 31
0.0
  0
LINE
  5
4D9
102
{ACAD_REACTORS
330
8C2
102
}
330
1F
100
AcDbEntity
  8
実線
100
AcDbLine
 10
939.0252861492108
 20
649.5187911698677
 30
0.0
 11
967.5252861492108
 21
649.5187911698677
 31
0.0
  0
LINE
  5
4DA
102
{ACAD_REACTORS
330
8C2
102
}
330
1F
100
AcDbEntity
  8
実線
100
AcDbLine
 10
967.5252861492108
 20
649.5187911698675
 30
0.0
 11
967.5252861492108
 21
687.6195262162926
 31
0.0
  0
LINE
  5
4DB
102
{ACAD_REACTORS
330
8C2
102
}
330
1F
100
AcDbEntity
  8
実線
100
AcDbLine
 10
937.5252861492109
 20
644.9015192349711
 30
0.0
 11
939.0252861492108
 21
644.9015192349711
 31
0.0
  0
LINE
  5
4DC
102
{ACAD_REACTORS
330
8C2
102
}
330
1F
100
AcDbEntity
  8
実線
100
AcDbLine
 10
937.5252861492109
 20
650.0318213848562
 30
0.0
 11
967.5252861492108
 21
650.0318213848562
 31
0.0
  0
LINE
  5
4DD
102
{ACAD_REACTORS
330
8C2
102
}
330
1F
100
AcDbEntity
  8
実線
100
AcDbLine
 10
959.7815435903596
 20
687.6195262162926
 30
0.0
 11
967.5252861492108
 21
687.6195262162926
 31
0.0
  0
LINE
  5
4DE
102
{ACAD_REACTORS
330
8C2
102
}
330
1F
100
AcDbEntity
  8
実線
100
AcDbLine
 10
937.5252861492109
 20
687.6195262162926
 30
0.0
 11
949.2690287080627
 21
687.6195262162926
 31
0.0
  0
LINE
  5
4DF
102
{ACAD_REACTORS
330
8C2
102
}
330
1F
100
AcDbEntity
  8
実線
100
AcDbLine
 10
913.2252861492107
 20
586.9331316740083
 30
0.0
 11
913.2252861492107
 21
711.9331316740083
 31
0.0
  0
LINE
  5
4E0
102
{ACAD_REACTORS
330
8C2
102
}
330
1F
100
AcDbEntity
  8
実線
100
AcDbLine
 10
913.2252861492107
 20
586.9331316740083
 30
0.0
 11
925.5252861492106
 21
586.9331316740083
 31
0.0
  0
LINE
  5
4E1
102
{ACAD_REACTORS
330
8C2
102
}
330
1F
100
AcDbEntity
  8
実線
100
AcDbLine
 10
925.5252861492106
 20
711.9331316740083
 30
0.0
 11
913.2252861492107
 21
711.9331316740083
 31
0.0
  0
LINE
  5
4E2
102
{ACAD_REACTORS
330
8C2
102
}
330
1F
100
AcDbEntity
  8
実線
100
AcDbLine
 10
1099.025286149211
 20
671.2331316740082
 30
0.0
 11
1055.525286149211
 21
671.2331316740082
 31
0.0
  0
LINE
  5
4E3
102
{ACAD_REACTORS
330
8C2
102
}
330
1F
100
AcDbEntity
  8
実線
100
AcDbLine
 10
1055.525286149211
 20
642.4831316740083
 30
0.0
 11
1055.525286149211
 21
671.2331316740082
 31
0.0
  0
LINE
  5
4E4
102
{ACAD_REACTORS
330
8C2
102
}
330
1F
100
AcDbEntity
  8
実線
100
AcDbLine
 10
1055.525286149211
 20
619.9831316740081
 30
0.0
 11
1055.525286149211
 21
591.2331316740083
 31
0.0
  0
LINE
  5
4E5
102
{ACAD_REACTORS
330
8C2
102
}
330
1F
100
AcDbEntity
  8
実線
100
AcDbLine
 10
1055.525286149211
 20
591.2331316740083
 30
0.0
 11
1099.025286149211
 21
591.2331316740083
 31
0.0
  0
LINE
  5
4E6
102
{ACAD_REACTORS
330
8C2
102
}
330
1F
100
AcDbEntity
  8
実線
100
AcDbLine
 10
1099.025286149211
 20
642.4831316740083
 30
0.0
 11
1028.525286149211
 21
642.4831316740083
 31
0.0
  0
LINE
  5
4E7
102
{ACAD_REACTORS
330
8C2
102
}
330
1F
100
AcDbEntity
  8
実線
100
AcDbLine
 10
1099.025286149211
 20
619.9831316740081
 30
0.0
 11
1028.525286149211
 21
619.9831316740081
 31
0.0
  0
LINE
  5
4E8
102
{ACAD_REACTORS
330
8C2
102
}
330
1F
100
AcDbEntity
  8
実線
100
AcDbLine
 10
1175.025286149211
 20
581.2331316740083
 30
0.0
 11
1176.525286149211
 21
581.2331316740083
 31
0.0
  0
LINE
  5
4E9
102
{ACAD_REACTORS
330
8C2
102
}
330
1F
100
AcDbEntity
  8
実線
100
AcDbLine
 10
1176.525286149211
 20
681.2331316740083
 30
0.0
 11
1175.025286149211
 21
681.2331316740083
 31
0.0
  0
LINE
  5
4EA
102
{ACAD_REACTORS
330
8C2
102
}
330
1F
100
AcDbEntity
  8
実線
100
AcDbLine
 10
1179.525286149211
 20
584.2331316740082
 30
0.0
 11
1179.525286149211
 21
678.2331316740083
 31
0.0
  0
ARC
  5
4EB
102
{ACAD_REACTORS
330
8C2
102
}
330
1F
100
AcDbEntity
  8
実線
100
AcDbCircle
 10
1176.525286149211
 20
584.2331316740082
 30
0.0
 40
3.0
100
AcDbArc
 50
270.0
 51
0.0
  0
ARC
  5
4EC
102
{ACAD_REACTORS
330
8C2
102
}
330
1F
100
AcDbEntity
  8
実線
100
AcDbCircle
 10
1176.525286149211
 20
678.2331316740083
 30
0.0
 40
3.0
100
AcDbArc
 50
0.0
 51
90.0
  0
LINE
  5
4ED
102
{ACAD_REACTORS
330
8C2
102
}
330
1F
100
AcDbEntity
  8
実線
100
AcDbLine
 10
993.2428865935447
 20
593.2606176079255
 30
0.0
 11
1003.025286149211
 21
591.2331316740083
 31
0.0
  0
LINE
  5
4EE
102
{ACAD_REACTORS
330
8C2
102
}
330
1F
100
AcDbEntity
  8
実線
100
AcDbLine
 10
1003.025286149211
 20
671.2331316740082
 30
0.0
 11
985.0252861492108
 21
667.5024777988688
 31
0.0
  0
LINE
  5
4EF
102
{ACAD_REACTORS
330
8C2
102
}
330
1F
100
AcDbEntity
  8
実線
100
AcDbLine
 10
1003.025286149211
 20
598.1995068183906
 30
0.0
 11
1003.025286149211
 21
591.2331316740083
 31
0.0
  0
LINE
  5
4F0
102
{ACAD_REACTORS
330
8C2
102
}
330
1F
100
AcDbEntity
  8
実線
100
AcDbLine
 10
1003.025286149211
 20
591.2331316740083
 30
0.0
 11
1005.025286149211
 21
591.2331316740083
 31
0.0
  0
LINE
  5
4F1
102
{ACAD_REACTORS
330
8C2
102
}
330
1F
100
AcDbEntity
  8
実線
100
AcDbLine
 10
1005.025286149211
 20
671.2331316740082
 30
0.0
 11
1003.025286149211
 21
671.2331316740082
 31
0.0
  0
LINE
  5
4F2
102
{ACAD_REACTORS
330
8C2
102
}
330
1F
100
AcDbEntity
  8
実線
100
AcDbLine
 10
1003.025286149211
 20
637.2667565296258
 30
0.0
 11
1003.025286149211
 21
671.2331316740082
 31
0.0
  0
ARC
  5
4F3
102
{ACAD_REACTORS
330
8BF
102
}
330
1F
100
AcDbEntity
  8
実線
100
AcDbCircle
 10
392.0252861492134
 20
617.7331316740082
 30
0.0
 40
25.25
100
AcDbArc
 50
255.7447795970656
 51
290.881457337149
  0
LINE
  5
4F4
102
{ACAD_REACTORS
330
8BF
102
}
330
1F
100
AcDbEntity
  8
実線
100
AcDbLine
 10
441.5252861492133
 20
688.5831316740083
 30
0.0
 11
429.0252861492133
 21
688.5831316740083
 31
0.0
  0
LINE
  5
4F5
102
{ACAD_REACTORS
330
8BF
102
}
330
1F
100
AcDbEntity
  8
実線
100
AcDbLine
 10
410.5252861492131
 20
684.4541610706436
 30
0.0
 11
410.5252861492131
 21
663.8862372721677
 31
0.0
  0
LINE
  5
4F6
102
{ACAD_REACTORS
330
8BF
102
}
330
1F
100
AcDbEntity
  8
実線
100
AcDbLine
 10
429.0252861492133
 20
694.2331316740083
 30
0.0
 11
394.0252861492131
 21
694.2331316740083
 31
0.0
  0
LINE
  5
4F7
102
{ACAD_REACTORS
330
8BF
102
}
330
1F
100
AcDbEntity
  8
実線
100
AcDbLine
 10
394.0252861492131
 20
694.2331316740083
 30
0.0
 11
394.0252861492131
 21
667.5024777988688
 31
0.0
  0
LINE
  5
4F8
102
{ACAD_REACTORS
330
8BF
102
}
330
1F
100
AcDbEntity
  8
実線
100
AcDbLine
 10
429.0252861492133
 20
684.4541610706436
 30
0.0
 11
429.0252861492133
 21
694.2331316740083
 31
0.0
  0
CIRCLE
  5
4F9
102
{ACAD_REACTORS
330
8BF
102
}
330
1F
100
AcDbEntity
  8
実線
100
AcDbCircle
 10
431.0252861492131
 20
631.2331316740083
 30
0.0
 40
25.25
  0
LINE
  5
4FA
102
{ACAD_REACTORS
330
8BF
102
}
330
1F
100
AcDbEntity
  8
実線
100
AcDbLine
 10
431.0252861492131
 20
579.2331316740082
 30
0.0
 11
431.0252861492131
 21
605.9831316740083
 31
0.0
  0
LINE
  5
4FB
102
{ACAD_REACTORS
330
8BF
102
}
330
1F
100
AcDbEntity
  8
実線
100
AcDbLine
 10
401.0252861492133
 20
602.7317199721815
 30
0.0
 11
401.0252861492133
 21
579.2331316740082
 31
0.0
  0
LINE
  5
4FC
102
{ACAD_REACTORS
330
8BF
102
}
330
1F
100
AcDbEntity
  8
実線
100
AcDbLine
 10
431.0252861492131
 20
579.2331316740082
 30
0.0
 11
401.0252861492133
 21
579.2331316740082
 31
0.0
  0
ELLIPSE
  5
4FD
102
{ACAD_REACTORS
330
8BF
102
}
330
1F
100
AcDbEntity
  8
実線
100
AcDbEllipse
 10
424.5252861492133
 20
684.9006205368806
 30
0.0
 11
6.0
 21
0.0
 31
0.0
210
0.0
220
0.0
230
1.0
 40
0.9396926207859085
 41
0.7117251431103507
 42
0.722734247813394
  0
LINE
  5
4FE
102
{ACAD_REACTORS
330
8BF
102
}
330
1F
100
AcDbEntity
  8
実線
100
AcDbLine
 10
483.3252861492134
 20
647.479778257661
 30
0.0
 11
483.3252861492134
 21
632.9797782576609
 31
0.0
  0
LINE
  5
4FF
102
{ACAD_REACTORS
330
8BF
102
}
330
1F
100
AcDbEntity
  8
実線
100
AcDbLine
 10
483.3252861492134
 20
647.479778257661
 30
0.0
 11
477.4252861492134
 21
647.479778257661
 31
0.0
  0
LINE
  5
500
102
{ACAD_REACTORS
330
8BF
102
}
330
1F
100
AcDbEntity
  8
実線
100
AcDbLine
 10
477.4252861492133
 20
632.9797782576609
 30
0.0
 11
483.3252861492134
 21
632.9797782576609
 31
0.0
  0
LINE
  5
501
102
{ACAD_REACTORS
330
8BF
102
}
330
1F
100
AcDbEntity
  8
実線
100
AcDbLine
 10
483.3252861492134
 20
708.8779425836555
 30
0.0
 11
483.3252861492134
 21
694.3779425836553
 31
0.0
  0
LINE
  5
502
102
{ACAD_REACTORS
330
8BF
102
}
330
1F
100
AcDbEntity
  8
実線
100
AcDbLine
 10
483.3252861492134
 20
708.8779425836555
 30
0.0
 11
477.4252861492134
 21
708.8779425836555
 31
0.0
  0
LINE
  5
503
102
{ACAD_REACTORS
330
8BF
102
}
330
1F
100
AcDbEntity
  8
実線
100
AcDbLine
 10
477.4252861492133
 20
694.3779425836553
 30
0.0
 11
483.3252861492134
 21
694.3779425836553
 31
0.0
  0
LINE
  5
504
102
{ACAD_REACTORS
330
8BF
102
}
330
1F
100
AcDbEntity
  8
実線
100
AcDbLine
 10
483.3252861492134
 20
604.4883207643611
 30
0.0
 11
483.3252861492134
 21
589.988320764361
 31
0.0
  0
LINE
  5
505
102
{ACAD_REACTORS
330
8BF
102
}
330
1F
100
AcDbEntity
  8
実線
100
AcDbLine
 10
483.3252861492134
 20
604.4883207643611
 30
0.0
 11
477.4252861492134
 21
604.4883207643611
 31
0.0
  0
LINE
  5
506
102
{ACAD_REACTORS
330
8BF
102
}
330
1F
100
AcDbEntity
  8
実線
100
AcDbLine
 10
477.4252861492133
 20
589.988320764361
 30
0.0
 11
483.3252861492134
 21
589.988320764361
 31
0.0
  0
LINE
  5
507
102
{ACAD_REACTORS
330
8BF
102
}
330
1F
100
AcDbEntity
  8
実線
100
AcDbLine
 10
483.3252861492134
 20
665.8864850903555
 30
0.0
 11
483.3252861492134
 21
651.3864850903555
 31
0.0
  0
LINE
  5
508
102
{ACAD_REACTORS
330
8BF
102
}
330
1F
100
AcDbEntity
  8
実線
100
AcDbLine
 10
483.3252861492134
 20
665.8864850903555
 30
0.0
 11
477.4252861492134
 21
665.8864850903555
 31
0.0
  0
LINE
  5
509
102
{ACAD_REACTORS
330
8BF
102
}
330
1F
100
AcDbEntity
  8
実線
100
AcDbLine
 10
477.4252861492133
 20
651.3864850903555
 30
0.0
 11
483.3252861492134
 21
651.3864850903555
 31
0.0
  0
LINE
  5
50A
102
{ACAD_REACTORS
330
8BF
102
}
330
1F
100
AcDbEntity
  8
実線
100
AcDbLine
 10
477.4252861492133
 20
710.6279425836556
 30
0.0
 11
477.4252861492133
 21
692.6279425836553
 31
0.0
  0
LINE
  5
50B
102
{ACAD_REACTORS
330
8BF
102
}
330
1F
100
AcDbEntity
  8
実線
100
AcDbLine
 10
477.4252861492133
 20
710.6279425836556
 30
0.0
 11
465.8252861492131
 21
710.6279425836556
 31
0.0
  0
LINE
  5
50C
102
{ACAD_REACTORS
330
8BF
102
}
330
1F
100
AcDbEntity
  8
実線
100
AcDbLine
 10
465.8252861492132
 20
692.6279425836553
 30
0.0
 11
477.4252861492133
 21
692.6279425836553
 31
0.0
  0
LINE
  5
50D
102
{ACAD_REACTORS
330
8BF
102
}
330
1F
100
AcDbEntity
  8
実線
100
AcDbLine
 10
477.4252861492133
 20
606.2383207643611
 30
0.0
 11
477.4252861492133
 21
588.2383207643611
 31
0.0
  0
LINE
  5
50E
102
{ACAD_REACTORS
330
8BF
102
}
330
1F
100
AcDbEntity
  8
実線
100
AcDbLine
 10
477.4252861492133
 20
606.2383207643611
 30
0.0
 11
465.8252861492131
 21
606.2383207643611
 31
0.0
  0
LINE
  5
50F
102
{ACAD_REACTORS
330
8BF
102
}
330
1F
100
AcDbEntity
  8
実線
100
AcDbLine
 10
465.8252861492132
 20
588.2383207643611
 30
0.0
 11
477.4252861492133
 21
588.2383207643611
 31
0.0
  0
LINE
  5
510
102
{ACAD_REACTORS
330
8BF
102
}
330
1F
100
AcDbEntity
  8
実線
100
AcDbLine
 10
477.4252861492133
 20
649.229778257661
 30
0.0
 11
477.4252861492133
 21
631.2297782576609
 31
0.0
  0
LINE
  5
511
102
{ACAD_REACTORS
330
8BF
102
}
330
1F
100
AcDbEntity
  8
実線
100
AcDbLine
 10
477.4252861492133
 20
649.229778257661
 30
0.0
 11
465.8252861492131
 21
649.229778257661
 31
0.0
  0
LINE
  5
512
102
{ACAD_REACTORS
330
8BF
102
}
330
1F
100
AcDbEntity
  8
実線
100
AcDbLine
 10
465.8252861492132
 20
631.2297782576609
 30
0.0
 11
477.4252861492133
 21
631.2297782576609
 31
0.0
  0
LINE
  5
513
102
{ACAD_REACTORS
330
8BF
102
}
330
1F
100
AcDbEntity
  8
実線
100
AcDbLine
 10
477.4252861492133
 20
667.6364850903556
 30
0.0
 11
477.4252861492133
 21
649.6364850903555
 31
0.0
  0
LINE
  5
514
102
{ACAD_REACTORS
330
8BF
102
}
330
1F
100
AcDbEntity
  8
実線
100
AcDbLine
 10
477.4252861492133
 20
667.6364850903556
 30
0.0
 11
465.8252861492131
 21
667.6364850903556
 31
0.0
  0
LINE
  5
515
102
{ACAD_REACTORS
330
8BF
102
}
330
1F
100
AcDbEntity
  8
実線
100
AcDbLine
 10
465.8252861492132
 20
649.6364850903555
 30
0.0
 11
477.4252861492133
 21
649.6364850903555
 31
0.0
  0
LINE
  5
516
102
{ACAD_REACTORS
330
8BF
102
}
330
1F
100
AcDbEntity
  8
実線
100
AcDbLine
 10
350.5252861492134
 20
678.210301442892
 30
0.0
 11
350.5252861492134
 21
584.2559619051242
 31
0.0
  0
LINE
  5
517
102
{ACAD_REACTORS
330
8BF
102
}
330
1F
100
AcDbEntity
  8
実線
100
AcDbLine
 10
364.0252861492133
 20
678.210301442892
 30
0.0
 11
364.0252861492133
 21
584.2559619051242
 31
0.0
  0
LINE
  5
518
102
{ACAD_REACTORS
330
8BF
102
}
330
1F
100
AcDbEntity
  8
実線
100
AcDbLine
 10
350.5252861492134
 20
584.2559619051242
 30
0.0
 11
364.0252861492133
 21
584.2559619051242
 31
0.0
  0
LINE
  5
519
102
{ACAD_REACTORS
330
8BF
102
}
330
1F
100
AcDbEntity
  8
実線
100
AcDbLine
 10
364.0252861492133
 20
678.210301442892
 30
0.0
 11
350.5252861492134
 21
678.210301442892
 31
0.0
  0
LINE
  5
51A
102
{ACAD_REACTORS
330
8BF
102
}
330
1F
100
AcDbEntity
  8
実線
100
AcDbLine
 10
350.5252861492134
 20
613.2042348635841
 30
0.0
 11
364.0252861492133
 21
613.2042348635841
 31
0.0
  0
LINE
  5
51B
102
{ACAD_REACTORS
330
8BF
102
}
330
1F
100
AcDbEntity
  8
実線
100
AcDbLine
 10
350.5252861492134
 20
649.2620284844321
 30
0.0
 11
364.0252861492133
 21
649.2620284844321
 31
0.0
  0
LINE
  5
51C
102
{ACAD_REACTORS
330
8BF
102
}
330
1F
100
AcDbEntity
  8
実線
100
AcDbLine
 10
280.0252861492132
 20
681.2331316740083
 30
0.0
 11
280.0252861492132
 21
581.2331316740083
 31
0.0
  0
LINE
  5
51D
102
{ACAD_REACTORS
330
8BF
102
}
330
1F
100
AcDbEntity
  8
実線
100
AcDbLine
 10
280.0252861492132
 20
681.2331316740083
 30
0.0
 11
204.0252861492132
 21
681.2331316740083
 31
0.0
  0
LINE
  5
51E
102
{ACAD_REACTORS
330
8BF
102
}
330
1F
100
AcDbEntity
  8
実線
100
AcDbLine
 10
204.0252861492132
 20
581.2331316740083
 30
0.0
 11
280.0252861492132
 21
581.2331316740083
 31
0.0
  0
LINE
  5
51F
102
{ACAD_REACTORS
330
8BF
102
}
330
1F
100
AcDbEntity
  8
実線
100
AcDbLine
 10
204.0252861492132
 20
681.2331316740083
 30
0.0
 11
204.0252861492132
 21
581.2331316740083
 31
0.0
  0
LINE
  5
520
102
{ACAD_REACTORS
330
8BF
102
}
330
1F
100
AcDbEntity
  8
実線
100
AcDbLine
 10
175.0252861492132
 20
675.2331316740082
 30
0.0
 11
175.0252861492132
 21
587.2331316740083
 31
0.0
  0
LINE
  5
521
102
{ACAD_REACTORS
330
8BF
102
}
330
1F
100
AcDbEntity
  8
実線
100
AcDbLine
 10
171.3252861492133
 20
587.9331316740082
 30
0.0
 11
175.0252861492132
 21
587.2331316740083
 31
0.0
  0
LINE
  5
522
102
{ACAD_REACTORS
330
8BF
102
}
330
1F
100
AcDbEntity
  8
実線
100
AcDbLine
 10
175.0252861492132
 20
675.2331316740082
 30
0.0
 11
171.3252861492133
 21
674.5331316740084
 31
0.0
  0
LINE
  5
523
102
{ACAD_REACTORS
330
8BF
102
}
330
1F
100
AcDbEntity
  8
実線
100
AcDbLine
 10
171.3252861492133
 20
674.5331316740084
 30
0.0
 11
171.3252861492133
 21
587.9331316740083
 31
0.0
  0
LINE
  5
524
102
{ACAD_REACTORS
330
8BF
102
}
330
1F
100
AcDbEntity
  8
実線
100
AcDbLine
 10
58.32528614921324
 20
673.7331316740083
 30
0.0
 11
58.32528614921324
 21
588.7331316740081
 31
0.0
  0
LINE
  5
525
102
{ACAD_REACTORS
330
8BF
102
}
330
1F
100
AcDbEntity
  8
実線
100
AcDbLine
 10
49.12528614921325
 20
614.7331316740083
 30
0.0
 11
58.32528614921324
 21
588.7331316740081
 31
0.0
  0
LINE
  5
526
102
{ACAD_REACTORS
330
8BF
102
}
330
1F
100
AcDbEntity
  8
実線
100
AcDbLine
 10
58.32528614921324
 20
673.7331316740083
 30
0.0
 11
49.12528614921325
 21
647.7331316740083
 31
0.0
  0
LINE
  5
527
102
{ACAD_REACTORS
330
8BF
102
}
330
1F
100
AcDbEntity
  8
実線
100
AcDbLine
 10
49.12528614921325
 20
647.7331316740083
 30
0.0
 11
49.12528614921325
 21
614.7331316740083
 31
0.0
  0
LINE
  5
528
102
{ACAD_REACTORS
330
8BF
102
}
330
1F
100
AcDbEntity
  8
実線
100
AcDbLine
 10
135.3252861492132
 20
673.7331316740083
 30
0.0
 11
58.32528614921324
 21
673.7331316740083
 31
0.0
  0
LINE
  5
529
102
{ACAD_REACTORS
330
8BF
102
}
330
1F
100
AcDbEntity
  8
実線
100
AcDbLine
 10
58.32528614921324
 20
588.7331316740082
 30
0.0
 11
135.3252861492132
 21
588.7331316740082
 31
0.0
  0
LINE
  5
52A
102
{ACAD_REACTORS
330
8BF
102
}
330
1F
100
AcDbEntity
  8
実線
100
AcDbLine
 10
171.3252861492133
 20
674.5331316740084
 30
0.0
 11
135.3252861492133
 21
674.5331316740084
 31
0.0
  0
LINE
  5
52B
102
{ACAD_REACTORS
330
8BF
102
}
330
1F
100
AcDbEntity
  8
実線
100
AcDbLine
 10
135.3252861492133
 20
587.9331316740082
 30
0.0
 11
171.3252861492133
 21
587.9331316740082
 31
0.0
  0
LINE
  5
52C
102
{ACAD_REACTORS
330
8BF
102
}
330
1F
100
AcDbEntity
  8
実線
100
AcDbLine
 10
135.3252861492133
 20
674.5331316740084
 30
0.0
 11
135.3252861492133
 21
587.9331316740083
 31
0.0
  0
LINE
  5
52D
102
{ACAD_REACTORS
330
8BF
102
}
330
1F
100
AcDbEntity
  8
実線
100
AcDbLine
 10
188.0252861492132
 20
644.2331316740083
 30
0.0
 11
175.0252861492132
 21
644.2331316740083
 31
0.0
  0
LINE
  5
52E
102
{ACAD_REACTORS
330
8BF
102
}
330
1F
100
AcDbEntity
  8
実線
100
AcDbLine
 10
175.0252861492132
 20
618.2331316740081
 30
0.0
 11
188.0252861492132
 21
618.2331316740081
 31
0.0
  0
LINE
  5
52F
102
{ACAD_REACTORS
330
8BF
102
}
330
1F
100
AcDbEntity
  8
実線
100
AcDbLine
 10
199.5252861492132
 20
666.2331316740082
 30
0.0
 11
188.0252861492132
 21
666.2331316740082
 31
0.0
  0
LINE
  5
530
102
{ACAD_REACTORS
330
8BF
102
}
330
1F
100
AcDbEntity
  8
実線
100
AcDbLine
 10
188.0252861492132
 20
596.2331316740082
 30
0.0
 11
199.5252861492132
 21
596.2331316740082
 31
0.0
  0
LINE
  5
531
102
{ACAD_REACTORS
330
8BF
102
}
330
1F
100
AcDbEntity
  8
実線
100
AcDbLine
 10
188.0252861492132
 20
666.2331316740082
 30
0.0
 11
188.0252861492132
 21
596.2331316740082
 31
0.0
  0
LINE
  5
532
102
{ACAD_REACTORS
330
8BF
102
}
330
1F
100
AcDbEntity
  8
実線
100
AcDbLine
 10
374.0252861492131
 20
678.210301442892
 30
0.0
 11
374.0252861492131
 21
584.2559619051242
 31
0.0
  0
LINE
  5
533
102
{ACAD_REACTORS
330
8BF
102
}
330
1F
100
AcDbEntity
  8
実線
100
AcDbLine
 10
364.0252861492133
 20
584.2559619051242
 30
0.0
 11
374.0252861492131
 21
584.2559619051242
 31
0.0
  0
LINE
  5
534
102
{ACAD_REACTORS
330
8BF
102
}
330
1F
100
AcDbEntity
  8
実線
100
AcDbLine
 10
374.0252861492131
 20
678.210301442892
 30
0.0
 11
364.0252861492133
 21
678.210301442892
 31
0.0
  0
LINE
  5
535
102
{ACAD_REACTORS
330
8BF
102
}
330
1F
100
AcDbEntity
  8
実線
100
AcDbLine
 10
364.0252861492133
 20
613.2042348635841
 30
0.0
 11
374.0252861492131
 21
613.2042348635841
 31
0.0
  0
LINE
  5
536
102
{ACAD_REACTORS
330
8BF
102
}
330
1F
100
AcDbEntity
  8
実線
100
AcDbLine
 10
364.0252861492133
 20
649.2620284844321
 30
0.0
 11
374.0252861492131
 21
649.2620284844321
 31
0.0
  0
LINE
  5
537
102
{ACAD_REACTORS
330
8BF
102
}
330
1F
100
AcDbEntity
  8
実線
100
AcDbLine
 10
453.5252861492133
 20
712.9331316740083
 30
0.0
 11
453.5252861492133
 21
642.6922983103739
 31
0.0
  0
LINE
  5
538
102
{ACAD_REACTORS
330
8BF
102
}
330
1F
100
AcDbEntity
  8
実線
100
AcDbLine
 10
441.5252861492133
 20
712.9331316740083
 30
0.0
 11
441.5252861492133
 21
654.1964175887025
 31
0.0
  0
LINE
  5
539
102
{ACAD_REACTORS
330
8BF
102
}
330
1F
100
AcDbEntity
  8
実線
100
AcDbLine
 10
453.5252861492133
 20
712.9331316740083
 30
0.0
 11
441.5252861492133
 21
712.9331316740083
 31
0.0
  0
LINE
  5
53A
102
{ACAD_REACTORS
330
8BF
102
}
330
1F
100
AcDbEntity
  8
実線
100
AcDbLine
 10
441.5252861492133
 20
608.2698457593139
 30
0.0
 11
441.5252861492133
 21
586.9331316740083
 31
0.0
  0
LINE
  5
53B
102
{ACAD_REACTORS
330
8BF
102
}
330
1F
100
AcDbEntity
  8
実線
100
AcDbLine
 10
441.5252861492133
 20
702.8185229341645
 30
0.0
 11
453.5252861492133
 21
702.8185229341645
 31
0.0
  0
LINE
  5
53C
102
{ACAD_REACTORS
330
8BF
102
}
330
1F
100
AcDbEntity
  8
実線
100
AcDbLine
 10
441.5252861492133
 20
586.9331316740083
 30
0.0
 11
453.5252861492133
 21
586.9331316740083
 31
0.0
  0
LINE
  5
53D
102
{ACAD_REACTORS
330
8BF
102
}
330
1F
100
AcDbEntity
  8
実線
100
AcDbLine
 10
453.5252861492133
 20
619.7739650376424
 30
0.0
 11
453.5252861492133
 21
586.9331316740083
 31
0.0
  0
LINE
  5
53E
102
{ACAD_REACTORS
330
8BF
102
}
330
1F
100
AcDbEntity
  8
実線
100
AcDbLine
 10
465.8252861492131
 20
711.9331316740083
 30
0.0
 11
453.5252861492133
 21
711.9331316740083
 31
0.0
  0
LINE
  5
53F
102
{ACAD_REACTORS
330
8BF
102
}
330
1F
100
AcDbEntity
  8
実線
100
AcDbLine
 10
453.5252861492133
 20
586.9331316740083
 30
0.0
 11
465.8252861492131
 21
586.9331316740083
 31
0.0
  0
LINE
  5
540
102
{ACAD_REACTORS
330
8BF
102
}
330
1F
100
AcDbEntity
  8
実線
100
AcDbLine
 10
465.8252861492131
 20
711.9331316740083
 30
0.0
 11
465.8252861492131
 21
586.9331316740083
 31
0.0
  0
LINE
  5
541
102
{ACAD_REACTORS
330
8BF
102
}
330
1F
100
AcDbEntity
  8
実線
100
AcDbLine
 10
280.0252861492132
 20
591.2331316740083
 30
0.0
 11
323.5252861492131
 21
591.2331316740083
 31
0.0
  0
LINE
  5
542
102
{ACAD_REACTORS
330
8BF
102
}
330
1F
100
AcDbEntity
  8
実線
100
AcDbLine
 10
323.5252861492131
 20
591.2331316740083
 30
0.0
 11
323.5252861492131
 21
619.9831316740081
 31
0.0
  0
LINE
  5
543
102
{ACAD_REACTORS
330
8BF
102
}
330
1F
100
AcDbEntity
  8
実線
100
AcDbLine
 10
323.5252861492131
 20
642.4831316740083
 30
0.0
 11
323.5252861492131
 21
671.2331316740082
 31
0.0
  0
LINE
  5
544
102
{ACAD_REACTORS
330
8BF
102
}
330
1F
100
AcDbEntity
  8
実線
100
AcDbLine
 10
323.5252861492131
 20
671.2331316740082
 30
0.0
 11
280.0252861492132
 21
671.2331316740082
 31
0.0
  0
LINE
  5
545
102
{ACAD_REACTORS
330
8BF
102
}
330
1F
100
AcDbEntity
  8
実線
100
AcDbLine
 10
280.0252861492132
 20
619.9831316740081
 30
0.0
 11
350.5252861492134
 21
619.9831316740081
 31
0.0
  0
LINE
  5
546
102
{ACAD_REACTORS
330
8BF
102
}
330
1F
100
AcDbEntity
  8
実線
100
AcDbLine
 10
280.0252861492132
 20
642.4831316740083
 30
0.0
 11
350.5252861492134
 21
642.4831316740083
 31
0.0
  0
LINE
  5
547
102
{ACAD_REACTORS
330
8BF
102
}
330
1F
100
AcDbEntity
  8
実線
100
AcDbLine
 10
199.5252861492132
 20
584.2331316740082
 30
0.0
 11
199.5252861492132
 21
678.2331316740083
 31
0.0
  0
ARC
  5
548
102
{ACAD_REACTORS
330
8BF
102
}
330
1F
100
AcDbEntity
  8
実線
100
AcDbCircle
 10
202.5252861492132
 20
678.2331316740083
 30
0.0
 40
3.0
100
AcDbArc
 50
90.0
 51
180.0
  0
ARC
  5
549
102
{ACAD_REACTORS
330
8BF
102
}
330
1F
100
AcDbEntity
  8
実線
100
AcDbCircle
 10
202.5252861492132
 20
584.2331316740082
 30
0.0
 40
3.0
100
AcDbArc
 50
180.0
 51
270.0
  0
LINE
  5
54A
102
{ACAD_REACTORS
330
8BF
102
}
330
1F
100
AcDbEntity
  8
実線
100
AcDbLine
 10
204.0252861492132
 20
681.2331316740083
 30
0.0
 11
202.5252861492132
 21
681.2331316740083
 31
0.0
  0
LINE
  5
54B
102
{ACAD_REACTORS
330
8BF
102
}
330
1F
100
AcDbEntity
  8
実線
100
AcDbLine
 10
202.5252861492132
 20
581.2331316740083
 30
0.0
 11
204.0252861492132
 21
581.2331316740083
 31
0.0
  0
ARC
  5
54C
102
{ACAD_REACTORS
330
8BF
102
}
330
1F
100
AcDbEntity
  8
実線
100
AcDbCircle
 10
405.1752861492133
 20
649.8727616147867
 30
0.0
 40
15.0
100
AcDbArc
 50
55.45879388569797
 51
78.29074275309148
  0
LINE
  5
54D
102
{ACAD_REACTORS
330
8BF
102
}
330
1F
100
AcDbEntity
  8
実線
100
AcDbLine
 10
376.0252861492134
 20
671.2331316740082
 30
0.0
 11
374.0252861492131
 21
671.2331316740082
 31
0.0
  0
LINE
  5
54E
102
{ACAD_REACTORS
330
8BF
102
}
330
1F
100
AcDbEntity
  8
実線
100
AcDbLine
 10
374.0252861492131
 20
591.2331316740083
 30
0.0
 11
376.0252861492134
 21
591.2331316740083
 31
0.0
  0
LINE
  5
54F
102
{ACAD_REACTORS
330
8BF
102
}
330
1F
100
AcDbEntity
  8
実線
100
AcDbLine
 10
408.2194687270384
 20
664.5606121189573
 30
0.0
 11
376.0252861492134
 21
671.2331316740082
 31
0.0
  0
LINE
  5
550
102
{ACAD_REACTORS
330
8BF
102
}
330
1F
100
AcDbEntity
  8
実線
100
AcDbLine
 10
376.0252861492134
 20
591.2331316740083
 30
0.0
 11
401.0252861492133
 21
596.4145953894798
 31
0.0
  0
LINE
  5
551
102
{ACAD_REACTORS
330
8BF
102
}
330
1F
100
AcDbEntity
  8
実線
100
AcDbLine
 10
376.0252861492134
 20
591.2331316740083
 30
0.0
 11
376.0252861492134
 21
671.2331316740082
 31
0.0
  0
LINE
  5
552
102
{ACAD_REACTORS
330
8C0
102
}
330
1F
100
AcDbEntity
  8
実線
100
AcDbLine
 10
786.9252861492127
 20
638.5831316740083
 30
0.0
 11
769.5763015754425
 21
638.5831316740083
 31
0.0
  0
LINE
  5
553
102
{ACAD_REACTORS
330
8C0
102
}
330
1F
100
AcDbEntity
  8
実線
100
AcDbLine
 10
746.0252861492127
 20
596.8831316740083
 30
0.0
 11
786.9252861492127
 21
596.8831316740083
 31
0.0
  0
LINE
  5
554
102
{ACAD_REACTORS
330
8C0
102
}
330
1F
100
AcDbEntity
  8
実線
100
AcDbLine
 10
792.0252861492127
 20
592.4831316740083
 30
0.0
 11
792.0252861492127
 21
642.9831316740083
 31
0.0
  0
LINE
  5
555
102
{ACAD_REACTORS
330
8C0
102
}
330
1F
100
AcDbEntity
  8
実線
100
AcDbLine
 10
792.0252861492127
 20
642.9831316740083
 30
0.0
 11
789.2752861492127
 21
642.9831316740083
 31
0.0
  0
LINE
  5
556
102
{ACAD_REACTORS
330
8C0
102
}
330
1F
100
AcDbEntity
  8
実線
100
AcDbLine
 10
789.2752861492127
 20
592.4831316740083
 30
0.0
 11
792.0252861492127
 21
592.4831316740083
 31
0.0
  0
LINE
  5
557
102
{ACAD_REACTORS
330
8C0
102
}
330
1F
100
AcDbEntity
  8
実線
100
AcDbLine
 10
789.2752861492127
 20
592.4831316740083
 30
0.0
 11
789.2752861492127
 21
642.9831316740083
 31
0.0
  0
LINE
  5
558
102
{ACAD_REACTORS
330
8C0
102
}
330
1F
100
AcDbEntity
  8
実線
100
AcDbLine
 10
786.9252861492127
 20
596.8831316740083
 30
0.0
 11
786.9252861492127
 21
638.5831316740083
 31
0.0
  0
LINE
  5
559
102
{ACAD_REACTORS
330
8C0
102
}
330
1F
100
AcDbEntity
  8
実線
100
AcDbLine
 10
786.9252861492127
 20
596.8831316740083
 30
0.0
 11
789.2752861492127
 21
592.4831316740083
 31
0.0
  0
LINE
  5
55A
102
{ACAD_REACTORS
330
8C0
102
}
330
1F
100
AcDbEntity
  8
実線
100
AcDbLine
 10
789.2752861492127
 20
642.9831316740083
 30
0.0
 11
786.9252861492127
 21
638.5831316740083
 31
0.0
  0
LINE
  5
55B
102
{ACAD_REACTORS
330
8C0
102
}
330
1F
100
AcDbEntity
  8
実線
100
AcDbLine
 10
659.226233904318
 20
610.3831316740081
 30
0.0
 11
602.1252861492131
 21
610.3831316740081
 31
0.0
  0
LINE
  5
55C
102
{ACAD_REACTORS
330
8C0
102
}
330
1F
100
AcDbEntity
  8
実線
100
AcDbLine
 10
645.5814914214743
 20
652.0831316740083
 30
0.0
 11
602.1252861492131
 21
652.0831316740083
 31
0.0
  0
LINE
  5
55D
102
{ACAD_REACTORS
330
8C0
102
}
330
1F
100
AcDbEntity
  8
実線
100
AcDbLine
 10
597.0252861492131
 20
605.9831316740083
 30
0.0
 11
599.7752861492131
 21
605.9831316740083
 31
0.0
  0
LINE
  5
55E
102
{ACAD_REACTORS
330
8C0
102
}
330
1F
100
AcDbEntity
  8
実線
100
AcDbLine
 10
599.7752861492131
 20
656.4831316740082
 30
0.0
 11
597.0252861492131
 21
656.4831316740082
 31
0.0
  0
LINE
  5
55F
102
{ACAD_REACTORS
330
8C0
102
}
330
1F
100
AcDbEntity
  8
実線
100
AcDbLine
 10
597.0252861492131
 20
605.9831316740083
 30
0.0
 11
597.0252861492131
 21
656.4831316740082
 31
0.0
  0
LINE
  5
560
102
{ACAD_REACTORS
330
8C0
102
}
330
1F
100
AcDbEntity
  8
実線
100
AcDbLine
 10
602.1252861492131
 20
652.0831316740083
 30
0.0
 11
599.7752861492131
 21
656.4831316740082
 31
0.0
  0
LINE
  5
561
102
{ACAD_REACTORS
330
8C0
102
}
330
1F
100
AcDbEntity
  8
実線
100
AcDbLine
 10
599.7752861492131
 20
605.9831316740083
 30
0.0
 11
602.1252861492131
 21
610.3831316740081
 31
0.0
  0
LINE
  5
562
102
{ACAD_REACTORS
330
8C0
102
}
330
1F
100
AcDbEntity
  8
実線
100
AcDbLine
 10
599.7752861492131
 20
605.9831316740083
 30
0.0
 11
599.7752861492131
 21
656.4831316740082
 31
0.0
  0
LINE
  5
563
102
{ACAD_REACTORS
330
8C0
102
}
330
1F
100
AcDbEntity
  8
実線
100
AcDbLine
 10
602.1252861492131
 20
610.3831316740081
 30
0.0
 11
602.1252861492131
 21
652.0831316740083
 31
0.0
  0
LINE
  5
564
102
{ACAD_REACTORS
330
8C0
102
}
330
1F
100
AcDbEntity
  8
実線
100
AcDbLine
 10
676.0252861492132
 20
595.7465411694884
 30
0.0
 11
676.0252861492132
 21
579.2331316740082
 31
0.0
  0
LINE
  5
565
102
{ACAD_REACTORS
330
8C0
102
}
330
1F
100
AcDbEntity
  8
実線
100
AcDbLine
 10
676.0252861492132
 20
579.2331316740082
 30
0.0
 11
651.0252861492132
 21
579.2331316740082
 31
0.0
  0
LINE
  5
566
102
{ACAD_REACTORS
330
8C0
102
}
330
1F
100
AcDbEntity
  8
実線
100
AcDbLine
 10
651.0252861492132
 20
579.2331316740082
 30
0.0
 11
651.0252861492132
 21
610.3831316740081
 31
0.0
  0
LINE
  5
567
102
{ACAD_REACTORS
330
8C0
102
}
330
1F
100
AcDbEntity
  8
実線
100
AcDbLine
 10
807.5235317846678
 20
679.2624648121654
 30
0.0
 11
803.4192900647596
 21
690.5387762615959
 31
0.0
  0
LINE
  5
568
102
{ACAD_REACTORS
330
8C0
102
}
330
1F
100
AcDbEntity
  8
実線
100
AcDbLine
 10
803.4192900647596
 20
690.5387762615959
 30
0.0
 11
764.4326961887677
 21
676.3488165553102
 31
0.0
  0
LINE
  5
569
102
{ACAD_REACTORS
330
8C0
102
}
330
1F
100
AcDbEntity
  8
実線
100
AcDbLine
 10
768.5369379086755
 20
665.0725051058792
 30
0.0
 11
807.5235317846678
 21
679.2624648121654
 31
0.0
  0
CIRCLE
  5
56A
102
{ACAD_REACTORS
330
8C0
102
}
330
1F
100
AcDbEntity
  8
実線
100
AcDbCircle
 10
760.2200970588596
 20
640.229778257661
 30
0.0
 40
7.25
  0
CIRCLE
  5
56B
102
{ACAD_REACTORS
330
8C0
102
}
330
1F
100
AcDbEntity
  8
実線
100
AcDbCircle
 10
717.2286395655605
 20
701.6279425836556
 30
0.0
 40
7.25
  0
CIRCLE
  5
56C
102
{ACAD_REACTORS
330
8C0
102
}
330
1F
100
AcDbEntity
  8
実線
100
AcDbCircle
 10
698.8219327328659
 20
597.2383207643612
 30
0.0
 40
7.25
  0
CIRCLE
  5
56D
102
{ACAD_REACTORS
330
8C0
102
}
330
1F
100
AcDbEntity
  8
実線
100
AcDbCircle
 10
655.8304752395661
 20
658.6364850903556
 30
0.0
 40
7.25
  0
CIRCLE
  5
56E
102
{ACAD_REACTORS
330
8C0
102
}
330
1F
100
AcDbEntity
  8
実線
100
AcDbCircle
 10
717.2286395655605
 20
701.6279425836556
 30
0.0
 40
9.0
  0
CIRCLE
  5
56F
102
{ACAD_REACTORS
330
8C0
102
}
330
1F
100
AcDbEntity
  8
実線
100
AcDbCircle
 10
698.8219327328659
 20
597.2383207643612
 30
0.0
 40
9.0
  0
CIRCLE
  5
570
102
{ACAD_REACTORS
330
8C0
102
}
330
1F
100
AcDbEntity
  8
実線
100
AcDbCircle
 10
760.2200970588596
 20
640.229778257661
 30
0.0
 40
9.0
  0
CIRCLE
  5
571
102
{ACAD_REACTORS
330
8C0
102
}
330
1F
100
AcDbEntity
  8
実線
100
AcDbCircle
 10
655.8304752395661
 20
658.6364850903556
 30
0.0
 40
9.0
  0
ARC
  5
572
102
{ACAD_REACTORS
330
8C0
102
}
330
1F
100
AcDbEntity
  8
実線
100
AcDbCircle
 10
671.0252861492132
 20
631.2331316740083
 30
0.0
 40
50.0
100
AcDbArc
 50
204.6453293003973
 51
212.7800510628626
  0
ARC
  5
573
102
{ACAD_REACTORS
330
8C0
102
}
330
1F
100
AcDbEntity
  8
実線
100
AcDbCircle
 10
671.0252861492132
 20
631.2331316740083
 30
0.0
 40
50.0
100
AcDbArc
 50
237.2199489371374
 51
246.4218215217994
  0
ARC
  5
574
102
{ACAD_REACTORS
330
8C0
102
}
330
1F
100
AcDbEntity
  8
実線
100
AcDbCircle
 10
671.0252861492132
 20
631.2331316740083
 30
0.0
 40
50.0
100
AcDbArc
 50
275.739170477268
 51
300.2807432229463
  0
ARC
  5
575
102
{ACAD_REACTORS
330
8C0
102
}
330
1F
100
AcDbEntity
  8
実線
100
AcDbCircle
 10
671.0252861492132
 20
631.2331316740083
 30
0.0
 40
50.0
100
AcDbArc
 50
112.103654522987
 51
122.7800510628626
  0
ARC
  5
576
102
{ACAD_REACTORS
330
8C0
102
}
330
1F
100
AcDbEntity
  8
実線
100
AcDbCircle
 10
671.0252861492132
 20
631.2331316740083
 30
0.0
 40
50.0
100
AcDbArc
 50
147.2199489371374
 51
155.3546706996027
  0
ARC
  5
577
102
{ACAD_REACTORS
330
8C0
102
}
330
1F
100
AcDbEntity
  8
実線
100
AcDbCircle
 10
671.0252861492132
 20
631.2331316740085
 30
0.0
 40
61.50000000000009
100
AcDbArc
 50
313.2354262571098
 51
314.2988327116778
  0
ARC
  5
578
102
{ACAD_REACTORS
330
8C0
102
}
330
1F
100
AcDbEntity
  8
実線
100
AcDbCircle
 10
707.6726630922847
 20
592.2559619051242
 30
0.0
 40
8.000000000000008
100
AcDbArc
 50
235.0000000000026
 51
313.2354262571098
  0
LINE
  5
579
102
{ACAD_REACTORS
330
8C0
102
}
330
1F
100
AcDbEntity
  8
実線
100
AcDbLine
 10
703.0840516014767
 20
585.7027455508123
 30
0.0
 11
700.7140507086312
 21
587.3622380415464
 31
0.0
  0
LINE
  5
57A
102
{ACAD_REACTORS
330
8C0
102
}
330
1F
100
AcDbEntity
  8
実線
100
AcDbLine
 10
651.0252861492132
 20
594.1463840219902
 30
0.0
 11
638.9665206969494
 21
585.7027455508123
 31
0.0
  0
ARC
  5
57B
102
{ACAD_REACTORS
330
8C0
102
}
330
1F
100
AcDbEntity
  8
実線
100
AcDbCircle
 10
634.3779092061413
 20
592.2559619051242
 30
0.0
 40
8.000000000000008
100
AcDbArc
 50
226.7645737428901
 51
304.9999999999974
  0
ARC
  5
57C
102
{ACAD_REACTORS
330
8C0
102
}
330
1F
100
AcDbEntity
  8
実線
100
AcDbCircle
 10
671.025286149214
 20
631.2331316740091
 30
0.0
 40
61.50000000000114
100
AcDbArc
 50
223.2354262571122
 51
226.7645737428901
  0
ARC
  5
57D
102
{ACAD_REACTORS
330
8C0
102
}
330
1F
100
AcDbEntity
  8
実線
100
AcDbCircle
 10
632.0481163803292
 20
594.5857547309363
 30
0.0
 40
8.000000000000008
100
AcDbArc
 50
145.0000000000026
 51
223.2354262571122
  0
LINE
  5
57E
102
{ACAD_REACTORS
330
8C0
102
}
330
1F
100
AcDbEntity
  8
実線
100
AcDbLine
 10
625.4949000260173
 20
599.1743662217445
 30
0.0
 11
633.3433620897169
 21
610.3831316740081
 31
0.0
  0
LINE
  5
57F
102
{ACAD_REACTORS
330
8C0
102
}
330
1F
100
AcDbEntity
  8
実線
100
AcDbLine
 10
638.9665206969494
 20
676.763517797204
 30
0.0
 11
648.9319318793913
 21
669.785661765899
 31
0.0
  0
ARC
  5
580
102
{ACAD_REACTORS
330
8C0
102
}
330
1F
100
AcDbEntity
  8
実線
100
AcDbCircle
 10
634.3779092061413
 20
670.2103014428921
 30
0.0
 40
8.000000000000021
100
AcDbArc
 50
55.00000000000264
 51
133.2354262571145
  0
ARC
  5
581
102
{ACAD_REACTORS
330
8C0
102
}
330
1F
100
AcDbEntity
  8
実線
100
AcDbCircle
 10
671.0252861492135
 20
631.2331316740085
 30
0.0
 40
61.50000000000008
100
AcDbArc
 50
133.2354262571145
 51
136.7645737428878
  0
ARC
  5
582
102
{ACAD_REACTORS
330
8C0
102
}
330
1F
100
AcDbEntity
  8
実線
100
AcDbCircle
 10
632.0481163803292
 20
667.8805086170804
 30
0.0
 40
7.999999999999996
100
AcDbArc
 50
136.7645737428878
 51
214.9999999999974
  0
LINE
  5
583
102
{ACAD_REACTORS
330
8C0
102
}
330
1F
100
AcDbEntity
  8
実線
100
AcDbLine
 10
633.3433620897169
 20
652.0831316740083
 30
0.0
 11
625.4949000260173
 21
663.2918971262719
 31
0.0
  0
LINE
  5
584
102
{ACAD_REACTORS
330
8C0
102
}
330
1F
100
AcDbEntity
  8
実線
100
AcDbLine
 10
746.0252861492127
 20
599.812067598356
 30
0.0
 11
746.0252861492127
 21
579.2331316740082
 31
0.0
  0
LINE
  5
585
102
{ACAD_REACTORS
330
8C0
102
}
330
1F
100
AcDbEntity
  8
実線
100
AcDbLine
 10
721.0252861492127
 20
579.2331316740082
 30
0.0
 11
721.0252861492127
 21
588.300080057064
 31
0.0
  0
LINE
  5
586
102
{ACAD_REACTORS
330
8C0
102
}
330
1F
100
AcDbEntity
  8
実線
100
AcDbLine
 10
746.0252861492127
 20
579.2331316740082
 30
0.0
 11
721.0252861492127
 21
579.2331316740082
 31
0.0
  0
LINE
  5
587
102
{ACAD_REACTORS
330
8C0
102
}
330
1F
100
AcDbEntity
  8
実線
100
AcDbLine
 10
740.5252861492126
 20
702.818522934165
 30
0.0
 11
740.5252861492126
 21
712.9331316740083
 31
0.0
  0
LINE
  5
588
102
{ACAD_REACTORS
330
8C0
102
}
330
1F
100
AcDbEntity
  8
実線
100
AcDbLine
 10
740.5252861492126
 20
712.9331316740083
 30
0.0
 11
675.5252861492132
 21
712.9331316740083
 31
0.0
  0
LINE
  5
589
102
{ACAD_REACTORS
330
8C0
102
}
330
1F
100
AcDbEntity
  8
実線
100
AcDbLine
 10
675.5252861492132
 20
702.8185229341645
 30
0.0
 11
675.5252861492132
 21
712.9331316740083
 31
0.0
  0
CIRCLE
  5
58A
102
{ACAD_REACTORS
330
8C0
102
}
330
1F
100
AcDbEntity
  8
実線
100
AcDbCircle
 10
708.0252861492127
 20
649.4331316740083
 30
0.0
 40
62.5
  0
CIRCLE
  5
58D
102
{ACAD_REACTORS
330
8C0
102
}
330
1F
100
AcDbEntity
  8
実線
100
AcDbCircle
 10
708.0252861492127
 20
649.4331316740083
 30
0.0
 40
35.0
  0
ARC
  5
58E
102
{ACAD_REACTORS
330
8C0
102
}
330
1F
100
AcDbEntity
  8
実線
100
AcDbCircle
 10
671.0252861492132
 20
631.2331316740083
 30
0.0
 40
40.0
100
AcDbArc
 50
126.7781773990065
 51
148.5838635671462
  0
ARC
  5
58F
102
{ACAD_REACTORS
330
8C0
102
}
330
1F
100
AcDbEntity
  8
実線
100
AcDbCircle
 10
671.0252861492132
 20
631.2331316740083
 30
0.0
 40
40.0
100
AcDbArc
 50
211.4161364328538
 51
240.0000000000002
  0
ARC
  5
590
102
{ACAD_REACTORS
330
8C0
102
}
330
1F
100
AcDbEntity
  8
実線
100
AcDbCircle
 10
671.0252861492132
 20
631.2331316740083
 30
0.0
 40
40.0
100
AcDbArc
 50
277.1807557814583
 51
285.606220346924
  0
LINE
  5
825
102
{ACAD_REACTORS
330
8C1
102
}
330
1F
100
AcDbEntity
  8
中心線
100
AcDbLine
 10
595.0252861492129
 20
451.2331316740078
 30
0.0
 11
726.0252861492131
 21
451.2331316740077
 31
0.0
  0
LINE
  5
826
102
{ACAD_REACTORS
330
8C1
102
}
330
1F
100
AcDbEntity
  8
中心線
100
AcDbLine
 10
671.0252861492133
 20
58.91352609172736
 30
0.0
 11
671.0252861492132
 21
481.2331316740078
 31
0.0
  0
LINE
  5
838
102
{ACAD_REACTORS
330
8C1
102
}
330
1F
100
AcDbEntity
  8
中心線
100
AcDbLine
 10
671.0252861492132
 20
412.2331316740077
 30
0.0
 11
794.0252861492126
 21
412.2331316740077
 31
0.0
  0
LINE
  5
839
102
{ACAD_REACTORS
330
8C3
102
}
330
1F
100
AcDbEntity
  8
中心線
100
AcDbLine
 10
1548.025286149211
 20
686.2331316740083
 30
0.0
 11
1548.025286149211
 21
576.2331316740082
 31
0.0
  0
LINE
  5
83A
102
{ACAD_REACTORS
330
8C3
102
}
330
1F
100
AcDbEntity
  8
中心線
100
AcDbLine
 10
1493.025286149211
 20
631.2331316740083
 30
0.0
 11
1633.700889109584
 21
631.2331316740083
 31
0.0
  0
LINE
  5
83B
102
{ACAD_REACTORS
330
8C2
102
}
330
1F
100
AcDbEntity
  8
中心線
100
AcDbLine
 10
987.0252861492085
 20
647.7331316740083
 30
0.0
 11
987.0252861492085
 21
587.7331316740082
 31
0.0
  0
LINE
  5
83C
102
{ACAD_REACTORS
330
8C2
102
}
330
1F
100
AcDbEntity
  8
中心線
100
AcDbLine
 10
957.0252861492107
 20
617.7331316740082
 30
0.0
 11
1017.025286149211
 21
617.7331316740082
 31
0.0
  0
LINE
  5
83D
102
{ACAD_REACTORS
330
8C0
102
}
330
1F
100
AcDbEntity
  8
中心線
100
AcDbLine
 10
708.0252861492107
 20
714.4331316740083
 30
0.0
 11
708.0252861492107
 21
584.4331316740083
 31
0.0
  0
LINE
  5
83E
102
{ACAD_REACTORS
330
8C0
102
}
330
1F
100
AcDbEntity
  8
中心線
100
AcDbLine
 10
643.0252861492107
 20
649.4331316740083
 30
0.0
 11
773.0252861492108
 21
649.4331316740083
 31
0.0
  0
LINE
  5
83F
102
{ACAD_REACTORS
330
8BE
102
}
330
1F
100
AcDbEntity
  8
中心線
100
AcDbLine
 10
595.0252861492129
 20
811.2331316740078
 30
0.0
 11
726.0252861492131
 21
811.2331316740077
 31
0.0
  0
LINE
  5
840
102
{ACAD_REACTORS
330
8BE
102
}
330
1F
100
AcDbEntity
  8
中心線
100
AcDbLine
 10
671.0252861492131
 20
781.2331316740078
 30
0.0
 11
671.0252861492132
 21
1204.212328430449
 31
0.0
  0
LINE
  5
841
102
{ACAD_REACTORS
330
8BE
102
}
330
1F
100
AcDbEntity
  8
中心線
100
AcDbLine
 10
671.0252861492131
 20
850.2331316740079
 30
0.0
 11
794.0252861492126
 21
850.2331316740079
 31
0.0
  0
LINE
  5
842
102
{ACAD_REACTORS
330
8BF
102
}
330
1F
100
AcDbEntity
  8
中心線
100
AcDbLine
 10
431.0252861492131
 20
661.2331316740083
 30
0.0
 11
431.0252861492131
 21
601.2331316740082
 31
0.0
  0
LINE
  5
843
102
{ACAD_REACTORS
330
8BF
102
}
330
1F
100
AcDbEntity
  8
中心線
100
AcDbLine
 10
33.84176791986141
 20
631.2331316740083
 30
0.0
 11
461.025286149213
 21
631.2331316740083
 31
0.0
  0
LINE
  5
844
102
{ACAD_REACTORS
330
8C2
102
}
330
1F
100
AcDbEntity
  8
中心線
100
AcDbLine
 10
918.0261455039293
 20
631.2331316740083
 30
0.0
 11
1339.136802458148
 21
631.2331316740084
 31
0.0
  0
LINE
  5
845
102
{ACAD_REACTORS
330
8C3
102
}
330
1F
100
AcDbEntity
  8
中心線
100
AcDbLine
 10
1419.131400049418
 20
617.7331316740082
 30
0.0
 11
1548.025286149211
 21
617.7331316740081
 31
0.0
  0
LINE
  5
846
102
{ACAD_REACTORS
330
8C0
102
}
330
1F
100
AcDbEntity
  8
中心線
100
AcDbLine
 10
671.0252861492133
 20
617.7331316740082
 30
0.0
 11
794.0252861492129
 21
617.7331316740084
 31
0.0
  0
LINE
  5
847
102
{ACAD_REACTORS
330
8C0
102
}
330
1F
100
AcDbEntity
  8
中心線
100
AcDbLine
 10
595.0252861492129
 20
631.2331316740077
 30
0.0
 11
726.0252861492131
 21
631.2331316740081
 31
0.0
  0
LINE
  5
893
102
{ACAD_REACTORS
330
8C0
102
}
330
1F
100
AcDbEntity
  8
中心線
100
AcDbLine
 10
671.0252861492131
 20
686.2331316740083
 30
0.0
 11
671.0252861492132
 21
576.2331316740082
 31
0.0
  0
LINE
  5
894
102
{ACAD_REACTORS
330
8BE
102
}
330
1F
100
AcDbEntity
  8
中心線
100
AcDbLine
 10
708.0252861492107
 20
746.2976056388598
 30
0.0
 11
708.0252861492109
 21
850.2331316740079
 31
0.0
  0
LINE
  5
895
102
{ACAD_REACTORS
330
8BF
102
}
330
1F
100
AcDbEntity
  8
中心線
100
AcDbLine
 10
489.6554858926954
 20
649.4331316740083
 30
0.0
 11
392.0252861492131
 21
649.4331316740083
 31
0.0
  0
LINE
  5
896
102
{ACAD_REACTORS
330
8C1
102
}
330
1F
100
AcDbEntity
  8
中心線
100
AcDbLine
 10
708.0252861492105
 20
512.3558162396872
 30
0.0
 11
708.0252861492105
 21
412.2331316740077
 31
0.0
  0
LINE
  5
897
102
{ACAD_REACTORS
330
8C2
102
}
330
1F
100
AcDbEntity
  8
中心線
100
AcDbLine
 10
890.5441103902301
 20
649.4331316740083
 30
0.0
 11
987.0252861492085
 21
649.4331316740083
 31
0.0
  0
LINE
  5
898
102
{ACAD_REACTORS
330
8C3
102
}
330
1F
100
AcDbEntity
  8
中心線
100
AcDbLine
 10
1511.025286149211
 20
714.4331316740083
 30
0.0
 11
1511.025286149211
 21
584.4331316740083
 31
0.0
  0
LINE
  5
899
102
{ACAD_REACTORS
330
8C3
102
}
330
1F
100
AcDbEntity
  8
中心線
100
AcDbLine
 10
1446.025286149211
 20
649.4331316740083
 30
0.0
 11
1576.025286149211
 21
649.4331316740083
 31
0.0
  0
LINE
  5
89A
102
{ACAD_REACTORS
330
8BF
102
}
330
1F
100
AcDbEntity
  8
中心線
100
AcDbLine
 10
422.0252861492131
 20
617.7331316740082
 30
0.0
 11
362.0252861492131
 21
617.7331316740082
 31
0.0
  0
LINE
  5
89B
102
{ACAD_REACTORS
330
8BF
102
}
330
1F
100
AcDbEntity
  8
中心線
100
AcDbLine
 10
392.0252861492131
 20
647.7331316740083
 30
0.0
 11
392.0252861492131
 21
587.7331316740082
 31
0.0
  0
LINE
  5
89C
102
{ACAD_REACTORS
330
8C2
102
}
330
1F
100
AcDbEntity
  8
中心線
100
AcDbLine
 10
948.0252861492086
 20
661.4602011452034
 30
0.0
 11
948.0252861492111
 21
601.4602011452033
 31
0.0
  0
ENDSEC
  0
SECTION
  2
OBJECTS
  0
DICTIONARY
  5
C
330
0
100
AcDbDictionary
281
     1
  3
ACAD_CIP_PREVIOUS_PRODUCT_INFO
350
331
  3
ACAD_COLOR
350
327
  3
ACAD_DETAILVIEWSTYLE
350
32A
  3
ACAD_GROUP
350
D
  3
ACAD_LAYOUT
350
1A
  3
ACAD_MATERIAL
350
43
  3
ACAD_MLEADERSTYLE
350
5B
  3
ACAD_MLINESTYLE
350
17
  3
ACAD_PLOTSETTINGS
350
19
  3
ACAD_PLOTSTYLENAME
350
E
  3
ACAD_SCALELIST
350
47
  3
ACAD_SECTIONVIEWSTYLE
350
328
  3
ACAD_TABLESTYLE
350
59
  3
ACAD_VISUALSTYLE
350
2A
  3
ACDB_RECOMPOSE_DATA
350
914
  3
AcDbVariableDictionary
350
2DC
  3
DWGPROPS
350
915
  0
DICTIONARY
  5
597
330
2
100
AcDbDictionary
280
     1
281
     1
  3
ACAD_LAYERSTATES
360
598
  0
DICTIONARY
  5
84E
330
10
100
AcDbDictionary
280
     1
281
     1
  3
ADSK_XREC_LAYER_RECONCILED
360
84F
  0
DICTIONARY
  5
593
330
592
100
AcDbDictionary
280
     1
281
     1
  3
ADSK_XREC_LAYER_RECONCILED
360
850
  0
DICTIONARY
  5
595
330
594
100
AcDbDictionary
280
     1
281
     1
  3
ADSK_XREC_LAYER_RECONCILED
360
851
  0
DICTIONARY
  5
3BA
330
1F
100
AcDbDictionary
280
     1
281
     1
  3
ACAD_SORTENTS
360
3BB
  0
XRECORD
  5
331
102
{ACAD_REACTORS
330
C
102
}
330
C
100
AcDbXrecord
280
     1
300
ACDLT
300
2016
300
ACDLT_F_S
  0
DICTIONARY
  5
327
102
{ACAD_REACTORS
330
C
102
}
330
C
100
AcDbDictionary
281
     1
  0
DICTIONARY
  5
32A
102
{ACAD_REACTORS
330
C
102
}
330
C
100
AcDbDictionary
281
     1
  3
Metric50
350
32B
  0
DICTIONARY
  5
D
102
{ACAD_REACTORS
330
C
102
}
330
C
100
AcDbDictionary
281
     1
  3
*A10
350
8C1
  3
*A11
350
8C2
  3
*A12
350
8C3
  3
*A7
350
8BE
  3
*A8
350
8BF
  3
*A9
350
8C0
  0
DICTIONARY
  5
1A
102
{ACAD_REACTORS
330
C
102
}
330
C
100
AcDbDictionary
281
     1
  3
Layout1
350
1E
  3
Model
350
22
  3
レイアウト1
350
32C
  0
DICTIONARY
  5
43
102
{ACAD_REACTORS
330
C
102
}
330
C
100
AcDbDictionary
281
     1
  3
ByBlock
350
45
  3
ByLayer
350
44
  3
Global
350
46
  0
DICTIONARY
  5
5B
102
{ACAD_REACTORS
330
C
102
}
330
C
100
AcDbDictionary
281
     1
  3
Standard
350
5C
  0
DICTIONARY
  5
17
102
{ACAD_REACTORS
330
C
102
}
330
C
100
AcDbDictionary
281
     1
  3
Standard
350
18
  0
DICTIONARY
  5
19
102
{ACAD_REACTORS
330
C
102
}
330
C
100
AcDbDictionary
281
     1
  0
ACDBDICTIONARYWDFLT
  5
E
102
{ACAD_REACTORS
330
C
102
}
330
C
100
AcDbDictionary
281
     1
  3
Normal
350
F
100
AcDbDictionaryWithDefault
340
F
  0
DICTIONARY
  5
47
102
{ACAD_REACTORS
330
C
102
}
330
C
100
AcDbDictionary
281
     1
  3
A0
350
48
  3
A1
350
49
  3
A2
350
4A
  3
A3
350
4B
  3
A4
350
4C
  3
A5
350
4D
  3
A6
350
4E
  3
A7
350
4F
  3
A8
350
50
  3
A9
350
51
  3
B0
350
52
  3
B1
350
53
  3
B2
350
54
  3
B3
350
55
  3
B4
350
56
  3
B5
350
57
  3
B6
350
58
  0
DICTIONARY
  5
328
102
{ACAD_REACTORS
330
C
102
}
330
C
100
AcDbDictionary
281
     1
  3
Metric50
350
329
  0
DICTIONARY
  5
59
102
{ACAD_REACTORS
330
C
102
}
330
C
100
AcDbDictionary
281
     1
  3
Standard
350
5A
  0
DICTIONARY
  5
2A
102
{ACAD_REACTORS
330
C
102
}
330
C
100
AcDbDictionary
281
     1
  3
2dWireframe
350
2F
  3
Basic
350
32
  3
Brighten
350
36
  3
ColorChange
350
3A
  3
Conceptual
350
34
  3
Dim
350
35
  3
EdgeColorOff
350
3D
  3
Facepattern
350
39
  3
Flat
350
2B
  3
FlatWithEdges
350
2C
  3
Gouraud
350
2D
  3
GouraudWithEdges
350
2E
  3
Hidden
350
31
  3
JitterOff
350
3B
  3
Linepattern
350
38
  3
OverhangOff
350
3C
  3
Realistic
350
33
  3
Shaded
350
42
  3
Shaded with edges
350
41
  3
Shades of Gray
350
3E
  3
Sketchy
350
3F
  3
Thicken
350
37
  3
Wireframe
350
30
  3
X-Ray
350
40
  0
XRECORD
  5
914
102
{ACAD_REACTORS
330
C
102
}
330
C
100
AcDbXrecord
280
     1
 90
        1
330
5A
  0
DICTIONARY
  5
2DC
102
{ACAD_REACTORS
330
C
102
}
330
C
100
AcDbDictionary
281
     1
  3
CANNOSCALE
350
2EA
  3
CENTEREXE
350
2E3
  3
CENTERLTYPEFILE
350
2E4
  3
CMLEADERSTYLE
350
2DE
  3
CTABLESTYLE
350
2DD
  3
CVIEWDETAILSTYLE
350
852
  3
CVIEWSECTIONSTYLE
350
853
  3
DIMASSOC
350
2E5
  3
HIDETEXT
350
2E6
  3
INDEXCTL
350
8CE
  3
LAYEREVAL
350
855
  3
LAYERNOTIFY
350
856
  3
LIGHTINGUNITS
350
854
  3
LOFTANG1
350
8D1
  3
LOFTANG2
350
8D2
  3
LONGITUDE
350
8D3
  3
MSLTSCALE
350
2EB
  3
PSOLHEIGHT
350
8D0
  3
PSOLWIDTH
350
8CF
  3
SORTENTS
350
8CD
  3
XCLIPFRAME
350
8D4
  0
XRECORD
  5
915
102
{ACAD_REACTORS
330
C
102
}
330
C
100
AcDbXrecord
280
     1
  1
DWGPROPS COOKIE
  2

  3

  4

  6
File was created by TR2_DExp
  7

  8
fujino
  9

300
=
301
=
302
=
303
=
304
=
305
=
306
=
307
=
308
=
309
=
 40
0.0539971527777778
 41
2455188.75
 42
2459752.690430197
  1

 90
        0
  0
DICTIONARY
  5
598
102
{ACAD_REACTORS
330
597
102
}
330
597
100
AcDbDictionary
281
     1
  0
XRECORD
  5
84F
102
{ACAD_REACTORS
330
84E
102
}
330
84E
100
AcDbXrecord
280
     1
290
     1
  0
XRECORD
  5
850
102
{ACAD_REACTORS
330
593
102
}
330
593
100
AcDbXrecord
280
     1
290
     1
  0
XRECORD
  5
851
102
{ACAD_REACTORS
330
595
102
}
330
595
100
AcDbXrecord
280
     1
290
     1
  0
SORTENTSTABLE
  5
3BB
102
{ACAD_REACTORS
330
3BA
102
}
330
3BA
100
AcDbSortentsTable
330
1F
331
89C
  5
83C
331
898
  5
89A
331
335
  5
50C
331
39F
  5
576
331
35C
  5
533
331
39B
  5
572
331
397
  5
56E
331
358
  5
52F
331
4BF
  5
40A
331
4FE
  5
37C
331
354
  5
52B
331
4FA
  5
378
331
393
  5
56A
331
4BB
  5
406
331
350
  5
527
331
4B7
  5
402
331
4F6
  5
374
331
3D5
  5
4A3
331
414
  5
4E2
331
4B3
  5
3FE
331
4F2
  5
43D
331
3D1
  5
49F
331
410
  5
4DE
331
40C
  5
4DA
331
445
  5
448
331
484
  5
487
331
3CD
  5
49B
331
3C9
  5
497
331
408
  5
4D6
331
441
  5
444
331
480
  5
483
331
47C
  5
47F
331
43D
  5
440
331
847
  5
894
331
439
  5
507
331
537
  5
3B5
331
576
  5
356
331
478
  5
47B
331
843
  5
845
331
533
  5
3B1
331
572
  5
352
331
52F
  5
3AD
331
56E
  5
34E
331
56A
  5
34A
331
52B
  5
3A9
331
894
  5
896
331
3BD
  5
48B
331
38F
  5
566
331
3B9
  5
590
331
38B
  5
562
331
387
  5
55E
331
4AF
  5
3FA
331
4EE
  5
439
331
4EA
  5
435
331
383
  5
55A
331
4AB
  5
3F6
331
4A7
  5
3F2
331
4E6
  5
431
331
3C5
  5
493
331
404
  5
4D2
331
4A3
  5
3EE
331
4E2
  5
42D
331
3C1
  5
48F
331
400
  5
4CE
331
3FC
  5
4CA
331
435
  5
503
331
474
  5
477
331
3F8
  5
4C6
331
83F
  5
840
331
431
  5
4FF
331
470
  5
473
331
83B
  5
83B
331
46C
  5
46F
331
566
  5
346
331
468
  5
46B
331
527
  5
3A5
331
523
  5
3A1
331
562
  5
342
331
51F
  5
39D
331
55E
  5
33E
331
51B
  5
399
331
55A
  5
33A
331
37F
  5
556
331
34C
  5
523
331
348
  5
51F
331
37B
  5
552
331
377
  5
54E
331
3B6
  5
58D
331
4DE
  5
429
331
4DA
  5
425
331
373
  5
54A
331
3B2
  5
589
331
4D6
  5
421
331
3F4
  5
4C2
331
515
  5
393
331
42F
  5
4FD
331
4D2
  5
41D
331
3F0
  5
4BE
331
511
  5
38F
331
42B
  5
4F9
331
464
  5
467
331
3EC
  5
4BA
331
49F
  5
3EA
331
3E8
  5
4B6
331
460
  5
463
331
45C
  5
45F
331
49B
  5
3E6
331
556
  5
336
331
458
  5
45B
331
552
  5
332
331
54E
  5
3CE
331
58D
  5
36D
331
589
  5
369
331
54A
  5
3CA
331
344
  5
51B
331
340
  5
517
331
33C
  5
513
331
36F
  5
546
331
3AE
  5
585
331
3AA
  5
581
331
36B
  5
542
331
338
  5
50F
331
3A6
  5
57D
331
50D
  5
38B
331
4CE
  5
419
331
367
  5
53E
331
363
  5
53A
331
509
  5
387
331
3A2
  5
579
331
427
  5
4F5
331
4CA
  5
415
331
4C6
  5
411
331
505
  5
383
331
3E4
  5
4B2
331
423
  5
4F1
331
4C2
  5
40D
331
501
  5
37F
331
497
  5
3E2
331
3E0
  5
4AE
331
41F
  5
4ED
331
41B
  5
4E9
331
454
  5
457
331
493
  5
3DE
331
3DC
  5
4AA
331
48F
  5
3DA
331
3D8
  5
4A6
331
450
  5
453
331
44C
  5
44F
331
48B
  5
3D6
331
448
  5
44B
331
546
  5
3C6
331
585
  5
365
331
542
  5
3C2
331
581
  5
361
331
53E
  5
3BE
331
57D
  5
35D
331
579
  5
359
331
53A
  5
3B8
331
89B
  5
844
331
334
  5
50B
331
35F
  5
536
331
39E
  5
575
331
35B
  5
532
331
39A
  5
571
331
396
  5
56D
331
357
  5
52E
331
4BE
  5
409
331
4FD
  5
37B
331
353
  5
52A
331
4F9
  5
377
331
392
  5
569
331
417
  5
4E5
331
4BA
  5
405
331
4B6
  5
401
331
4F5
  5
373
331
3D4
  5
4A2
331
413
  5
4E1
331
4B2
  5
3FD
331
4F1
  5
43C
331
487
  5
3D2
331
3D0
  5
49E
331
40F
  5
4DD
331
40B
  5
4D9
331
444
  5
447
331
483
  5
486
331
3CC
  5
49A
331
47F
  5
482
331
3C8
  5
496
331
440
  5
443
331
47B
  5
47E
331
43C
  5
43F
331
846
  5
893
331
438
  5
506
331
536
  5
3B4
331
575
  5
355
331
842
  5
843
331
532
  5
3B0
331
571
  5
351
331
52E
  5
3AC
331
56D
  5
34D
331
569
  5
349
331
52A
  5
3A8
331
897
  5
899
331
893
  5
895
331
3BC
  5
48A
331
38E
  5
565
331
3B8
  5
58F
331
38A
  5
561
331
386
  5
55D
331
4AE
  5
3F9
331
4ED
  5
438
331
4E9
  5
434
331
382
  5
559
331
407
  5
4D5
331
4AA
  5
3F5
331
4A6
  5
3F1
331
4E5
  5
430
331
3C4
  5
492
331
403
  5
4D1
331
4A2
  5
3ED
331
4E1
  5
42C
331
477
  5
47A
331
3C0
  5
48E
331
3FF
  5
4CD
331
3FB
  5
4C9
331
434
  5
502
331
473
  5
476
331
83E
  5
83F
331
430
  5
4FE
331
46F
  5
472
331
83A
  5
83A
331
46B
  5
46E
331
826
  5
826
331
526
  5
3A4
331
565
  5
345
331
522
  5
3A0
331
561
  5
341
331
51E
  5
39C
331
55D
  5
33D
331
559
  5
339
331
51A
  5
398
331
34F
  5
526
331
37E
  5
555
331
34B
  5
522
331
37A
  5
551
331
376
  5
54D
331
3B5
  5
58C
331
4DD
  5
428
331
4D9
  5
424
331
372
  5
549
331
3F7
  5
4C5
331
3B1
  5
588
331
4D5
  5
420
331
3F3
  5
4C1
331
514
  5
392
331
42E
  5
4FC
331
4D1
  5
41C
331
467
  5
46A
331
3EF
  5
4BD
331
510
  5
38E
331
3EB
  5
4B9
331
42A
  5
4F8
331
463
  5
466
331
49E
  5
3E9
331
45F
  5
462
331
45B
  5
45E
331
49A
  5
3E5
331
555
  5
335
331
551
  5
3D1
331
54D
  5
3CD
331
588
  5
368
331
549
  5
3C9
331
347
  5
51E
331
343
  5
51A
331
33F
  5
516
331
33B
  5
512
331
36E
  5
545
331
3AD
  5
584
331
3A9
  5
580
331
36A
  5
541
331
366
  5
53D
331
50C
  5
38A
331
3A5
  5
57C
331
4CD
  5
418
331
362
  5
539
331
4C9
  5
414
331
508
  5
386
331
3E7
  5
4B5
331
426
  5
4F4
331
3A1
  5
578
331
4C5
  5
410
331
504
  5
382
331
3E3
  5
4B1
331
422
  5
4F0
331
41E
  5
4EC
331
4C1
  5
40C
331
457
  5
45A
331
496
  5
3E1
331
3DF
  5
4AD
331
500
  5
37E
331
41A
  5
4E8
331
453
  5
456
331
492
  5
3DD
331
3DB
  5
4A9
331
48E
  5
3D9
331
44F
  5
452
331
44B
  5
44E
331
48A
  5
3D5
331
545
  5
3C5
331
584
  5
364
331
541
  5
3C1
331
580
  5
360
331
53D
  5
3BD
331
57C
  5
35C
331
578
  5
358
331
539
  5
3B7
331
89A
  5
89C
331
337
  5
50E
331
333
  5
50A
331
35E
  5
535
331
39D
  5
574
331
399
  5
570
331
35A
  5
531
331
395
  5
56C
331
4FC
  5
37A
331
4BD
  5
408
331
356
  5
52D
331
352
  5
529
331
4F8
  5
376
331
391
  5
568
331
3D7
  5
4A5
331
416
  5
4E4
331
4B9
  5
404
331
4B5
  5
400
331
4F4
  5
372
331
3D3
  5
4A1
331
412
  5
4E0
331
4B1
  5
3FC
331
4F0
  5
43B
331
447
  5
44A
331
486
  5
489
331
3CF
  5
49D
331
40E
  5
4DC
331
40A
  5
4D8
331
443
  5
446
331
482
  5
485
331
3CB
  5
499
331
47E
  5
481
331
43F
  5
442
331
43B
  5
43E
331
47A
  5
47D
331
845
  5
847
331
535
  5
3B3
331
574
  5
354
331
841
  5
842
331
531
  5
3AF
331
570
  5
350
331
52D
  5
3AB
331
56C
  5
34C
331
568
  5
348
331
529
  5
3A7
331
896
  5
898
331
590
  5
370
331
3BF
  5
48D
331
38D
  5
564
331
389
  5
560
331
385
  5
55C
331
4AD
  5
3F8
331
4EC
  5
437
331
4E8
  5
433
331
381
  5
558
331
3C7
  5
495
331
406
  5
4D4
331
4A9
  5
3F4
331
4A5
  5
3F0
331
4E4
  5
42F
331
3C3
  5
491
331
402
  5
4D0
331
4A1
  5
3EC
331
4E0
  5
42B
331
437
  5
505
331
476
  5
479
331
3FE
  5
4CC
331
3FA
  5
4C8
331
433
  5
501
331
472
  5
475
331
83D
  5
83E
331
46E
  5
471
331
839
  5
839
331
46A
  5
46D
331
825
  5
825
331
525
  5
3A3
331
564
  5
344
331
521
  5
39F
331
560
  5
340
331
51D
  5
39B
331
55C
  5
33C
331
558
  5
338
331
519
  5
397
331
34E
  5
525
331
37D
  5
554
331
34A
  5
521
331
379
  5
550
331
375
  5
54C
331
3B4
  5
58B
331
4DC
  5
427
331
371
  5
548
331
4D8
  5
423
331
3F6
  5
4C4
331
517
  5
395
331
3B0
  5
587
331
4D4
  5
41F
331
3F2
  5
4C0
331
513
  5
391
331
42D
  5
4FB
331
4D0
  5
41B
331
466
  5
469
331
3EE
  5
4BC
331
3EA
  5
4B8
331
429
  5
4F7
331
462
  5
465
331
49D
  5
3E8
331
45E
  5
461
331
45A
  5
45D
331
499
  5
3E4
331
554
  5
334
331
550
  5
3D0
331
58F
  5
36F
331
54C
  5
3CC
331
548
  5
3C8
331
346
  5
51D
331
342
  5
519
331
33E
  5
515
331
33A
  5
511
331
36D
  5
544
331
3AC
  5
583
331
3A8
  5
57F
331
369
  5
540
331
50F
  5
38D
331
365
  5
53C
331
50B
  5
389
331
3A4
  5
57B
331
4CC
  5
417
331
361
  5
538
331
4C8
  5
413
331
507
  5
385
331
3E6
  5
4B4
331
425
  5
4F3
331
3A0
  5
577
331
4C4
  5
40F
331
503
  5
381
331
3E2
  5
4B0
331
421
  5
4EF
331
41D
  5
4EB
331
4C0
  5
40B
331
456
  5
459
331
495
  5
3E0
331
3DE
  5
4AC
331
3DA
  5
4A8
331
419
  5
4E7
331
452
  5
455
331
491
  5
3DC
331
48D
  5
3D8
331
44E
  5
451
331
44A
  5
44D
331
587
  5
367
331
489
  5
3D4
331
544
  5
3C4
331
583
  5
363
331
540
  5
3C0
331
57F
  5
35F
331
57B
  5
35B
331
53C
  5
3BC
331
538
  5
3B6
331
899
  5
89B
331
336
  5
50D
331
332
  5
509
331
35D
  5
534
331
39C
  5
573
331
398
  5
56F
331
359
  5
530
331
4FF
  5
37D
331
355
  5
52C
331
4FB
  5
379
331
394
  5
56B
331
4BC
  5
407
331
351
  5
528
331
4B8
  5
403
331
4F7
  5
375
331
3D6
  5
4A4
331
415
  5
4E3
331
390
  5
567
331
4B4
  5
3FF
331
4F3
  5
371
331
3D2
  5
4A0
331
411
  5
4DF
331
40D
  5
4DB
331
4B0
  5
3FB
331
446
  5
449
331
485
  5
488
331
3CE
  5
49C
331
409
  5
4D7
331
442
  5
445
331
481
  5
484
331
3CA
  5
498
331
47D
  5
480
331
43E
  5
441
331
43A
  5
508
331
577
  5
357
331
479
  5
47C
331
844
  5
846
331
534
  5
3B2
331
573
  5
353
331
840
  5
841
331
530
  5
3AE
331
56F
  5
34F
331
52C
  5
3AA
331
56B
  5
34B
331
528
  5
3A6
331
895
  5
897
331
3BE
  5
48C
331
38C
  5
563
331
388
  5
55F
331
4EF
  5
43A
331
4EB
  5
436
331
384
  5
55B
331
4AC
  5
3F7
331
4E7
  5
432
331
380
  5
557
331
3C6
  5
494
331
405
  5
4D3
331
4A8
  5
3F3
331
4A4
  5
3EF
331
4E3
  5
42E
331
3C2
  5
490
331
401
  5
4CF
331
4A0
  5
3EB
331
436
  5
504
331
475
  5
478
331
3FD
  5
4CB
331
3F9
  5
4C7
331
432
  5
500
331
471
  5
474
331
83C
  5
83D
331
46D
  5
470
331
838
  5
838
331
567
  5
347
331
469
  5
46C
331
524
  5
3A2
331
563
  5
343
331
520
  5
39E
331
55F
  5
33F
331
51C
  5
39A
331
55B
  5
33B
331
518
  5
396
331
34D
  5
524
331
37C
  5
553
331
349
  5
520
331
3B7
  5
58E
331
4DF
  5
42A
331
378
  5
54F
331
374
  5
54B
331
3B3
  5
58A
331
4DB
  5
426
331
370
  5
547
331
4D7
  5
422
331
3F5
  5
4C3
331
516
  5
394
331
4D3
  5
41E
331
3F1
  5
4BF
331
512
  5
390
331
42C
  5
4FA
331
465
  5
468
331
3ED
  5
4BB
331
3E9
  5
4B7
331
428
  5
4F6
331
461
  5
464
331
45D
  5
460
331
49C
  5
3E7
331
557
  5
337
331
459
  5
45C
331
498
  5
3E3
331
553
  5
333
331
54F
  5
3CF
331
58E
  5
36E
331
58A
  5
36A
331
54B
  5
3CB
331
345
  5
51C
331
341
  5
518
331
33D
  5
514
331
3AF
  5
586
331
339
  5
510
331
36C
  5
543
331
3AB
  5
582
331
3A7
  5
57E
331
368
  5
53F
331
4CF
  5
41A
331
50E
  5
38C
331
364
  5
53B
331
50A
  5
388
331
3A3
  5
57A
331
4CB
  5
416
331
360
  5
537
331
4C7
  5
412
331
506
  5
384
331
3E5
  5
4B3
331
424
  5
4F2
331
4C3
  5
40E
331
502
  5
380
331
3E1
  5
4AF
331
420
  5
4EE
331
41C
  5
4EA
331
455
  5
458
331
494
  5
3DF
331
3DD
  5
4AB
331
490
  5
3DB
331
3D9
  5
4A7
331
418
  5
4E6
331
451
  5
454
331
48C
  5
3D7
331
44D
  5
450
331
449
  5
44C
331
547
  5
3C7
331
586
  5
366
331
488
  5
3D3
331
543
  5
3C3
331
582
  5
362
331
53F
  5
3BF
331
57E
  5
35E
331
57A
  5
35A
331
53B
  5
3B9
  0
ACDBDETAILVIEWSTYLE
  5
32B
102
{ACAD_XDICTIONARY
360
94D
102
}
102
{ACAD_REACTORS
330
32A
102
}
330
32A
100
AcDbModelDocViewStyle
 70
     0
  3
Metric50
290
     0
100
AcDbDetailViewStyle
 70
     0
 71
     0
 90
        3
 71
     1
340
11
 40
5.0
340
0
 40
5.0
300

 40
0.0
280
     1
 71
     2
340
16
 90
       25
 71
     3
340
11
 40
5.0
 90
        0
 40
15.0
 90
        1
300
%<\AcVar ViewDetailId>% (%<\AcVar ViewScale \f "%sn">%)
 71
     4
340
16
 90
       25
340
16
 90
       25
280
     0
  0
GROUP
  5
8C1
102
{ACAD_REACTORS
330
D
102
}
330
D
100
AcDbGroup
300

 70
     1
 71
     1
340
896
340
838
340
826
340
825
340
43A
340
439
340
438
340
437
340
436
340
435
340
434
340
433
340
432
340
431
340
430
340
42F
340
42E
340
42D
340
42C
340
42B
340
42A
340
429
340
428
340
427
340
426
340
425
340
424
340
423
340
422
340
421
340
420
340
41F
340
41E
340
41D
340
41C
340
41B
340
41A
340
419
340
418
340
417
340
416
340
415
340
414
340
413
340
412
340
411
340
410
340
40F
340
40E
340
40D
340
40C
340
40B
340
40A
340
409
340
408
340
407
340
406
340
405
340
404
340
403
340
402
340
401
340
400
340
3FF
340
3FE
340
3FD
340
3FC
340
3FB
340
3FA
340
3F9
340
3F8
340
3F7
340
3F6
340
3F5
340
3F4
340
3F3
340
3F2
340
3F1
340
3F0
340
3EF
340
3EE
340
3ED
340
3EC
340
3EB
340
3EA
340
3E9
340
3E8
340
3E7
340
3E6
340
3E5
340
3E4
340
3E3
340
3E2
340
3E1
340
3E0
340
3DF
340
3DE
340
3DD
340
3DC
340
3DB
340
3DA
340
3D9
340
3D8
340
3D7
340
3D6
340
3D5
340
3D4
340
3D3
340
3D2
340
3D1
340
3D0
340
3CF
340
3CE
340
3CD
340
3CC
340
3CB
340
3CA
340
3C9
340
3C8
340
3C7
340
3C6
340
3C5
340
3C4
340
3C3
340
3C2
340
3C1
340
3C0
340
3BF
340
3BE
340
3BD
340
3BC
  0
GROUP
  5
8C2
102
{ACAD_REACTORS
330
D
102
}
330
D
100
AcDbGroup
300

 70
     1
 71
     1
340
897
340
844
340
83C
340
89C
340
83B
340
4F2
340
4F1
340
4F0
340
4EF
340
4EE
340
4ED
340
4EC
340
4EB
340
4EA
340
4E9
340
4E8
340
4E7
340
4E6
340
4E5
340
4E4
340
4E3
340
4E2
340
4E1
340
4E0
340
4DF
340
4DE
340
4DD
340
4DC
340
4DB
340
4DA
340
4D9
340
4D8
340
4D7
340
4D6
340
4D5
340
4D4
340
4D3
340
4D2
340
4D1
340
4D0
340
4CF
340
4CE
340
4CD
340
4CC
340
4CB
340
4CA
340
4C9
340
4C8
340
4C7
340
4C6
340
4C5
340
4C4
340
4C3
340
4C2
340
4C1
340
4C0
340
4BF
340
4BE
340
4BD
340
4BC
340
4BB
340
4BA
340
4B9
340
4B8
340
4B7
340
4B6
340
4B5
340
4B4
340
4B3
340
4B2
340
4B1
340
4B0
340
4AF
340
4AE
340
4AD
340
4AC
340
4AB
340
4AA
340
4A9
340
4A8
340
4A7
340
4A6
340
4A5
340
4A4
340
4A3
340
4A2
340
4A1
340
4A0
340
49F
340
49E
340
49D
340
49C
340
49B
340
49A
340
499
340
498
340
497
340
496
340
495
340
494
340
493
340
492
340
491
340
490
340
48F
340
48E
340
48D
340
48C
340
48B
340
48A
340
489
340
488
340
487
  0
GROUP
  5
8C3
102
{ACAD_REACTORS
330
D
102
}
330
D
100
AcDbGroup
300

 70
     1
 71
     1
340
899
340
898
340
845
340
83A
340
839
340
486
340
485
340
484
340
483
340
482
340
481
340
480
340
47F
340
47E
340
47D
340
47C
340
47B
340
47A
340
479
340
478
340
477
340
476
340
475
340
474
340
473
340
472
340
471
340
470
340
46F
340
46E
340
46D
340
46C
340
46B
340
46A
340
469
340
468
340
467
340
466
340
465
340
464
340
463
340
462
340
461
340
460
340
45F
340
45E
340
45D
340
45C
340
45B
340
45A
340
459
340
458
340
457
340
456
340
455
340
454
340
453
340
452
340
451
340
450
340
44F
340
44E
340
44D
340
44C
340
44B
340
44A
340
449
340
448
340
447
340
446
340
445
340
444
340
443
340
442
340
441
340
440
340
43F
340
43E
340
43D
340
43C
340
43B
  0
GROUP
  5
8BE
102
{ACAD_REACTORS
330
D
102
}
330
D
100
AcDbGroup
300

 70
     1
 71
     1
340
894
340
841
340
840
340
83F
340
3B9
340
3B8
340
3B7
340
3B6
340
3B5
340
3B4
340
3B3
340
3B2
340
3B1
340
3B0
340
3AF
340
3AE
340
3AD
340
3AC
340
3AB
340
3AA
340
3A9
340
3A8
340
3A7
340
3A6
340
3A5
340
3A4
340
3A3
340
3A2
340
3A1
340
3A0
340
39F
340
39E
340
39D
340
39C
340
39B
340
39A
340
399
340
398
340
397
340
396
340
395
340
394
340
393
340
392
340
391
340
390
340
38F
340
38E
340
38D
340
38C
340
38B
340
38A
340
389
340
388
340
387
340
386
340
385
340
384
340
383
340
382
340
381
340
380
340
37F
340
37E
340
37D
340
37C
340
37B
340
37A
340
379
340
378
340
377
340
376
340
375
340
374
340
373
340
372
340
371
340
370
340
36F
340
36E
340
36D
340
36C
340
36B
340
36A
340
369
340
368
340
367
340
366
340
365
340
364
340
363
340
362
340
361
340
360
340
35F
340
35E
340
35D
340
35C
340
35B
340
35A
340
359
340
358
340
357
340
356
340
355
340
354
340
353
340
352
340
351
340
350
340
34F
340
34E
340
34D
340
34C
340
34B
340
34A
340
349
340
348
340
347
340
346
340
345
340
344
340
343
340
342
340
341
340
340
340
33F
340
33E
340
33D
340
33C
340
33B
340
33A
340
339
340
338
340
337
340
336
340
335
340
334
340
333
340
332
  0
GROUP
  5
8BF
102
{ACAD_REACTORS
330
D
102
}
330
D
100
AcDbGroup
300

 70
     1
 71
     1
340
89A
340
895
340
843
340
89B
340
842
340
551
340
550
340
54F
340
54E
340
54D
340
54C
340
54B
340
54A
340
549
340
548
340
547
340
546
340
545
340
544
340
543
340
542
340
541
340
540
340
53F
340
53E
340
53D
340
53C
340
53B
340
53A
340
539
340
538
340
537
340
536
340
535
340
534
340
533
340
532
340
531
340
530
340
52F
340
52E
340
52D
340
52C
340
52B
340
52A
340
529
340
528
340
527
340
526
340
525
340
524
340
523
340
522
340
521
340
520
340
51F
340
51E
340
51D
340
51C
340
51B
340
51A
340
519
340
518
340
517
340
516
340
515
340
514
340
513
340
512
340
511
340
510
340
50F
340
50E
340
50D
340
50C
340
50B
340
50A
340
509
340
508
340
507
340
506
340
505
340
504
340
503
340
502
340
501
340
500
340
4FF
340
4FE
340
4FD
340
4FC
340
4FB
340
4FA
340
4F9
340
4F8
340
4F7
340
4F6
340
4F5
340
4F4
340
4F3
  0
GROUP
  5
8C0
102
{ACAD_REACTORS
330
D
102
}
330
D
100
AcDbGroup
300

 70
     1
 71
     1
340
893
340
847
340
846
340
83E
340
83D
340
590
340
58F
340
58E
340
58D
340
58A
340
589
340
588
340
587
340
586
340
585
340
584
340
583
340
582
340
581
340
580
340
57F
340
57E
340
57D
340
57C
340
57B
340
57A
340
579
340
578
340
577
340
576
340
575
340
574
340
573
340
572
340
571
340
570
340
56F
340
56E
340
56D
340
56C
340
56B
340
56A
340
569
340
568
340
567
340
566
340
565
340
564
340
563
340
562
340
561
340
560
340
55F
340
55E
340
55D
340
55C
340
55B
340
55A
340
559
340
558
340
557
340
556
340
555
340
554
340
553
340
552
  0
LAYOUT
  5
1E
102
{ACAD_XDICTIONARY
360
916
102
}
102
{ACAD_REACTORS
330
1A
102
}
330
1A
100
AcDbPlotSettings
  1

  2
none_device
  4

  6

 40
0.0
 41
0.0
 42
0.0
 43
0.0
 44
0.0
 45
0.0
 46
0.0
 47
0.0
 48
0.0
 49
0.0
140
0.0
141
0.0
142
1.0
143
1.0
 70
   688
 72
     1
 73
     0
 74
     5
  7

 75
    16
147
1.0
148
0.0
149
0.0
100
AcDbLayout
  1
Layout1
 70
     1
 71
     1
 10
0.0
 20
0.0
 11
420.0
 21
297.0
 12
0.0
 22
0.0
 32
0.0
 14
1.000000000000000E+20
 24
1.000000000000000E+20
 34
1.000000000000000E+20
 15
-1.000000000000000E+20
 25
-1.000000000000000E+20
 35
-1.000000000000000E+20
146
0.0
 13
0.0
 23
0.0
 33
0.0
 16
1.0
 26
0.0
 36
0.0
 17
0.0
 27
1.0
 37
0.0
 76
     0
330
1B
  0
LAYOUT
  5
22
102
{ACAD_XDICTIONARY
360
918
102
}
102
{ACAD_REACTORS
330
1A
102
}
330
1A
100
AcDbPlotSettings
  1

  2
none_device
  4
Letter_(8.50_x_11.00_Inches)
  6

 40
6.349999999999998
 41
6.349999999999998
 42
6.350005079999998
 43
6.350005079999998
 44
215.9
 45
279.4
 46
0.0
 47
0.0
 48
0.0
 49
0.0
140
0.0
141
0.0
142
1.0
143
1.0
 70
  1712
 72
     1
 73
     0
 74
     0
  7

 75
     0
147
1.0
148
0.0
149
0.0
100
AcDbLayout
  1
Model
 70
     1
 71
     0
 10
-618.9930385589599
 20
-635.6909450531007
 11
1261.603523254395
 21
741.5713466644286
 12
0.0
 22
0.0
 32
0.0
 14
-618.9930385589599
 24
-635.6909450531007
 34
0.0
 15
1261.603523254395
 25
741.5713466644286
 35
0.0
146
0.0
 13
0.0
 23
0.0
 33
0.0
 16
1.0
 26
0.0
 36
0.0
 17
0.0
 27
1.0
 37
0.0
 76
     0
330
1F
331
29
  0
LAYOUT
  5
32C
102
{ACAD_XDICTIONARY
360
94F
102
}
102
{ACAD_REACTORS
330
1A
102
}
330
1A
100
AcDbPlotSettings
  1

  2
青梅 FX DocuCentre-V C2275 T2
  4

  6

 40
0.0
 41
0.0
 42
0.0
 43
0.0
 44
0.0
 45
0.0
 46
0.0
 47
0.0
 48
0.0
 49
0.0
140
0.0
141
0.0
142
1.0
143
1.0
 70
   688
 72
     0
 73
     0
 74
     5
  7
AutoCAD_PEN.ctb
 75
    16
147
1.0
148
0.0
149
0.0
100
AcDbLayout
  1
レイアウト1
 70
     1
 71
     2
 10
0.0
 20
0.0
 11
12.0
 21
9.0
 12
0.0
 22
0.0
 32
0.0
 14
0.0
 24
0.0
 34
0.0
 15
0.0
 25
0.0
 35
0.0
146
0.0
 13
0.0
 23
0.0
 33
0.0
 16
1.0
 26
0.0
 36
0.0
 17
0.0
 27
1.0
 37
0.0
 76
     0
330
23
  0
MATERIAL
  5
45
102
{ACAD_XDICTIONARY
360
31E
102
}
102
{ACAD_REACTORS
330
43
102
}
330
43
100
AcDbMaterial
  1
ByBlock
  0
MATERIAL
  5
44
102
{ACAD_XDICTIONARY
360
31C
102
}
102
{ACAD_REACTORS
330
43
102
}
330
43
100
AcDbMaterial
  1
ByLayer
  0
MATERIAL
  5
46
102
{ACAD_XDICTIONARY
360
320
102
}
102
{ACAD_REACTORS
330
43
102
}
330
43
100
AcDbMaterial
  1
Global
  0
MLEADERSTYLE
  5
5C
102
{ACAD_REACTORS
330
5B
102
}
330
5B
100
AcDbMLeaderStyle
170
     2
171
     1
172
     0
 90
        2
 40
0.0
 41
0.0
173
     1
 91
-1056964608
340
14
 92
       -2
290
     1
 42
2.0
291
     1
 43
8.0
  3
Standard
 44
4.0
300

342
11
174
     1
178
     6
175
     1
176
     0
 93
-1056964608
 45
4.0
292
     0
297
     0
 46
4.0
 94
-1056964608
 47
1.0
 49
1.0
140
1.0
293
     1
141
0.0
294
     1
177
     0
142
1.0
295
     0
296
     0
143
3.75
1001
ACAD_MLEADERVER
1070
     2
  0
MLINESTYLE
  5
18
102
{ACAD_REACTORS
330
17
102
}
330
17
100
AcDbMlineStyle
  2
STANDARD
 70
     0
  3

 62
   256
 51
90.0
 52
90.0
 71
     2
 49
0.5
 62
   256
  6
BYLAYER
 49
-0.5
 62
   256
  6
BYLAYER
  0
ACDBPLACEHOLDER
  5
F
102
{ACAD_REACTORS
330
E
102
}
330
E
  0
SCALE
  5
48
102
{ACAD_REACTORS
330
47
102
}
330
47
100
AcDbScale
 70
     0
300
1:1
140
1.0
141
1.0
290
     1
  0
SCALE
  5
49
102
{ACAD_REACTORS
330
47
102
}
330
47
100
AcDbScale
 70
     0
300
1:2
140
1.0
141
2.0
290
     0
  0
SCALE
  5
4A
102
{ACAD_REACTORS
330
47
102
}
330
47
100
AcDbScale
 70
     0
300
1:4
140
1.0
141
4.0
290
     0
  0
SCALE
  5
4B
102
{ACAD_REACTORS
330
47
102
}
330
47
100
AcDbScale
 70
     0
300
1:5
140
1.0
141
5.0
290
     0
  0
SCALE
  5
4C
102
{ACAD_REACTORS
330
47
102
}
330
47
100
AcDbScale
 70
     0
300
1:8
140
1.0
141
8.0
290
     0
  0
SCALE
  5
4D
102
{ACAD_REACTORS
330
47
102
}
330
47
100
AcDbScale
 70
     0
300
1:10
140
1.0
141
10.0
290
     0
  0
SCALE
  5
4E
102
{ACAD_REACTORS
330
47
102
}
330
47
100
AcDbScale
 70
     0
300
1:16
140
1.0
141
16.0
290
     0
  0
SCALE
  5
4F
102
{ACAD_REACTORS
330
47
102
}
330
47
100
AcDbScale
 70
     0
300
1:20
140
1.0
141
20.0
290
     0
  0
SCALE
  5
50
102
{ACAD_REACTORS
330
47
102
}
330
47
100
AcDbScale
 70
     0
300
1:30
140
1.0
141
30.0
290
     0
  0
SCALE
  5
51
102
{ACAD_REACTORS
330
47
102
}
330
47
100
AcDbScale
 70
     0
300
1:40
140
1.0
141
40.0
290
     0
  0
SCALE
  5
52
102
{ACAD_REACTORS
330
47
102
}
330
47
100
AcDbScale
 70
     0
300
1:50
140
1.0
141
50.0
290
     0
  0
SCALE
  5
53
102
{ACAD_REACTORS
330
47
102
}
330
47
100
AcDbScale
 70
     0
300
1:100
140
1.0
141
100.0
290
     0
  0
SCALE
  5
54
102
{ACAD_REACTORS
330
47
102
}
330
47
100
AcDbScale
 70
     0
300
2:1
140
2.0
141
1.0
290
     0
  0
SCALE
  5
55
102
{ACAD_REACTORS
330
47
102
}
330
47
100
AcDbScale
 70
     0
300
4:1
140
4.0
141
1.0
290
     0
  0
SCALE
  5
56
102
{ACAD_REACTORS
330
47
102
}
330
47
100
AcDbScale
 70
     0
300
8:1
140
8.0
141
1.0
290
     0
  0
SCALE
  5
57
102
{ACAD_REACTORS
330
47
102
}
330
47
100
AcDbScale
 70
     0
300
10:1
140
10.0
141
1.0
290
     0
  0
SCALE
  5
58
102
{ACAD_REACTORS
330
47
102
}
330
47
100
AcDbScale
 70
     0
300
100:1
140
100.0
141
1.0
290
     0
  0
ACDBSECTIONVIEWSTYLE
  5
329
102
{ACAD_XDICTIONARY
360
94B
102
}
102
{ACAD_REACTORS
330
328
102
}
330
328
100
AcDbModelDocViewStyle
 70
     0
  3
Metric50
290
     0
100
AcDbSectionViewStyle
 70
     0
 71
     0
 90
      102
 71
     1
340
11
 40
5.0
340
0
340
0
 40
5.0
300
I, O, Q, S, X, Z
 40
10.0
 90
        0
 40
2.5
 90
        0
 71
     2
340
16
 90
       25
340
16
 90
       50
 40
5.0
 40
2.5
 40
5.0
 71
     3
340
11
 40
5.0
 90
        0
 40
15.0
 90
        1
300
%<\AcVar ViewSectionStartId>%-%<\AcVar ViewSectionEndId>% (%<\AcVar ViewScale \f "%sn">%)
 71
     4
300
ANSI31
 40
1.0
 90
        0
290
     0
290
     0
 90
        6
 40
0.0
 40
1.570796326794896
 40
0.2617993877991494
 40
1.308996938995747
 40
-0.2617993877991494
 40
1.832595714594045
  0
TABLESTYLE
  5
5A
102
{ACAD_XDICTIONARY
360
857
102
}
102
{ACAD_REACTORS
330
59
102
}
330
59
100
AcDbTableStyle
  3
Standard
 70
     0
 71
     0
 40
1.5
 41
1.5
280
     0
281
     0
  7
Standard
140
4.5
170
     2
 62
     0
 63
     7
283
     0
274
    -2
284
     1
 64
     0
275
    -2
285
     1
 65
     0
276
    -2
286
     1
 66
     0
277
    -2
287
     1
 67
     0
278
    -2
288
     1
 68
     0
279
    -2
289
     1
 69
     0
  7
Standard
140
6.0
170
     5
 62
     0
 63
     7
283
     0
274
    -2
284
     1
 64
     0
275
    -2
285
     1
 65
     0
276
    -2
286
     1
 66
     0
277
    -2
287
     1
 67
     0
278
    -2
288
     1
 68
     0
279
    -2
289
     1
 69
     0
  7
Standard
140
4.5
170
     5
 62
     0
 63
     7
283
     0
274
    -2
284
     1
 64
     0
275
    -2
285
     1
 65
     0
276
    -2
286
     1
 66
     0
277
    -2
287
     1
 67
     0
278
    -2
288
     1
 68
     0
279
    -2
289
     1
 69
     0
  0
VISUALSTYLE
  5
2F
102
{ACAD_XDICTIONARY
360
922
102
}
102
{ACAD_REACTORS
330
2A
102
}
330
2A
100
AcDbVisualStyle
  2

 70
     4
 71
     0
 72
     2
 73
     0
 90
        0
 40
-0.6
 41
-30.0
 62
     5
 63
     7
 74
     1
 91
        4
 64
     7
 65
   257
 75
     1
175
     1
 42
1.0
 92
        0
 66
   257
 43
1.0
 76
     1
 77
     6
 78
     2
 67
     7
 79
     5
170
     0
171
     0
290
     0
174
     0
 93
        1
 44
0.0
173
     0
291
     0
 45
0.0
1001
ACAD
1000
AcDbSavedByObjectVersion
1070
     0
  0
VISUALSTYLE
  5
32
102
{ACAD_XDICTIONARY
360
928
102
}
102
{ACAD_REACTORS
330
2A
102
}
330
2A
100
AcDbVisualStyle
  2

 70
     7
 71
     1
 72
     0
 73
     1
 90
        0
 40
-0.6
 41
-30.0
 62
     5
 63
     7
 74
     0
 91
        4
 64
     7
 65
   257
 75
     1
175
     1
 42
1.0
 92
        8
 66
     7
 43
1.0
 76
     1
 77
     6
 78
     2
 67
     7
 79
     5
170
     0
171
     0
290
     0
174
     0
 93
        1
 44
0.0
173
     0
291
     1
 45
0.0
1001
ACAD
1000
AcDbSavedByObjectVersion
1070
     0
  0
VISUALSTYLE
  5
36
102
{ACAD_XDICTIONARY
360
930
102
}
102
{ACAD_REACTORS
330
2A
102
}
330
2A
100
AcDbVisualStyle
  2

 70
    12
 71
     2
 72
     2
 73
     0
 90
        0
 40
-0.6
 41
-30.0
 62
     5
 63
     7
 74
     1
 91
        4
 64
     7
 65
   257
 75
     1
175
     1
 42
1.0
 92
        8
 66
     7
 43
1.0
 76
     1
 77
     6
 78
     2
 67
     7
 79
     5
170
     0
171
     0
290
     0
174
     0
 93
        1
 44
50.0
173
     0
291
     1
 45
0.0
1001
ACAD
1000
AcDbSavedByObjectVersion
1070
     0
  0
VISUALSTYLE
  5
3A
102
{ACAD_XDICTIONARY
360
938
102
}
102
{ACAD_REACTORS
330
2A
102
}
330
2A
100
AcDbVisualStyle
  2

 70
    16
 71
     2
 72
     2
 73
     3
 90
        0
 40
-0.6
 41
-30.0
 62
     5
 63
     8
 74
     1
 91
        4
 64
     7
 65
   257
 75
     1
175
     1
 42
1.0
 92
        8
 66
     8
 43
1.0
 76
     1
 77
     6
 78
     2
 67
     7
 79
     5
170
     0
171
     0
290
     0
174
     0
 93
        1
 44
0.0
173
     0
291
     1
 45
0.0
1001
ACAD
1000
AcDbSavedByObjectVersion
1070
     0
  0
VISUALSTYLE
  5
34
102
{ACAD_XDICTIONARY
360
92C
102
}
102
{ACAD_REACTORS
330
2A
102
}
330
2A
100
AcDbVisualStyle
  2

 70
     9
 71
     3
 72
     2
 73
     0
 90
        0
 40
-0.6
 41
-30.0
 62
     5
 63
     7
 74
     2
 91
        2
 64
     7
 65
   257
 75
     1
175
     1
 42
179.0
 92
        8
 66
     7
 43
1.0
 76
     1
 77
     6
 78
     2
 67
     7
 79
     3
170
     0
171
     0
290
     0
174
     0
 93
        1
 44
0.0
173
     0
291
     0
 45
0.0
1001
ACAD
1000
AcDbSavedByObjectVersion
1070
     0
  0
VISUALSTYLE
  5
35
102
{ACAD_XDICTIONARY
360
92E
102
}
102
{ACAD_REACTORS
330
2A
102
}
330
2A
100
AcDbVisualStyle
  2

 70
    11
 71
     2
 72
     2
 73
     0
 90
        0
 40
-0.6
 41
-30.0
 62
     5
 63
     7
 74
     1
 91
        4
 64
     7
 65
   257
 75
     1
175
     1
 42
1.0
 92
        8
 66
     7
 43
1.0
 76
     1
 77
     6
 78
     2
 67
     7
 79
     5
170
     0
171
     0
290
     0
174
     0
 93
        1
 44
-50.0
173
     0
291
     1
 45
0.0
1001
ACAD
1000
AcDbSavedByObjectVersion
1070
     0
  0
VISUALSTYLE
  5
3D
102
{ACAD_XDICTIONARY
360
93E
102
}
102
{ACAD_REACTORS
330
2A
102
}
330
2A
100
AcDbVisualStyle
  2

 70
    22
 71
     2
 72
     2
 73
     0
 90
        0
 40
-0.6
 41
-30.0
 62
     5
 63
     7
 74
     1
 91
        4
 64
     7
 65
   257
 75
     1
175
     1
 42
1.0
 92
        8
 66
     7
 43
1.0
 76
     1
 77
     6
 78
     2
 67
     7
 79
     5
170
     0
171
     0
290
     0
174
     0
 93
        1
 44
0.0
173
     0
291
     1
 45
0.0
1001
ACAD
1000
AcDbSavedByObjectVersion
1070
     0
  0
VISUALSTYLE
  5
39
102
{ACAD_XDICTIONARY
360
936
102
}
102
{ACAD_REACTORS
330
2A
102
}
330
2A
100
AcDbVisualStyle
  2

 70
    15
 71
     2
 72
     2
 73
     0
 90
        0
 40
-0.6
 41
-30.0
 62
     5
 63
     7
 74
     1
 91
        4
 64
     7
 65
   257
 75
     1
175
     1
 42
1.0
 92
        8
 66
     7
 43
1.0
 76
     1
 77
     6
 78
     2
 67
     7
 79
     5
170
     0
171
     0
290
     0
174
     0
 93
        1
 44
0.0
173
     0
291
     1
 45
0.0
1001
ACAD
1000
AcDbSavedByObjectVersion
1070
     0
  0
VISUALSTYLE
  5
2B
102
{ACAD_XDICTIONARY
360
91A
102
}
102
{ACAD_REACTORS
330
2A
102
}
330
2A
100
AcDbVisualStyle
  2

 70
     0
 71
     2
 72
     1
 73
     1
 90
        2
 40
-0.6
 41
30.0
 62
     5
 63
     7
 74
     0
 91
        0
 64
     7
 65
   257
 75
     1
175
     1
 42
1.0
 92
        8
 66
     7
 43
1.0
 76
     1
 77
     6
 78
     2
 67
     7
 79
     5
170
     0
171
     0
290
     0
174
     0
 93
       13
 44
0.0
173
     0
291
     1
 45
0.0
1001
ACAD
1000
AcDbSavedByObjectVersion
1070
     0
  0
VISUALSTYLE
  5
2C
102
{ACAD_XDICTIONARY
360
91C
102
}
102
{ACAD_REACTORS
330
2A
102
}
330
2A
100
AcDbVisualStyle
  2

 70
     1
 71
     2
 72
     1
 73
     1
 90
        2
 40
-0.6
 41
30.0
 62
     5
 63
     7
 74
     1
 91
        0
 64
     7
 65
   257
 75
     1
175
     1
 42
1.0
 92
        0
 66
   257
 43
1.0
 76
     1
 77
     6
 78
     2
 67
     7
 79
     5
170
     0
171
     0
290
     0
174
     0
 93
       13
 44
0.0
173
     0
291
     1
 45
0.0
1001
ACAD
1000
AcDbSavedByObjectVersion
1070
     0
  0
VISUALSTYLE
  5
2D
102
{ACAD_XDICTIONARY
360
91E
102
}
102
{ACAD_REACTORS
330
2A
102
}
330
2A
100
AcDbVisualStyle
  2

 70
     2
 71
     2
 72
     2
 73
     1
 90
        2
 40
-0.6
 41
30.0
 62
     5
 63
     7
 74
     0
 91
        0
 64
     7
 65
   257
 75
     1
175
     1
 42
1.0
 92
        0
 66
     7
 43
1.0
 76
     1
 77
     6
 78
     2
 67
     7
 79
     5
170
     0
171
     0
290
     0
174
     0
 93
       13
 44
0.0
173
     0
291
     1
 45
0.0
1001
ACAD
1000
AcDbSavedByObjectVersion
1070
     0
  0
VISUALSTYLE
  5
2E
102
{ACAD_XDICTIONARY
360
920
102
}
102
{ACAD_REACTORS
330
2A
102
}
330
2A
100
AcDbVisualStyle
  2

 70
     3
 71
     2
 72
     2
 73
     1
 90
        2
 40
-0.6
 41
30.0
 62
     5
 63
     7
 74
     1
 91
        0
 64
     7
 65
   257
 75
     1
175
     1
 42
1.0
 92
        0
 66
   257
 43
1.0
 76
     1
 77
     6
 78
     2
 67
     7
 79
     5
170
     0
171
     0
290
     0
174
     0
 93
       13
 44
0.0
173
     0
291
     1
 45
0.0
1001
ACAD
1000
AcDbSavedByObjectVersion
1070
     0
  0
VISUALSTYLE
  5
31
102
{ACAD_XDICTIONARY
360
926
102
}
102
{ACAD_REACTORS
330
2A
102
}
330
2A
100
AcDbVisualStyle
  2

 70
     6
 71
     1
 72
     2
 73
     2
 90
        0
 40
-0.6
 41
-30.0
 62
     5
 63
     7
 74
     2
 91
        2
 64
     7
 65
   257
 75
     2
175
     1
 42
40.0
 92
        0
 66
   257
 43
1.0
 76
     1
 77
     6
 78
     2
 67
     7
 79
     3
170
     0
171
     0
290
     0
174
     0
 93
        1
 44
0.0
173
     0
291
     0
 45
0.0
1001
ACAD
1000
AcDbSavedByObjectVersion
1070
     0
  0
VISUALSTYLE
  5
3B
102
{ACAD_XDICTIONARY
360
93A
102
}
102
{ACAD_REACTORS
330
2A
102
}
330
2A
100
AcDbVisualStyle
  2

 70
    20
 71
     2
 72
     2
 73
     0
 90
        0
 40
-0.6
 41
-30.0
 62
     5
 63
     7
 74
     1
 91
        4
 64
     7
 65
   257
 75
     1
175
     1
 42
1.0
 92
       10
 66
     7
 43
1.0
 76
     1
 77
     6
 78
     2
 67
     7
 79
     5
170
     0
171
     0
290
     0
174
     0
 93
        1
 44
0.0
173
     0
291
     1
 45
0.0
1001
ACAD
1000
AcDbSavedByObjectVersion
1070
     0
  0
VISUALSTYLE
  5
38
102
{ACAD_XDICTIONARY
360
934
102
}
102
{ACAD_REACTORS
330
2A
102
}
330
2A
100
AcDbVisualStyle
  2

 70
    14
 71
     2
 72
     2
 73
     0
 90
        0
 40
-0.6
 41
-30.0
 62
     5
 63
     7
 74
     1
 91
        4
 64
     7
 65
   257
 75
     7
175
     7
 42
1.0
 92
        8
 66
     7
 43
1.0
 76
     1
 77
     6
 78
     2
 67
     7
 79
     5
170
     0
171
     0
290
     0
174
     0
 93
        1
 44
0.0
173
     0
291
     1
 45
0.0
1001
ACAD
1000
AcDbSavedByObjectVersion
1070
     0
  0
VISUALSTYLE
  5
3C
102
{ACAD_XDICTIONARY
360
93C
102
}
102
{ACAD_REACTORS
330
2A
102
}
330
2A
100
AcDbVisualStyle
  2

 70
    21
 71
     2
 72
     2
 73
     0
 90
        0
 40
-0.6
 41
-30.0
 62
     5
 63
     7
 74
     1
 91
        4
 64
     7
 65
   257
 75
     1
175
     1
 42
1.0
 92
        9
 66
     7
 43
1.0
 76
     1
 77
     6
 78
     2
 67
     7
 79
     5
170
     0
171
     0
290
     0
174
     0
 93
        1
 44
0.0
173
     0
291
     1
 45
0.0
1001
ACAD
1000
AcDbSavedByObjectVersion
1070
     0
  0
VISUALSTYLE
  5
33
102
{ACAD_XDICTIONARY
360
92A
102
}
102
{ACAD_REACTORS
330
2A
102
}
330
2A
100
AcDbVisualStyle
  2

 70
     8
 71
     2
 72
     3
 73
     0
 90
        2
 40
-0.6
 41
30.0
 62
     5
 63
     7
 74
     0
 91
        0
 64
     7
 65
   257
 75
     1
175
     1
 42
1.0
 92
        8
 66
   257
 43
1.0
 76
     1
 77
     6
 78
     2
 67
     7
 79
     3
170
     0
171
     0
290
     0
174
     0
 93
       13
 44
0.0
173
     0
291
     0
 45
0.0
1001
ACAD
1000
AcDbSavedByObjectVersion
1070
     0
  0
VISUALSTYLE
  5
42
102
{ACAD_XDICTIONARY
360
948
102
}
102
{ACAD_REACTORS
330
2A
102
}
330
2A
100
AcDbVisualStyle
  2

 70
    27
 71
     2
 72
     2
 73
     1
 90
        2
 40
-0.6
 41
30.0
 62
     5
 63
     7
 74
     0
 91
        4
 64
     7
 65
   257
 75
     1
175
     1
 42
1.0
 92
        8
 66
   257
 43
1.0
 76
     1
 77
     6
 78
     2
 67
     8
 79
     3
170
     0
171
     0
290
     0
174
     0
 93
        5
 44
0.0
173
     0
291
     0
 45
0.0
1001
ACAD
1000
AcDbSavedByObjectVersion
1070
     0
  0
VISUALSTYLE
  5
41
102
{ACAD_XDICTIONARY
360
946
102
}
102
{ACAD_REACTORS
330
2A
102
}
330
2A
100
AcDbVisualStyle
  2

 70
    26
 71
     2
 72
     2
 73
     1
 90
        2
 40
-0.6
 41
30.0
 62
     5
 63
     7
 74
     1
 91
       10
 64
     7
 65
   257
 75
     2
175
     1
 42
1.0
 92
        8
 66
   257
 43
1.0
 76
     1
 77
     6
 78
     2
 67
     7
 79
     3
170
     0
171
     0
290
     0
174
     0
 93
        5
 44
0.0
173
     0
291
     0
 45
0.0
1001
ACAD
1000
AcDbSavedByObjectVersion
1070
     0
  0
VISUALSTYLE
  5
3E
102
{ACAD_XDICTIONARY
360
940
102
}
102
{ACAD_REACTORS
330
2A
102
}
330
2A
100
AcDbVisualStyle
  2

 70
    23
 71
     2
 72
     2
 73
     3
 90
        0
 40
-0.6
 41
-30.0
 62
     5
 63
     7
 74
     2
 91
        2
 64
     7
 65
     7
 75
     1
175
     1
 42
40.0
 92
        8
 66
     7
 43
1.0
 76
     1
 77
     6
 78
     2
 67
     7
 79
     3
170
     0
171
     0
290
     0
174
     0
 93
        1
 44
0.0
173
     0
291
     0
 45
0.0
1001
ACAD
1000
AcDbSavedByObjectVersion
1070
     0
  0
VISUALSTYLE
  5
3F
102
{ACAD_XDICTIONARY
360
942
102
}
102
{ACAD_REACTORS
330
2A
102
}
330
2A
100
AcDbVisualStyle
  2

 70
    24
 71
     1
 72
     2
 73
     2
 90
        0
 40
-0.6
 41
-30.0
 62
     5
 63
     7
 74
     2
 91
        2
 64
     7
 65
     7
 75
     1
175
     1
 42
40.0
 92
       11
 66
     7
 43
1.0
 76
     1
 77
     6
 78
     2
 67
     7
 79
     6
170
     0
171
     0
290
     0
174
     0
 93
        1
 44
0.0
173
     0
291
     0
 45
0.0
1001
ACAD
1000
AcDbSavedByObjectVersion
1070
     0
  0
VISUALSTYLE
  5
37
102
{ACAD_XDICTIONARY
360
932
102
}
102
{ACAD_REACTORS
330
2A
102
}
330
2A
100
AcDbVisualStyle
  2

 70
    13
 71
     2
 72
     2
 73
     0
 90
        0
 40
-0.6
 41
-30.0
 62
     5
 63
     7
 74
     1
 91
        4
 64
     7
 65
   257
 75
     1
175
     1
 42
1.0
 92
       12
 66
     7
 43
1.0
 76
     1
 77
     6
 78
     2
 67
     7
 79
     5
170
     0
171
     0
290
     0
174
     0
 93
        1
 44
0.0
173
     0
291
     1
 45
0.0
1001
ACAD
1000
AcDbSavedByObjectVersion
1070
     0
  0
VISUALSTYLE
  5
30
102
{ACAD_XDICTIONARY
360
924
102
}
102
{ACAD_REACTORS
330
2A
102
}
330
2A
100
AcDbVisualStyle
  2

 70
     5
 71
     0
 72
     2
 73
     0
 90
        0
 40
-0.6
 41
-30.0
 62
     5
 63
     7
 74
     1
 91
        4
 64
     7
 65
   257
 75
     1
175
     1
 42
1.0
 92
        0
 66
   257
 43
1.0
 76
     1
 77
     6
 78
     2
 67
     7
 79
     3
170
     0
171
     0
290
     0
174
     0
 93
        1
 44
0.0
173
     0
291
     0
 45
0.0
1001
ACAD
1000
AcDbSavedByObjectVersion
1070
     0
  0
VISUALSTYLE
  5
40
102
{ACAD_XDICTIONARY
360
944
102
}
102
{ACAD_REACTORS
330
2A
102
}
330
2A
100
AcDbVisualStyle
  2

 70
    25
 71
     2
 72
     2
 73
     1
 90
        1
 40
0.5
 41
-30.0
 62
     5
 63
     7
 74
     1
 91
        0
 64
     7
 65
   257
 75
     1
175
     1
 42
1.0
 92
        8
 66
     7
 43
1.0
 76
     1
 77
     6
 78
     2
 67
     7
 79
     3
170
     0
171
     0
290
     0
174
     0
 93
       13
 44
0.0
173
     0
291
     0
 45
0.0
1001
ACAD
1000
AcDbSavedByObjectVersion
1070
     0
  0
DICTIONARYVAR
  5
2EA
102
{ACAD_REACTORS
330
2DC
102
}
330
2DC
100
DictionaryVariables
280
     0
  1
1:1
  0
DICTIONARYVAR
  5
2E3
102
{ACAD_REACTORS
330
2DC
102
}
330
2DC
100
DictionaryVariables
280
     0
  1
3.500000
  0
DICTIONARYVAR
  5
2E4
102
{ACAD_REACTORS
330
2DC
102
}
330
2DC
100
DictionaryVariables
280
     0
  1
acadiso.lin
  0
DICTIONARYVAR
  5
2DE
102
{ACAD_REACTORS
330
2DC
102
}
330
2DC
100
DictionaryVariables
280
     0
  1
STANDARD
  0
DICTIONARYVAR
  5
2DD
102
{ACAD_REACTORS
330
2DC
102
}
330
2DC
100
DictionaryVariables
280
     0
  1
STANDARD
  0
DICTIONARYVAR
  5
852
102
{ACAD_REACTORS
330
2DC
102
}
330
2DC
100
DictionaryVariables
280
     0
  1
Metric50
  0
DICTIONARYVAR
  5
853
102
{ACAD_REACTORS
330
2DC
102
}
330
2DC
100
DictionaryVariables
280
     0
  1
Metric50
  0
DICTIONARYVAR
  5
2E5
102
{ACAD_REACTORS
330
2DC
102
}
330
2DC
100
DictionaryVariables
280
     0
  1
2
  0
DICTIONARYVAR
  5
2E6
102
{ACAD_REACTORS
330
2DC
102
}
330
2DC
100
DictionaryVariables
280
     0
  1
1
  0
DICTIONARYVAR
  5
8CE
102
{ACAD_REACTORS
330
2DC
102
}
330
2DC
100
DictionaryVariables
280
     0
  1
0
  0
DICTIONARYVAR
  5
855
102
{ACAD_REACTORS
330
2DC
102
}
330
2DC
100
DictionaryVariables
280
     0
  1
1
  0
DICTIONARYVAR
  5
856
102
{ACAD_REACTORS
330
2DC
102
}
330
2DC
100
DictionaryVariables
280
     0
  1
15
  0
DICTIONARYVAR
  5
854
102
{ACAD_REACTORS
330
2DC
102
}
330
2DC
100
DictionaryVariables
280
     0
  1
0
  0
DICTIONARYVAR
  5
8D1
102
{ACAD_REACTORS
330
2DC
102
}
330
2DC
100
DictionaryVariables
280
     0
  1
1.570796
  0
DICTIONARYVAR
  5
8D2
102
{ACAD_REACTORS
330
2DC
102
}
330
2DC
100
DictionaryVariables
280
     0
  1
1.570796
  0
DICTIONARYVAR
  5
8D3
102
{ACAD_REACTORS
330
2DC
102
}
330
2DC
100
DictionaryVariables
280
     0
  1
-122.394000
  0
DICTIONARYVAR
  5
2EB
102
{ACAD_REACTORS
330
2DC
102
}
330
2DC
100
DictionaryVariables
280
     0
  1
1
  0
DICTIONARYVAR
  5
8D0
102
{ACAD_REACTORS
330
2DC
102
}
330
2DC
100
DictionaryVariables
280
     0
  1
80.000000
  0
DICTIONARYVAR
  5
8CF
102
{ACAD_REACTORS
330
2DC
102
}
330
2DC
100
DictionaryVariables
280
     0
  1
5.000000
  0
DICTIONARYVAR
  5
8CD
102
{ACAD_REACTORS
330
2DC
102
}
330
2DC
100
DictionaryVariables
280
     0
  1
127
  0
DICTIONARYVAR
  5
8D4
102
{ACAD_REACTORS
330
2DC
102
}
330
2DC
100
DictionaryVariables
280
     0
  1
2
  0
DICTIONARY
  5
94D
330
32B
100
AcDbDictionary
280
     1
281
     1
  3
ACAD_XREC_ROUNDTRIP
360
94E
  0
DICTIONARY
  5
916
330
1E
100
AcDbDictionary
280
     1
281
     1
  3
ACAD_XREC_ROUNDTRIP
360
917
  0
DICTIONARY
  5
918
330
22
100
AcDbDictionary
280
     1
281
     1
  3
ACAD_XREC_ROUNDTRIP
360
919
  0
DICTIONARY
  5
94F
330
32C
100
AcDbDictionary
280
     1
281
     1
  3
ACAD_XREC_ROUNDTRIP
360
950
  0
DICTIONARY
  5
31E
330
45
100
AcDbDictionary
280
     1
281
     1
  3
ACAD_XREC_ROUNDTRIP
360
31F
  0
DICTIONARY
  5
31C
330
44
100
AcDbDictionary
280
     1
281
     1
  3
ACAD_XREC_ROUNDTRIP
360
31D
  0
DICTIONARY
  5
320
330
46
100
AcDbDictionary
280
     1
281
     1
  3
ACAD_XREC_ROUNDTRIP
360
321
  0
DICTIONARY
  5
94B
330
329
100
AcDbDictionary
280
     1
281
     1
  3
ACAD_XREC_ROUNDTRIP
360
94C
  0
DICTIONARY
  5
857
330
5A
100
AcDbDictionary
280
     1
281
     1
  3
ACAD_ROUNDTRIP_2008_TABLESTYLE_CELLSTYLEMAP
360
913
  3
ACAD_XREC_ROUNDTRIP
360
94A
  0
DICTIONARY
  5
922
330
2F
100
AcDbDictionary
280
     1
281
     1
  3
ACAD_XREC_ROUNDTRIP
360
923
  0
DICTIONARY
  5
928
330
32
100
AcDbDictionary
280
     1
281
     1
  3
ACAD_XREC_ROUNDTRIP
360
929
  0
DICTIONARY
  5
930
330
36
100
AcDbDictionary
280
     1
281
     1
  3
ACAD_XREC_ROUNDTRIP
360
931
  0
DICTIONARY
  5
938
330
3A
100
AcDbDictionary
280
     1
281
     1
  3
ACAD_XREC_ROUNDTRIP
360
939
  0
DICTIONARY
  5
92C
330
34
100
AcDbDictionary
280
     1
281
     1
  3
ACAD_XREC_ROUNDTRIP
360
92D
  0
DICTIONARY
  5
92E
330
35
100
AcDbDictionary
280
     1
281
     1
  3
ACAD_XREC_ROUNDTRIP
360
92F
  0
DICTIONARY
  5
93E
330
3D
100
AcDbDictionary
280
     1
281
     1
  3
ACAD_XREC_ROUNDTRIP
360
93F
  0
DICTIONARY
  5
936
330
39
100
AcDbDictionary
280
     1
281
     1
  3
ACAD_XREC_ROUNDTRIP
360
937
  0
DICTIONARY
  5
91A
330
2B
100
AcDbDictionary
280
     1
281
     1
  3
ACAD_XREC_ROUNDTRIP
360
91B
  0
DICTIONARY
  5
91C
330
2C
100
AcDbDictionary
280
     1
281
     1
  3
ACAD_XREC_ROUNDTRIP
360
91D
  0
DICTIONARY
  5
91E
330
2D
100
AcDbDictionary
280
     1
281
     1
  3
ACAD_XREC_ROUNDTRIP
360
91F
  0
DICTIONARY
  5
920
330
2E
100
AcDbDictionary
280
     1
281
     1
  3
ACAD_XREC_ROUNDTRIP
360
921
  0
DICTIONARY
  5
926
330
31
100
AcDbDictionary
280
     1
281
     1
  3
ACAD_XREC_ROUNDTRIP
360
927
  0
DICTIONARY
  5
93A
330
3B
100
AcDbDictionary
280
     1
281
     1
  3
ACAD_XREC_ROUNDTRIP
360
93B
  0
DICTIONARY
  5
934
330
38
100
AcDbDictionary
280
     1
281
     1
  3
ACAD_XREC_ROUNDTRIP
360
935
  0
DICTIONARY
  5
93C
330
3C
100
AcDbDictionary
280
     1
281
     1
  3
ACAD_XREC_ROUNDTRIP
360
93D
  0
DICTIONARY
  5
92A
330
33
100
AcDbDictionary
280
     1
281
     1
  3
ACAD_XREC_ROUNDTRIP
360
92B
  0
DICTIONARY
  5
948
330
42
100
AcDbDictionary
280
     1
281
     1
  3
ACAD_XREC_ROUNDTRIP
360
949
  0
DICTIONARY
  5
946
330
41
100
AcDbDictionary
280
     1
281
     1
  3
ACAD_XREC_ROUNDTRIP
360
947
  0
DICTIONARY
  5
940
330
3E
100
AcDbDictionary
280
     1
281
     1
  3
ACAD_XREC_ROUNDTRIP
360
941
  0
DICTIONARY
  5
942
330
3F
100
AcDbDictionary
280
     1
281
     1
  3
ACAD_XREC_ROUNDTRIP
360
943
  0
DICTIONARY
  5
932
330
37
100
AcDbDictionary
280
     1
281
     1
  3
ACAD_XREC_ROUNDTRIP
360
933
  0
DICTIONARY
  5
924
330
30
100
AcDbDictionary
280
     1
281
     1
  3
ACAD_XREC_ROUNDTRIP
360
925
  0
DICTIONARY
  5
944
330
40
100
AcDbDictionary
280
     1
281
     1
  3
ACAD_XREC_ROUNDTRIP
360
945
  0
XRECORD
  5
94E
102
{ACAD_REACTORS
330
94D
102
}
330
94D
100
AcDbXrecord
280
     1
102
DISPLAYNAME
  1
Metric50
102
FLAGS
 90
        0
  0
XRECORD
  5
917
102
{ACAD_REACTORS
330
916
102
}
330
916
100
AcDbXrecord
280
     1
102
SHADEPLOT
 70
     0
102
SHADEPLOTRESLEVEL
 70
     2
102
SHADEPLOTCUSTOMDPI
 70
   300
  0
XRECORD
  5
919
102
{ACAD_REACTORS
330
918
102
}
330
918
100
AcDbXrecord
280
     1
102
SHADEPLOT
 70
     0
102
SHADEPLOTRESLEVEL
 70
     2
102
SHADEPLOTCUSTOMDPI
 70
   300
  0
XRECORD
  5
950
102
{ACAD_REACTORS
330
94F
102
}
330
94F
100
AcDbXrecord
280
     1
102
SHADEPLOT
 70
     0
102
SHADEPLOTRESLEVEL
 70
     2
102
SHADEPLOTCUSTOMDPI
 70
   300
  0
XRECORD
  5
31F
102
{ACAD_REACTORS
330
31E
102
}
330
31E
100
AcDbXrecord
280
     1
102
MATERIAL
148
0.0
149
0.0
149
0.0
 93
        0
 94
      127
282
     0
 72
     1
 77
     1
171
     1
175
     1
179
     1
273
     0
  0
XRECORD
  5
31D
102
{ACAD_REACTORS
330
31C
102
}
330
31C
100
AcDbXrecord
280
     1
102
MATERIAL
148
0.0
149
0.0
149
0.0
 93
        0
 94
      127
282
     0
 72
     1
 77
     1
171
     1
175
     1
179
     1
273
     0
  0
XRECORD
  5
321
102
{ACAD_REACTORS
330
320
102
}
330
320
100
AcDbXrecord
280
     1
102
MATERIAL
148
0.0
149
0.0
149
0.0
 93
        0
 94
      127
282
     0
 72
     1
 77
     1
171
     1
175
     1
179
     1
273
     0
  0
XRECORD
  5
94C
102
{ACAD_REACTORS
330
94B
102
}
330
94B
100
AcDbXrecord
280
     1
102
DISPLAYNAME
  1
Metric50
102
FLAGS
 90
        0
  0
CELLSTYLEMAP
  5
913
102
{ACAD_REACTORS
330
857
102
}
330
857
100
AcDbCellStyleMap
 90
        3
300
CELLSTYLE
  1
TABLEFORMAT_BEGIN
 90
        5
170
     1
 91
        0
 92
    32768
 62
   257
 93
        1
300
CONTENTFORMAT
  1
CONTENTFORMAT_BEGIN
 90
        0
 91
        0
 92
        4
 93
        0
300

 40
0.0
140
1.0
 94
        5
 62
     0
340
11
144
6.0
309
CONTENTFORMAT_END
171
     1
301
MARGIN
  1
CELLMARGIN_BEGIN
 40
1.5
 40
1.5
 40
1.5
 40
1.5
 40
0.18
 40
0.18
309
CELLMARGIN_END
 94
        6
 95
        1
302
GRIDFORMAT
  1
GRIDFORMAT_BEGIN
 90
        0
 91
        1
 62
     0
 92
       -2
340
0
 93
        0
 40
0.045
309
GRIDFORMAT_END
 95
        2
302
GRIDFORMAT
  1
GRIDFORMAT_BEGIN
 90
        0
 91
        1
 62
     0
 92
       -2
340
0
 93
        0
 40
0.045
309
GRIDFORMAT_END
 95
        4
302
GRIDFORMAT
  1
GRIDFORMAT_BEGIN
 90
        0
 91
        1
 62
     0
 92
       -2
340
0
 93
        0
 40
0.045
309
GRIDFORMAT_END
 95
        8
302
GRIDFORMAT
  1
GRIDFORMAT_BEGIN
 90
        0
 91
        1
 62
     0
 92
       -2
340
0
 93
        0
 40
0.045
309
GRIDFORMAT_END
 95
       16
302
GRIDFORMAT
  1
GRIDFORMAT_BEGIN
 90
        0
 91
        1
 62
     0
 92
       -2
340
0
 93
        0
 40
0.045
309
GRIDFORMAT_END
 95
       32
302
GRIDFORMAT
  1
GRIDFORMAT_BEGIN
 90
        0
 91
        1
 62
     0
 92
       -2
340
0
 93
        0
 40
0.045
309
GRIDFORMAT_END
309
TABLEFORMAT_END
  1
CELLSTYLE_BEGIN
 90
        1
 91
        1
300
_TITLE
309
CELLSTYLE_END
300
CELLSTYLE
  1
TABLEFORMAT_BEGIN
 90
        5
170
     1
 91
        0
 92
        0
 62
   257
 93
        1
300
CONTENTFORMAT
  1
CONTENTFORMAT_BEGIN
 90
        0
 91
        0
 92
        4
 93
        0
300

 40
0.0
140
1.0
 94
        5
 62
     0
340
11
144
4.5
309
CONTENTFORMAT_END
171
     1
301
MARGIN
  1
CELLMARGIN_BEGIN
 40
1.5
 40
1.5
 40
1.5
 40
1.5
 40
0.18
 40
0.18
309
CELLMARGIN_END
 94
        6
 95
        1
302
GRIDFORMAT
  1
GRIDFORMAT_BEGIN
 90
        0
 91
        1
 62
     0
 92
       -2
340
0
 93
        0
 40
0.045
309
GRIDFORMAT_END
 95
        2
302
GRIDFORMAT
  1
GRIDFORMAT_BEGIN
 90
        0
 91
        1
 62
     0
 92
       -2
340
0
 93
        0
 40
0.045
309
GRIDFORMAT_END
 95
        4
302
GRIDFORMAT
  1
GRIDFORMAT_BEGIN
 90
        0
 91
        1
 62
     0
 92
       -2
340
0
 93
        0
 40
0.045
309
GRIDFORMAT_END
 95
        8
302
GRIDFORMAT
  1
GRIDFORMAT_BEGIN
 90
        0
 91
        1
 62
     0
 92
       -2
340
0
 93
        0
 40
0.045
309
GRIDFORMAT_END
 95
       16
302
GRIDFORMAT
  1
GRIDFORMAT_BEGIN
 90
        0
 91
        1
 62
     0
 92
       -2
340
0
 93
        0
 40
0.045
309
GRIDFORMAT_END
 95
       32
302
GRIDFORMAT
  1
GRIDFORMAT_BEGIN
 90
        0
 91
        1
 62
     0
 92
       -2
340
0
 93
        0
 40
0.045
309
GRIDFORMAT_END
309
TABLEFORMAT_END
  1
CELLSTYLE_BEGIN
 90
        2
 91
        1
300
_HEADER
309
CELLSTYLE_END
300
CELLSTYLE
  1
TABLEFORMAT_BEGIN
 90
        5
170
     1
 91
        0
 92
        0
 62
   257
 93
        1
300
CONTENTFORMAT
  1
CONTENTFORMAT_BEGIN
 90
        0
 91
        0
 92
        4
 93
        0
300

 40
0.0
140
1.0
 94
        2
 62
     0
340
11
144
4.5
309
CONTENTFORMAT_END
171
     1
301
MARGIN
  1
CELLMARGIN_BEGIN
 40
1.5
 40
1.5
 40
1.5
 40
1.5
 40
0.18
 40
0.18
309
CELLMARGIN_END
 94
        6
 95
        1
302
GRIDFORMAT
  1
GRIDFORMAT_BEGIN
 90
        0
 91
        1
 62
     0
 92
       -2
340
0
 93
        0
 40
0.045
309
GRIDFORMAT_END
 95
        2
302
GRIDFORMAT
  1
GRIDFORMAT_BEGIN
 90
        0
 91
        1
 62
     0
 92
       -2
340
0
 93
        0
 40
0.045
309
GRIDFORMAT_END
 95
        4
302
GRIDFORMAT
  1
GRIDFORMAT_BEGIN
 90
        0
 91
        1
 62
     0
 92
       -2
340
0
 93
        0
 40
0.045
309
GRIDFORMAT_END
 95
        8
302
GRIDFORMAT
  1
GRIDFORMAT_BEGIN
 90
        0
 91
        1
 62
     0
 92
       -2
340
0
 93
        0
 40
0.045
309
GRIDFORMAT_END
 95
       16
302
GRIDFORMAT
  1
GRIDFORMAT_BEGIN
 90
        0
 91
        1
 62
     0
 92
       -2
340
0
 93
        0
 40
0.045
309
GRIDFORMAT_END
 95
       32
302
GRIDFORMAT
  1
GRIDFORMAT_BEGIN
 90
        0
 91
        1
 62
     0
 92
       -2
340
0
 93
        0
 40
0.045
309
GRIDFORMAT_END
309
TABLEFORMAT_END
  1
CELLSTYLE_BEGIN
 90
        3
 91
        2
300
_DATA
309
CELLSTYLE_END
  0
XRECORD
  5
94A
102
{ACAD_REACTORS
330
857
102
}
330
857
100
AcDbXrecord
280
     1
102
ACAD_ROUNDTRIP_PRE2007_TABLESTYLE
 90
        4
 91
        0
  1

 92
        4
 93
        0
  2

 94
        4
 95
        0
  3

  0
XRECORD
  5
923
102
{ACAD_REACTORS
330
922
102
}
330
922
100
AcDbXrecord
280
     1
102
RTVSPost2010Prop28
280
     1
102
RTVSPost2010PropOp28
 70
     1
102
RTVSPost2010Prop29
280
     1
102
RTVSPost2010PropOp29
 70
     1
102
RTVSPost2010Prop30
280
     0
102
RTVSPost2010PropOp30
 70
     1
102
RTVSPost2010Prop31
280
     0
102
RTVSPost2010PropOp31
 70
     1
102
RTVSPost2010Prop32
280
     0
102
RTVSPost2010PropOp32
 70
     1
102
RTVSPost2010Prop33
280
     0
102
RTVSPost2010PropOp33
 70
     1
102
RTVSPost2010Prop34
280
     0
102
RTVSPost2010PropOp34
 70
     1
102
RTVSPost2010Prop35
280
     0
102
RTVSPost2010PropOp35
 70
     1
102
RTVSPost2010Prop36
280
     0
102
RTVSPost2010PropOp36
 70
     1
102
RTVSPost2010Prop37
 90
       50
102
RTVSPost2010PropOp37
 70
     1
102
RTVSPost2010Prop38
140
0.0
102
RTVSPost2010PropOp38
 70
     1
102
RTVSPost2010Prop39
140
1.0
102
RTVSPost2010PropOp39
 70
     1
102
RTVSPost2010Prop40
 90
        0
102
RTVSPost2010PropOp40
 70
     1
102
RTVSPost2010Prop41ColorIndex
 90
       18
102
RTVSPost2010Prop41ColorRGB
 90
        0
102
RTVSPost2010PropOp41
 70
     1
102
RTVSPost2010Prop42
 90
       50
102
RTVSPost2010PropOp42
 70
     1
102
RTVSPost2010Prop43
 90
        3
102
RTVSPost2010PropOp43
 70
     1
102
RTVSPost2010Prop44ColorIndex
 90
        5
102
RTVSPost2010Prop44ColorRGB
 90
      255
102
RTVSPost2010PropOp44
 70
     1
102
RTVSPost2010Prop45
280
     0
102
RTVSPost2010PropOp45
 70
     1
102
RTVSPost2010Prop46
 90
       50
102
RTVSPost2010PropOp46
 70
     1
102
RTVSPost2010Prop47
 90
       50
102
RTVSPost2010PropOp47
 70
     1
102
RTVSPost2010Prop48
 90
       50
102
RTVSPost2010PropOp48
 70
     1
102
RTVSPost2010Prop49
280
     0
102
RTVSPost2010PropOp49
 70
     1
102
RTVSPost2010Prop50
 90
       50
102
RTVSPost2010PropOp50
 70
     1
102
RTVSPost2010Prop51ColorIndex
 90
      256
102
RTVSPost2010Prop51ColorRGB
 90
-16777216
102
RTVSPost2010PropOp51
 70
     0
102
RTVSPost2010Prop52
140
1.0
102
RTVSPost2010PropOp52
 70
     0
102
RTVSPost2010Prop53
 90
        2
102
RTVSPost2010PropOp53
 70
     1
102
RTVSPost2010Prop54
  1
strokes_ogs.tif
102
RTVSPost2010PropOp54
 70
     1
102
RTVSPost2010Prop55
280
     0
102
RTVSPost2010PropOp55
 70
     1
102
RTVSPost2010Prop56
140
1.0
102
RTVSPost2010PropOp56
 70
     1
102
RTVSPost2010Prop57
140
1.0
102
RTVSPost2010PropOp57
 70
     1
102
RTVSPropertyOp0
 70
     1
102
RTVSPropertyOp1
 70
     1
102
RTVSPropertyOp2
 70
     1
102
RTVSPropertyOp3
 70
     1
102
RTVSPropertyOp4
 70
     1
102
RTVSPropertyOp5
 70
     1
102
RTVSPropertyOp6
 70
     1
102
RTVSPropertyOp7
 70
     1
102
RTVSPropertyOp8
 70
     1
102
RTVSPropertyOp9
 70
     1
102
RTVSPropertyOp10
 70
     1
102
RTVSPropertyOp11
 70
     1
102
RTVSPropertyOp12
 70
     1
102
RTVSPropertyOp13
 70
     1
102
RTVSPropertyOp14
 70
     1
102
RTVSPropertyOp15
 70
     1
102
RTVSPropertyOp16
 70
     1
102
RTVSPropertyOp17
 70
     1
102
RTVSPropertyOp18
 70
     1
102
RTVSPropertyOp19
 70
     1
102
RTVSPropertyOp20
 70
     1
102
RTVSPropertyOp21
 70
     1
102
RTVSPropertyOp22
 70
     1
102
RTVSPropertyOp23
 70
     1
102
RTVSPropertyOp24
 70
     1
102
RTVSPropertyOp25
 70
     1
102
RTVSPropertyOp26
 70
     1
102
RTVSPropertyOp27
 70
     1
102
RTVSPropertyOp28
 70
     1
102
RTVSPropertyOp29
 70
     1
102
RTVSPropertyOp30
 70
     1
102
RTVSPropertyOp31
 70
     1
102
RTVSPropertyOp32
 70
     1
102
RTVSPropertyOp33
 70
     1
102
RTVSPropertyOp34
 70
     1
102
RTVSPropertyOp35
 70
     1
102
RTVSPropertyOp36
 70
     1
102
RTVSPropertyOp37
 70
     1
102
RTVSPropertyOp38
 70
     1
102
RTVSPropertyOp39
 70
     1
102
RTVSPropertyOp40
 70
     1
102
RTVSPropertyOp41
 70
     1
102
RTVSPropertyOp42
 70
     1
102
RTVSPropertyOp43
 70
     1
102
RTVSPropertyOp44
 70
     1
102
RTVSPropertyOp45
 70
     1
102
RTVSPropertyOp46
 70
     1
102
RTVSPropertyOp47
 70
     1
102
RTVSPropertyOp48
 70
     1
102
RTVSPropertyOp49
 70
     1
102
RTVSPropertyOp50
 70
     1
102
RTVSPropertyOp51
 70
     0
102
RTVSPropertyOp52
 70
     0
102
RTVSPropertyOp53
 70
     1
102
RTVSPropertyOp54
 70
     1
102
RTVSPropertyOp55
 70
     1
102
RTVSPropertyOp56
 70
     1
102
RTVSPropertyOp57
 70
     1
102
RTVSPropertyOp58
 70
     1
102
RTVSPropertyOp59
 70
     1
102
RTVSPropertyOp60
 70
     1
102
RTVSPropertyOp61
 70
     1
102
RTVSPropertyOp62
 70
     1
  0
XRECORD
  5
929
102
{ACAD_REACTORS
330
928
102
}
330
928
100
AcDbXrecord
280
     1
102
RTVSPost2010Prop28
280
     0
102
RTVSPost2010PropOp28
 70
     1
102
RTVSPost2010Prop29
280
     1
102
RTVSPost2010PropOp29
 70
     1
102
RTVSPost2010Prop30
280
     1
102
RTVSPost2010PropOp30
 70
     1
102
RTVSPost2010Prop31
280
     0
102
RTVSPost2010PropOp31
 70
     1
102
RTVSPost2010Prop32
280
     0
102
RTVSPost2010PropOp32
 70
     1
102
RTVSPost2010Prop33
280
     0
102
RTVSPost2010PropOp33
 70
     1
102
RTVSPost2010Prop34
280
     0
102
RTVSPost2010PropOp34
 70
     1
102
RTVSPost2010Prop35
280
     0
102
RTVSPost2010PropOp35
 70
     1
102
RTVSPost2010Prop36
280
     0
102
RTVSPost2010PropOp36
 70
     1
102
RTVSPost2010Prop37
 90
       50
102
RTVSPost2010PropOp37
 70
     1
102
RTVSPost2010Prop38
140
0.0
102
RTVSPost2010PropOp38
 70
     1
102
RTVSPost2010Prop39
140
1.0
102
RTVSPost2010PropOp39
 70
     1
102
RTVSPost2010Prop40
 90
        0
102
RTVSPost2010PropOp40
 70
     1
102
RTVSPost2010Prop41ColorIndex
 90
       18
102
RTVSPost2010Prop41ColorRGB
 90
        0
102
RTVSPost2010PropOp41
 70
     1
102
RTVSPost2010Prop42
 90
       50
102
RTVSPost2010PropOp42
 70
     1
102
RTVSPost2010Prop43
 90
        3
102
RTVSPost2010PropOp43
 70
     1
102
RTVSPost2010Prop44ColorIndex
 90
        5
102
RTVSPost2010Prop44ColorRGB
 90
      255
102
RTVSPost2010PropOp44
 70
     1
102
RTVSPost2010Prop45
280
     0
102
RTVSPost2010PropOp45
 70
     1
102
RTVSPost2010Prop46
 90
       50
102
RTVSPost2010PropOp46
 70
     1
102
RTVSPost2010Prop47
 90
       50
102
RTVSPost2010PropOp47
 70
     1
102
RTVSPost2010Prop48
 90
       50
102
RTVSPost2010PropOp48
 70
     1
102
RTVSPost2010Prop49
280
     0
102
RTVSPost2010PropOp49
 70
     1
102
RTVSPost2010Prop50
 90
       50
102
RTVSPost2010PropOp50
 70
     1
102
RTVSPost2010Prop51ColorIndex
 90
      256
102
RTVSPost2010Prop51ColorRGB
 90
-16777216
102
RTVSPost2010PropOp51
 70
     0
102
RTVSPost2010Prop52
140
1.0
102
RTVSPost2010PropOp52
 70
     0
102
RTVSPost2010Prop53
 90
        2
102
RTVSPost2010PropOp53
 70
     1
102
RTVSPost2010Prop54
  1
strokes_ogs.tif
102
RTVSPost2010PropOp54
 70
     1
102
RTVSPost2010Prop55
280
     0
102
RTVSPost2010PropOp55
 70
     1
102
RTVSPost2010Prop56
140
1.0
102
RTVSPost2010PropOp56
 70
     1
102
RTVSPost2010Prop57
140
1.0
102
RTVSPost2010PropOp57
 70
     1
102
RTVSPropertyOp0
 70
     1
102
RTVSPropertyOp1
 70
     1
102
RTVSPropertyOp2
 70
     1
102
RTVSPropertyOp3
 70
     1
102
RTVSPropertyOp4
 70
     1
102
RTVSPropertyOp5
 70
     1
102
RTVSPropertyOp6
 70
     1
102
RTVSPropertyOp7
 70
     1
102
RTVSPropertyOp8
 70
     1
102
RTVSPropertyOp9
 70
     1
102
RTVSPropertyOp10
 70
     1
102
RTVSPropertyOp11
 70
     1
102
RTVSPropertyOp12
 70
     1
102
RTVSPropertyOp13
 70
     1
102
RTVSPropertyOp14
 70
     1
102
RTVSPropertyOp15
 70
     1
102
RTVSPropertyOp16
 70
     1
102
RTVSPropertyOp17
 70
     1
102
RTVSPropertyOp18
 70
     1
102
RTVSPropertyOp19
 70
     1
102
RTVSPropertyOp20
 70
     1
102
RTVSPropertyOp21
 70
     1
102
RTVSPropertyOp22
 70
     1
102
RTVSPropertyOp23
 70
     1
102
RTVSPropertyOp24
 70
     1
102
RTVSPropertyOp25
 70
     1
102
RTVSPropertyOp26
 70
     1
102
RTVSPropertyOp27
 70
     1
102
RTVSPropertyOp28
 70
     1
102
RTVSPropertyOp29
 70
     1
102
RTVSPropertyOp30
 70
     1
102
RTVSPropertyOp31
 70
     1
102
RTVSPropertyOp32
 70
     1
102
RTVSPropertyOp33
 70
     1
102
RTVSPropertyOp34
 70
     1
102
RTVSPropertyOp35
 70
     1
102
RTVSPropertyOp36
 70
     1
102
RTVSPropertyOp37
 70
     1
102
RTVSPropertyOp38
 70
     1
102
RTVSPropertyOp39
 70
     1
102
RTVSPropertyOp40
 70
     1
102
RTVSPropertyOp41
 70
     1
102
RTVSPropertyOp42
 70
     1
102
RTVSPropertyOp43
 70
     1
102
RTVSPropertyOp44
 70
     1
102
RTVSPropertyOp45
 70
     1
102
RTVSPropertyOp46
 70
     1
102
RTVSPropertyOp47
 70
     1
102
RTVSPropertyOp48
 70
     1
102
RTVSPropertyOp49
 70
     1
102
RTVSPropertyOp50
 70
     1
102
RTVSPropertyOp51
 70
     0
102
RTVSPropertyOp52
 70
     0
102
RTVSPropertyOp53
 70
     1
102
RTVSPropertyOp54
 70
     1
102
RTVSPropertyOp55
 70
     1
102
RTVSPropertyOp56
 70
     1
102
RTVSPropertyOp57
 70
     1
102
RTVSPropertyOp58
 70
     1
102
RTVSPropertyOp59
 70
     1
102
RTVSPropertyOp60
 70
     1
102
RTVSPropertyOp61
 70
     1
102
RTVSPropertyOp62
 70
     1
  0
XRECORD
  5
931
102
{ACAD_REACTORS
330
930
102
}
330
930
100
AcDbXrecord
280
     1
102
RTVSPost2010Prop28
280
     0
102
RTVSPost2010PropOp28
 70
     1
102
RTVSPost2010Prop29
280
     1
102
RTVSPost2010PropOp29
 70
     1
102
RTVSPost2010Prop30
280
     1
102
RTVSPost2010PropOp30
 70
     1
102
RTVSPost2010Prop31
280
     0
102
RTVSPost2010PropOp31
 70
     1
102
RTVSPost2010Prop32
280
     0
102
RTVSPost2010PropOp32
 70
     1
102
RTVSPost2010Prop33
280
     0
102
RTVSPost2010PropOp33
 70
     1
102
RTVSPost2010Prop34
280
     0
102
RTVSPost2010PropOp34
 70
     1
102
RTVSPost2010Prop35
280
     0
102
RTVSPost2010PropOp35
 70
     1
102
RTVSPost2010Prop36
280
     0
102
RTVSPost2010PropOp36
 70
     1
102
RTVSPost2010Prop37
 90
       50
102
RTVSPost2010PropOp37
 70
     1
102
RTVSPost2010Prop38
140
0.0
102
RTVSPost2010PropOp38
 70
     1
102
RTVSPost2010Prop39
140
1.0
102
RTVSPost2010PropOp39
 70
     1
102
RTVSPost2010Prop40
 90
        0
102
RTVSPost2010PropOp40
 70
     1
102
RTVSPost2010Prop41ColorIndex
 90
       18
102
RTVSPost2010Prop41ColorRGB
 90
        0
102
RTVSPost2010PropOp41
 70
     1
102
RTVSPost2010Prop42
 90
       50
102
RTVSPost2010PropOp42
 70
     1
102
RTVSPost2010Prop43
 90
        3
102
RTVSPost2010PropOp43
 70
     1
102
RTVSPost2010Prop44ColorIndex
 90
        5
102
RTVSPost2010Prop44ColorRGB
 90
      255
102
RTVSPost2010PropOp44
 70
     1
102
RTVSPost2010Prop45
280
     0
102
RTVSPost2010PropOp45
 70
     1
102
RTVSPost2010Prop46
 90
       50
102
RTVSPost2010PropOp46
 70
     1
102
RTVSPost2010Prop47
 90
       50
102
RTVSPost2010PropOp47
 70
     1
102
RTVSPost2010Prop48
 90
       50
102
RTVSPost2010PropOp48
 70
     1
102
RTVSPost2010Prop49
280
     0
102
RTVSPost2010PropOp49
 70
     1
102
RTVSPost2010Prop50
 90
       50
102
RTVSPost2010PropOp50
 70
     1
102
RTVSPost2010Prop51ColorIndex
 90
      256
102
RTVSPost2010Prop51ColorRGB
 90
-16777216
102
RTVSPost2010PropOp51
 70
     0
102
RTVSPost2010Prop52
140
1.0
102
RTVSPost2010PropOp52
 70
     0
102
RTVSPost2010Prop53
 90
        2
102
RTVSPost2010PropOp53
 70
     1
102
RTVSPost2010Prop54
  1
strokes_ogs.tif
102
RTVSPost2010PropOp54
 70
     1
102
RTVSPost2010Prop55
280
     0
102
RTVSPost2010PropOp55
 70
     1
102
RTVSPost2010Prop56
140
1.0
102
RTVSPost2010PropOp56
 70
     1
102
RTVSPost2010Prop57
140
1.0
102
RTVSPost2010PropOp57
 70
     1
102
RTVSPropertyOp0
 70
     1
102
RTVSPropertyOp1
 70
     1
102
RTVSPropertyOp2
 70
     1
102
RTVSPropertyOp3
 70
     1
102
RTVSPropertyOp4
 70
     1
102
RTVSPropertyOp5
 70
     1
102
RTVSPropertyOp6
 70
     1
102
RTVSPropertyOp7
 70
     1
102
RTVSPropertyOp8
 70
     1
102
RTVSPropertyOp9
 70
     1
102
RTVSPropertyOp10
 70
     1
102
RTVSPropertyOp11
 70
     1
102
RTVSPropertyOp12
 70
     1
102
RTVSPropertyOp13
 70
     1
102
RTVSPropertyOp14
 70
     1
102
RTVSPropertyOp15
 70
     1
102
RTVSPropertyOp16
 70
     1
102
RTVSPropertyOp17
 70
     1
102
RTVSPropertyOp18
 70
     1
102
RTVSPropertyOp19
 70
     1
102
RTVSPropertyOp20
 70
     1
102
RTVSPropertyOp21
 70
     1
102
RTVSPropertyOp22
 70
     1
102
RTVSPropertyOp23
 70
     1
102
RTVSPropertyOp24
 70
     1
102
RTVSPropertyOp25
 70
     1
102
RTVSPropertyOp26
 70
     1
102
RTVSPropertyOp27
 70
     1
102
RTVSPropertyOp28
 70
     1
102
RTVSPropertyOp29
 70
     1
102
RTVSPropertyOp30
 70
     1
102
RTVSPropertyOp31
 70
     1
102
RTVSPropertyOp32
 70
     1
102
RTVSPropertyOp33
 70
     1
102
RTVSPropertyOp34
 70
     1
102
RTVSPropertyOp35
 70
     1
102
RTVSPropertyOp36
 70
     1
102
RTVSPropertyOp37
 70
     1
102
RTVSPropertyOp38
 70
     1
102
RTVSPropertyOp39
 70
     1
102
RTVSPropertyOp40
 70
     1
102
RTVSPropertyOp41
 70
     1
102
RTVSPropertyOp42
 70
     1
102
RTVSPropertyOp43
 70
     1
102
RTVSPropertyOp44
 70
     1
102
RTVSPropertyOp45
 70
     1
102
RTVSPropertyOp46
 70
     1
102
RTVSPropertyOp47
 70
     1
102
RTVSPropertyOp48
 70
     1
102
RTVSPropertyOp49
 70
     1
102
RTVSPropertyOp50
 70
     1
102
RTVSPropertyOp51
 70
     0
102
RTVSPropertyOp52
 70
     0
102
RTVSPropertyOp53
 70
     1
102
RTVSPropertyOp54
 70
     1
102
RTVSPropertyOp55
 70
     1
102
RTVSPropertyOp56
 70
     1
102
RTVSPropertyOp57
 70
     1
102
RTVSPropertyOp58
 70
     1
102
RTVSPropertyOp59
 70
     1
102
RTVSPropertyOp60
 70
     1
102
RTVSPropertyOp61
 70
     1
102
RTVSPropertyOp62
 70
     1
  0
XRECORD
  5
939
102
{ACAD_REACTORS
330
938
102
}
330
938
100
AcDbXrecord
280
     1
102
RTVSPost2010Prop28
280
     0
102
RTVSPost2010PropOp28
 70
     1
102
RTVSPost2010Prop29
280
     1
102
RTVSPost2010PropOp29
 70
     1
102
RTVSPost2010Prop30
280
     1
102
RTVSPost2010PropOp30
 70
     1
102
RTVSPost2010Prop31
280
     0
102
RTVSPost2010PropOp31
 70
     1
102
RTVSPost2010Prop32
280
     0
102
RTVSPost2010PropOp32
 70
     1
102
RTVSPost2010Prop33
280
     0
102
RTVSPost2010PropOp33
 70
     1
102
RTVSPost2010Prop34
280
     0
102
RTVSPost2010PropOp34
 70
     1
102
RTVSPost2010Prop35
280
     0
102
RTVSPost2010PropOp35
 70
     1
102
RTVSPost2010Prop36
280
     0
102
RTVSPost2010PropOp36
 70
     1
102
RTVSPost2010Prop37
 90
       50
102
RTVSPost2010PropOp37
 70
     1
102
RTVSPost2010Prop38
140
0.0
102
RTVSPost2010PropOp38
 70
     1
102
RTVSPost2010Prop39
140
1.0
102
RTVSPost2010PropOp39
 70
     1
102
RTVSPost2010Prop40
 90
        0
102
RTVSPost2010PropOp40
 70
     1
102
RTVSPost2010Prop41ColorIndex
 90
       18
102
RTVSPost2010Prop41ColorRGB
 90
        0
102
RTVSPost2010PropOp41
 70
     1
102
RTVSPost2010Prop42
 90
       50
102
RTVSPost2010PropOp42
 70
     1
102
RTVSPost2010Prop43
 90
        3
102
RTVSPost2010PropOp43
 70
     1
102
RTVSPost2010Prop44ColorIndex
 90
        5
102
RTVSPost2010Prop44ColorRGB
 90
      255
102
RTVSPost2010PropOp44
 70
     1
102
RTVSPost2010Prop45
280
     0
102
RTVSPost2010PropOp45
 70
     1
102
RTVSPost2010Prop46
 90
       50
102
RTVSPost2010PropOp46
 70
     1
102
RTVSPost2010Prop47
 90
       50
102
RTVSPost2010PropOp47
 70
     1
102
RTVSPost2010Prop48
 90
       50
102
RTVSPost2010PropOp48
 70
     1
102
RTVSPost2010Prop49
280
     0
102
RTVSPost2010PropOp49
 70
     1
102
RTVSPost2010Prop50
 90
       50
102
RTVSPost2010PropOp50
 70
     1
102
RTVSPost2010Prop51ColorIndex
 90
      256
102
RTVSPost2010Prop51ColorRGB
 90
-16777216
102
RTVSPost2010PropOp51
 70
     0
102
RTVSPost2010Prop52
140
1.0
102
RTVSPost2010PropOp52
 70
     0
102
RTVSPost2010Prop53
 90
        2
102
RTVSPost2010PropOp53
 70
     1
102
RTVSPost2010Prop54
  1
strokes_ogs.tif
102
RTVSPost2010PropOp54
 70
     1
102
RTVSPost2010Prop55
280
     0
102
RTVSPost2010PropOp55
 70
     1
102
RTVSPost2010Prop56
140
1.0
102
RTVSPost2010PropOp56
 70
     1
102
RTVSPost2010Prop57
140
1.0
102
RTVSPost2010PropOp57
 70
     1
102
RTVSPropertyOp0
 70
     1
102
RTVSPropertyOp1
 70
     1
102
RTVSPropertyOp2
 70
     1
102
RTVSPropertyOp3
 70
     1
102
RTVSPropertyOp4
 70
     1
102
RTVSPropertyOp5
 70
     1
102
RTVSPropertyOp6
 70
     1
102
RTVSPropertyOp7
 70
     1
102
RTVSPropertyOp8
 70
     1
102
RTVSPropertyOp9
 70
     1
102
RTVSPropertyOp10
 70
     1
102
RTVSPropertyOp11
 70
     1
102
RTVSPropertyOp12
 70
     1
102
RTVSPropertyOp13
 70
     1
102
RTVSPropertyOp14
 70
     1
102
RTVSPropertyOp15
 70
     1
102
RTVSPropertyOp16
 70
     1
102
RTVSPropertyOp17
 70
     1
102
RTVSPropertyOp18
 70
     1
102
RTVSPropertyOp19
 70
     1
102
RTVSPropertyOp20
 70
     1
102
RTVSPropertyOp21
 70
     1
102
RTVSPropertyOp22
 70
     1
102
RTVSPropertyOp23
 70
     1
102
RTVSPropertyOp24
 70
     1
102
RTVSPropertyOp25
 70
     1
102
RTVSPropertyOp26
 70
     1
102
RTVSPropertyOp27
 70
     1
102
RTVSPropertyOp28
 70
     1
102
RTVSPropertyOp29
 70
     1
102
RTVSPropertyOp30
 70
     1
102
RTVSPropertyOp31
 70
     1
102
RTVSPropertyOp32
 70
     1
102
RTVSPropertyOp33
 70
     1
102
RTVSPropertyOp34
 70
     1
102
RTVSPropertyOp35
 70
     1
102
RTVSPropertyOp36
 70
     1
102
RTVSPropertyOp37
 70
     1
102
RTVSPropertyOp38
 70
     1
102
RTVSPropertyOp39
 70
     1
102
RTVSPropertyOp40
 70
     1
102
RTVSPropertyOp41
 70
     1
102
RTVSPropertyOp42
 70
     1
102
RTVSPropertyOp43
 70
     1
102
RTVSPropertyOp44
 70
     1
102
RTVSPropertyOp45
 70
     1
102
RTVSPropertyOp46
 70
     1
102
RTVSPropertyOp47
 70
     1
102
RTVSPropertyOp48
 70
     1
102
RTVSPropertyOp49
 70
     1
102
RTVSPropertyOp50
 70
     1
102
RTVSPropertyOp51
 70
     0
102
RTVSPropertyOp52
 70
     0
102
RTVSPropertyOp53
 70
     1
102
RTVSPropertyOp54
 70
     1
102
RTVSPropertyOp55
 70
     1
102
RTVSPropertyOp56
 70
     1
102
RTVSPropertyOp57
 70
     1
102
RTVSPropertyOp58
 70
     1
102
RTVSPropertyOp59
 70
     1
102
RTVSPropertyOp60
 70
     1
102
RTVSPropertyOp61
 70
     1
102
RTVSPropertyOp62
 70
     1
  0
XRECORD
  5
92D
102
{ACAD_REACTORS
330
92C
102
}
330
92C
100
AcDbXrecord
280
     1
102
RTVSPost2010Prop28
280
     0
102
RTVSPost2010PropOp28
 70
     1
102
RTVSPost2010Prop29
280
     1
102
RTVSPost2010PropOp29
 70
     1
102
RTVSPost2010Prop30
280
     1
102
RTVSPost2010PropOp30
 70
     1
102
RTVSPost2010Prop31
280
     0
102
RTVSPost2010PropOp31
 70
     1
102
RTVSPost2010Prop32
280
     0
102
RTVSPost2010PropOp32
 70
     1
102
RTVSPost2010Prop33
280
     0
102
RTVSPost2010PropOp33
 70
     1
102
RTVSPost2010Prop34
280
     0
102
RTVSPost2010PropOp34
 70
     1
102
RTVSPost2010Prop35
280
     0
102
RTVSPost2010PropOp35
 70
     1
102
RTVSPost2010Prop36
280
     0
102
RTVSPost2010PropOp36
 70
     1
102
RTVSPost2010Prop37
 90
       50
102
RTVSPost2010PropOp37
 70
     1
102
RTVSPost2010Prop38
140
0.0
102
RTVSPost2010PropOp38
 70
     1
102
RTVSPost2010Prop39
140
1.0
102
RTVSPost2010PropOp39
 70
     1
102
RTVSPost2010Prop40
 90
        0
102
RTVSPost2010PropOp40
 70
     1
102
RTVSPost2010Prop41ColorIndex
 90
       18
102
RTVSPost2010Prop41ColorRGB
 90
        0
102
RTVSPost2010PropOp41
 70
     1
102
RTVSPost2010Prop42
 90
       50
102
RTVSPost2010PropOp42
 70
     1
102
RTVSPost2010Prop43
 90
        3
102
RTVSPost2010PropOp43
 70
     1
102
RTVSPost2010Prop44ColorIndex
 90
        5
102
RTVSPost2010Prop44ColorRGB
 90
      255
102
RTVSPost2010PropOp44
 70
     1
102
RTVSPost2010Prop45
280
     0
102
RTVSPost2010PropOp45
 70
     1
102
RTVSPost2010Prop46
 90
       50
102
RTVSPost2010PropOp46
 70
     1
102
RTVSPost2010Prop47
 90
       50
102
RTVSPost2010PropOp47
 70
     1
102
RTVSPost2010Prop48
 90
       50
102
RTVSPost2010PropOp48
 70
     1
102
RTVSPost2010Prop49
280
     0
102
RTVSPost2010PropOp49
 70
     1
102
RTVSPost2010Prop50
 90
       50
102
RTVSPost2010PropOp50
 70
     1
102
RTVSPost2010Prop51ColorIndex
 90
      256
102
RTVSPost2010Prop51ColorRGB
 90
-16777216
102
RTVSPost2010PropOp51
 70
     0
102
RTVSPost2010Prop52
140
1.0
102
RTVSPost2010PropOp52
 70
     0
102
RTVSPost2010Prop53
 90
        2
102
RTVSPost2010PropOp53
 70
     1
102
RTVSPost2010Prop54
  1
strokes_ogs.tif
102
RTVSPost2010PropOp54
 70
     1
102
RTVSPost2010Prop55
280
     0
102
RTVSPost2010PropOp55
 70
     1
102
RTVSPost2010Prop56
140
1.0
102
RTVSPost2010PropOp56
 70
     1
102
RTVSPost2010Prop57
140
1.0
102
RTVSPost2010PropOp57
 70
     1
102
RTVSPropertyOp0
 70
     1
102
RTVSPropertyOp1
 70
     1
102
RTVSPropertyOp2
 70
     1
102
RTVSPropertyOp3
 70
     1
102
RTVSPropertyOp4
 70
     1
102
RTVSPropertyOp5
 70
     1
102
RTVSPropertyOp6
 70
     1
102
RTVSPropertyOp7
 70
     1
102
RTVSPropertyOp8
 70
     1
102
RTVSPropertyOp9
 70
     1
102
RTVSPropertyOp10
 70
     1
102
RTVSPropertyOp11
 70
     1
102
RTVSPropertyOp12
 70
     1
102
RTVSPropertyOp13
 70
     1
102
RTVSPropertyOp14
 70
     1
102
RTVSPropertyOp15
 70
     1
102
RTVSPropertyOp16
 70
     1
102
RTVSPropertyOp17
 70
     1
102
RTVSPropertyOp18
 70
     1
102
RTVSPropertyOp19
 70
     1
102
RTVSPropertyOp20
 70
     1
102
RTVSPropertyOp21
 70
     1
102
RTVSPropertyOp22
 70
     1
102
RTVSPropertyOp23
 70
     1
102
RTVSPropertyOp24
 70
     1
102
RTVSPropertyOp25
 70
     1
102
RTVSPropertyOp26
 70
     1
102
RTVSPropertyOp27
 70
     1
102
RTVSPropertyOp28
 70
     1
102
RTVSPropertyOp29
 70
     1
102
RTVSPropertyOp30
 70
     1
102
RTVSPropertyOp31
 70
     1
102
RTVSPropertyOp32
 70
     1
102
RTVSPropertyOp33
 70
     1
102
RTVSPropertyOp34
 70
     1
102
RTVSPropertyOp35
 70
     1
102
RTVSPropertyOp36
 70
     1
102
RTVSPropertyOp37
 70
     1
102
RTVSPropertyOp38
 70
     1
102
RTVSPropertyOp39
 70
     1
102
RTVSPropertyOp40
 70
     1
102
RTVSPropertyOp41
 70
     1
102
RTVSPropertyOp42
 70
     1
102
RTVSPropertyOp43
 70
     1
102
RTVSPropertyOp44
 70
     1
102
RTVSPropertyOp45
 70
     1
102
RTVSPropertyOp46
 70
     1
102
RTVSPropertyOp47
 70
     1
102
RTVSPropertyOp48
 70
     1
102
RTVSPropertyOp49
 70
     1
102
RTVSPropertyOp50
 70
     1
102
RTVSPropertyOp51
 70
     0
102
RTVSPropertyOp52
 70
     0
102
RTVSPropertyOp53
 70
     1
102
RTVSPropertyOp54
 70
     1
102
RTVSPropertyOp55
 70
     1
102
RTVSPropertyOp56
 70
     1
102
RTVSPropertyOp57
 70
     1
102
RTVSPropertyOp58
 70
     1
102
RTVSPropertyOp59
 70
     1
102
RTVSPropertyOp60
 70
     1
102
RTVSPropertyOp61
 70
     1
102
RTVSPropertyOp62
 70
     1
  0
XRECORD
  5
92F
102
{ACAD_REACTORS
330
92E
102
}
330
92E
100
AcDbXrecord
280
     1
102
RTVSPost2010Prop28
280
     0
102
RTVSPost2010PropOp28
 70
     1
102
RTVSPost2010Prop29
280
     1
102
RTVSPost2010PropOp29
 70
     1
102
RTVSPost2010Prop30
280
     1
102
RTVSPost2010PropOp30
 70
     1
102
RTVSPost2010Prop31
280
     0
102
RTVSPost2010PropOp31
 70
     1
102
RTVSPost2010Prop32
280
     0
102
RTVSPost2010PropOp32
 70
     1
102
RTVSPost2010Prop33
280
     0
102
RTVSPost2010PropOp33
 70
     1
102
RTVSPost2010Prop34
280
     0
102
RTVSPost2010PropOp34
 70
     1
102
RTVSPost2010Prop35
280
     0
102
RTVSPost2010PropOp35
 70
     1
102
RTVSPost2010Prop36
280
     0
102
RTVSPost2010PropOp36
 70
     1
102
RTVSPost2010Prop37
 90
       50
102
RTVSPost2010PropOp37
 70
     1
102
RTVSPost2010Prop38
140
0.0
102
RTVSPost2010PropOp38
 70
     1
102
RTVSPost2010Prop39
140
1.0
102
RTVSPost2010PropOp39
 70
     1
102
RTVSPost2010Prop40
 90
        0
102
RTVSPost2010PropOp40
 70
     1
102
RTVSPost2010Prop41ColorIndex
 90
       18
102
RTVSPost2010Prop41ColorRGB
 90
        0
102
RTVSPost2010PropOp41
 70
     1
102
RTVSPost2010Prop42
 90
       50
102
RTVSPost2010PropOp42
 70
     1
102
RTVSPost2010Prop43
 90
        3
102
RTVSPost2010PropOp43
 70
     1
102
RTVSPost2010Prop44ColorIndex
 90
        5
102
RTVSPost2010Prop44ColorRGB
 90
      255
102
RTVSPost2010PropOp44
 70
     1
102
RTVSPost2010Prop45
280
     0
102
RTVSPost2010PropOp45
 70
     1
102
RTVSPost2010Prop46
 90
       50
102
RTVSPost2010PropOp46
 70
     1
102
RTVSPost2010Prop47
 90
       50
102
RTVSPost2010PropOp47
 70
     1
102
RTVSPost2010Prop48
 90
       50
102
RTVSPost2010PropOp48
 70
     1
102
RTVSPost2010Prop49
280
     0
102
RTVSPost2010PropOp49
 70
     1
102
RTVSPost2010Prop50
 90
       50
102
RTVSPost2010PropOp50
 70
     1
102
RTVSPost2010Prop51ColorIndex
 90
      256
102
RTVSPost2010Prop51ColorRGB
 90
-16777216
102
RTVSPost2010PropOp51
 70
     0
102
RTVSPost2010Prop52
140
1.0
102
RTVSPost2010PropOp52
 70
     0
102
RTVSPost2010Prop53
 90
        2
102
RTVSPost2010PropOp53
 70
     1
102
RTVSPost2010Prop54
  1
strokes_ogs.tif
102
RTVSPost2010PropOp54
 70
     1
102
RTVSPost2010Prop55
280
     0
102
RTVSPost2010PropOp55
 70
     1
102
RTVSPost2010Prop56
140
1.0
102
RTVSPost2010PropOp56
 70
     1
102
RTVSPost2010Prop57
140
1.0
102
RTVSPost2010PropOp57
 70
     1
102
RTVSPropertyOp0
 70
     1
102
RTVSPropertyOp1
 70
     1
102
RTVSPropertyOp2
 70
     1
102
RTVSPropertyOp3
 70
     1
102
RTVSPropertyOp4
 70
     1
102
RTVSPropertyOp5
 70
     1
102
RTVSPropertyOp6
 70
     1
102
RTVSPropertyOp7
 70
     1
102
RTVSPropertyOp8
 70
     1
102
RTVSPropertyOp9
 70
     1
102
RTVSPropertyOp10
 70
     1
102
RTVSPropertyOp11
 70
     1
102
RTVSPropertyOp12
 70
     1
102
RTVSPropertyOp13
 70
     1
102
RTVSPropertyOp14
 70
     1
102
RTVSPropertyOp15
 70
     1
102
RTVSPropertyOp16
 70
     1
102
RTVSPropertyOp17
 70
     1
102
RTVSPropertyOp18
 70
     1
102
RTVSPropertyOp19
 70
     1
102
RTVSPropertyOp20
 70
     1
102
RTVSPropertyOp21
 70
     1
102
RTVSPropertyOp22
 70
     1
102
RTVSPropertyOp23
 70
     1
102
RTVSPropertyOp24
 70
     1
102
RTVSPropertyOp25
 70
     1
102
RTVSPropertyOp26
 70
     1
102
RTVSPropertyOp27
 70
     1
102
RTVSPropertyOp28
 70
     1
102
RTVSPropertyOp29
 70
     1
102
RTVSPropertyOp30
 70
     1
102
RTVSPropertyOp31
 70
     1
102
RTVSPropertyOp32
 70
     1
102
RTVSPropertyOp33
 70
     1
102
RTVSPropertyOp34
 70
     1
102
RTVSPropertyOp35
 70
     1
102
RTVSPropertyOp36
 70
     1
102
RTVSPropertyOp37
 70
     1
102
RTVSPropertyOp38
 70
     1
102
RTVSPropertyOp39
 70
     1
102
RTVSPropertyOp40
 70
     1
102
RTVSPropertyOp41
 70
     1
102
RTVSPropertyOp42
 70
     1
102
RTVSPropertyOp43
 70
     1
102
RTVSPropertyOp44
 70
     1
102
RTVSPropertyOp45
 70
     1
102
RTVSPropertyOp46
 70
     1
102
RTVSPropertyOp47
 70
     1
102
RTVSPropertyOp48
 70
     1
102
RTVSPropertyOp49
 70
     1
102
RTVSPropertyOp50
 70
     1
102
RTVSPropertyOp51
 70
     0
102
RTVSPropertyOp52
 70
     0
102
RTVSPropertyOp53
 70
     1
102
RTVSPropertyOp54
 70
     1
102
RTVSPropertyOp55
 70
     1
102
RTVSPropertyOp56
 70
     1
102
RTVSPropertyOp57
 70
     1
102
RTVSPropertyOp58
 70
     1
102
RTVSPropertyOp59
 70
     1
102
RTVSPropertyOp60
 70
     1
102
RTVSPropertyOp61
 70
     1
102
RTVSPropertyOp62
 70
     1
  0
XRECORD
  5
93F
102
{ACAD_REACTORS
330
93E
102
}
330
93E
100
AcDbXrecord
280
     1
102
RTVSPost2010Prop28
280
     0
102
RTVSPost2010PropOp28
 70
     0
102
RTVSPost2010Prop29
280
     1
102
RTVSPost2010PropOp29
 70
     0
102
RTVSPost2010Prop30
280
     1
102
RTVSPost2010PropOp30
 70
     0
102
RTVSPost2010Prop31
280
     0
102
RTVSPost2010PropOp31
 70
     0
102
RTVSPost2010Prop32
280
     0
102
RTVSPost2010PropOp32
 70
     0
102
RTVSPost2010Prop33
280
     0
102
RTVSPost2010PropOp33
 70
     0
102
RTVSPost2010Prop34
280
     0
102
RTVSPost2010PropOp34
 70
     0
102
RTVSPost2010Prop35
280
     0
102
RTVSPost2010PropOp35
 70
     0
102
RTVSPost2010Prop36
280
     0
102
RTVSPost2010PropOp36
 70
     0
102
RTVSPost2010Prop37
 90
       50
102
RTVSPost2010PropOp37
 70
     0
102
RTVSPost2010Prop38
140
0.0
102
RTVSPost2010PropOp38
 70
     0
102
RTVSPost2010Prop39
140
1.0
102
RTVSPost2010PropOp39
 70
     0
102
RTVSPost2010Prop40
 90
        0
102
RTVSPost2010PropOp40
 70
     0
102
RTVSPost2010Prop41ColorIndex
 90
       18
102
RTVSPost2010Prop41ColorRGB
 90
        0
102
RTVSPost2010PropOp41
 70
     0
102
RTVSPost2010Prop42
 90
       50
102
RTVSPost2010PropOp42
 70
     0
102
RTVSPost2010Prop43
 90
        3
102
RTVSPost2010PropOp43
 70
     0
102
RTVSPost2010Prop44ColorIndex
 90
        5
102
RTVSPost2010Prop44ColorRGB
 90
      255
102
RTVSPost2010PropOp44
 70
     0
102
RTVSPost2010Prop45
280
     0
102
RTVSPost2010PropOp45
 70
     0
102
RTVSPost2010Prop46
 90
       50
102
RTVSPost2010PropOp46
 70
     0
102
RTVSPost2010Prop47
 90
       50
102
RTVSPost2010PropOp47
 70
     0
102
RTVSPost2010Prop48
 90
       50
102
RTVSPost2010PropOp48
 70
     0
102
RTVSPost2010Prop49
280
     0
102
RTVSPost2010PropOp49
 70
     0
102
RTVSPost2010Prop50
 90
       50
102
RTVSPost2010PropOp50
 70
     0
102
RTVSPost2010Prop51ColorIndex
 90
      256
102
RTVSPost2010Prop51ColorRGB
 90
-16777216
102
RTVSPost2010PropOp51
 70
     0
102
RTVSPost2010Prop52
140
1.0
102
RTVSPost2010PropOp52
 70
     0
102
RTVSPost2010Prop53
 90
        2
102
RTVSPost2010PropOp53
 70
     0
102
RTVSPost2010Prop54
  1
strokes_ogs.tif
102
RTVSPost2010PropOp54
 70
     0
102
RTVSPost2010Prop55
280
     0
102
RTVSPost2010PropOp55
 70
     0
102
RTVSPost2010Prop56
140
1.0
102
RTVSPost2010PropOp56
 70
     0
102
RTVSPost2010Prop57
140
1.0
102
RTVSPost2010PropOp57
 70
     0
102
RTVSPropertyOp0
 70
     0
102
RTVSPropertyOp1
 70
     0
102
RTVSPropertyOp2
 70
     0
102
RTVSPropertyOp3
 70
     0
102
RTVSPropertyOp4
 70
     0
102
RTVSPropertyOp5
 70
     0
102
RTVSPropertyOp6
 70
     0
102
RTVSPropertyOp7
 70
     0
102
RTVSPropertyOp8
 70
     0
102
RTVSPropertyOp9
 70
     0
102
RTVSPropertyOp10
 70
     0
102
RTVSPropertyOp11
 70
     0
102
RTVSPropertyOp12
 70
     0
102
RTVSPropertyOp13
 70
     0
102
RTVSPropertyOp14
 70
     2
102
RTVSPropertyOp15
 70
     0
102
RTVSPropertyOp16
 70
     0
102
RTVSPropertyOp17
 70
     0
102
RTVSPropertyOp18
 70
     0
102
RTVSPropertyOp19
 70
     0
102
RTVSPropertyOp20
 70
     0
102
RTVSPropertyOp21
 70
     0
102
RTVSPropertyOp22
 70
     0
102
RTVSPropertyOp23
 70
     0
102
RTVSPropertyOp24
 70
     0
102
RTVSPropertyOp25
 70
     0
102
RTVSPropertyOp26
 70
     0
102
RTVSPropertyOp27
 70
     0
102
RTVSPropertyOp28
 70
     0
102
RTVSPropertyOp29
 70
     0
102
RTVSPropertyOp30
 70
     0
102
RTVSPropertyOp31
 70
     0
102
RTVSPropertyOp32
 70
     0
102
RTVSPropertyOp33
 70
     0
102
RTVSPropertyOp34
 70
     0
102
RTVSPropertyOp35
 70
     0
102
RTVSPropertyOp36
 70
     0
102
RTVSPropertyOp37
 70
     0
102
RTVSPropertyOp38
 70
     0
102
RTVSPropertyOp39
 70
     0
102
RTVSPropertyOp40
 70
     0
102
RTVSPropertyOp41
 70
     0
102
RTVSPropertyOp42
 70
     0
102
RTVSPropertyOp43
 70
     0
102
RTVSPropertyOp44
 70
     0
102
RTVSPropertyOp45
 70
     0
102
RTVSPropertyOp46
 70
     0
102
RTVSPropertyOp47
 70
     0
102
RTVSPropertyOp48
 70
     0
102
RTVSPropertyOp49
 70
     0
102
RTVSPropertyOp50
 70
     0
102
RTVSPropertyOp51
 70
     0
102
RTVSPropertyOp52
 70
     0
102
RTVSPropertyOp53
 70
     0
102
RTVSPropertyOp54
 70
     0
102
RTVSPropertyOp55
 70
     0
102
RTVSPropertyOp56
 70
     0
102
RTVSPropertyOp57
 70
     0
102
RTVSPropertyOp58
 70
     1
102
RTVSPropertyOp59
 70
     1
102
RTVSPropertyOp60
 70
     1
102
RTVSPropertyOp61
 70
     1
102
RTVSPropertyOp62
 70
     1
  0
XRECORD
  5
937
102
{ACAD_REACTORS
330
936
102
}
330
936
100
AcDbXrecord
280
     1
102
RTVSPost2010Prop28
280
     0
102
RTVSPost2010PropOp28
 70
     1
102
RTVSPost2010Prop29
280
     1
102
RTVSPost2010PropOp29
 70
     1
102
RTVSPost2010Prop30
280
     1
102
RTVSPost2010PropOp30
 70
     1
102
RTVSPost2010Prop31
280
     0
102
RTVSPost2010PropOp31
 70
     1
102
RTVSPost2010Prop32
280
     0
102
RTVSPost2010PropOp32
 70
     1
102
RTVSPost2010Prop33
280
     0
102
RTVSPost2010PropOp33
 70
     1
102
RTVSPost2010Prop34
280
     0
102
RTVSPost2010PropOp34
 70
     1
102
RTVSPost2010Prop35
280
     0
102
RTVSPost2010PropOp35
 70
     1
102
RTVSPost2010Prop36
280
     0
102
RTVSPost2010PropOp36
 70
     1
102
RTVSPost2010Prop37
 90
       50
102
RTVSPost2010PropOp37
 70
     1
102
RTVSPost2010Prop38
140
0.0
102
RTVSPost2010PropOp38
 70
     1
102
RTVSPost2010Prop39
140
1.0
102
RTVSPost2010PropOp39
 70
     1
102
RTVSPost2010Prop40
 90
        0
102
RTVSPost2010PropOp40
 70
     1
102
RTVSPost2010Prop41ColorIndex
 90
       18
102
RTVSPost2010Prop41ColorRGB
 90
        0
102
RTVSPost2010PropOp41
 70
     1
102
RTVSPost2010Prop42
 90
       50
102
RTVSPost2010PropOp42
 70
     1
102
RTVSPost2010Prop43
 90
        3
102
RTVSPost2010PropOp43
 70
     1
102
RTVSPost2010Prop44ColorIndex
 90
        5
102
RTVSPost2010Prop44ColorRGB
 90
      255
102
RTVSPost2010PropOp44
 70
     1
102
RTVSPost2010Prop45
280
     0
102
RTVSPost2010PropOp45
 70
     1
102
RTVSPost2010Prop46
 90
       50
102
RTVSPost2010PropOp46
 70
     1
102
RTVSPost2010Prop47
 90
       50
102
RTVSPost2010PropOp47
 70
     1
102
RTVSPost2010Prop48
 90
       50
102
RTVSPost2010PropOp48
 70
     1
102
RTVSPost2010Prop49
280
     0
102
RTVSPost2010PropOp49
 70
     1
102
RTVSPost2010Prop50
 90
       50
102
RTVSPost2010PropOp50
 70
     1
102
RTVSPost2010Prop51ColorIndex
 90
      256
102
RTVSPost2010Prop51ColorRGB
 90
-16777216
102
RTVSPost2010PropOp51
 70
     0
102
RTVSPost2010Prop52
140
1.0
102
RTVSPost2010PropOp52
 70
     0
102
RTVSPost2010Prop53
 90
        2
102
RTVSPost2010PropOp53
 70
     1
102
RTVSPost2010Prop54
  1
strokes_ogs.tif
102
RTVSPost2010PropOp54
 70
     1
102
RTVSPost2010Prop55
280
     0
102
RTVSPost2010PropOp55
 70
     1
102
RTVSPost2010Prop56
140
1.0
102
RTVSPost2010PropOp56
 70
     1
102
RTVSPost2010Prop57
140
1.0
102
RTVSPost2010PropOp57
 70
     1
102
RTVSPropertyOp0
 70
     1
102
RTVSPropertyOp1
 70
     1
102
RTVSPropertyOp2
 70
     1
102
RTVSPropertyOp3
 70
     1
102
RTVSPropertyOp4
 70
     1
102
RTVSPropertyOp5
 70
     1
102
RTVSPropertyOp6
 70
     1
102
RTVSPropertyOp7
 70
     1
102
RTVSPropertyOp8
 70
     1
102
RTVSPropertyOp9
 70
     1
102
RTVSPropertyOp10
 70
     1
102
RTVSPropertyOp11
 70
     1
102
RTVSPropertyOp12
 70
     1
102
RTVSPropertyOp13
 70
     1
102
RTVSPropertyOp14
 70
     1
102
RTVSPropertyOp15
 70
     1
102
RTVSPropertyOp16
 70
     1
102
RTVSPropertyOp17
 70
     1
102
RTVSPropertyOp18
 70
     1
102
RTVSPropertyOp19
 70
     1
102
RTVSPropertyOp20
 70
     1
102
RTVSPropertyOp21
 70
     1
102
RTVSPropertyOp22
 70
     1
102
RTVSPropertyOp23
 70
     1
102
RTVSPropertyOp24
 70
     1
102
RTVSPropertyOp25
 70
     1
102
RTVSPropertyOp26
 70
     1
102
RTVSPropertyOp27
 70
     1
102
RTVSPropertyOp28
 70
     1
102
RTVSPropertyOp29
 70
     1
102
RTVSPropertyOp30
 70
     1
102
RTVSPropertyOp31
 70
     1
102
RTVSPropertyOp32
 70
     1
102
RTVSPropertyOp33
 70
     1
102
RTVSPropertyOp34
 70
     1
102
RTVSPropertyOp35
 70
     1
102
RTVSPropertyOp36
 70
     1
102
RTVSPropertyOp37
 70
     1
102
RTVSPropertyOp38
 70
     1
102
RTVSPropertyOp39
 70
     1
102
RTVSPropertyOp40
 70
     1
102
RTVSPropertyOp41
 70
     1
102
RTVSPropertyOp42
 70
     1
102
RTVSPropertyOp43
 70
     1
102
RTVSPropertyOp44
 70
     1
102
RTVSPropertyOp45
 70
     1
102
RTVSPropertyOp46
 70
     1
102
RTVSPropertyOp47
 70
     1
102
RTVSPropertyOp48
 70
     1
102
RTVSPropertyOp49
 70
     1
102
RTVSPropertyOp50
 70
     1
102
RTVSPropertyOp51
 70
     0
102
RTVSPropertyOp52
 70
     0
102
RTVSPropertyOp53
 70
     1
102
RTVSPropertyOp54
 70
     1
102
RTVSPropertyOp55
 70
     1
102
RTVSPropertyOp56
 70
     1
102
RTVSPropertyOp57
 70
     1
102
RTVSPropertyOp58
 70
     1
102
RTVSPropertyOp59
 70
     1
102
RTVSPropertyOp60
 70
     1
102
RTVSPropertyOp61
 70
     1
102
RTVSPropertyOp62
 70
     1
  0
XRECORD
  5
91B
102
{ACAD_REACTORS
330
91A
102
}
330
91A
100
AcDbXrecord
280
     1
102
RTVSPost2010Prop28
280
     0
102
RTVSPost2010PropOp28
 70
     1
102
RTVSPost2010Prop29
280
     1
102
RTVSPost2010PropOp29
 70
     1
102
RTVSPost2010Prop30
280
     1
102
RTVSPost2010PropOp30
 70
     1
102
RTVSPost2010Prop31
280
     0
102
RTVSPost2010PropOp31
 70
     1
102
RTVSPost2010Prop32
280
     0
102
RTVSPost2010PropOp32
 70
     1
102
RTVSPost2010Prop33
280
     0
102
RTVSPost2010PropOp33
 70
     1
102
RTVSPost2010Prop34
280
     0
102
RTVSPost2010PropOp34
 70
     1
102
RTVSPost2010Prop35
280
     0
102
RTVSPost2010PropOp35
 70
     1
102
RTVSPost2010Prop36
280
     0
102
RTVSPost2010PropOp36
 70
     1
102
RTVSPost2010Prop37
 90
       50
102
RTVSPost2010PropOp37
 70
     1
102
RTVSPost2010Prop38
140
0.0
102
RTVSPost2010PropOp38
 70
     1
102
RTVSPost2010Prop39
140
1.0
102
RTVSPost2010PropOp39
 70
     1
102
RTVSPost2010Prop40
 90
        0
102
RTVSPost2010PropOp40
 70
     1
102
RTVSPost2010Prop41ColorIndex
 90
       18
102
RTVSPost2010Prop41ColorRGB
 90
        0
102
RTVSPost2010PropOp41
 70
     1
102
RTVSPost2010Prop42
 90
       50
102
RTVSPost2010PropOp42
 70
     1
102
RTVSPost2010Prop43
 90
        3
102
RTVSPost2010PropOp43
 70
     1
102
RTVSPost2010Prop44ColorIndex
 90
        5
102
RTVSPost2010Prop44ColorRGB
 90
      255
102
RTVSPost2010PropOp44
 70
     1
102
RTVSPost2010Prop45
280
     0
102
RTVSPost2010PropOp45
 70
     1
102
RTVSPost2010Prop46
 90
       50
102
RTVSPost2010PropOp46
 70
     1
102
RTVSPost2010Prop47
 90
       50
102
RTVSPost2010PropOp47
 70
     1
102
RTVSPost2010Prop48
 90
       50
102
RTVSPost2010PropOp48
 70
     1
102
RTVSPost2010Prop49
280
     0
102
RTVSPost2010PropOp49
 70
     1
102
RTVSPost2010Prop50
 90
       50
102
RTVSPost2010PropOp50
 70
     1
102
RTVSPost2010Prop51ColorIndex
 90
      256
102
RTVSPost2010Prop51ColorRGB
 90
-16777216
102
RTVSPost2010PropOp51
 70
     0
102
RTVSPost2010Prop52
140
1.0
102
RTVSPost2010PropOp52
 70
     0
102
RTVSPost2010Prop53
 90
        2
102
RTVSPost2010PropOp53
 70
     1
102
RTVSPost2010Prop54
  1
strokes_ogs.tif
102
RTVSPost2010PropOp54
 70
     1
102
RTVSPost2010Prop55
280
     0
102
RTVSPost2010PropOp55
 70
     1
102
RTVSPost2010Prop56
140
1.0
102
RTVSPost2010PropOp56
 70
     1
102
RTVSPost2010Prop57
140
1.0
102
RTVSPost2010PropOp57
 70
     1
102
RTVSPropertyOp0
 70
     1
102
RTVSPropertyOp1
 70
     1
102
RTVSPropertyOp2
 70
     1
102
RTVSPropertyOp3
 70
     1
102
RTVSPropertyOp4
 70
     1
102
RTVSPropertyOp5
 70
     1
102
RTVSPropertyOp6
 70
     1
102
RTVSPropertyOp7
 70
     1
102
RTVSPropertyOp8
 70
     1
102
RTVSPropertyOp9
 70
     1
102
RTVSPropertyOp10
 70
     1
102
RTVSPropertyOp11
 70
     1
102
RTVSPropertyOp12
 70
     1
102
RTVSPropertyOp13
 70
     1
102
RTVSPropertyOp14
 70
     1
102
RTVSPropertyOp15
 70
     1
102
RTVSPropertyOp16
 70
     1
102
RTVSPropertyOp17
 70
     1
102
RTVSPropertyOp18
 70
     1
102
RTVSPropertyOp19
 70
     1
102
RTVSPropertyOp20
 70
     1
102
RTVSPropertyOp21
 70
     1
102
RTVSPropertyOp22
 70
     1
102
RTVSPropertyOp23
 70
     1
102
RTVSPropertyOp24
 70
     1
102
RTVSPropertyOp25
 70
     1
102
RTVSPropertyOp26
 70
     1
102
RTVSPropertyOp27
 70
     1
102
RTVSPropertyOp28
 70
     1
102
RTVSPropertyOp29
 70
     1
102
RTVSPropertyOp30
 70
     1
102
RTVSPropertyOp31
 70
     1
102
RTVSPropertyOp32
 70
     1
102
RTVSPropertyOp33
 70
     1
102
RTVSPropertyOp34
 70
     1
102
RTVSPropertyOp35
 70
     1
102
RTVSPropertyOp36
 70
     1
102
RTVSPropertyOp37
 70
     1
102
RTVSPropertyOp38
 70
     1
102
RTVSPropertyOp39
 70
     1
102
RTVSPropertyOp40
 70
     1
102
RTVSPropertyOp41
 70
     1
102
RTVSPropertyOp42
 70
     1
102
RTVSPropertyOp43
 70
     1
102
RTVSPropertyOp44
 70
     1
102
RTVSPropertyOp45
 70
     1
102
RTVSPropertyOp46
 70
     1
102
RTVSPropertyOp47
 70
     1
102
RTVSPropertyOp48
 70
     1
102
RTVSPropertyOp49
 70
     1
102
RTVSPropertyOp50
 70
     1
102
RTVSPropertyOp51
 70
     0
102
RTVSPropertyOp52
 70
     0
102
RTVSPropertyOp53
 70
     1
102
RTVSPropertyOp54
 70
     1
102
RTVSPropertyOp55
 70
     1
102
RTVSPropertyOp56
 70
     1
102
RTVSPropertyOp57
 70
     1
102
RTVSPropertyOp58
 70
     1
102
RTVSPropertyOp59
 70
     1
102
RTVSPropertyOp60
 70
     1
102
RTVSPropertyOp61
 70
     1
102
RTVSPropertyOp62
 70
     1
  0
XRECORD
  5
91D
102
{ACAD_REACTORS
330
91C
102
}
330
91C
100
AcDbXrecord
280
     1
102
RTVSPost2010Prop28
280
     0
102
RTVSPost2010PropOp28
 70
     1
102
RTVSPost2010Prop29
280
     1
102
RTVSPost2010PropOp29
 70
     1
102
RTVSPost2010Prop30
280
     1
102
RTVSPost2010PropOp30
 70
     1
102
RTVSPost2010Prop31
280
     0
102
RTVSPost2010PropOp31
 70
     1
102
RTVSPost2010Prop32
280
     0
102
RTVSPost2010PropOp32
 70
     1
102
RTVSPost2010Prop33
280
     0
102
RTVSPost2010PropOp33
 70
     1
102
RTVSPost2010Prop34
280
     0
102
RTVSPost2010PropOp34
 70
     1
102
RTVSPost2010Prop35
280
     0
102
RTVSPost2010PropOp35
 70
     1
102
RTVSPost2010Prop36
280
     0
102
RTVSPost2010PropOp36
 70
     1
102
RTVSPost2010Prop37
 90
       50
102
RTVSPost2010PropOp37
 70
     1
102
RTVSPost2010Prop38
140
0.0
102
RTVSPost2010PropOp38
 70
     1
102
RTVSPost2010Prop39
140
1.0
102
RTVSPost2010PropOp39
 70
     1
102
RTVSPost2010Prop40
 90
        0
102
RTVSPost2010PropOp40
 70
     1
102
RTVSPost2010Prop41ColorIndex
 90
       18
102
RTVSPost2010Prop41ColorRGB
 90
        0
102
RTVSPost2010PropOp41
 70
     1
102
RTVSPost2010Prop42
 90
       50
102
RTVSPost2010PropOp42
 70
     1
102
RTVSPost2010Prop43
 90
        3
102
RTVSPost2010PropOp43
 70
     1
102
RTVSPost2010Prop44ColorIndex
 90
        5
102
RTVSPost2010Prop44ColorRGB
 90
      255
102
RTVSPost2010PropOp44
 70
     1
102
RTVSPost2010Prop45
280
     0
102
RTVSPost2010PropOp45
 70
     1
102
RTVSPost2010Prop46
 90
       50
102
RTVSPost2010PropOp46
 70
     1
102
RTVSPost2010Prop47
 90
       50
102
RTVSPost2010PropOp47
 70
     1
102
RTVSPost2010Prop48
 90
       50
102
RTVSPost2010PropOp48
 70
     1
102
RTVSPost2010Prop49
280
     0
102
RTVSPost2010PropOp49
 70
     1
102
RTVSPost2010Prop50
 90
       50
102
RTVSPost2010PropOp50
 70
     1
102
RTVSPost2010Prop51ColorIndex
 90
      256
102
RTVSPost2010Prop51ColorRGB
 90
-16777216
102
RTVSPost2010PropOp51
 70
     0
102
RTVSPost2010Prop52
140
1.0
102
RTVSPost2010PropOp52
 70
     0
102
RTVSPost2010Prop53
 90
        2
102
RTVSPost2010PropOp53
 70
     1
102
RTVSPost2010Prop54
  1
strokes_ogs.tif
102
RTVSPost2010PropOp54
 70
     1
102
RTVSPost2010Prop55
280
     0
102
RTVSPost2010PropOp55
 70
     1
102
RTVSPost2010Prop56
140
1.0
102
RTVSPost2010PropOp56
 70
     1
102
RTVSPost2010Prop57
140
1.0
102
RTVSPost2010PropOp57
 70
     1
102
RTVSPropertyOp0
 70
     1
102
RTVSPropertyOp1
 70
     1
102
RTVSPropertyOp2
 70
     1
102
RTVSPropertyOp3
 70
     1
102
RTVSPropertyOp4
 70
     1
102
RTVSPropertyOp5
 70
     1
102
RTVSPropertyOp6
 70
     1
102
RTVSPropertyOp7
 70
     1
102
RTVSPropertyOp8
 70
     1
102
RTVSPropertyOp9
 70
     1
102
RTVSPropertyOp10
 70
     1
102
RTVSPropertyOp11
 70
     1
102
RTVSPropertyOp12
 70
     1
102
RTVSPropertyOp13
 70
     1
102
RTVSPropertyOp14
 70
     1
102
RTVSPropertyOp15
 70
     1
102
RTVSPropertyOp16
 70
     1
102
RTVSPropertyOp17
 70
     1
102
RTVSPropertyOp18
 70
     1
102
RTVSPropertyOp19
 70
     1
102
RTVSPropertyOp20
 70
     1
102
RTVSPropertyOp21
 70
     1
102
RTVSPropertyOp22
 70
     1
102
RTVSPropertyOp23
 70
     1
102
RTVSPropertyOp24
 70
     1
102
RTVSPropertyOp25
 70
     1
102
RTVSPropertyOp26
 70
     1
102
RTVSPropertyOp27
 70
     1
102
RTVSPropertyOp28
 70
     1
102
RTVSPropertyOp29
 70
     1
102
RTVSPropertyOp30
 70
     1
102
RTVSPropertyOp31
 70
     1
102
RTVSPropertyOp32
 70
     1
102
RTVSPropertyOp33
 70
     1
102
RTVSPropertyOp34
 70
     1
102
RTVSPropertyOp35
 70
     1
102
RTVSPropertyOp36
 70
     1
102
RTVSPropertyOp37
 70
     1
102
RTVSPropertyOp38
 70
     1
102
RTVSPropertyOp39
 70
     1
102
RTVSPropertyOp40
 70
     1
102
RTVSPropertyOp41
 70
     1
102
RTVSPropertyOp42
 70
     1
102
RTVSPropertyOp43
 70
     1
102
RTVSPropertyOp44
 70
     1
102
RTVSPropertyOp45
 70
     1
102
RTVSPropertyOp46
 70
     1
102
RTVSPropertyOp47
 70
     1
102
RTVSPropertyOp48
 70
     1
102
RTVSPropertyOp49
 70
     1
102
RTVSPropertyOp50
 70
     1
102
RTVSPropertyOp51
 70
     0
102
RTVSPropertyOp52
 70
     0
102
RTVSPropertyOp53
 70
     1
102
RTVSPropertyOp54
 70
     1
102
RTVSPropertyOp55
 70
     1
102
RTVSPropertyOp56
 70
     1
102
RTVSPropertyOp57
 70
     1
102
RTVSPropertyOp58
 70
     1
102
RTVSPropertyOp59
 70
     1
102
RTVSPropertyOp60
 70
     1
102
RTVSPropertyOp61
 70
     1
102
RTVSPropertyOp62
 70
     1
  0
XRECORD
  5
91F
102
{ACAD_REACTORS
330
91E
102
}
330
91E
100
AcDbXrecord
280
     1
102
RTVSPost2010Prop28
280
     0
102
RTVSPost2010PropOp28
 70
     1
102
RTVSPost2010Prop29
280
     1
102
RTVSPost2010PropOp29
 70
     1
102
RTVSPost2010Prop30
280
     1
102
RTVSPost2010PropOp30
 70
     1
102
RTVSPost2010Prop31
280
     0
102
RTVSPost2010PropOp31
 70
     1
102
RTVSPost2010Prop32
280
     0
102
RTVSPost2010PropOp32
 70
     1
102
RTVSPost2010Prop33
280
     0
102
RTVSPost2010PropOp33
 70
     1
102
RTVSPost2010Prop34
280
     0
102
RTVSPost2010PropOp34
 70
     1
102
RTVSPost2010Prop35
280
     0
102
RTVSPost2010PropOp35
 70
     1
102
RTVSPost2010Prop36
280
     0
102
RTVSPost2010PropOp36
 70
     1
102
RTVSPost2010Prop37
 90
       50
102
RTVSPost2010PropOp37
 70
     1
102
RTVSPost2010Prop38
140
0.0
102
RTVSPost2010PropOp38
 70
     1
102
RTVSPost2010Prop39
140
1.0
102
RTVSPost2010PropOp39
 70
     1
102
RTVSPost2010Prop40
 90
        0
102
RTVSPost2010PropOp40
 70
     1
102
RTVSPost2010Prop41ColorIndex
 90
       18
102
RTVSPost2010Prop41ColorRGB
 90
        0
102
RTVSPost2010PropOp41
 70
     1
102
RTVSPost2010Prop42
 90
       50
102
RTVSPost2010PropOp42
 70
     1
102
RTVSPost2010Prop43
 90
        3
102
RTVSPost2010PropOp43
 70
     1
102
RTVSPost2010Prop44ColorIndex
 90
        5
102
RTVSPost2010Prop44ColorRGB
 90
      255
102
RTVSPost2010PropOp44
 70
     1
102
RTVSPost2010Prop45
280
     0
102
RTVSPost2010PropOp45
 70
     1
102
RTVSPost2010Prop46
 90
       50
102
RTVSPost2010PropOp46
 70
     1
102
RTVSPost2010Prop47
 90
       50
102
RTVSPost2010PropOp47
 70
     1
102
RTVSPost2010Prop48
 90
       50
102
RTVSPost2010PropOp48
 70
     1
102
RTVSPost2010Prop49
280
     0
102
RTVSPost2010PropOp49
 70
     1
102
RTVSPost2010Prop50
 90
       50
102
RTVSPost2010PropOp50
 70
     1
102
RTVSPost2010Prop51ColorIndex
 90
      256
102
RTVSPost2010Prop51ColorRGB
 90
-16777216
102
RTVSPost2010PropOp51
 70
     0
102
RTVSPost2010Prop52
140
1.0
102
RTVSPost2010PropOp52
 70
     0
102
RTVSPost2010Prop53
 90
        2
102
RTVSPost2010PropOp53
 70
     1
102
RTVSPost2010Prop54
  1
strokes_ogs.tif
102
RTVSPost2010PropOp54
 70
     1
102
RTVSPost2010Prop55
280
     0
102
RTVSPost2010PropOp55
 70
     1
102
RTVSPost2010Prop56
140
1.0
102
RTVSPost2010PropOp56
 70
     1
102
RTVSPost2010Prop57
140
1.0
102
RTVSPost2010PropOp57
 70
     1
102
RTVSPropertyOp0
 70
     1
102
RTVSPropertyOp1
 70
     1
102
RTVSPropertyOp2
 70
     1
102
RTVSPropertyOp3
 70
     1
102
RTVSPropertyOp4
 70
     1
102
RTVSPropertyOp5
 70
     1
102
RTVSPropertyOp6
 70
     1
102
RTVSPropertyOp7
 70
     1
102
RTVSPropertyOp8
 70
     1
102
RTVSPropertyOp9
 70
     1
102
RTVSPropertyOp10
 70
     1
102
RTVSPropertyOp11
 70
     1
102
RTVSPropertyOp12
 70
     1
102
RTVSPropertyOp13
 70
     1
102
RTVSPropertyOp14
 70
     1
102
RTVSPropertyOp15
 70
     1
102
RTVSPropertyOp16
 70
     1
102
RTVSPropertyOp17
 70
     1
102
RTVSPropertyOp18
 70
     1
102
RTVSPropertyOp19
 70
     1
102
RTVSPropertyOp20
 70
     1
102
RTVSPropertyOp21
 70
     1
102
RTVSPropertyOp22
 70
     1
102
RTVSPropertyOp23
 70
     1
102
RTVSPropertyOp24
 70
     1
102
RTVSPropertyOp25
 70
     1
102
RTVSPropertyOp26
 70
     1
102
RTVSPropertyOp27
 70
     1
102
RTVSPropertyOp28
 70
     1
102
RTVSPropertyOp29
 70
     1
102
RTVSPropertyOp30
 70
     1
102
RTVSPropertyOp31
 70
     1
102
RTVSPropertyOp32
 70
     1
102
RTVSPropertyOp33
 70
     1
102
RTVSPropertyOp34
 70
     1
102
RTVSPropertyOp35
 70
     1
102
RTVSPropertyOp36
 70
     1
102
RTVSPropertyOp37
 70
     1
102
RTVSPropertyOp38
 70
     1
102
RTVSPropertyOp39
 70
     1
102
RTVSPropertyOp40
 70
     1
102
RTVSPropertyOp41
 70
     1
102
RTVSPropertyOp42
 70
     1
102
RTVSPropertyOp43
 70
     1
102
RTVSPropertyOp44
 70
     1
102
RTVSPropertyOp45
 70
     1
102
RTVSPropertyOp46
 70
     1
102
RTVSPropertyOp47
 70
     1
102
RTVSPropertyOp48
 70
     1
102
RTVSPropertyOp49
 70
     1
102
RTVSPropertyOp50
 70
     1
102
RTVSPropertyOp51
 70
     0
102
RTVSPropertyOp52
 70
     0
102
RTVSPropertyOp53
 70
     1
102
RTVSPropertyOp54
 70
     1
102
RTVSPropertyOp55
 70
     1
102
RTVSPropertyOp56
 70
     1
102
RTVSPropertyOp57
 70
     1
102
RTVSPropertyOp58
 70
     1
102
RTVSPropertyOp59
 70
     1
102
RTVSPropertyOp60
 70
     1
102
RTVSPropertyOp61
 70
     1
102
RTVSPropertyOp62
 70
     1
  0
XRECORD
  5
921
102
{ACAD_REACTORS
330
920
102
}
330
920
100
AcDbXrecord
280
     1
102
RTVSPost2010Prop28
280
     0
102
RTVSPost2010PropOp28
 70
     1
102
RTVSPost2010Prop29
280
     1
102
RTVSPost2010PropOp29
 70
     1
102
RTVSPost2010Prop30
280
     1
102
RTVSPost2010PropOp30
 70
     1
102
RTVSPost2010Prop31
280
     0
102
RTVSPost2010PropOp31
 70
     1
102
RTVSPost2010Prop32
280
     0
102
RTVSPost2010PropOp32
 70
     1
102
RTVSPost2010Prop33
280
     0
102
RTVSPost2010PropOp33
 70
     1
102
RTVSPost2010Prop34
280
     0
102
RTVSPost2010PropOp34
 70
     1
102
RTVSPost2010Prop35
280
     0
102
RTVSPost2010PropOp35
 70
     1
102
RTVSPost2010Prop36
280
     0
102
RTVSPost2010PropOp36
 70
     1
102
RTVSPost2010Prop37
 90
       50
102
RTVSPost2010PropOp37
 70
     1
102
RTVSPost2010Prop38
140
0.0
102
RTVSPost2010PropOp38
 70
     1
102
RTVSPost2010Prop39
140
1.0
102
RTVSPost2010PropOp39
 70
     1
102
RTVSPost2010Prop40
 90
        0
102
RTVSPost2010PropOp40
 70
     1
102
RTVSPost2010Prop41ColorIndex
 90
       18
102
RTVSPost2010Prop41ColorRGB
 90
        0
102
RTVSPost2010PropOp41
 70
     1
102
RTVSPost2010Prop42
 90
       50
102
RTVSPost2010PropOp42
 70
     1
102
RTVSPost2010Prop43
 90
        3
102
RTVSPost2010PropOp43
 70
     1
102
RTVSPost2010Prop44ColorIndex
 90
        5
102
RTVSPost2010Prop44ColorRGB
 90
      255
102
RTVSPost2010PropOp44
 70
     1
102
RTVSPost2010Prop45
280
     0
102
RTVSPost2010PropOp45
 70
     1
102
RTVSPost2010Prop46
 90
       50
102
RTVSPost2010PropOp46
 70
     1
102
RTVSPost2010Prop47
 90
       50
102
RTVSPost2010PropOp47
 70
     1
102
RTVSPost2010Prop48
 90
       50
102
RTVSPost2010PropOp48
 70
     1
102
RTVSPost2010Prop49
280
     0
102
RTVSPost2010PropOp49
 70
     1
102
RTVSPost2010Prop50
 90
       50
102
RTVSPost2010PropOp50
 70
     1
102
RTVSPost2010Prop51ColorIndex
 90
      256
102
RTVSPost2010Prop51ColorRGB
 90
-16777216
102
RTVSPost2010PropOp51
 70
     0
102
RTVSPost2010Prop52
140
1.0
102
RTVSPost2010PropOp52
 70
     0
102
RTVSPost2010Prop53
 90
        2
102
RTVSPost2010PropOp53
 70
     1
102
RTVSPost2010Prop54
  1
strokes_ogs.tif
102
RTVSPost2010PropOp54
 70
     1
102
RTVSPost2010Prop55
280
     0
102
RTVSPost2010PropOp55
 70
     1
102
RTVSPost2010Prop56
140
1.0
102
RTVSPost2010PropOp56
 70
     1
102
RTVSPost2010Prop57
140
1.0
102
RTVSPost2010PropOp57
 70
     1
102
RTVSPropertyOp0
 70
     1
102
RTVSPropertyOp1
 70
     1
102
RTVSPropertyOp2
 70
     1
102
RTVSPropertyOp3
 70
     1
102
RTVSPropertyOp4
 70
     1
102
RTVSPropertyOp5
 70
     1
102
RTVSPropertyOp6
 70
     1
102
RTVSPropertyOp7
 70
     1
102
RTVSPropertyOp8
 70
     1
102
RTVSPropertyOp9
 70
     1
102
RTVSPropertyOp10
 70
     1
102
RTVSPropertyOp11
 70
     1
102
RTVSPropertyOp12
 70
     1
102
RTVSPropertyOp13
 70
     1
102
RTVSPropertyOp14
 70
     1
102
RTVSPropertyOp15
 70
     1
102
RTVSPropertyOp16
 70
     1
102
RTVSPropertyOp17
 70
     1
102
RTVSPropertyOp18
 70
     1
102
RTVSPropertyOp19
 70
     1
102
RTVSPropertyOp20
 70
     1
102
RTVSPropertyOp21
 70
     1
102
RTVSPropertyOp22
 70
     1
102
RTVSPropertyOp23
 70
     1
102
RTVSPropertyOp24
 70
     1
102
RTVSPropertyOp25
 70
     1
102
RTVSPropertyOp26
 70
     1
102
RTVSPropertyOp27
 70
     1
102
RTVSPropertyOp28
 70
     1
102
RTVSPropertyOp29
 70
     1
102
RTVSPropertyOp30
 70
     1
102
RTVSPropertyOp31
 70
     1
102
RTVSPropertyOp32
 70
     1
102
RTVSPropertyOp33
 70
     1
102
RTVSPropertyOp34
 70
     1
102
RTVSPropertyOp35
 70
     1
102
RTVSPropertyOp36
 70
     1
102
RTVSPropertyOp37
 70
     1
102
RTVSPropertyOp38
 70
     1
102
RTVSPropertyOp39
 70
     1
102
RTVSPropertyOp40
 70
     1
102
RTVSPropertyOp41
 70
     1
102
RTVSPropertyOp42
 70
     1
102
RTVSPropertyOp43
 70
     1
102
RTVSPropertyOp44
 70
     1
102
RTVSPropertyOp45
 70
     1
102
RTVSPropertyOp46
 70
     1
102
RTVSPropertyOp47
 70
     1
102
RTVSPropertyOp48
 70
     1
102
RTVSPropertyOp49
 70
     1
102
RTVSPropertyOp50
 70
     1
102
RTVSPropertyOp51
 70
     0
102
RTVSPropertyOp52
 70
     0
102
RTVSPropertyOp53
 70
     1
102
RTVSPropertyOp54
 70
     1
102
RTVSPropertyOp55
 70
     1
102
RTVSPropertyOp56
 70
     1
102
RTVSPropertyOp57
 70
     1
102
RTVSPropertyOp58
 70
     1
102
RTVSPropertyOp59
 70
     1
102
RTVSPropertyOp60
 70
     1
102
RTVSPropertyOp61
 70
     1
102
RTVSPropertyOp62
 70
     1
  0
XRECORD
  5
927
102
{ACAD_REACTORS
330
926
102
}
330
926
100
AcDbXrecord
280
     1
102
RTVSPost2010Prop28
280
     0
102
RTVSPost2010PropOp28
 70
     1
102
RTVSPost2010Prop29
280
     1
102
RTVSPost2010PropOp29
 70
     1
102
RTVSPost2010Prop30
280
     1
102
RTVSPost2010PropOp30
 70
     1
102
RTVSPost2010Prop31
280
     0
102
RTVSPost2010PropOp31
 70
     1
102
RTVSPost2010Prop32
280
     0
102
RTVSPost2010PropOp32
 70
     1
102
RTVSPost2010Prop33
280
     0
102
RTVSPost2010PropOp33
 70
     1
102
RTVSPost2010Prop34
280
     0
102
RTVSPost2010PropOp34
 70
     1
102
RTVSPost2010Prop35
280
     0
102
RTVSPost2010PropOp35
 70
     1
102
RTVSPost2010Prop36
280
     0
102
RTVSPost2010PropOp36
 70
     1
102
RTVSPost2010Prop37
 90
       50
102
RTVSPost2010PropOp37
 70
     1
102
RTVSPost2010Prop38
140
0.0
102
RTVSPost2010PropOp38
 70
     1
102
RTVSPost2010Prop39
140
1.0
102
RTVSPost2010PropOp39
 70
     1
102
RTVSPost2010Prop40
 90
        0
102
RTVSPost2010PropOp40
 70
     1
102
RTVSPost2010Prop41ColorIndex
 90
       18
102
RTVSPost2010Prop41ColorRGB
 90
        0
102
RTVSPost2010PropOp41
 70
     1
102
RTVSPost2010Prop42
 90
       50
102
RTVSPost2010PropOp42
 70
     1
102
RTVSPost2010Prop43
 90
        3
102
RTVSPost2010PropOp43
 70
     1
102
RTVSPost2010Prop44ColorIndex
 90
        5
102
RTVSPost2010Prop44ColorRGB
 90
      255
102
RTVSPost2010PropOp44
 70
     1
102
RTVSPost2010Prop45
280
     0
102
RTVSPost2010PropOp45
 70
     1
102
RTVSPost2010Prop46
 90
       50
102
RTVSPost2010PropOp46
 70
     1
102
RTVSPost2010Prop47
 90
       50
102
RTVSPost2010PropOp47
 70
     1
102
RTVSPost2010Prop48
 90
       50
102
RTVSPost2010PropOp48
 70
     1
102
RTVSPost2010Prop49
280
     0
102
RTVSPost2010PropOp49
 70
     1
102
RTVSPost2010Prop50
 90
       50
102
RTVSPost2010PropOp50
 70
     1
102
RTVSPost2010Prop51ColorIndex
 90
      256
102
RTVSPost2010Prop51ColorRGB
 90
-16777216
102
RTVSPost2010PropOp51
 70
     0
102
RTVSPost2010Prop52
140
1.0
102
RTVSPost2010PropOp52
 70
     0
102
RTVSPost2010Prop53
 90
        2
102
RTVSPost2010PropOp53
 70
     1
102
RTVSPost2010Prop54
  1
strokes_ogs.tif
102
RTVSPost2010PropOp54
 70
     1
102
RTVSPost2010Prop55
280
     0
102
RTVSPost2010PropOp55
 70
     1
102
RTVSPost2010Prop56
140
1.0
102
RTVSPost2010PropOp56
 70
     1
102
RTVSPost2010Prop57
140
1.0
102
RTVSPost2010PropOp57
 70
     1
102
RTVSPropertyOp0
 70
     1
102
RTVSPropertyOp1
 70
     1
102
RTVSPropertyOp2
 70
     1
102
RTVSPropertyOp3
 70
     1
102
RTVSPropertyOp4
 70
     1
102
RTVSPropertyOp5
 70
     1
102
RTVSPropertyOp6
 70
     1
102
RTVSPropertyOp7
 70
     1
102
RTVSPropertyOp8
 70
     1
102
RTVSPropertyOp9
 70
     1
102
RTVSPropertyOp10
 70
     1
102
RTVSPropertyOp11
 70
     1
102
RTVSPropertyOp12
 70
     1
102
RTVSPropertyOp13
 70
     1
102
RTVSPropertyOp14
 70
     1
102
RTVSPropertyOp15
 70
     1
102
RTVSPropertyOp16
 70
     1
102
RTVSPropertyOp17
 70
     1
102
RTVSPropertyOp18
 70
     1
102
RTVSPropertyOp19
 70
     1
102
RTVSPropertyOp20
 70
     1
102
RTVSPropertyOp21
 70
     1
102
RTVSPropertyOp22
 70
     1
102
RTVSPropertyOp23
 70
     1
102
RTVSPropertyOp24
 70
     1
102
RTVSPropertyOp25
 70
     1
102
RTVSPropertyOp26
 70
     1
102
RTVSPropertyOp27
 70
     1
102
RTVSPropertyOp28
 70
     1
102
RTVSPropertyOp29
 70
     1
102
RTVSPropertyOp30
 70
     1
102
RTVSPropertyOp31
 70
     1
102
RTVSPropertyOp32
 70
     1
102
RTVSPropertyOp33
 70
     1
102
RTVSPropertyOp34
 70
     1
102
RTVSPropertyOp35
 70
     1
102
RTVSPropertyOp36
 70
     1
102
RTVSPropertyOp37
 70
     1
102
RTVSPropertyOp38
 70
     1
102
RTVSPropertyOp39
 70
     1
102
RTVSPropertyOp40
 70
     1
102
RTVSPropertyOp41
 70
     1
102
RTVSPropertyOp42
 70
     1
102
RTVSPropertyOp43
 70
     1
102
RTVSPropertyOp44
 70
     1
102
RTVSPropertyOp45
 70
     1
102
RTVSPropertyOp46
 70
     1
102
RTVSPropertyOp47
 70
     1
102
RTVSPropertyOp48
 70
     1
102
RTVSPropertyOp49
 70
     1
102
RTVSPropertyOp50
 70
     1
102
RTVSPropertyOp51
 70
     0
102
RTVSPropertyOp52
 70
     0
102
RTVSPropertyOp53
 70
     1
102
RTVSPropertyOp54
 70
     1
102
RTVSPropertyOp55
 70
     1
102
RTVSPropertyOp56
 70
     1
102
RTVSPropertyOp57
 70
     1
102
RTVSPropertyOp58
 70
     1
102
RTVSPropertyOp59
 70
     1
102
RTVSPropertyOp60
 70
     1
102
RTVSPropertyOp61
 70
     1
102
RTVSPropertyOp62
 70
     1
  0
XRECORD
  5
93B
102
{ACAD_REACTORS
330
93A
102
}
330
93A
100
AcDbXrecord
280
     1
102
RTVSPost2010Prop28
280
     0
102
RTVSPost2010PropOp28
 70
     0
102
RTVSPost2010Prop29
280
     1
102
RTVSPost2010PropOp29
 70
     0
102
RTVSPost2010Prop30
280
     1
102
RTVSPost2010PropOp30
 70
     0
102
RTVSPost2010Prop31
280
     0
102
RTVSPost2010PropOp31
 70
     0
102
RTVSPost2010Prop32
280
     0
102
RTVSPost2010PropOp32
 70
     0
102
RTVSPost2010Prop33
280
     0
102
RTVSPost2010PropOp33
 70
     0
102
RTVSPost2010Prop34
280
     0
102
RTVSPost2010PropOp34
 70
     0
102
RTVSPost2010Prop35
280
     0
102
RTVSPost2010PropOp35
 70
     0
102
RTVSPost2010Prop36
280
     0
102
RTVSPost2010PropOp36
 70
     0
102
RTVSPost2010Prop37
 90
       50
102
RTVSPost2010PropOp37
 70
     0
102
RTVSPost2010Prop38
140
0.0
102
RTVSPost2010PropOp38
 70
     0
102
RTVSPost2010Prop39
140
1.0
102
RTVSPost2010PropOp39
 70
     0
102
RTVSPost2010Prop40
 90
        0
102
RTVSPost2010PropOp40
 70
     0
102
RTVSPost2010Prop41ColorIndex
 90
       18
102
RTVSPost2010Prop41ColorRGB
 90
        0
102
RTVSPost2010PropOp41
 70
     0
102
RTVSPost2010Prop42
 90
       50
102
RTVSPost2010PropOp42
 70
     0
102
RTVSPost2010Prop43
 90
        3
102
RTVSPost2010PropOp43
 70
     0
102
RTVSPost2010Prop44ColorIndex
 90
        5
102
RTVSPost2010Prop44ColorRGB
 90
      255
102
RTVSPost2010PropOp44
 70
     0
102
RTVSPost2010Prop45
280
     0
102
RTVSPost2010PropOp45
 70
     0
102
RTVSPost2010Prop46
 90
       50
102
RTVSPost2010PropOp46
 70
     0
102
RTVSPost2010Prop47
 90
       50
102
RTVSPost2010PropOp47
 70
     0
102
RTVSPost2010Prop48
 90
       50
102
RTVSPost2010PropOp48
 70
     0
102
RTVSPost2010Prop49
280
     0
102
RTVSPost2010PropOp49
 70
     0
102
RTVSPost2010Prop50
 90
       50
102
RTVSPost2010PropOp50
 70
     0
102
RTVSPost2010Prop51ColorIndex
 90
      256
102
RTVSPost2010Prop51ColorRGB
 90
-16777216
102
RTVSPost2010PropOp51
 70
     0
102
RTVSPost2010Prop52
140
1.0
102
RTVSPost2010PropOp52
 70
     0
102
RTVSPost2010Prop53
 90
        2
102
RTVSPost2010PropOp53
 70
     0
102
RTVSPost2010Prop54
  1
strokes_ogs.tif
102
RTVSPost2010PropOp54
 70
     0
102
RTVSPost2010Prop55
280
     0
102
RTVSPost2010PropOp55
 70
     0
102
RTVSPost2010Prop56
140
1.0
102
RTVSPost2010PropOp56
 70
     0
102
RTVSPost2010Prop57
140
1.0
102
RTVSPost2010PropOp57
 70
     0
102
RTVSPropertyOp0
 70
     0
102
RTVSPropertyOp1
 70
     0
102
RTVSPropertyOp2
 70
     0
102
RTVSPropertyOp3
 70
     0
102
RTVSPropertyOp4
 70
     0
102
RTVSPropertyOp5
 70
     0
102
RTVSPropertyOp6
 70
     0
102
RTVSPropertyOp7
 70
     0
102
RTVSPropertyOp8
 70
     0
102
RTVSPropertyOp9
 70
     0
102
RTVSPropertyOp10
 70
     0
102
RTVSPropertyOp11
 70
     0
102
RTVSPropertyOp12
 70
     0
102
RTVSPropertyOp13
 70
     0
102
RTVSPropertyOp14
 70
     2
102
RTVSPropertyOp15
 70
     0
102
RTVSPropertyOp16
 70
     0
102
RTVSPropertyOp17
 70
     0
102
RTVSPropertyOp18
 70
     0
102
RTVSPropertyOp19
 70
     0
102
RTVSPropertyOp20
 70
     0
102
RTVSPropertyOp21
 70
     0
102
RTVSPropertyOp22
 70
     0
102
RTVSPropertyOp23
 70
     0
102
RTVSPropertyOp24
 70
     0
102
RTVSPropertyOp25
 70
     0
102
RTVSPropertyOp26
 70
     0
102
RTVSPropertyOp27
 70
     0
102
RTVSPropertyOp28
 70
     0
102
RTVSPropertyOp29
 70
     0
102
RTVSPropertyOp30
 70
     0
102
RTVSPropertyOp31
 70
     0
102
RTVSPropertyOp32
 70
     0
102
RTVSPropertyOp33
 70
     0
102
RTVSPropertyOp34
 70
     0
102
RTVSPropertyOp35
 70
     0
102
RTVSPropertyOp36
 70
     0
102
RTVSPropertyOp37
 70
     0
102
RTVSPropertyOp38
 70
     0
102
RTVSPropertyOp39
 70
     0
102
RTVSPropertyOp40
 70
     0
102
RTVSPropertyOp41
 70
     0
102
RTVSPropertyOp42
 70
     0
102
RTVSPropertyOp43
 70
     0
102
RTVSPropertyOp44
 70
     0
102
RTVSPropertyOp45
 70
     0
102
RTVSPropertyOp46
 70
     0
102
RTVSPropertyOp47
 70
     0
102
RTVSPropertyOp48
 70
     0
102
RTVSPropertyOp49
 70
     0
102
RTVSPropertyOp50
 70
     0
102
RTVSPropertyOp51
 70
     0
102
RTVSPropertyOp52
 70
     0
102
RTVSPropertyOp53
 70
     0
102
RTVSPropertyOp54
 70
     0
102
RTVSPropertyOp55
 70
     0
102
RTVSPropertyOp56
 70
     0
102
RTVSPropertyOp57
 70
     0
102
RTVSPropertyOp58
 70
     1
102
RTVSPropertyOp59
 70
     1
102
RTVSPropertyOp60
 70
     1
102
RTVSPropertyOp61
 70
     1
102
RTVSPropertyOp62
 70
     1
  0
XRECORD
  5
935
102
{ACAD_REACTORS
330
934
102
}
330
934
100
AcDbXrecord
280
     1
102
RTVSPost2010Prop28
280
     0
102
RTVSPost2010PropOp28
 70
     1
102
RTVSPost2010Prop29
280
     1
102
RTVSPost2010PropOp29
 70
     1
102
RTVSPost2010Prop30
280
     1
102
RTVSPost2010PropOp30
 70
     1
102
RTVSPost2010Prop31
280
     0
102
RTVSPost2010PropOp31
 70
     1
102
RTVSPost2010Prop32
280
     0
102
RTVSPost2010PropOp32
 70
     1
102
RTVSPost2010Prop33
280
     0
102
RTVSPost2010PropOp33
 70
     1
102
RTVSPost2010Prop34
280
     0
102
RTVSPost2010PropOp34
 70
     1
102
RTVSPost2010Prop35
280
     0
102
RTVSPost2010PropOp35
 70
     1
102
RTVSPost2010Prop36
280
     0
102
RTVSPost2010PropOp36
 70
     1
102
RTVSPost2010Prop37
 90
       50
102
RTVSPost2010PropOp37
 70
     1
102
RTVSPost2010Prop38
140
0.0
102
RTVSPost2010PropOp38
 70
     1
102
RTVSPost2010Prop39
140
1.0
102
RTVSPost2010PropOp39
 70
     1
102
RTVSPost2010Prop40
 90
        0
102
RTVSPost2010PropOp40
 70
     1
102
RTVSPost2010Prop41ColorIndex
 90
       18
102
RTVSPost2010Prop41ColorRGB
 90
        0
102
RTVSPost2010PropOp41
 70
     1
102
RTVSPost2010Prop42
 90
       50
102
RTVSPost2010PropOp42
 70
     1
102
RTVSPost2010Prop43
 90
        3
102
RTVSPost2010PropOp43
 70
     1
102
RTVSPost2010Prop44ColorIndex
 90
        5
102
RTVSPost2010Prop44ColorRGB
 90
      255
102
RTVSPost2010PropOp44
 70
     1
102
RTVSPost2010Prop45
280
     0
102
RTVSPost2010PropOp45
 70
     1
102
RTVSPost2010Prop46
 90
       50
102
RTVSPost2010PropOp46
 70
     1
102
RTVSPost2010Prop47
 90
       50
102
RTVSPost2010PropOp47
 70
     1
102
RTVSPost2010Prop48
 90
       50
102
RTVSPost2010PropOp48
 70
     1
102
RTVSPost2010Prop49
280
     0
102
RTVSPost2010PropOp49
 70
     1
102
RTVSPost2010Prop50
 90
       50
102
RTVSPost2010PropOp50
 70
     1
102
RTVSPost2010Prop51ColorIndex
 90
      256
102
RTVSPost2010Prop51ColorRGB
 90
-16777216
102
RTVSPost2010PropOp51
 70
     0
102
RTVSPost2010Prop52
140
1.0
102
RTVSPost2010PropOp52
 70
     0
102
RTVSPost2010Prop53
 90
        2
102
RTVSPost2010PropOp53
 70
     1
102
RTVSPost2010Prop54
  1
strokes_ogs.tif
102
RTVSPost2010PropOp54
 70
     1
102
RTVSPost2010Prop55
280
     0
102
RTVSPost2010PropOp55
 70
     1
102
RTVSPost2010Prop56
140
1.0
102
RTVSPost2010PropOp56
 70
     1
102
RTVSPost2010Prop57
140
1.0
102
RTVSPost2010PropOp57
 70
     1
102
RTVSPropertyOp0
 70
     1
102
RTVSPropertyOp1
 70
     1
102
RTVSPropertyOp2
 70
     1
102
RTVSPropertyOp3
 70
     1
102
RTVSPropertyOp4
 70
     1
102
RTVSPropertyOp5
 70
     1
102
RTVSPropertyOp6
 70
     1
102
RTVSPropertyOp7
 70
     1
102
RTVSPropertyOp8
 70
     1
102
RTVSPropertyOp9
 70
     1
102
RTVSPropertyOp10
 70
     1
102
RTVSPropertyOp11
 70
     1
102
RTVSPropertyOp12
 70
     1
102
RTVSPropertyOp13
 70
     1
102
RTVSPropertyOp14
 70
     1
102
RTVSPropertyOp15
 70
     1
102
RTVSPropertyOp16
 70
     1
102
RTVSPropertyOp17
 70
     1
102
RTVSPropertyOp18
 70
     1
102
RTVSPropertyOp19
 70
     1
102
RTVSPropertyOp20
 70
     1
102
RTVSPropertyOp21
 70
     1
102
RTVSPropertyOp22
 70
     1
102
RTVSPropertyOp23
 70
     1
102
RTVSPropertyOp24
 70
     1
102
RTVSPropertyOp25
 70
     1
102
RTVSPropertyOp26
 70
     1
102
RTVSPropertyOp27
 70
     1
102
RTVSPropertyOp28
 70
     1
102
RTVSPropertyOp29
 70
     1
102
RTVSPropertyOp30
 70
     1
102
RTVSPropertyOp31
 70
     1
102
RTVSPropertyOp32
 70
     1
102
RTVSPropertyOp33
 70
     1
102
RTVSPropertyOp34
 70
     1
102
RTVSPropertyOp35
 70
     1
102
RTVSPropertyOp36
 70
     1
102
RTVSPropertyOp37
 70
     1
102
RTVSPropertyOp38
 70
     1
102
RTVSPropertyOp39
 70
     1
102
RTVSPropertyOp40
 70
     1
102
RTVSPropertyOp41
 70
     1
102
RTVSPropertyOp42
 70
     1
102
RTVSPropertyOp43
 70
     1
102
RTVSPropertyOp44
 70
     1
102
RTVSPropertyOp45
 70
     1
102
RTVSPropertyOp46
 70
     1
102
RTVSPropertyOp47
 70
     1
102
RTVSPropertyOp48
 70
     1
102
RTVSPropertyOp49
 70
     1
102
RTVSPropertyOp50
 70
     1
102
RTVSPropertyOp51
 70
     0
102
RTVSPropertyOp52
 70
     0
102
RTVSPropertyOp53
 70
     1
102
RTVSPropertyOp54
 70
     1
102
RTVSPropertyOp55
 70
     1
102
RTVSPropertyOp56
 70
     1
102
RTVSPropertyOp57
 70
     1
102
RTVSPropertyOp58
 70
     1
102
RTVSPropertyOp59
 70
     1
102
RTVSPropertyOp60
 70
     1
102
RTVSPropertyOp61
 70
     1
102
RTVSPropertyOp62
 70
     1
  0
XRECORD
  5
93D
102
{ACAD_REACTORS
330
93C
102
}
330
93C
100
AcDbXrecord
280
     1
102
RTVSPost2010Prop28
280
     0
102
RTVSPost2010PropOp28
 70
     0
102
RTVSPost2010Prop29
280
     1
102
RTVSPost2010PropOp29
 70
     0
102
RTVSPost2010Prop30
280
     1
102
RTVSPost2010PropOp30
 70
     0
102
RTVSPost2010Prop31
280
     0
102
RTVSPost2010PropOp31
 70
     0
102
RTVSPost2010Prop32
280
     0
102
RTVSPost2010PropOp32
 70
     0
102
RTVSPost2010Prop33
280
     0
102
RTVSPost2010PropOp33
 70
     0
102
RTVSPost2010Prop34
280
     0
102
RTVSPost2010PropOp34
 70
     0
102
RTVSPost2010Prop35
280
     0
102
RTVSPost2010PropOp35
 70
     0
102
RTVSPost2010Prop36
280
     0
102
RTVSPost2010PropOp36
 70
     0
102
RTVSPost2010Prop37
 90
       50
102
RTVSPost2010PropOp37
 70
     0
102
RTVSPost2010Prop38
140
0.0
102
RTVSPost2010PropOp38
 70
     0
102
RTVSPost2010Prop39
140
1.0
102
RTVSPost2010PropOp39
 70
     0
102
RTVSPost2010Prop40
 90
        0
102
RTVSPost2010PropOp40
 70
     0
102
RTVSPost2010Prop41ColorIndex
 90
       18
102
RTVSPost2010Prop41ColorRGB
 90
        0
102
RTVSPost2010PropOp41
 70
     0
102
RTVSPost2010Prop42
 90
       50
102
RTVSPost2010PropOp42
 70
     0
102
RTVSPost2010Prop43
 90
        3
102
RTVSPost2010PropOp43
 70
     0
102
RTVSPost2010Prop44ColorIndex
 90
        5
102
RTVSPost2010Prop44ColorRGB
 90
      255
102
RTVSPost2010PropOp44
 70
     0
102
RTVSPost2010Prop45
280
     0
102
RTVSPost2010PropOp45
 70
     0
102
RTVSPost2010Prop46
 90
       50
102
RTVSPost2010PropOp46
 70
     0
102
RTVSPost2010Prop47
 90
       50
102
RTVSPost2010PropOp47
 70
     0
102
RTVSPost2010Prop48
 90
       50
102
RTVSPost2010PropOp48
 70
     0
102
RTVSPost2010Prop49
280
     0
102
RTVSPost2010PropOp49
 70
     0
102
RTVSPost2010Prop50
 90
       50
102
RTVSPost2010PropOp50
 70
     0
102
RTVSPost2010Prop51ColorIndex
 90
      256
102
RTVSPost2010Prop51ColorRGB
 90
-16777216
102
RTVSPost2010PropOp51
 70
     0
102
RTVSPost2010Prop52
140
1.0
102
RTVSPost2010PropOp52
 70
     0
102
RTVSPost2010Prop53
 90
        2
102
RTVSPost2010PropOp53
 70
     0
102
RTVSPost2010Prop54
  1
strokes_ogs.tif
102
RTVSPost2010PropOp54
 70
     0
102
RTVSPost2010Prop55
280
     0
102
RTVSPost2010PropOp55
 70
     0
102
RTVSPost2010Prop56
140
1.0
102
RTVSPost2010PropOp56
 70
     0
102
RTVSPost2010Prop57
140
1.0
102
RTVSPost2010PropOp57
 70
     0
102
RTVSPropertyOp0
 70
     0
102
RTVSPropertyOp1
 70
     0
102
RTVSPropertyOp2
 70
     0
102
RTVSPropertyOp3
 70
     0
102
RTVSPropertyOp4
 70
     0
102
RTVSPropertyOp5
 70
     0
102
RTVSPropertyOp6
 70
     0
102
RTVSPropertyOp7
 70
     0
102
RTVSPropertyOp8
 70
     0
102
RTVSPropertyOp9
 70
     0
102
RTVSPropertyOp10
 70
     0
102
RTVSPropertyOp11
 70
     0
102
RTVSPropertyOp12
 70
     0
102
RTVSPropertyOp13
 70
     0
102
RTVSPropertyOp14
 70
     2
102
RTVSPropertyOp15
 70
     0
102
RTVSPropertyOp16
 70
     0
102
RTVSPropertyOp17
 70
     0
102
RTVSPropertyOp18
 70
     0
102
RTVSPropertyOp19
 70
     0
102
RTVSPropertyOp20
 70
     0
102
RTVSPropertyOp21
 70
     0
102
RTVSPropertyOp22
 70
     0
102
RTVSPropertyOp23
 70
     0
102
RTVSPropertyOp24
 70
     0
102
RTVSPropertyOp25
 70
     0
102
RTVSPropertyOp26
 70
     0
102
RTVSPropertyOp27
 70
     0
102
RTVSPropertyOp28
 70
     0
102
RTVSPropertyOp29
 70
     0
102
RTVSPropertyOp30
 70
     0
102
RTVSPropertyOp31
 70
     0
102
RTVSPropertyOp32
 70
     0
102
RTVSPropertyOp33
 70
     0
102
RTVSPropertyOp34
 70
     0
102
RTVSPropertyOp35
 70
     0
102
RTVSPropertyOp36
 70
     0
102
RTVSPropertyOp37
 70
     0
102
RTVSPropertyOp38
 70
     0
102
RTVSPropertyOp39
 70
     0
102
RTVSPropertyOp40
 70
     0
102
RTVSPropertyOp41
 70
     0
102
RTVSPropertyOp42
 70
     0
102
RTVSPropertyOp43
 70
     0
102
RTVSPropertyOp44
 70
     0
102
RTVSPropertyOp45
 70
     0
102
RTVSPropertyOp46
 70
     0
102
RTVSPropertyOp47
 70
     0
102
RTVSPropertyOp48
 70
     0
102
RTVSPropertyOp49
 70
     0
102
RTVSPropertyOp50
 70
     0
102
RTVSPropertyOp51
 70
     0
102
RTVSPropertyOp52
 70
     0
102
RTVSPropertyOp53
 70
     0
102
RTVSPropertyOp54
 70
     0
102
RTVSPropertyOp55
 70
     0
102
RTVSPropertyOp56
 70
     0
102
RTVSPropertyOp57
 70
     0
102
RTVSPropertyOp58
 70
     1
102
RTVSPropertyOp59
 70
     1
102
RTVSPropertyOp60
 70
     1
102
RTVSPropertyOp61
 70
     1
102
RTVSPropertyOp62
 70
     1
  0
XRECORD
  5
92B
102
{ACAD_REACTORS
330
92A
102
}
330
92A
100
AcDbXrecord
280
     1
102
RTVSPost2010Prop28
280
     0
102
RTVSPost2010PropOp28
 70
     1
102
RTVSPost2010Prop29
280
     1
102
RTVSPost2010PropOp29
 70
     1
102
RTVSPost2010Prop30
280
     1
102
RTVSPost2010PropOp30
 70
     1
102
RTVSPost2010Prop31
280
     0
102
RTVSPost2010PropOp31
 70
     1
102
RTVSPost2010Prop32
280
     0
102
RTVSPost2010PropOp32
 70
     1
102
RTVSPost2010Prop33
280
     0
102
RTVSPost2010PropOp33
 70
     1
102
RTVSPost2010Prop34
280
     0
102
RTVSPost2010PropOp34
 70
     1
102
RTVSPost2010Prop35
280
     0
102
RTVSPost2010PropOp35
 70
     1
102
RTVSPost2010Prop36
280
     0
102
RTVSPost2010PropOp36
 70
     1
102
RTVSPost2010Prop37
 90
       50
102
RTVSPost2010PropOp37
 70
     1
102
RTVSPost2010Prop38
140
0.0
102
RTVSPost2010PropOp38
 70
     1
102
RTVSPost2010Prop39
140
1.0
102
RTVSPost2010PropOp39
 70
     1
102
RTVSPost2010Prop40
 90
        0
102
RTVSPost2010PropOp40
 70
     1
102
RTVSPost2010Prop41ColorIndex
 90
       18
102
RTVSPost2010Prop41ColorRGB
 90
        0
102
RTVSPost2010PropOp41
 70
     1
102
RTVSPost2010Prop42
 90
       50
102
RTVSPost2010PropOp42
 70
     1
102
RTVSPost2010Prop43
 90
        3
102
RTVSPost2010PropOp43
 70
     1
102
RTVSPost2010Prop44ColorIndex
 90
        5
102
RTVSPost2010Prop44ColorRGB
 90
      255
102
RTVSPost2010PropOp44
 70
     1
102
RTVSPost2010Prop45
280
     0
102
RTVSPost2010PropOp45
 70
     1
102
RTVSPost2010Prop46
 90
       50
102
RTVSPost2010PropOp46
 70
     1
102
RTVSPost2010Prop47
 90
       50
102
RTVSPost2010PropOp47
 70
     1
102
RTVSPost2010Prop48
 90
       50
102
RTVSPost2010PropOp48
 70
     1
102
RTVSPost2010Prop49
280
     0
102
RTVSPost2010PropOp49
 70
     1
102
RTVSPost2010Prop50
 90
       50
102
RTVSPost2010PropOp50
 70
     1
102
RTVSPost2010Prop51ColorIndex
 90
      256
102
RTVSPost2010Prop51ColorRGB
 90
-16777216
102
RTVSPost2010PropOp51
 70
     0
102
RTVSPost2010Prop52
140
1.0
102
RTVSPost2010PropOp52
 70
     0
102
RTVSPost2010Prop53
 90
        2
102
RTVSPost2010PropOp53
 70
     1
102
RTVSPost2010Prop54
  1
strokes_ogs.tif
102
RTVSPost2010PropOp54
 70
     1
102
RTVSPost2010Prop55
280
     0
102
RTVSPost2010PropOp55
 70
     1
102
RTVSPost2010Prop56
140
1.0
102
RTVSPost2010PropOp56
 70
     1
102
RTVSPost2010Prop57
140
1.0
102
RTVSPost2010PropOp57
 70
     1
102
RTVSPropertyOp0
 70
     1
102
RTVSPropertyOp1
 70
     1
102
RTVSPropertyOp2
 70
     1
102
RTVSPropertyOp3
 70
     1
102
RTVSPropertyOp4
 70
     1
102
RTVSPropertyOp5
 70
     1
102
RTVSPropertyOp6
 70
     1
102
RTVSPropertyOp7
 70
     1
102
RTVSPropertyOp8
 70
     1
102
RTVSPropertyOp9
 70
     1
102
RTVSPropertyOp10
 70
     1
102
RTVSPropertyOp11
 70
     1
102
RTVSPropertyOp12
 70
     1
102
RTVSPropertyOp13
 70
     1
102
RTVSPropertyOp14
 70
     1
102
RTVSPropertyOp15
 70
     1
102
RTVSPropertyOp16
 70
     1
102
RTVSPropertyOp17
 70
     1
102
RTVSPropertyOp18
 70
     1
102
RTVSPropertyOp19
 70
     1
102
RTVSPropertyOp20
 70
     1
102
RTVSPropertyOp21
 70
     1
102
RTVSPropertyOp22
 70
     1
102
RTVSPropertyOp23
 70
     1
102
RTVSPropertyOp24
 70
     1
102
RTVSPropertyOp25
 70
     1
102
RTVSPropertyOp26
 70
     1
102
RTVSPropertyOp27
 70
     1
102
RTVSPropertyOp28
 70
     1
102
RTVSPropertyOp29
 70
     1
102
RTVSPropertyOp30
 70
     1
102
RTVSPropertyOp31
 70
     1
102
RTVSPropertyOp32
 70
     1
102
RTVSPropertyOp33
 70
     1
102
RTVSPropertyOp34
 70
     1
102
RTVSPropertyOp35
 70
     1
102
RTVSPropertyOp36
 70
     1
102
RTVSPropertyOp37
 70
     1
102
RTVSPropertyOp38
 70
     1
102
RTVSPropertyOp39
 70
     1
102
RTVSPropertyOp40
 70
     1
102
RTVSPropertyOp41
 70
     1
102
RTVSPropertyOp42
 70
     1
102
RTVSPropertyOp43
 70
     1
102
RTVSPropertyOp44
 70
     1
102
RTVSPropertyOp45
 70
     1
102
RTVSPropertyOp46
 70
     1
102
RTVSPropertyOp47
 70
     1
102
RTVSPropertyOp48
 70
     1
102
RTVSPropertyOp49
 70
     1
102
RTVSPropertyOp50
 70
     1
102
RTVSPropertyOp51
 70
     0
102
RTVSPropertyOp52
 70
     0
102
RTVSPropertyOp53
 70
     1
102
RTVSPropertyOp54
 70
     1
102
RTVSPropertyOp55
 70
     1
102
RTVSPropertyOp56
 70
     1
102
RTVSPropertyOp57
 70
     1
102
RTVSPropertyOp58
 70
     1
102
RTVSPropertyOp59
 70
     1
102
RTVSPropertyOp60
 70
     1
102
RTVSPropertyOp61
 70
     1
102
RTVSPropertyOp62
 70
     1
  0
XRECORD
  5
949
102
{ACAD_REACTORS
330
948
102
}
330
948
100
AcDbXrecord
280
     1
102
RTVSPost2010Prop28
280
     0
102
RTVSPost2010PropOp28
 70
     1
102
RTVSPost2010Prop29
280
     1
102
RTVSPost2010PropOp29
 70
     1
102
RTVSPost2010Prop30
280
     1
102
RTVSPost2010PropOp30
 70
     1
102
RTVSPost2010Prop31
280
     0
102
RTVSPost2010PropOp31
 70
     1
102
RTVSPost2010Prop32
280
     0
102
RTVSPost2010PropOp32
 70
     1
102
RTVSPost2010Prop33
280
     0
102
RTVSPost2010PropOp33
 70
     1
102
RTVSPost2010Prop34
280
     0
102
RTVSPost2010PropOp34
 70
     1
102
RTVSPost2010Prop35
280
     0
102
RTVSPost2010PropOp35
 70
     1
102
RTVSPost2010Prop36
280
     0
102
RTVSPost2010PropOp36
 70
     1
102
RTVSPost2010Prop37
 90
       50
102
RTVSPost2010PropOp37
 70
     1
102
RTVSPost2010Prop38
140
0.0
102
RTVSPost2010PropOp38
 70
     1
102
RTVSPost2010Prop39
140
1.0
102
RTVSPost2010PropOp39
 70
     1
102
RTVSPost2010Prop40
 90
        0
102
RTVSPost2010PropOp40
 70
     1
102
RTVSPost2010Prop41ColorIndex
 90
       18
102
RTVSPost2010Prop41ColorRGB
 90
        0
102
RTVSPost2010PropOp41
 70
     1
102
RTVSPost2010Prop42
 90
       50
102
RTVSPost2010PropOp42
 70
     1
102
RTVSPost2010Prop43
 90
        3
102
RTVSPost2010PropOp43
 70
     1
102
RTVSPost2010Prop44ColorIndex
 90
        5
102
RTVSPost2010Prop44ColorRGB
 90
      255
102
RTVSPost2010PropOp44
 70
     1
102
RTVSPost2010Prop45
280
     0
102
RTVSPost2010PropOp45
 70
     1
102
RTVSPost2010Prop46
 90
       50
102
RTVSPost2010PropOp46
 70
     1
102
RTVSPost2010Prop47
 90
       50
102
RTVSPost2010PropOp47
 70
     1
102
RTVSPost2010Prop48
 90
       50
102
RTVSPost2010PropOp48
 70
     1
102
RTVSPost2010Prop49
280
     0
102
RTVSPost2010PropOp49
 70
     1
102
RTVSPost2010Prop50
 90
       50
102
RTVSPost2010PropOp50
 70
     1
102
RTVSPost2010Prop51ColorIndex
 90
      256
102
RTVSPost2010Prop51ColorRGB
 90
-16777216
102
RTVSPost2010PropOp51
 70
     0
102
RTVSPost2010Prop52
140
1.0
102
RTVSPost2010PropOp52
 70
     0
102
RTVSPost2010Prop53
 90
        2
102
RTVSPost2010PropOp53
 70
     1
102
RTVSPost2010Prop54
  1
strokes_ogs.tif
102
RTVSPost2010PropOp54
 70
     1
102
RTVSPost2010Prop55
280
     0
102
RTVSPost2010PropOp55
 70
     1
102
RTVSPost2010Prop56
140
1.0
102
RTVSPost2010PropOp56
 70
     1
102
RTVSPost2010Prop57
140
1.0
102
RTVSPost2010PropOp57
 70
     1
102
RTVSPropertyOp0
 70
     1
102
RTVSPropertyOp1
 70
     1
102
RTVSPropertyOp2
 70
     1
102
RTVSPropertyOp3
 70
     1
102
RTVSPropertyOp4
 70
     1
102
RTVSPropertyOp5
 70
     1
102
RTVSPropertyOp6
 70
     1
102
RTVSPropertyOp7
 70
     1
102
RTVSPropertyOp8
 70
     1
102
RTVSPropertyOp9
 70
     1
102
RTVSPropertyOp10
 70
     1
102
RTVSPropertyOp11
 70
     1
102
RTVSPropertyOp12
 70
     1
102
RTVSPropertyOp13
 70
     1
102
RTVSPropertyOp14
 70
     1
102
RTVSPropertyOp15
 70
     1
102
RTVSPropertyOp16
 70
     1
102
RTVSPropertyOp17
 70
     1
102
RTVSPropertyOp18
 70
     1
102
RTVSPropertyOp19
 70
     1
102
RTVSPropertyOp20
 70
     1
102
RTVSPropertyOp21
 70
     1
102
RTVSPropertyOp22
 70
     1
102
RTVSPropertyOp23
 70
     1
102
RTVSPropertyOp24
 70
     1
102
RTVSPropertyOp25
 70
     1
102
RTVSPropertyOp26
 70
     1
102
RTVSPropertyOp27
 70
     1
102
RTVSPropertyOp28
 70
     1
102
RTVSPropertyOp29
 70
     1
102
RTVSPropertyOp30
 70
     1
102
RTVSPropertyOp31
 70
     1
102
RTVSPropertyOp32
 70
     1
102
RTVSPropertyOp33
 70
     1
102
RTVSPropertyOp34
 70
     1
102
RTVSPropertyOp35
 70
     1
102
RTVSPropertyOp36
 70
     1
102
RTVSPropertyOp37
 70
     1
102
RTVSPropertyOp38
 70
     1
102
RTVSPropertyOp39
 70
     1
102
RTVSPropertyOp40
 70
     1
102
RTVSPropertyOp41
 70
     1
102
RTVSPropertyOp42
 70
     1
102
RTVSPropertyOp43
 70
     1
102
RTVSPropertyOp44
 70
     1
102
RTVSPropertyOp45
 70
     1
102
RTVSPropertyOp46
 70
     1
102
RTVSPropertyOp47
 70
     1
102
RTVSPropertyOp48
 70
     1
102
RTVSPropertyOp49
 70
     1
102
RTVSPropertyOp50
 70
     1
102
RTVSPropertyOp51
 70
     0
102
RTVSPropertyOp52
 70
     0
102
RTVSPropertyOp53
 70
     1
102
RTVSPropertyOp54
 70
     1
102
RTVSPropertyOp55
 70
     1
102
RTVSPropertyOp56
 70
     1
102
RTVSPropertyOp57
 70
     1
102
RTVSPropertyOp58
 70
     1
102
RTVSPropertyOp59
 70
     1
102
RTVSPropertyOp60
 70
     1
102
RTVSPropertyOp61
 70
     1
102
RTVSPropertyOp62
 70
     1
  0
XRECORD
  5
947
102
{ACAD_REACTORS
330
946
102
}
330
946
100
AcDbXrecord
280
     1
102
RTVSPost2010Prop28
280
     0
102
RTVSPost2010PropOp28
 70
     1
102
RTVSPost2010Prop29
280
     1
102
RTVSPost2010PropOp29
 70
     1
102
RTVSPost2010Prop30
280
     1
102
RTVSPost2010PropOp30
 70
     1
102
RTVSPost2010Prop31
280
     0
102
RTVSPost2010PropOp31
 70
     1
102
RTVSPost2010Prop32
280
     0
102
RTVSPost2010PropOp32
 70
     1
102
RTVSPost2010Prop33
280
     0
102
RTVSPost2010PropOp33
 70
     1
102
RTVSPost2010Prop34
280
     0
102
RTVSPost2010PropOp34
 70
     1
102
RTVSPost2010Prop35
280
     0
102
RTVSPost2010PropOp35
 70
     1
102
RTVSPost2010Prop36
280
     0
102
RTVSPost2010PropOp36
 70
     1
102
RTVSPost2010Prop37
 90
       50
102
RTVSPost2010PropOp37
 70
     1
102
RTVSPost2010Prop38
140
0.0
102
RTVSPost2010PropOp38
 70
     1
102
RTVSPost2010Prop39
140
1.0
102
RTVSPost2010PropOp39
 70
     1
102
RTVSPost2010Prop40
 90
        0
102
RTVSPost2010PropOp40
 70
     1
102
RTVSPost2010Prop41ColorIndex
 90
       18
102
RTVSPost2010Prop41ColorRGB
 90
        0
102
RTVSPost2010PropOp41
 70
     1
102
RTVSPost2010Prop42
 90
       50
102
RTVSPost2010PropOp42
 70
     1
102
RTVSPost2010Prop43
 90
        3
102
RTVSPost2010PropOp43
 70
     1
102
RTVSPost2010Prop44ColorIndex
 90
        5
102
RTVSPost2010Prop44ColorRGB
 90
      255
102
RTVSPost2010PropOp44
 70
     1
102
RTVSPost2010Prop45
280
     0
102
RTVSPost2010PropOp45
 70
     1
102
RTVSPost2010Prop46
 90
       50
102
RTVSPost2010PropOp46
 70
     1
102
RTVSPost2010Prop47
 90
       50
102
RTVSPost2010PropOp47
 70
     1
102
RTVSPost2010Prop48
 90
       50
102
RTVSPost2010PropOp48
 70
     1
102
RTVSPost2010Prop49
280
     0
102
RTVSPost2010PropOp49
 70
     1
102
RTVSPost2010Prop50
 90
       50
102
RTVSPost2010PropOp50
 70
     1
102
RTVSPost2010Prop51ColorIndex
 90
      256
102
RTVSPost2010Prop51ColorRGB
 90
-16777216
102
RTVSPost2010PropOp51
 70
     0
102
RTVSPost2010Prop52
140
1.0
102
RTVSPost2010PropOp52
 70
     0
102
RTVSPost2010Prop53
 90
        2
102
RTVSPost2010PropOp53
 70
     1
102
RTVSPost2010Prop54
  1
strokes_ogs.tif
102
RTVSPost2010PropOp54
 70
     1
102
RTVSPost2010Prop55
280
     0
102
RTVSPost2010PropOp55
 70
     1
102
RTVSPost2010Prop56
140
1.0
102
RTVSPost2010PropOp56
 70
     1
102
RTVSPost2010Prop57
140
1.0
102
RTVSPost2010PropOp57
 70
     1
102
RTVSPropertyOp0
 70
     1
102
RTVSPropertyOp1
 70
     1
102
RTVSPropertyOp2
 70
     1
102
RTVSPropertyOp3
 70
     1
102
RTVSPropertyOp4
 70
     1
102
RTVSPropertyOp5
 70
     1
102
RTVSPropertyOp6
 70
     1
102
RTVSPropertyOp7
 70
     1
102
RTVSPropertyOp8
 70
     1
102
RTVSPropertyOp9
 70
     1
102
RTVSPropertyOp10
 70
     1
102
RTVSPropertyOp11
 70
     1
102
RTVSPropertyOp12
 70
     1
102
RTVSPropertyOp13
 70
     1
102
RTVSPropertyOp14
 70
     1
102
RTVSPropertyOp15
 70
     1
102
RTVSPropertyOp16
 70
     1
102
RTVSPropertyOp17
 70
     1
102
RTVSPropertyOp18
 70
     1
102
RTVSPropertyOp19
 70
     1
102
RTVSPropertyOp20
 70
     1
102
RTVSPropertyOp21
 70
     1
102
RTVSPropertyOp22
 70
     1
102
RTVSPropertyOp23
 70
     1
102
RTVSPropertyOp24
 70
     1
102
RTVSPropertyOp25
 70
     1
102
RTVSPropertyOp26
 70
     1
102
RTVSPropertyOp27
 70
     1
102
RTVSPropertyOp28
 70
     1
102
RTVSPropertyOp29
 70
     1
102
RTVSPropertyOp30
 70
     1
102
RTVSPropertyOp31
 70
     1
102
RTVSPropertyOp32
 70
     1
102
RTVSPropertyOp33
 70
     1
102
RTVSPropertyOp34
 70
     1
102
RTVSPropertyOp35
 70
     1
102
RTVSPropertyOp36
 70
     1
102
RTVSPropertyOp37
 70
     1
102
RTVSPropertyOp38
 70
     1
102
RTVSPropertyOp39
 70
     1
102
RTVSPropertyOp40
 70
     1
102
RTVSPropertyOp41
 70
     1
102
RTVSPropertyOp42
 70
     1
102
RTVSPropertyOp43
 70
     1
102
RTVSPropertyOp44
 70
     1
102
RTVSPropertyOp45
 70
     1
102
RTVSPropertyOp46
 70
     1
102
RTVSPropertyOp47
 70
     1
102
RTVSPropertyOp48
 70
     1
102
RTVSPropertyOp49
 70
     1
102
RTVSPropertyOp50
 70
     1
102
RTVSPropertyOp51
 70
     0
102
RTVSPropertyOp52
 70
     0
102
RTVSPropertyOp53
 70
     1
102
RTVSPropertyOp54
 70
     1
102
RTVSPropertyOp55
 70
     1
102
RTVSPropertyOp56
 70
     1
102
RTVSPropertyOp57
 70
     1
102
RTVSPropertyOp58
 70
     1
102
RTVSPropertyOp59
 70
     1
102
RTVSPropertyOp60
 70
     1
102
RTVSPropertyOp61
 70
     1
102
RTVSPropertyOp62
 70
     1
  0
XRECORD
  5
941
102
{ACAD_REACTORS
330
940
102
}
330
940
100
AcDbXrecord
280
     1
102
RTVSPost2010Prop28
280
     0
102
RTVSPost2010PropOp28
 70
     1
102
RTVSPost2010Prop29
280
     1
102
RTVSPost2010PropOp29
 70
     1
102
RTVSPost2010Prop30
280
     1
102
RTVSPost2010PropOp30
 70
     1
102
RTVSPost2010Prop31
280
     0
102
RTVSPost2010PropOp31
 70
     1
102
RTVSPost2010Prop32
280
     0
102
RTVSPost2010PropOp32
 70
     1
102
RTVSPost2010Prop33
280
     0
102
RTVSPost2010PropOp33
 70
     1
102
RTVSPost2010Prop34
280
     0
102
RTVSPost2010PropOp34
 70
     1
102
RTVSPost2010Prop35
280
     0
102
RTVSPost2010PropOp35
 70
     1
102
RTVSPost2010Prop36
280
     0
102
RTVSPost2010PropOp36
 70
     1
102
RTVSPost2010Prop37
 90
       50
102
RTVSPost2010PropOp37
 70
     1
102
RTVSPost2010Prop38
140
0.0
102
RTVSPost2010PropOp38
 70
     1
102
RTVSPost2010Prop39
140
1.0
102
RTVSPost2010PropOp39
 70
     1
102
RTVSPost2010Prop40
 90
        0
102
RTVSPost2010PropOp40
 70
     1
102
RTVSPost2010Prop41ColorIndex
 90
       18
102
RTVSPost2010Prop41ColorRGB
 90
        0
102
RTVSPost2010PropOp41
 70
     1
102
RTVSPost2010Prop42
 90
       50
102
RTVSPost2010PropOp42
 70
     1
102
RTVSPost2010Prop43
 90
        3
102
RTVSPost2010PropOp43
 70
     1
102
RTVSPost2010Prop44ColorIndex
 90
        5
102
RTVSPost2010Prop44ColorRGB
 90
      255
102
RTVSPost2010PropOp44
 70
     1
102
RTVSPost2010Prop45
280
     0
102
RTVSPost2010PropOp45
 70
     1
102
RTVSPost2010Prop46
 90
       50
102
RTVSPost2010PropOp46
 70
     1
102
RTVSPost2010Prop47
 90
       50
102
RTVSPost2010PropOp47
 70
     1
102
RTVSPost2010Prop48
 90
       50
102
RTVSPost2010PropOp48
 70
     1
102
RTVSPost2010Prop49
280
     0
102
RTVSPost2010PropOp49
 70
     1
102
RTVSPost2010Prop50
 90
       50
102
RTVSPost2010PropOp50
 70
     1
102
RTVSPost2010Prop51ColorIndex
 90
      256
102
RTVSPost2010Prop51ColorRGB
 90
-16777216
102
RTVSPost2010PropOp51
 70
     0
102
RTVSPost2010Prop52
140
1.0
102
RTVSPost2010PropOp52
 70
     0
102
RTVSPost2010Prop53
 90
        2
102
RTVSPost2010PropOp53
 70
     1
102
RTVSPost2010Prop54
  1
strokes_ogs.tif
102
RTVSPost2010PropOp54
 70
     1
102
RTVSPost2010Prop55
280
     0
102
RTVSPost2010PropOp55
 70
     1
102
RTVSPost2010Prop56
140
1.0
102
RTVSPost2010PropOp56
 70
     1
102
RTVSPost2010Prop57
140
1.0
102
RTVSPost2010PropOp57
 70
     1
102
RTVSPropertyOp0
 70
     1
102
RTVSPropertyOp1
 70
     1
102
RTVSPropertyOp2
 70
     1
102
RTVSPropertyOp3
 70
     1
102
RTVSPropertyOp4
 70
     1
102
RTVSPropertyOp5
 70
     1
102
RTVSPropertyOp6
 70
     1
102
RTVSPropertyOp7
 70
     1
102
RTVSPropertyOp8
 70
     1
102
RTVSPropertyOp9
 70
     1
102
RTVSPropertyOp10
 70
     1
102
RTVSPropertyOp11
 70
     1
102
RTVSPropertyOp12
 70
     1
102
RTVSPropertyOp13
 70
     1
102
RTVSPropertyOp14
 70
     1
102
RTVSPropertyOp15
 70
     1
102
RTVSPropertyOp16
 70
     1
102
RTVSPropertyOp17
 70
     1
102
RTVSPropertyOp18
 70
     1
102
RTVSPropertyOp19
 70
     1
102
RTVSPropertyOp20
 70
     1
102
RTVSPropertyOp21
 70
     1
102
RTVSPropertyOp22
 70
     1
102
RTVSPropertyOp23
 70
     1
102
RTVSPropertyOp24
 70
     1
102
RTVSPropertyOp25
 70
     1
102
RTVSPropertyOp26
 70
     1
102
RTVSPropertyOp27
 70
     1
102
RTVSPropertyOp28
 70
     1
102
RTVSPropertyOp29
 70
     1
102
RTVSPropertyOp30
 70
     1
102
RTVSPropertyOp31
 70
     1
102
RTVSPropertyOp32
 70
     1
102
RTVSPropertyOp33
 70
     1
102
RTVSPropertyOp34
 70
     1
102
RTVSPropertyOp35
 70
     1
102
RTVSPropertyOp36
 70
     1
102
RTVSPropertyOp37
 70
     1
102
RTVSPropertyOp38
 70
     1
102
RTVSPropertyOp39
 70
     1
102
RTVSPropertyOp40
 70
     1
102
RTVSPropertyOp41
 70
     1
102
RTVSPropertyOp42
 70
     1
102
RTVSPropertyOp43
 70
     1
102
RTVSPropertyOp44
 70
     1
102
RTVSPropertyOp45
 70
     1
102
RTVSPropertyOp46
 70
     1
102
RTVSPropertyOp47
 70
     1
102
RTVSPropertyOp48
 70
     1
102
RTVSPropertyOp49
 70
     1
102
RTVSPropertyOp50
 70
     1
102
RTVSPropertyOp51
 70
     0
102
RTVSPropertyOp52
 70
     0
102
RTVSPropertyOp53
 70
     1
102
RTVSPropertyOp54
 70
     1
102
RTVSPropertyOp55
 70
     1
102
RTVSPropertyOp56
 70
     1
102
RTVSPropertyOp57
 70
     1
102
RTVSPropertyOp58
 70
     1
102
RTVSPropertyOp59
 70
     1
102
RTVSPropertyOp60
 70
     1
102
RTVSPropertyOp61
 70
     1
102
RTVSPropertyOp62
 70
     1
  0
XRECORD
  5
943
102
{ACAD_REACTORS
330
942
102
}
330
942
100
AcDbXrecord
280
     1
102
RTVSPost2010Prop28
280
     0
102
RTVSPost2010PropOp28
 70
     1
102
RTVSPost2010Prop29
280
     1
102
RTVSPost2010PropOp29
 70
     1
102
RTVSPost2010Prop30
280
     1
102
RTVSPost2010PropOp30
 70
     1
102
RTVSPost2010Prop31
280
     0
102
RTVSPost2010PropOp31
 70
     1
102
RTVSPost2010Prop32
280
     0
102
RTVSPost2010PropOp32
 70
     1
102
RTVSPost2010Prop33
280
     0
102
RTVSPost2010PropOp33
 70
     1
102
RTVSPost2010Prop34
280
     0
102
RTVSPost2010PropOp34
 70
     1
102
RTVSPost2010Prop35
280
     0
102
RTVSPost2010PropOp35
 70
     1
102
RTVSPost2010Prop36
280
     0
102
RTVSPost2010PropOp36
 70
     1
102
RTVSPost2010Prop37
 90
       50
102
RTVSPost2010PropOp37
 70
     1
102
RTVSPost2010Prop38
140
0.0
102
RTVSPost2010PropOp38
 70
     1
102
RTVSPost2010Prop39
140
1.0
102
RTVSPost2010PropOp39
 70
     1
102
RTVSPost2010Prop40
 90
        0
102
RTVSPost2010PropOp40
 70
     1
102
RTVSPost2010Prop41ColorIndex
 90
       18
102
RTVSPost2010Prop41ColorRGB
 90
        0
102
RTVSPost2010PropOp41
 70
     1
102
RTVSPost2010Prop42
 90
       50
102
RTVSPost2010PropOp42
 70
     1
102
RTVSPost2010Prop43
 90
        3
102
RTVSPost2010PropOp43
 70
     1
102
RTVSPost2010Prop44ColorIndex
 90
        5
102
RTVSPost2010Prop44ColorRGB
 90
      255
102
RTVSPost2010PropOp44
 70
     1
102
RTVSPost2010Prop45
280
     0
102
RTVSPost2010PropOp45
 70
     1
102
RTVSPost2010Prop46
 90
       50
102
RTVSPost2010PropOp46
 70
     1
102
RTVSPost2010Prop47
 90
       50
102
RTVSPost2010PropOp47
 70
     1
102
RTVSPost2010Prop48
 90
       50
102
RTVSPost2010PropOp48
 70
     1
102
RTVSPost2010Prop49
280
     0
102
RTVSPost2010PropOp49
 70
     1
102
RTVSPost2010Prop50
 90
       50
102
RTVSPost2010PropOp50
 70
     1
102
RTVSPost2010Prop51ColorIndex
 90
      256
102
RTVSPost2010Prop51ColorRGB
 90
-16777216
102
RTVSPost2010PropOp51
 70
     0
102
RTVSPost2010Prop52
140
1.0
102
RTVSPost2010PropOp52
 70
     0
102
RTVSPost2010Prop53
 90
        2
102
RTVSPost2010PropOp53
 70
     1
102
RTVSPost2010Prop54
  1
strokes_ogs.tif
102
RTVSPost2010PropOp54
 70
     1
102
RTVSPost2010Prop55
280
     0
102
RTVSPost2010PropOp55
 70
     1
102
RTVSPost2010Prop56
140
1.0
102
RTVSPost2010PropOp56
 70
     1
102
RTVSPost2010Prop57
140
1.0
102
RTVSPost2010PropOp57
 70
     1
102
RTVSPropertyOp0
 70
     1
102
RTVSPropertyOp1
 70
     1
102
RTVSPropertyOp2
 70
     1
102
RTVSPropertyOp3
 70
     1
102
RTVSPropertyOp4
 70
     1
102
RTVSPropertyOp5
 70
     1
102
RTVSPropertyOp6
 70
     1
102
RTVSPropertyOp7
 70
     1
102
RTVSPropertyOp8
 70
     1
102
RTVSPropertyOp9
 70
     1
102
RTVSPropertyOp10
 70
     1
102
RTVSPropertyOp11
 70
     1
102
RTVSPropertyOp12
 70
     1
102
RTVSPropertyOp13
 70
     1
102
RTVSPropertyOp14
 70
     1
102
RTVSPropertyOp15
 70
     1
102
RTVSPropertyOp16
 70
     1
102
RTVSPropertyOp17
 70
     1
102
RTVSPropertyOp18
 70
     1
102
RTVSPropertyOp19
 70
     1
102
RTVSPropertyOp20
 70
     1
102
RTVSPropertyOp21
 70
     1
102
RTVSPropertyOp22
 70
     1
102
RTVSPropertyOp23
 70
     1
102
RTVSPropertyOp24
 70
     1
102
RTVSPropertyOp25
 70
     1
102
RTVSPropertyOp26
 70
     1
102
RTVSPropertyOp27
 70
     1
102
RTVSPropertyOp28
 70
     1
102
RTVSPropertyOp29
 70
     1
102
RTVSPropertyOp30
 70
     1
102
RTVSPropertyOp31
 70
     1
102
RTVSPropertyOp32
 70
     1
102
RTVSPropertyOp33
 70
     1
102
RTVSPropertyOp34
 70
     1
102
RTVSPropertyOp35
 70
     1
102
RTVSPropertyOp36
 70
     1
102
RTVSPropertyOp37
 70
     1
102
RTVSPropertyOp38
 70
     1
102
RTVSPropertyOp39
 70
     1
102
RTVSPropertyOp40
 70
     1
102
RTVSPropertyOp41
 70
     1
102
RTVSPropertyOp42
 70
     1
102
RTVSPropertyOp43
 70
     1
102
RTVSPropertyOp44
 70
     1
102
RTVSPropertyOp45
 70
     1
102
RTVSPropertyOp46
 70
     1
102
RTVSPropertyOp47
 70
     1
102
RTVSPropertyOp48
 70
     1
102
RTVSPropertyOp49
 70
     1
102
RTVSPropertyOp50
 70
     1
102
RTVSPropertyOp51
 70
     0
102
RTVSPropertyOp52
 70
     0
102
RTVSPropertyOp53
 70
     1
102
RTVSPropertyOp54
 70
     1
102
RTVSPropertyOp55
 70
     1
102
RTVSPropertyOp56
 70
     1
102
RTVSPropertyOp57
 70
     1
102
RTVSPropertyOp58
 70
     1
102
RTVSPropertyOp59
 70
     1
102
RTVSPropertyOp60
 70
     1
102
RTVSPropertyOp61
 70
     1
102
RTVSPropertyOp62
 70
     1
  0
XRECORD
  5
933
102
{ACAD_REACTORS
330
932
102
}
330
932
100
AcDbXrecord
280
     1
102
RTVSPost2010Prop28
280
     0
102
RTVSPost2010PropOp28
 70
     1
102
RTVSPost2010Prop29
280
     1
102
RTVSPost2010PropOp29
 70
     1
102
RTVSPost2010Prop30
280
     1
102
RTVSPost2010PropOp30
 70
     1
102
RTVSPost2010Prop31
280
     0
102
RTVSPost2010PropOp31
 70
     1
102
RTVSPost2010Prop32
280
     0
102
RTVSPost2010PropOp32
 70
     1
102
RTVSPost2010Prop33
280
     0
102
RTVSPost2010PropOp33
 70
     1
102
RTVSPost2010Prop34
280
     0
102
RTVSPost2010PropOp34
 70
     1
102
RTVSPost2010Prop35
280
     0
102
RTVSPost2010PropOp35
 70
     1
102
RTVSPost2010Prop36
280
     0
102
RTVSPost2010PropOp36
 70
     1
102
RTVSPost2010Prop37
 90
       50
102
RTVSPost2010PropOp37
 70
     1
102
RTVSPost2010Prop38
140
0.0
102
RTVSPost2010PropOp38
 70
     1
102
RTVSPost2010Prop39
140
1.0
102
RTVSPost2010PropOp39
 70
     1
102
RTVSPost2010Prop40
 90
        0
102
RTVSPost2010PropOp40
 70
     1
102
RTVSPost2010Prop41ColorIndex
 90
       18
102
RTVSPost2010Prop41ColorRGB
 90
        0
102
RTVSPost2010PropOp41
 70
     1
102
RTVSPost2010Prop42
 90
       50
102
RTVSPost2010PropOp42
 70
     1
102
RTVSPost2010Prop43
 90
        3
102
RTVSPost2010PropOp43
 70
     1
102
RTVSPost2010Prop44ColorIndex
 90
        5
102
RTVSPost2010Prop44ColorRGB
 90
      255
102
RTVSPost2010PropOp44
 70
     1
102
RTVSPost2010Prop45
280
     0
102
RTVSPost2010PropOp45
 70
     1
102
RTVSPost2010Prop46
 90
       50
102
RTVSPost2010PropOp46
 70
     1
102
RTVSPost2010Prop47
 90
       50
102
RTVSPost2010PropOp47
 70
     1
102
RTVSPost2010Prop48
 90
       50
102
RTVSPost2010PropOp48
 70
     1
102
RTVSPost2010Prop49
280
     0
102
RTVSPost2010PropOp49
 70
     1
102
RTVSPost2010Prop50
 90
       50
102
RTVSPost2010PropOp50
 70
     1
102
RTVSPost2010Prop51ColorIndex
 90
      256
102
RTVSPost2010Prop51ColorRGB
 90
-16777216
102
RTVSPost2010PropOp51
 70
     0
102
RTVSPost2010Prop52
140
1.0
102
RTVSPost2010PropOp52
 70
     0
102
RTVSPost2010Prop53
 90
        2
102
RTVSPost2010PropOp53
 70
     1
102
RTVSPost2010Prop54
  1
strokes_ogs.tif
102
RTVSPost2010PropOp54
 70
     1
102
RTVSPost2010Prop55
280
     0
102
RTVSPost2010PropOp55
 70
     1
102
RTVSPost2010Prop56
140
1.0
102
RTVSPost2010PropOp56
 70
     1
102
RTVSPost2010Prop57
140
1.0
102
RTVSPost2010PropOp57
 70
     1
102
RTVSPropertyOp0
 70
     1
102
RTVSPropertyOp1
 70
     1
102
RTVSPropertyOp2
 70
     1
102
RTVSPropertyOp3
 70
     1
102
RTVSPropertyOp4
 70
     1
102
RTVSPropertyOp5
 70
     1
102
RTVSPropertyOp6
 70
     1
102
RTVSPropertyOp7
 70
     1
102
RTVSPropertyOp8
 70
     1
102
RTVSPropertyOp9
 70
     1
102
RTVSPropertyOp10
 70
     1
102
RTVSPropertyOp11
 70
     1
102
RTVSPropertyOp12
 70
     1
102
RTVSPropertyOp13
 70
     1
102
RTVSPropertyOp14
 70
     1
102
RTVSPropertyOp15
 70
     1
102
RTVSPropertyOp16
 70
     1
102
RTVSPropertyOp17
 70
     1
102
RTVSPropertyOp18
 70
     1
102
RTVSPropertyOp19
 70
     1
102
RTVSPropertyOp20
 70
     1
102
RTVSPropertyOp21
 70
     1
102
RTVSPropertyOp22
 70
     1
102
RTVSPropertyOp23
 70
     1
102
RTVSPropertyOp24
 70
     1
102
RTVSPropertyOp25
 70
     1
102
RTVSPropertyOp26
 70
     1
102
RTVSPropertyOp27
 70
     1
102
RTVSPropertyOp28
 70
     1
102
RTVSPropertyOp29
 70
     1
102
RTVSPropertyOp30
 70
     1
102
RTVSPropertyOp31
 70
     1
102
RTVSPropertyOp32
 70
     1
102
RTVSPropertyOp33
 70
     1
102
RTVSPropertyOp34
 70
     1
102
RTVSPropertyOp35
 70
     1
102
RTVSPropertyOp36
 70
     1
102
RTVSPropertyOp37
 70
     1
102
RTVSPropertyOp38
 70
     1
102
RTVSPropertyOp39
 70
     1
102
RTVSPropertyOp40
 70
     1
102
RTVSPropertyOp41
 70
     1
102
RTVSPropertyOp42
 70
     1
102
RTVSPropertyOp43
 70
     1
102
RTVSPropertyOp44
 70
     1
102
RTVSPropertyOp45
 70
     1
102
RTVSPropertyOp46
 70
     1
102
RTVSPropertyOp47
 70
     1
102
RTVSPropertyOp48
 70
     1
102
RTVSPropertyOp49
 70
     1
102
RTVSPropertyOp50
 70
     1
102
RTVSPropertyOp51
 70
     0
102
RTVSPropertyOp52
 70
     0
102
RTVSPropertyOp53
 70
     1
102
RTVSPropertyOp54
 70
     1
102
RTVSPropertyOp55
 70
     1
102
RTVSPropertyOp56
 70
     1
102
RTVSPropertyOp57
 70
     1
102
RTVSPropertyOp58
 70
     1
102
RTVSPropertyOp59
 70
     1
102
RTVSPropertyOp60
 70
     1
102
RTVSPropertyOp61
 70
     1
102
RTVSPropertyOp62
 70
     1
  0
XRECORD
  5
925
102
{ACAD_REACTORS
330
924
102
}
330
924
100
AcDbXrecord
280
     1
102
RTVSPost2010Prop28
280
     0
102
RTVSPost2010PropOp28
 70
     1
102
RTVSPost2010Prop29
280
     1
102
RTVSPost2010PropOp29
 70
     1
102
RTVSPost2010Prop30
280
     1
102
RTVSPost2010PropOp30
 70
     1
102
RTVSPost2010Prop31
280
     0
102
RTVSPost2010PropOp31
 70
     1
102
RTVSPost2010Prop32
280
     0
102
RTVSPost2010PropOp32
 70
     1
102
RTVSPost2010Prop33
280
     0
102
RTVSPost2010PropOp33
 70
     1
102
RTVSPost2010Prop34
280
     0
102
RTVSPost2010PropOp34
 70
     1
102
RTVSPost2010Prop35
280
     0
102
RTVSPost2010PropOp35
 70
     1
102
RTVSPost2010Prop36
280
     0
102
RTVSPost2010PropOp36
 70
     1
102
RTVSPost2010Prop37
 90
       50
102
RTVSPost2010PropOp37
 70
     1
102
RTVSPost2010Prop38
140
0.0
102
RTVSPost2010PropOp38
 70
     1
102
RTVSPost2010Prop39
140
1.0
102
RTVSPost2010PropOp39
 70
     1
102
RTVSPost2010Prop40
 90
        0
102
RTVSPost2010PropOp40
 70
     1
102
RTVSPost2010Prop41ColorIndex
 90
       18
102
RTVSPost2010Prop41ColorRGB
 90
        0
102
RTVSPost2010PropOp41
 70
     1
102
RTVSPost2010Prop42
 90
       50
102
RTVSPost2010PropOp42
 70
     1
102
RTVSPost2010Prop43
 90
        3
102
RTVSPost2010PropOp43
 70
     1
102
RTVSPost2010Prop44ColorIndex
 90
        5
102
RTVSPost2010Prop44ColorRGB
 90
      255
102
RTVSPost2010PropOp44
 70
     1
102
RTVSPost2010Prop45
280
     0
102
RTVSPost2010PropOp45
 70
     1
102
RTVSPost2010Prop46
 90
       50
102
RTVSPost2010PropOp46
 70
     1
102
RTVSPost2010Prop47
 90
       50
102
RTVSPost2010PropOp47
 70
     1
102
RTVSPost2010Prop48
 90
       50
102
RTVSPost2010PropOp48
 70
     1
102
RTVSPost2010Prop49
280
     0
102
RTVSPost2010PropOp49
 70
     1
102
RTVSPost2010Prop50
 90
       50
102
RTVSPost2010PropOp50
 70
     1
102
RTVSPost2010Prop51ColorIndex
 90
      256
102
RTVSPost2010Prop51ColorRGB
 90
-16777216
102
RTVSPost2010PropOp51
 70
     0
102
RTVSPost2010Prop52
140
1.0
102
RTVSPost2010PropOp52
 70
     0
102
RTVSPost2010Prop53
 90
        2
102
RTVSPost2010PropOp53
 70
     1
102
RTVSPost2010Prop54
  1
strokes_ogs.tif
102
RTVSPost2010PropOp54
 70
     1
102
RTVSPost2010Prop55
280
     0
102
RTVSPost2010PropOp55
 70
     1
102
RTVSPost2010Prop56
140
1.0
102
RTVSPost2010PropOp56
 70
     1
102
RTVSPost2010Prop57
140
1.0
102
RTVSPost2010PropOp57
 70
     1
102
RTVSPropertyOp0
 70
     1
102
RTVSPropertyOp1
 70
     1
102
RTVSPropertyOp2
 70
     1
102
RTVSPropertyOp3
 70
     1
102
RTVSPropertyOp4
 70
     1
102
RTVSPropertyOp5
 70
     1
102
RTVSPropertyOp6
 70
     1
102
RTVSPropertyOp7
 70
     1
102
RTVSPropertyOp8
 70
     1
102
RTVSPropertyOp9
 70
     1
102
RTVSPropertyOp10
 70
     1
102
RTVSPropertyOp11
 70
     1
102
RTVSPropertyOp12
 70
     1
102
RTVSPropertyOp13
 70
     1
102
RTVSPropertyOp14
 70
     1
102
RTVSPropertyOp15
 70
     1
102
RTVSPropertyOp16
 70
     1
102
RTVSPropertyOp17
 70
     1
102
RTVSPropertyOp18
 70
     1
102
RTVSPropertyOp19
 70
     1
102
RTVSPropertyOp20
 70
     1
102
RTVSPropertyOp21
 70
     1
102
RTVSPropertyOp22
 70
     1
102
RTVSPropertyOp23
 70
     1
102
RTVSPropertyOp24
 70
     1
102
RTVSPropertyOp25
 70
     1
102
RTVSPropertyOp26
 70
     1
102
RTVSPropertyOp27
 70
     1
102
RTVSPropertyOp28
 70
     1
102
RTVSPropertyOp29
 70
     1
102
RTVSPropertyOp30
 70
     1
102
RTVSPropertyOp31
 70
     1
102
RTVSPropertyOp32
 70
     1
102
RTVSPropertyOp33
 70
     1
102
RTVSPropertyOp34
 70
     1
102
RTVSPropertyOp35
 70
     1
102
RTVSPropertyOp36
 70
     1
102
RTVSPropertyOp37
 70
     1
102
RTVSPropertyOp38
 70
     1
102
RTVSPropertyOp39
 70
     1
102
RTVSPropertyOp40
 70
     1
102
RTVSPropertyOp41
 70
     1
102
RTVSPropertyOp42
 70
     1
102
RTVSPropertyOp43
 70
     1
102
RTVSPropertyOp44
 70
     1
102
RTVSPropertyOp45
 70
     1
102
RTVSPropertyOp46
 70
     1
102
RTVSPropertyOp47
 70
     1
102
RTVSPropertyOp48
 70
     1
102
RTVSPropertyOp49
 70
     1
102
RTVSPropertyOp50
 70
     1
102
RTVSPropertyOp51
 70
     0
102
RTVSPropertyOp52
 70
     0
102
RTVSPropertyOp53
 70
     1
102
RTVSPropertyOp54
 70
     1
102
RTVSPropertyOp55
 70
     1
102
RTVSPropertyOp56
 70
     1
102
RTVSPropertyOp57
 70
     1
102
RTVSPropertyOp58
 70
     1
102
RTVSPropertyOp59
 70
     1
102
RTVSPropertyOp60
 70
     1
102
RTVSPropertyOp61
 70
     1
102
RTVSPropertyOp62
 70
     1
  0
XRECORD
  5
945
102
{ACAD_REACTORS
330
944
102
}
330
944
100
AcDbXrecord
280
     1
102
RTVSPost2010Prop28
280
     0
102
RTVSPost2010PropOp28
 70
     1
102
RTVSPost2010Prop29
280
     1
102
RTVSPost2010PropOp29
 70
     1
102
RTVSPost2010Prop30
280
     1
102
RTVSPost2010PropOp30
 70
     1
102
RTVSPost2010Prop31
280
     0
102
RTVSPost2010PropOp31
 70
     1
102
RTVSPost2010Prop32
280
     0
102
RTVSPost2010PropOp32
 70
     1
102
RTVSPost2010Prop33
280
     0
102
RTVSPost2010PropOp33
 70
     1
102
RTVSPost2010Prop34
280
     0
102
RTVSPost2010PropOp34
 70
     1
102
RTVSPost2010Prop35
280
     0
102
RTVSPost2010PropOp35
 70
     1
102
RTVSPost2010Prop36
280
     0
102
RTVSPost2010PropOp36
 70
     1
102
RTVSPost2010Prop37
 90
       50
102
RTVSPost2010PropOp37
 70
     1
102
RTVSPost2010Prop38
140
0.0
102
RTVSPost2010PropOp38
 70
     1
102
RTVSPost2010Prop39
140
1.0
102
RTVSPost2010PropOp39
 70
     1
102
RTVSPost2010Prop40
 90
        0
102
RTVSPost2010PropOp40
 70
     1
102
RTVSPost2010Prop41ColorIndex
 90
       18
102
RTVSPost2010Prop41ColorRGB
 90
        0
102
RTVSPost2010PropOp41
 70
     1
102
RTVSPost2010Prop42
 90
       50
102
RTVSPost2010PropOp42
 70
     1
102
RTVSPost2010Prop43
 90
        3
102
RTVSPost2010PropOp43
 70
     1
102
RTVSPost2010Prop44ColorIndex
 90
        5
102
RTVSPost2010Prop44ColorRGB
 90
      255
102
RTVSPost2010PropOp44
 70
     1
102
RTVSPost2010Prop45
280
     0
102
RTVSPost2010PropOp45
 70
     1
102
RTVSPost2010Prop46
 90
       50
102
RTVSPost2010PropOp46
 70
     1
102
RTVSPost2010Prop47
 90
       50
102
RTVSPost2010PropOp47
 70
     1
102
RTVSPost2010Prop48
 90
       50
102
RTVSPost2010PropOp48
 70
     1
102
RTVSPost2010Prop49
280
     0
102
RTVSPost2010PropOp49
 70
     1
102
RTVSPost2010Prop50
 90
       50
102
RTVSPost2010PropOp50
 70
     1
102
RTVSPost2010Prop51ColorIndex
 90
      256
102
RTVSPost2010Prop51ColorRGB
 90
-16777216
102
RTVSPost2010PropOp51
 70
     0
102
RTVSPost2010Prop52
140
1.0
102
RTVSPost2010PropOp52
 70
     0
102
RTVSPost2010Prop53
 90
        2
102
RTVSPost2010PropOp53
 70
     1
102
RTVSPost2010Prop54
  1
strokes_ogs.tif
102
RTVSPost2010PropOp54
 70
     1
102
RTVSPost2010Prop55
280
     0
102
RTVSPost2010PropOp55
 70
     1
102
RTVSPost2010Prop56
140
1.0
102
RTVSPost2010PropOp56
 70
     1
102
RTVSPost2010Prop57
140
1.0
102
RTVSPost2010PropOp57
 70
     1
102
RTVSPropertyOp0
 70
     1
102
RTVSPropertyOp1
 70
     1
102
RTVSPropertyOp2
 70
     1
102
RTVSPropertyOp3
 70
     1
102
RTVSPropertyOp4
 70
     1
102
RTVSPropertyOp5
 70
     1
102
RTVSPropertyOp6
 70
     1
102
RTVSPropertyOp7
 70
     1
102
RTVSPropertyOp8
 70
     1
102
RTVSPropertyOp9
 70
     1
102
RTVSPropertyOp10
 70
     1
102
RTVSPropertyOp11
 70
     1
102
RTVSPropertyOp12
 70
     1
102
RTVSPropertyOp13
 70
     1
102
RTVSPropertyOp14
 70
     1
102
RTVSPropertyOp15
 70
     1
102
RTVSPropertyOp16
 70
     1
102
RTVSPropertyOp17
 70
     1
102
RTVSPropertyOp18
 70
     1
102
RTVSPropertyOp19
 70
     1
102
RTVSPropertyOp20
 70
     1
102
RTVSPropertyOp21
 70
     1
102
RTVSPropertyOp22
 70
     1
102
RTVSPropertyOp23
 70
     1
102
RTVSPropertyOp24
 70
     1
102
RTVSPropertyOp25
 70
     1
102
RTVSPropertyOp26
 70
     1
102
RTVSPropertyOp27
 70
     1
102
RTVSPropertyOp28
 70
     1
102
RTVSPropertyOp29
 70
     1
102
RTVSPropertyOp30
 70
     1
102
RTVSPropertyOp31
 70
     1
102
RTVSPropertyOp32
 70
     1
102
RTVSPropertyOp33
 70
     1
102
RTVSPropertyOp34
 70
     1
102
RTVSPropertyOp35
 70
     1
102
RTVSPropertyOp36
 70
     1
102
RTVSPropertyOp37
 70
     1
102
RTVSPropertyOp38
 70
     1
102
RTVSPropertyOp39
 70
     1
102
RTVSPropertyOp40
 70
     1
102
RTVSPropertyOp41
 70
     1
102
RTVSPropertyOp42
 70
     1
102
RTVSPropertyOp43
 70
     1
102
RTVSPropertyOp44
 70
     1
102
RTVSPropertyOp45
 70
     1
102
RTVSPropertyOp46
 70
     1
102
RTVSPropertyOp47
 70
     1
102
RTVSPropertyOp48
 70
     1
102
RTVSPropertyOp49
 70
     1
102
RTVSPropertyOp50
 70
     1
102
RTVSPropertyOp51
 70
     0
102
RTVSPropertyOp52
 70
     0
102
RTVSPropertyOp53
 70
     1
102
RTVSPropertyOp54
 70
     1
102
RTVSPropertyOp55
 70
     1
102
RTVSPropertyOp56
 70
     1
102
RTVSPropertyOp57
 70
     1
102
RTVSPropertyOp58
 70
     1
102
RTVSPropertyOp59
 70
     1
102
RTVSPropertyOp60
 70
     1
102
RTVSPropertyOp61
 70
     1
102
RTVSPropertyOp62
 70
     1
  0
ENDSEC
  0
EOF
